  0
SECTION
  2
HEADER
  9
$ACADVER
  1
AC1009
  9
$FILLMODE
 70
 0
  9
$SPLFRAME
 70
 1
  9
$EXTMIN
 10
0
 20
0
 30
0.0
  9
$EXTMAX
 10
41.6667
 20
41.6667
 30
0.0
  0
ENDSEC
  0
SECTION
  2
TABLES
  0
TABLE
  2
LAYER
 70
1
  0
LAYER
  2
0
 70
     0
 62
     7
  6
CONTINUOUS
  0
ENDTAB
  0
ENDSEC
  0
SECTION
  2
ENTITIES
  0
POLYLINE
  8
0
 62
     0
 66
     1
 10
0
 20
0
 30
0.0
 70
     1
 40
0
 41
0
  0
VERTEX
  8
0
 10
7.70546
 20
9.59079
 30
0.0
 40
0
 41
0
  0
VERTEX
  8
0
 10
7.67008
 20
9.62725
 30
0.0
 40
0
 41
0
  0
VERTEX
  8
0
 10
7.67008
 20
9.69735
 30
0.0
 40
0
 41
0
  0
VERTEX
  8
0
 10
7.63753
 20
9.73076
 30
0.0
 40
0
 41
0
  0
VERTEX
  8
0
 10
7.57264
 20
9.73076
 30
0.0
 40
0
 41
0
  0
VERTEX
  8
0
 10
7.57264
 20
9.59318
 30
0.0
 40
0
 41
0
  0
VERTEX
  8
0
 10
7.56831
 20
9.59318
 30
0.0
 40
0
 41
0
  0
VERTEX
  8
0
 10
7.56831
 20
9.73554
 30
0.0
 40
0
 41
0
  0
VERTEX
  8
0
 10
7.63926
 20
9.73554
 30
0.0
 40
0
 41
0
  0
VERTEX
  8
0
 10
7.67464
 20
9.69908
 30
0.0
 40
0
 41
0
  0
VERTEX
  8
0
 10
7.67464
 20
9.62921
 30
0.0
 40
0
 41
0
  0
VERTEX
  8
0
 10
7.70742
 20
9.59557
 30
0.0
 40
0
 41
0
  0
VERTEX
  8
0
 10
7.73953
 20
9.59557
 30
0.0
 40
0
 41
0
  0
VERTEX
  8
0
 10
7.77229
 20
9.62921
 30
0.0
 40
0
 41
0
  0
VERTEX
  8
0
 10
7.77229
 20
9.69735
 30
0.0
 40
0
 41
0
  0
VERTEX
  8
0
 10
7.73867
 20
9.73164
 30
0.0
 40
0
 41
0
  0
VERTEX
  8
0
 10
7.74214
 20
9.73489
 30
0.0
 40
0
 41
0
  0
VERTEX
  8
0
 10
7.77664
 20
9.69908
 30
0.0
 40
0
 41
0
  0
VERTEX
  8
0
 10
7.77664
 20
9.62725
 30
0.0
 40
0
 41
0
  0
VERTEX
  8
0
 10
7.74126
 20
9.59079
 30
0.0
 40
0
 41
0
  0
VERTEX
  8
0
 10
7.70546
 20
9.59079
 30
0.0
 40
0
 41
0
  0
SEQEND
 8
0
  0
POLYLINE
  8
0
 62
     0
 66
     1
 10
0
 20
0
 30
0.0
 70
     1
 40
0
 41
0
  0
VERTEX
  8
0
 10
7.60368
 20
9.41117
 30
0.0
 40
0
 41
0
  0
VERTEX
  8
0
 10
7.56831
 20
9.44763
 30
0.0
 40
0
 41
0
  0
VERTEX
  8
0
 10
7.56831
 20
9.48429
 30
0.0
 40
0
 41
0
  0
VERTEX
  8
0
 10
7.60368
 20
9.52075
 30
0.0
 40
0
 41
0
  0
VERTEX
  8
0
 10
7.74126
 20
9.52075
 30
0.0
 40
0
 41
0
  0
VERTEX
  8
0
 10
7.77664
 20
9.48429
 30
0.0
 40
0
 41
0
  0
VERTEX
  8
0
 10
7.77664
 20
9.44763
 30
0.0
 40
0
 41
0
  0
VERTEX
  8
0
 10
7.74126
 20
9.41117
 30
0.0
 40
0
 41
0
  0
VERTEX
  8
0
 10
7.60368
 20
9.41117
 30
0.0
 40
0
 41
0
  0
SEQEND
 8
0
  0
POLYLINE
  8
0
 62
     0
 66
     1
 10
0
 20
0
 30
0.0
 70
     1
 40
0
 41
0
  0
VERTEX
  8
0
 10
7.60411
 20
9.41572
 30
0.0
 40
0
 41
0
  0
VERTEX
  8
0
 10
7.74257
 20
9.41572
 30
0.0
 40
0
 41
0
  0
VERTEX
  8
0
 10
7.77599
 20
9.44936
 30
0.0
 40
0
 41
0
  0
VERTEX
  8
0
 10
7.77599
 20
9.48256
 30
0.0
 40
0
 41
0
  0
VERTEX
  8
0
 10
7.74257
 20
9.51597
 30
0.0
 40
0
 41
0
  0
VERTEX
  8
0
 10
7.60411
 20
9.51597
 30
0.0
 40
0
 41
0
  0
VERTEX
  8
0
 10
7.57069
 20
9.48256
 30
0.0
 40
0
 41
0
  0
VERTEX
  8
0
 10
7.57069
 20
9.44936
 30
0.0
 40
0
 41
0
  0
VERTEX
  8
0
 10
7.60411
 20
9.41572
 30
0.0
 40
0
 41
0
  0
SEQEND
 8
0
  0
POLYLINE
  8
0
 62
     0
 66
     1
 10
0
 20
0
 30
0.0
 70
     1
 40
0
 41
0
  0
VERTEX
  8
0
 10
7.60368
 20
9.19703
 30
0.0
 40
0
 41
0
  0
VERTEX
  8
0
 10
7.56831
 20
9.23349
 30
0.0
 40
0
 41
0
  0
VERTEX
  8
0
 10
7.56831
 20
9.30531
 30
0.0
 40
0
 41
0
  0
VERTEX
  8
0
 10
7.60281
 20
9.34112
 30
0.0
 40
0
 41
0
  0
VERTEX
  8
0
 10
7.60607
 20
9.33786
 30
0.0
 40
0
 41
0
  0
VERTEX
  8
0
 10
7.57264
 20
9.30357
 30
0.0
 40
0
 41
0
  0
VERTEX
  8
0
 10
7.57264
 20
9.23543
 30
0.0
 40
0
 41
0
  0
VERTEX
  8
0
 10
7.60519
 20
9.20179
 30
0.0
 40
0
 41
0
  0
VERTEX
  8
0
 10
7.63753
 20
9.20179
 30
0.0
 40
0
 41
0
  0
VERTEX
  8
0
 10
7.67008
 20
9.23543
 30
0.0
 40
0
 41
0
  0
VERTEX
  8
0
 10
7.67008
 20
9.2695
 30
0.0
 40
0
 41
0
  0
VERTEX
  8
0
 10
7.67464
 20
9.2695
 30
0.0
 40
0
 41
0
  0
VERTEX
  8
0
 10
7.67464
 20
9.23543
 30
0.0
 40
0
 41
0
  0
VERTEX
  8
0
 10
7.70742
 20
9.20179
 30
0.0
 40
0
 41
0
  0
VERTEX
  8
0
 10
7.73953
 20
9.20179
 30
0.0
 40
0
 41
0
  0
VERTEX
  8
0
 10
7.77229
 20
9.23543
 30
0.0
 40
0
 41
0
  0
VERTEX
  8
0
 10
7.77229
 20
9.30357
 30
0.0
 40
0
 41
0
  0
VERTEX
  8
0
 10
7.73867
 20
9.33786
 30
0.0
 40
0
 41
0
  0
VERTEX
  8
0
 10
7.74214
 20
9.34112
 30
0.0
 40
0
 41
0
  0
VERTEX
  8
0
 10
7.77664
 20
9.30531
 30
0.0
 40
0
 41
0
  0
VERTEX
  8
0
 10
7.77664
 20
9.23349
 30
0.0
 40
0
 41
0
  0
VERTEX
  8
0
 10
7.74126
 20
9.19703
 30
0.0
 40
0
 41
0
  0
VERTEX
  8
0
 10
7.70546
 20
9.19703
 30
0.0
 40
0
 41
0
  0
VERTEX
  8
0
 10
7.67247
 20
9.23131
 30
0.0
 40
0
 41
0
  0
VERTEX
  8
0
 10
7.63926
 20
9.19703
 30
0.0
 40
0
 41
0
  0
VERTEX
  8
0
 10
7.60368
 20
9.19703
 30
0.0
 40
0
 41
0
  0
SEQEND
 8
0
  0
POLYLINE
  8
0
 62
     0
 66
     1
 10
0
 20
0
 30
0.0
 70
     1
 40
0
 41
0
  0
VERTEX
  8
0
 10
7.60368
 20
8.98224
 30
0.0
 40
0
 41
0
  0
VERTEX
  8
0
 10
7.56831
 20
9.01869
 30
0.0
 40
0
 41
0
  0
VERTEX
  8
0
 10
7.56831
 20
9.09053
 30
0.0
 40
0
 41
0
  0
VERTEX
  8
0
 10
7.60281
 20
9.12633
 30
0.0
 40
0
 41
0
  0
VERTEX
  8
0
 10
7.60607
 20
9.12307
 30
0.0
 40
0
 41
0
  0
VERTEX
  8
0
 10
7.57264
 20
9.08879
 30
0.0
 40
0
 41
0
  0
VERTEX
  8
0
 10
7.57264
 20
9.02064
 30
0.0
 40
0
 41
0
  0
VERTEX
  8
0
 10
7.60519
 20
8.98701
 30
0.0
 40
0
 41
0
  0
VERTEX
  8
0
 10
7.63753
 20
8.98701
 30
0.0
 40
0
 41
0
  0
VERTEX
  8
0
 10
7.67008
 20
9.02064
 30
0.0
 40
0
 41
0
  0
VERTEX
  8
0
 10
7.67008
 20
9.05472
 30
0.0
 40
0
 41
0
  0
VERTEX
  8
0
 10
7.67464
 20
9.05472
 30
0.0
 40
0
 41
0
  0
VERTEX
  8
0
 10
7.67464
 20
9.02064
 30
0.0
 40
0
 41
0
  0
VERTEX
  8
0
 10
7.70742
 20
8.98701
 30
0.0
 40
0
 41
0
  0
VERTEX
  8
0
 10
7.73953
 20
8.98701
 30
0.0
 40
0
 41
0
  0
VERTEX
  8
0
 10
7.77229
 20
9.02064
 30
0.0
 40
0
 41
0
  0
VERTEX
  8
0
 10
7.77229
 20
9.08879
 30
0.0
 40
0
 41
0
  0
VERTEX
  8
0
 10
7.73867
 20
9.12307
 30
0.0
 40
0
 41
0
  0
VERTEX
  8
0
 10
7.74214
 20
9.12633
 30
0.0
 40
0
 41
0
  0
VERTEX
  8
0
 10
7.77664
 20
9.09053
 30
0.0
 40
0
 41
0
  0
VERTEX
  8
0
 10
7.77664
 20
9.01869
 30
0.0
 40
0
 41
0
  0
VERTEX
  8
0
 10
7.74126
 20
8.98224
 30
0.0
 40
0
 41
0
  0
VERTEX
  8
0
 10
7.70546
 20
8.98224
 30
0.0
 40
0
 41
0
  0
VERTEX
  8
0
 10
7.67247
 20
9.01653
 30
0.0
 40
0
 41
0
  0
VERTEX
  8
0
 10
7.63926
 20
8.98224
 30
0.0
 40
0
 41
0
  0
VERTEX
  8
0
 10
7.60368
 20
8.98224
 30
0.0
 40
0
 41
0
  0
SEQEND
 8
0
  0
POLYLINE
  8
0
 62
     0
 66
     1
 10
0
 20
0
 30
0.0
 70
     1
 40
0
 41
0
  0
VERTEX
  8
0
 10
7.63775
 20
8.76685
 30
0.0
 40
0
 41
0
  0
VERTEX
  8
0
 10
7.63775
 20
8.79961
 30
0.0
 40
0
 41
0
  0
VERTEX
  8
0
 10
7.56831
 20
8.79961
 30
0.0
 40
0
 41
0
  0
VERTEX
  8
0
 10
7.56831
 20
8.80417
 30
0.0
 40
0
 41
0
  0
VERTEX
  8
0
 10
7.63775
 20
8.80417
 30
0.0
 40
0
 41
0
  0
VERTEX
  8
0
 10
7.63775
 20
8.9116
 30
0.0
 40
0
 41
0
  0
VERTEX
  8
0
 10
7.79053
 20
8.79961
 30
0.0
 40
0
 41
0
  0
VERTEX
  8
0
 10
7.64231
 20
8.79961
 30
0.0
 40
0
 41
0
  0
VERTEX
  8
0
 10
7.64231
 20
8.76685
 30
0.0
 40
0
 41
0
  0
VERTEX
  8
0
 10
7.63775
 20
8.76685
 30
0.0
 40
0
 41
0
  0
SEQEND
 8
0
  0
POLYLINE
  8
0
 62
     0
 66
     1
 10
0
 20
0
 30
0.0
 70
     1
 40
0
 41
0
  0
VERTEX
  8
0
 10
7.64057
 20
8.80417
 30
0.0
 40
0
 41
0
  0
VERTEX
  8
0
 10
7.77143
 20
8.80417
 30
0.0
 40
0
 41
0
  0
VERTEX
  8
0
 10
7.64057
 20
8.90226
 30
0.0
 40
0
 41
0
  0
VERTEX
  8
0
 10
7.64057
 20
8.80417
 30
0.0
 40
0
 41
0
  0
SEQEND
 8
0
  0
POLYLINE
  8
0
 62
     0
 66
     1
 10
0
 20
0
 30
0.0
 70
     1
 40
0
 41
0
  0
VERTEX
  8
0
 10
7.77664
 20
8.54836
 30
0.0
 40
0
 41
0
  0
VERTEX
  8
0
 10
7.56831
 20
8.65514
 30
0.0
 40
0
 41
0
  0
VERTEX
  8
0
 10
7.57047
 20
8.65904
 30
0.0
 40
0
 41
0
  0
VERTEX
  8
0
 10
7.77208
 20
8.55596
 30
0.0
 40
0
 41
0
  0
VERTEX
  8
0
 10
7.77208
 20
8.69225
 30
0.0
 40
0
 41
0
  0
VERTEX
  8
0
 10
7.77664
 20
8.69225
 30
0.0
 40
0
 41
0
  0
VERTEX
  8
0
 10
7.77664
 20
8.54836
 30
0.0
 40
0
 41
0
  0
SEQEND
 8
0
  0
POLYLINE
  8
0
 62
     0
 66
     1
 10
0
 20
0
 30
0.0
 70
     1
 40
0
 41
0
  0
VERTEX
  8
0
 10
7.66553
 20
8.33726
 30
0.0
 40
0
 41
0
  0
VERTEX
  8
0
 10
7.66553
 20
8.47746
 30
0.0
 40
0
 41
0
  0
VERTEX
  8
0
 10
7.67942
 20
8.47746
 30
0.0
 40
0
 41
0
  0
VERTEX
  8
0
 10
7.67942
 20
8.33726
 30
0.0
 40
0
 41
0
  0
VERTEX
  8
0
 10
7.66553
 20
8.33726
 30
0.0
 40
0
 41
0
  0
SEQEND
 8
0
  0
POLYLINE
  8
0
 62
     0
 66
     1
 10
0
 20
0
 30
0.0
 70
     1
 40
0
 41
0
  0
VERTEX
  8
0
 10
7.60389
 20
8.1201
 30
0.0
 40
0
 41
0
  0
VERTEX
  8
0
 10
7.56831
 20
8.15656
 30
0.0
 40
0
 41
0
  0
VERTEX
  8
0
 10
7.56831
 20
8.22837
 30
0.0
 40
0
 41
0
  0
VERTEX
  8
0
 10
7.60389
 20
8.26483
 30
0.0
 40
0
 41
0
  0
VERTEX
  8
0
 10
7.77664
 20
8.26483
 30
0.0
 40
0
 41
0
  0
VERTEX
  8
0
 10
7.77664
 20
8.26007
 30
0.0
 40
0
 41
0
  0
VERTEX
  8
0
 10
7.60562
 20
8.26007
 30
0.0
 40
0
 41
0
  0
VERTEX
  8
0
 10
7.57286
 20
8.22664
 30
0.0
 40
0
 41
0
  0
VERTEX
  8
0
 10
7.57286
 20
8.1585
 30
0.0
 40
0
 41
0
  0
VERTEX
  8
0
 10
7.60562
 20
8.12486
 30
0.0
 40
0
 41
0
  0
VERTEX
  8
0
 10
7.77664
 20
8.12486
 30
0.0
 40
0
 41
0
  0
VERTEX
  8
0
 10
7.77664
 20
8.1201
 30
0.0
 40
0
 41
0
  0
VERTEX
  8
0
 10
7.60389
 20
8.1201
 30
0.0
 40
0
 41
0
  0
SEQEND
 8
0
  0
POLYLINE
  8
0
 62
     0
 66
     1
 10
0
 20
0
 30
0.0
 70
     1
 40
0
 41
0
  0
VERTEX
  8
0
 10
7.60325
 20
7.69051
 30
0.0
 40
0
 41
0
  0
VERTEX
  8
0
 10
7.56831
 20
7.72697
 30
0.0
 40
0
 41
0
  0
VERTEX
  8
0
 10
7.56831
 20
7.83049
 30
0.0
 40
0
 41
0
  0
VERTEX
  8
0
 10
7.49886
 20
7.83049
 30
0.0
 40
0
 41
0
  0
VERTEX
  8
0
 10
7.49886
 20
7.83526
 30
0.0
 40
0
 41
0
  0
VERTEX
  8
0
 10
7.70481
 20
7.83526
 30
0.0
 40
0
 41
0
  0
VERTEX
  8
0
 10
7.70481
 20
7.83049
 30
0.0
 40
0
 41
0
  0
VERTEX
  8
0
 10
7.67594
 20
7.83049
 30
0.0
 40
0
 41
0
  0
VERTEX
  8
0
 10
7.70719
 20
7.79881
 30
0.0
 40
0
 41
0
  0
VERTEX
  8
0
 10
7.70719
 20
7.72697
 30
0.0
 40
0
 41
0
  0
VERTEX
  8
0
 10
7.67225
 20
7.69051
 30
0.0
 40
0
 41
0
  0
VERTEX
  8
0
 10
7.60325
 20
7.69051
 30
0.0
 40
0
 41
0
  0
SEQEND
 8
0
  0
POLYLINE
  8
0
 62
     0
 66
     1
 10
0
 20
0
 30
0.0
 70
     1
 40
0
 41
0
  0
VERTEX
  8
0
 10
7.60411
 20
7.69529
 30
0.0
 40
0
 41
0
  0
VERTEX
  8
0
 10
7.67247
 20
7.69529
 30
0.0
 40
0
 41
0
  0
VERTEX
  8
0
 10
7.70611
 20
7.72892
 30
0.0
 40
0
 41
0
  0
VERTEX
  8
0
 10
7.70611
 20
7.79707
 30
0.0
 40
0
 41
0
  0
VERTEX
  8
0
 10
7.67247
 20
7.83049
 30
0.0
 40
0
 41
0
  0
VERTEX
  8
0
 10
7.57069
 20
7.83049
 30
0.0
 40
0
 41
0
  0
VERTEX
  8
0
 10
7.57069
 20
7.72892
 30
0.0
 40
0
 41
0
  0
VERTEX
  8
0
 10
7.60411
 20
7.69529
 30
0.0
 40
0
 41
0
  0
SEQEND
 8
0
  0
POLYLINE
  8
0
 62
     0
 66
     1
 10
0
 20
0
 30
0.0
 70
     1
 40
0
 41
0
  0
VERTEX
  8
0
 10
7.57178
 20
7.5814
 30
0.0
 40
0
 41
0
  0
VERTEX
  8
0
 10
7.56831
 20
7.58488
 30
0.0
 40
0
 41
0
  0
VERTEX
  8
0
 10
7.60346
 20
7.62047
 30
0.0
 40
0
 41
0
  0
VERTEX
  8
0
 10
7.77664
 20
7.62047
 30
0.0
 40
0
 41
0
  0
VERTEX
  8
0
 10
7.77664
 20
7.61569
 30
0.0
 40
0
 41
0
  0
VERTEX
  8
0
 10
7.60519
 20
7.61569
 30
0.0
 40
0
 41
0
  0
VERTEX
  8
0
 10
7.57178
 20
7.5814
 30
0.0
 40
0
 41
0
  0
SEQEND
 8
0
  0
POLYLINE
  8
0
 62
     0
 66
     1
 10
0
 20
0
 30
0.0
 70
     1
 40
0
 41
0
  0
VERTEX
  8
0
 10
7.56831
 20
7.36836
 30
0.0
 40
0
 41
0
  0
VERTEX
  8
0
 10
7.56831
 20
7.37312
 30
0.0
 40
0
 41
0
  0
VERTEX
  8
0
 10
7.63276
 20
7.37312
 30
0.0
 40
0
 41
0
  0
VERTEX
  8
0
 10
7.56831
 20
7.43997
 30
0.0
 40
0
 41
0
  0
VERTEX
  8
0
 10
7.56831
 20
7.47664
 30
0.0
 40
0
 41
0
  0
VERTEX
  8
0
 10
7.60389
 20
7.5131
 30
0.0
 40
0
 41
0
  0
VERTEX
  8
0
 10
7.70719
 20
7.5131
 30
0.0
 40
0
 41
0
  0
VERTEX
  8
0
 10
7.70719
 20
7.50833
 30
0.0
 40
0
 41
0
  0
VERTEX
  8
0
 10
7.60542
 20
7.50833
 30
0.0
 40
0
 41
0
  0
VERTEX
  8
0
 10
7.57286
 20
7.4749
 30
0.0
 40
0
 41
0
  0
VERTEX
  8
0
 10
7.57286
 20
7.44171
 30
0.0
 40
0
 41
0
  0
VERTEX
  8
0
 10
7.63971
 20
7.37312
 30
0.0
 40
0
 41
0
  0
VERTEX
  8
0
 10
7.70719
 20
7.37312
 30
0.0
 40
0
 41
0
  0
VERTEX
  8
0
 10
7.70719
 20
7.36836
 30
0.0
 40
0
 41
0
  0
VERTEX
  8
0
 10
7.56831
 20
7.36836
 30
0.0
 40
0
 41
0
  0
SEQEND
 8
0
  0
POLYLINE
  8
0
 62
     0
 66
     1
 10
0
 20
0
 30
0.0
 70
     1
 40
0
 41
0
  0
VERTEX
  8
0
 10
7.60411
 20
7.15269
 30
0.0
 40
0
 41
0
  0
VERTEX
  8
0
 10
7.56831
 20
7.19003
 30
0.0
 40
0
 41
0
  0
VERTEX
  8
0
 10
7.56831
 20
7.29614
 30
0.0
 40
0
 41
0
  0
VERTEX
  8
0
 10
7.57264
 20
7.29614
 30
0.0
 40
0
 41
0
  0
VERTEX
  8
0
 10
7.57264
 20
7.19197
 30
0.0
 40
0
 41
0
  0
VERTEX
  8
0
 10
7.60411
 20
7.15921
 30
0.0
 40
0
 41
0
  0
VERTEX
  8
0
 10
7.63558
 20
7.19197
 30
0.0
 40
0
 41
0
  0
VERTEX
  8
0
 10
7.63558
 20
7.26186
 30
0.0
 40
0
 41
0
  0
VERTEX
  8
0
 10
7.67139
 20
7.29918
 30
0.0
 40
0
 41
0
  0
VERTEX
  8
0
 10
7.70719
 20
7.26186
 30
0.0
 40
0
 41
0
  0
VERTEX
  8
0
 10
7.70719
 20
7.15596
 30
0.0
 40
0
 41
0
  0
VERTEX
  8
0
 10
7.70264
 20
7.15596
 30
0.0
 40
0
 41
0
  0
VERTEX
  8
0
 10
7.70264
 20
7.26013
 30
0.0
 40
0
 41
0
  0
VERTEX
  8
0
 10
7.67139
 20
7.29267
 30
0.0
 40
0
 41
0
  0
VERTEX
  8
0
 10
7.63992
 20
7.26013
 30
0.0
 40
0
 41
0
  0
VERTEX
  8
0
 10
7.63992
 20
7.19003
 30
0.0
 40
0
 41
0
  0
VERTEX
  8
0
 10
7.60411
 20
7.15269
 30
0.0
 40
0
 41
0
  0
SEQEND
 8
0
  0
POLYLINE
  8
0
 62
     0
 66
     1
 10
0
 20
0
 30
0.0
 70
     1
 40
0
 41
0
  0
VERTEX
  8
0
 10
7.77208
 20
6.72638
 30
0.0
 40
0
 41
0
  0
VERTEX
  8
0
 10
7.77208
 20
6.79408
 30
0.0
 40
0
 41
0
  0
VERTEX
  8
0
 10
7.56831
 20
6.79408
 30
0.0
 40
0
 41
0
  0
VERTEX
  8
0
 10
7.56831
 20
6.79886
 30
0.0
 40
0
 41
0
  0
VERTEX
  8
0
 10
7.77208
 20
6.79886
 30
0.0
 40
0
 41
0
  0
VERTEX
  8
0
 10
7.77208
 20
6.86657
 30
0.0
 40
0
 41
0
  0
VERTEX
  8
0
 10
7.77664
 20
6.86657
 30
0.0
 40
0
 41
0
  0
VERTEX
  8
0
 10
7.77664
 20
6.72638
 30
0.0
 40
0
 41
0
  0
VERTEX
  8
0
 10
7.77208
 20
6.72638
 30
0.0
 40
0
 41
0
  0
SEQEND
 8
0
  0
POLYLINE
  8
0
 62
     0
 66
     1
 10
0
 20
0
 30
0.0
 70
     1
 40
0
 41
0
  0
VERTEX
  8
0
 10
7.56831
 20
6.51158
 30
0.0
 40
0
 41
0
  0
VERTEX
  8
0
 10
7.56831
 20
6.65394
 30
0.0
 40
0
 41
0
  0
VERTEX
  8
0
 10
7.77664
 20
6.65394
 30
0.0
 40
0
 41
0
  0
VERTEX
  8
0
 10
7.77664
 20
6.51158
 30
0.0
 40
0
 41
0
  0
VERTEX
  8
0
 10
7.77229
 20
6.51158
 30
0.0
 40
0
 41
0
  0
VERTEX
  8
0
 10
7.77229
 20
6.64917
 30
0.0
 40
0
 41
0
  0
VERTEX
  8
0
 10
7.67464
 20
6.64917
 30
0.0
 40
0
 41
0
  0
VERTEX
  8
0
 10
7.67464
 20
6.58168
 30
0.0
 40
0
 41
0
  0
VERTEX
  8
0
 10
7.67008
 20
6.58168
 30
0.0
 40
0
 41
0
  0
VERTEX
  8
0
 10
7.67008
 20
6.64917
 30
0.0
 40
0
 41
0
  0
VERTEX
  8
0
 10
7.57264
 20
6.64917
 30
0.0
 40
0
 41
0
  0
VERTEX
  8
0
 10
7.57264
 20
6.51158
 30
0.0
 40
0
 41
0
  0
VERTEX
  8
0
 10
7.56831
 20
6.51158
 30
0.0
 40
0
 41
0
  0
SEQEND
 8
0
  0
POLYLINE
  8
0
 62
     0
 66
     1
 10
0
 20
0
 30
0.0
 70
     1
 40
0
 41
0
  0
VERTEX
  8
0
 10
7.56831
 20
6.29142
 30
0.0
 40
0
 41
0
  0
VERTEX
  8
0
 10
7.56831
 20
6.29619
 30
0.0
 40
0
 41
0
  0
VERTEX
  8
0
 10
7.76839
 20
6.29619
 30
0.0
 40
0
 41
0
  0
VERTEX
  8
0
 10
7.63319
 20
6.3639
 30
0.0
 40
0
 41
0
  0
VERTEX
  8
0
 10
7.76839
 20
6.4314
 30
0.0
 40
0
 41
0
  0
VERTEX
  8
0
 10
7.56831
 20
6.4314
 30
0.0
 40
0
 41
0
  0
VERTEX
  8
0
 10
7.56831
 20
6.43617
 30
0.0
 40
0
 41
0
  0
VERTEX
  8
0
 10
7.77664
 20
6.43617
 30
0.0
 40
0
 41
0
  0
VERTEX
  8
0
 10
7.77664
 20
6.43118
 30
0.0
 40
0
 41
0
  0
VERTEX
  8
0
 10
7.64296
 20
6.3639
 30
0.0
 40
0
 41
0
  0
VERTEX
  8
0
 10
7.77664
 20
6.29642
 30
0.0
 40
0
 41
0
  0
VERTEX
  8
0
 10
7.77664
 20
6.29142
 30
0.0
 40
0
 41
0
  0
VERTEX
  8
0
 10
7.56831
 20
6.29142
 30
0.0
 40
0
 41
0
  0
SEQEND
 8
0
  0
POLYLINE
  8
0
 62
     0
 66
     1
 10
0
 20
0
 30
0.0
 70
     1
 40
0
 41
0
  0
VERTEX
  8
0
 10
7.70481
 20
6.07664
 30
0.0
 40
0
 41
0
  0
VERTEX
  8
0
 10
7.669
 20
6.1131
 30
0.0
 40
0
 41
0
  0
VERTEX
  8
0
 10
7.669
 20
6.21661
 30
0.0
 40
0
 41
0
  0
VERTEX
  8
0
 10
7.56831
 20
6.21661
 30
0.0
 40
0
 41
0
  0
VERTEX
  8
0
 10
7.56831
 20
6.22139
 30
0.0
 40
0
 41
0
  0
VERTEX
  8
0
 10
7.77664
 20
6.22139
 30
0.0
 40
0
 41
0
  0
VERTEX
  8
0
 10
7.77664
 20
6.1131
 30
0.0
 40
0
 41
0
  0
VERTEX
  8
0
 10
7.74083
 20
6.07664
 30
0.0
 40
0
 41
0
  0
VERTEX
  8
0
 10
7.70481
 20
6.07664
 30
0.0
 40
0
 41
0
  0
SEQEND
 8
0
  0
POLYLINE
  8
0
 62
     0
 66
     1
 10
0
 20
0
 30
0.0
 70
     1
 40
0
 41
0
  0
VERTEX
  8
0
 10
7.70936
 20
6.0814
 30
0.0
 40
0
 41
0
  0
VERTEX
  8
0
 10
7.74257
 20
6.0814
 30
0.0
 40
0
 41
0
  0
VERTEX
  8
0
 10
7.77599
 20
6.11504
 30
0.0
 40
0
 41
0
  0
VERTEX
  8
0
 10
7.77599
 20
6.21661
 30
0.0
 40
0
 41
0
  0
VERTEX
  8
0
 10
7.67572
 20
6.21661
 30
0.0
 40
0
 41
0
  0
VERTEX
  8
0
 10
7.67572
 20
6.11504
 30
0.0
 40
0
 41
0
  0
VERTEX
  8
0
 10
7.70936
 20
6.0814
 30
0.0
 40
0
 41
0
  0
SEQEND
 8
0
  0
POLYLINE
  8
0
 62
     0
 66
     1
 10
0
 20
0
 30
0.0
 70
     1
 40
0
 41
0
  0
VERTEX
  8
0
 10
7.56831
 20
5.86424
 30
0.0
 40
0
 41
0
  0
VERTEX
  8
0
 10
7.56831
 20
6.0066
 30
0.0
 40
0
 41
0
  0
VERTEX
  8
0
 10
7.77664
 20
6.0066
 30
0.0
 40
0
 41
0
  0
VERTEX
  8
0
 10
7.77664
 20
6.00182
 30
0.0
 40
0
 41
0
  0
VERTEX
  8
0
 10
7.57286
 20
6.00182
 30
0.0
 40
0
 41
0
  0
VERTEX
  8
0
 10
7.57286
 20
5.86424
 30
0.0
 40
0
 41
0
  0
VERTEX
  8
0
 10
7.56831
 20
5.86424
 30
0.0
 40
0
 41
0
  0
SEQEND
 8
0
  0
POLYLINE
  8
0
 62
     0
 66
     1
 10
0
 20
0
 30
0.0
 70
     1
 40
0
 41
0
  0
VERTEX
  8
0
 10
7.56831
 20
5.65004
 30
0.0
 40
0
 41
0
  0
VERTEX
  8
0
 10
7.56831
 20
5.65482
 30
0.0
 40
0
 41
0
  0
VERTEX
  8
0
 10
7.63601
 20
5.65482
 30
0.0
 40
0
 41
0
  0
VERTEX
  8
0
 10
7.63601
 20
5.79001
 30
0.0
 40
0
 41
0
  0
VERTEX
  8
0
 10
7.56831
 20
5.79001
 30
0.0
 40
0
 41
0
  0
VERTEX
  8
0
 10
7.56831
 20
5.79479
 30
0.0
 40
0
 41
0
  0
VERTEX
  8
0
 10
7.6384
 20
5.79479
 30
0.0
 40
0
 41
0
  0
VERTEX
  8
0
 10
7.77664
 20
5.72513
 30
0.0
 40
0
 41
0
  0
VERTEX
  8
0
 10
7.77664
 20
5.71969
 30
0.0
 40
0
 41
0
  0
VERTEX
  8
0
 10
7.6384
 20
5.65004
 30
0.0
 40
0
 41
0
  0
VERTEX
  8
0
 10
7.56831
 20
5.65004
 30
0.0
 40
0
 41
0
  0
SEQEND
 8
0
  0
POLYLINE
  8
0
 62
     0
 66
     1
 10
0
 20
0
 30
0.0
 70
     1
 40
0
 41
0
  0
VERTEX
  8
0
 10
7.64057
 20
5.65633
 30
0.0
 40
0
 41
0
  0
VERTEX
  8
0
 10
7.77317
 20
5.72253
 30
0.0
 40
0
 41
0
  0
VERTEX
  8
0
 10
7.64057
 20
5.78871
 30
0.0
 40
0
 41
0
  0
VERTEX
  8
0
 10
7.64057
 20
5.65633
 30
0.0
 40
0
 41
0
  0
SEQEND
 8
0
  0
POLYLINE
  8
0
 62
     0
 66
     1
 10
0
 20
0
 30
0.0
 70
     1
 40
0
 41
0
  0
VERTEX
  8
0
 10
7.77208
 20
5.43764
 30
0.0
 40
0
 41
0
  0
VERTEX
  8
0
 10
7.77208
 20
5.50535
 30
0.0
 40
0
 41
0
  0
VERTEX
  8
0
 10
7.56831
 20
5.50535
 30
0.0
 40
0
 41
0
  0
VERTEX
  8
0
 10
7.56831
 20
5.51013
 30
0.0
 40
0
 41
0
  0
VERTEX
  8
0
 10
7.77208
 20
5.51013
 30
0.0
 40
0
 41
0
  0
VERTEX
  8
0
 10
7.77208
 20
5.57783
 30
0.0
 40
0
 41
0
  0
VERTEX
  8
0
 10
7.77664
 20
5.57783
 30
0.0
 40
0
 41
0
  0
VERTEX
  8
0
 10
7.77664
 20
5.43764
 30
0.0
 40
0
 41
0
  0
VERTEX
  8
0
 10
7.77208
 20
5.43764
 30
0.0
 40
0
 41
0
  0
SEQEND
 8
0
  0
POLYLINE
  8
0
 62
     0
 66
     1
 10
0
 20
0
 30
0.0
 70
     1
 40
0
 41
0
  0
VERTEX
  8
0
 10
7.56831
 20
5.22583
 30
0.0
 40
0
 41
0
  0
VERTEX
  8
0
 10
7.56831
 20
5.36819
 30
0.0
 40
0
 41
0
  0
VERTEX
  8
0
 10
7.77664
 20
5.36819
 30
0.0
 40
0
 41
0
  0
VERTEX
  8
0
 10
7.77664
 20
5.22583
 30
0.0
 40
0
 41
0
  0
VERTEX
  8
0
 10
7.77229
 20
5.22583
 30
0.0
 40
0
 41
0
  0
VERTEX
  8
0
 10
7.77229
 20
5.36342
 30
0.0
 40
0
 41
0
  0
VERTEX
  8
0
 10
7.67464
 20
5.36342
 30
0.0
 40
0
 41
0
  0
VERTEX
  8
0
 10
7.67464
 20
5.29593
 30
0.0
 40
0
 41
0
  0
VERTEX
  8
0
 10
7.67008
 20
5.29593
 30
0.0
 40
0
 41
0
  0
VERTEX
  8
0
 10
7.67008
 20
5.36342
 30
0.0
 40
0
 41
0
  0
VERTEX
  8
0
 10
7.57264
 20
5.36342
 30
0.0
 40
0
 41
0
  0
VERTEX
  8
0
 10
7.57264
 20
5.22583
 30
0.0
 40
0
 41
0
  0
VERTEX
  8
0
 10
7.56831
 20
5.22583
 30
0.0
 40
0
 41
0
  0
SEQEND
 8
0
  0
POLYLINE
  8
0
 62
     1
 66
     1
 10
0
 20
0
 30
0.0
 40
0.72
 41
0.72
  0
VERTEX
  8
0
 10
5.61501
 20
4.77499
 30
0.0
 40
0.01
 41
0.01
  0
VERTEX
  8
0
 10
6.04833
 20
4.34167
 30
0.0
 40
0.01
 41
0.01
  0
SEQEND
 8
0
  0
POLYLINE
  8
0
 62
     1
 66
     1
 10
0
 20
0
 30
0.0
 40
0.72
 41
0.72
  0
VERTEX
  8
0
 10
3.55501
 20
2.71335
 30
0.0
 40
0.01
 41
0.01
  0
VERTEX
  8
0
 10
3.98665
 20
2.27997
 30
0.0
 40
0.01
 41
0.01
  0
SEQEND
 8
0
  0
POLYLINE
  8
0
 62
     1
 66
     1
 10
0
 20
0
 30
0.0
 40
0.72
 41
0.72
  0
VERTEX
  8
0
 10
5.99164
 20
4.29668
 30
0.0
 40
0.01
 41
0.01
  0
VERTEX
  8
0
 10
4.03168
 20
2.33835
 30
0.0
 40
0.01
 41
0.01
  0
SEQEND
 8
0
  0
POLYLINE
  8
0
 62
     1
 66
     1
 10
0
 20
0
 30
0.0
 70
     1
 40
0
 41
0
  0
VERTEX
  8
0
 10
6
 20
4.28833
 30
0.0
 40
0
 41
0
  0
VERTEX
  8
0
 10
5.98335
 20
4.30499
 30
0.0
 40
0
 41
0
  0
VERTEX
  8
0
 10
6.04167
 20
4.34833
 30
0.0
 40
0
 41
0
  0
VERTEX
  8
0
 10
6
 20
4.28833
 30
0.0
 40
0
 41
0
  0
SEQEND
 8
0
  0
POLYLINE
  8
0
 62
     1
 66
     1
 10
0
 20
0
 30
0.0
 70
     1
 40
0
 41
0
  0
VERTEX
  8
0
 10
4.03999
 20
2.33
 30
0.0
 40
0
 41
0
  0
VERTEX
  8
0
 10
4.02333
 20
2.34665
 30
0.0
 40
0
 41
0
  0
VERTEX
  8
0
 10
3.98167
 20
2.28665
 30
0.0
 40
0
 41
0
  0
VERTEX
  8
0
 10
4.03999
 20
2.33
 30
0.0
 40
0
 41
0
  0
SEQEND
 8
0
  0
POLYLINE
  8
0
 62
     1
 66
     1
 10
0
 20
0
 30
0.0
 70
     1
 40
0
 41
0
  0
VERTEX
  8
0
 10
5.10601
 20
3.3076
 30
0.0
 40
0
 41
0
  0
VERTEX
  8
0
 10
5.13206
 20
3.33364
 30
0.0
 40
0
 41
0
  0
VERTEX
  8
0
 10
5.13379
 20
3.3319
 30
0.0
 40
0
 41
0
  0
VERTEX
  8
0
 10
5.12164
 20
3.31975
 30
0.0
 40
0
 41
0
  0
VERTEX
  8
0
 10
5.19564
 20
3.24574
 30
0.0
 40
0
 41
0
  0
VERTEX
  8
0
 10
5.19564
 20
3.26875
 30
0.0
 40
0
 41
0
  0
VERTEX
  8
0
 10
5.19824
 20
3.26875
 30
0.0
 40
0
 41
0
  0
VERTEX
  8
0
 10
5.19803
 20
3.24249
 30
0.0
 40
0
 41
0
  0
VERTEX
  8
0
 10
5.19672
 20
3.24118
 30
0.0
 40
0
 41
0
  0
VERTEX
  8
0
 10
5.1199
 20
3.31801
 30
0.0
 40
0
 41
0
  0
VERTEX
  8
0
 10
5.10775
 20
3.30586
 30
0.0
 40
0
 41
0
  0
VERTEX
  8
0
 10
5.10601
 20
3.3076
 30
0.0
 40
0
 41
0
  0
SEQEND
 8
0
  0
POLYLINE
  8
0
 62
     1
 66
     1
 10
0
 20
0
 30
0.0
 70
     1
 40
0
 41
0
  0
VERTEX
  8
0
 10
5.04249
 20
3.21715
 30
0.0
 40
0
 41
0
  0
VERTEX
  8
0
 10
5.04269
 20
3.24428
 30
0.0
 40
0
 41
0
  0
VERTEX
  8
0
 10
5.06917
 20
3.27075
 30
0.0
 40
0
 41
0
  0
VERTEX
  8
0
 10
5.09608
 20
3.27075
 30
0.0
 40
0
 41
0
  0
VERTEX
  8
0
 10
5.13514
 20
3.23169
 30
0.0
 40
0
 41
0
  0
VERTEX
  8
0
 10
5.13471
 20
3.17917
 30
0.0
 40
0
 41
0
  0
VERTEX
  8
0
 10
5.12147
 20
3.16593
 30
0.0
 40
0
 41
0
  0
VERTEX
  8
0
 10
5.11974
 20
3.16767
 30
0.0
 40
0
 41
0
  0
VERTEX
  8
0
 10
5.13232
 20
3.18026
 30
0.0
 40
0
 41
0
  0
VERTEX
  8
0
 10
5.13254
 20
3.23082
 30
0.0
 40
0
 41
0
  0
VERTEX
  8
0
 10
5.12104
 20
3.24232
 30
0.0
 40
0
 41
0
  0
VERTEX
  8
0
 10
5.08285
 20
3.20413
 30
0.0
 40
0
 41
0
  0
VERTEX
  8
0
 10
5.05572
 20
3.20392
 30
0.0
 40
0
 41
0
  0
VERTEX
  8
0
 10
5.04249
 20
3.21715
 30
0.0
 40
0
 41
0
  0
SEQEND
 8
0
  0
POLYLINE
  8
0
 62
     1
 66
     1
 10
0
 20
0
 30
0.0
 70
     1
 40
0
 41
0
  0
VERTEX
  8
0
 10
5.04422
 20
3.21889
 30
0.0
 40
0
 41
0
  0
VERTEX
  8
0
 10
5.05637
 20
3.20674
 30
0.0
 40
0
 41
0
  0
VERTEX
  8
0
 10
5.08111
 20
3.20674
 30
0.0
 40
0
 41
0
  0
VERTEX
  8
0
 10
5.11887
 20
3.2445
 30
0.0
 40
0
 41
0
  0
VERTEX
  8
0
 10
5.09435
 20
3.26901
 30
0.0
 40
0
 41
0
  0
VERTEX
  8
0
 10
5.06939
 20
3.26924
 30
0.0
 40
0
 41
0
  0
VERTEX
  8
0
 10
5.044
 20
3.24385
 30
0.0
 40
0
 41
0
  0
VERTEX
  8
0
 10
5.04422
 20
3.21889
 30
0.0
 40
0
 41
0
  0
SEQEND
 8
0
  0
POLYLINE
  8
0
 62
     1
 66
     1
 10
0
 20
0
 30
0.0
 70
     1
 40
0
 41
0
  0
VERTEX
  8
0
 10
5.05578
 20
3.10283
 30
0.0
 40
0
 41
0
  0
VERTEX
  8
0
 10
5.04297
 20
3.14168
 30
0.0
 40
0
 41
0
  0
VERTEX
  8
0
 10
5.04536
 20
3.14233
 30
0.0
 40
0
 41
0
  0
VERTEX
  8
0
 10
5.05838
 20
3.10328
 30
0.0
 40
0
 41
0
  0
VERTEX
  8
0
 10
5.05578
 20
3.10283
 30
0.0
 40
0
 41
0
  0
SEQEND
 8
0
  0
POLYLINE
  8
0
 62
     1
 66
     1
 10
0
 20
0
 30
0.0
 70
     1
 40
0
 41
0
  0
VERTEX
  8
0
 10
5.06922
 20
3.11543
 30
0.0
 40
0
 41
0
  0
VERTEX
  8
0
 10
5.0536
 20
3.1571
 30
0.0
 40
0
 41
0
  0
VERTEX
  8
0
 10
5.05599
 20
3.15731
 30
0.0
 40
0
 41
0
  0
VERTEX
  8
0
 10
5.07161
 20
3.11607
 30
0.0
 40
0
 41
0
  0
VERTEX
  8
0
 10
5.06922
 20
3.11543
 30
0.0
 40
0
 41
0
  0
SEQEND
 8
0
  0
POLYLINE
  8
0
 62
     1
 66
     1
 10
0
 20
0
 30
0.0
 40
0.72
 41
0.72
  0
VERTEX
  8
0
 10
5.62169
 20
6.97833
 30
0.0
 40
0.01
 41
0.01
  0
VERTEX
  8
0
 10
5.62169
 20
9.36168
 30
0.0
 40
0.01
 41
0.01
  0
SEQEND
 8
0
  0
POLYLINE
  8
0
 62
     1
 66
     1
 10
0
 20
0
 30
0.0
 40
0.72
 41
0.72
  0
VERTEX
  8
0
 10
1.58832
 20
6.97833
 30
0.0
 40
0.01
 41
0.01
  0
VERTEX
  8
0
 10
1.58832
 20
9.36168
 30
0.0
 40
0.01
 41
0.01
  0
SEQEND
 8
0
  0
POLYLINE
  8
0
 62
     1
 66
     1
 10
0
 20
0
 30
0.0
 40
0.72
 41
0.72
  0
VERTEX
  8
0
 10
5.55003
 20
9.35164
 30
0.0
 40
0.01
 41
0.01
  0
VERTEX
  8
0
 10
1.66
 20
9.35164
 30
0.0
 40
0.01
 41
0.01
  0
SEQEND
 8
0
  0
POLYLINE
  8
0
 62
     1
 66
     1
 10
0
 20
0
 30
0.0
 70
     1
 40
0
 41
0
  0
VERTEX
  8
0
 10
5.55003
 20
9.36499
 30
0.0
 40
0
 41
0
  0
VERTEX
  8
0
 10
5.55003
 20
9.33999
 30
0.0
 40
0
 41
0
  0
VERTEX
  8
0
 10
5.62169
 20
9.35164
 30
0.0
 40
0
 41
0
  0
VERTEX
  8
0
 10
5.55003
 20
9.36499
 30
0.0
 40
0
 41
0
  0
SEQEND
 8
0
  0
POLYLINE
  8
0
 62
     1
 66
     1
 10
0
 20
0
 30
0.0
 70
     1
 40
0
 41
0
  0
VERTEX
  8
0
 10
1.66
 20
9.36499
 30
0.0
 40
0
 41
0
  0
VERTEX
  8
0
 10
1.66
 20
9.33999
 30
0.0
 40
0
 41
0
  0
VERTEX
  8
0
 10
1.58832
 20
9.35164
 30
0.0
 40
0
 41
0
  0
VERTEX
  8
0
 10
1.66
 20
9.36499
 30
0.0
 40
0
 41
0
  0
SEQEND
 8
0
  0
POLYLINE
  8
0
 62
     1
 66
     1
 10
0
 20
0
 30
0.0
 70
     1
 40
0
 41
0
  0
VERTEX
  8
0
 10
3.51286
 20
9.4965
 30
0.0
 40
0
 41
0
  0
VERTEX
  8
0
 10
3.49376
 20
9.47762
 30
0.0
 40
0
 41
0
  0
VERTEX
  8
0
 10
3.45708
 20
9.47762
 30
0.0
 40
0
 41
0
  0
VERTEX
  8
0
 10
3.43951
 20
9.46026
 30
0.0
 40
0
 41
0
  0
VERTEX
  8
0
 10
3.43951
 20
9.42575
 30
0.0
 40
0
 41
0
  0
VERTEX
  8
0
 10
3.51156
 20
9.42575
 30
0.0
 40
0
 41
0
  0
VERTEX
  8
0
 10
3.51156
 20
9.42336
 30
0.0
 40
0
 41
0
  0
VERTEX
  8
0
 10
3.43713
 20
9.42336
 30
0.0
 40
0
 41
0
  0
VERTEX
  8
0
 10
3.43713
 20
9.46112
 30
0.0
 40
0
 41
0
  0
VERTEX
  8
0
 10
3.45622
 20
9.48001
 30
0.0
 40
0
 41
0
  0
VERTEX
  8
0
 10
3.49289
 20
9.48001
 30
0.0
 40
0
 41
0
  0
VERTEX
  8
0
 10
3.51047
 20
9.49758
 30
0.0
 40
0
 41
0
  0
VERTEX
  8
0
 10
3.51047
 20
9.51474
 30
0.0
 40
0
 41
0
  0
VERTEX
  8
0
 10
3.49289
 20
9.5321
 30
0.0
 40
0
 41
0
  0
VERTEX
  8
0
 10
3.45708
 20
9.5321
 30
0.0
 40
0
 41
0
  0
VERTEX
  8
0
 10
3.43929
 20
9.51429
 30
0.0
 40
0
 41
0
  0
VERTEX
  8
0
 10
3.43733
 20
9.51603
 30
0.0
 40
0
 41
0
  0
VERTEX
  8
0
 10
3.45622
 20
9.53447
 30
0.0
 40
0
 41
0
  0
VERTEX
  8
0
 10
3.49376
 20
9.53447
 30
0.0
 40
0
 41
0
  0
VERTEX
  8
0
 10
3.51286
 20
9.5156
 30
0.0
 40
0
 41
0
  0
VERTEX
  8
0
 10
3.51286
 20
9.4965
 30
0.0
 40
0
 41
0
  0
SEQEND
 8
0
  0
POLYLINE
  8
0
 62
     1
 66
     1
 10
0
 20
0
 30
0.0
 70
     1
 40
0
 41
0
  0
VERTEX
  8
0
 10
3.61963
 20
9.4965
 30
0.0
 40
0
 41
0
  0
VERTEX
  8
0
 10
3.60053
 20
9.47762
 30
0.0
 40
0
 41
0
  0
VERTEX
  8
0
 10
3.56386
 20
9.47762
 30
0.0
 40
0
 41
0
  0
VERTEX
  8
0
 10
3.54628
 20
9.46026
 30
0.0
 40
0
 41
0
  0
VERTEX
  8
0
 10
3.54628
 20
9.42575
 30
0.0
 40
0
 41
0
  0
VERTEX
  8
0
 10
3.61833
 20
9.42575
 30
0.0
 40
0
 41
0
  0
VERTEX
  8
0
 10
3.61833
 20
9.42336
 30
0.0
 40
0
 41
0
  0
VERTEX
  8
0
 10
3.54389
 20
9.42336
 30
0.0
 40
0
 41
0
  0
VERTEX
  8
0
 10
3.54389
 20
9.46112
 30
0.0
 40
0
 41
0
  0
VERTEX
  8
0
 10
3.56299
 20
9.48001
 30
0.0
 40
0
 41
0
  0
VERTEX
  8
0
 10
3.59967
 20
9.48001
 30
0.0
 40
0
 41
0
  0
VERTEX
  8
0
 10
3.61724
 20
9.49758
 30
0.0
 40
0
 41
0
  0
VERTEX
  8
0
 10
3.61724
 20
9.51474
 30
0.0
 40
0
 41
0
  0
VERTEX
  8
0
 10
3.59967
 20
9.5321
 30
0.0
 40
0
 41
0
  0
VERTEX
  8
0
 10
3.56386
 20
9.5321
 30
0.0
 40
0
 41
0
  0
VERTEX
  8
0
 10
3.54606
 20
9.51429
 30
0.0
 40
0
 41
0
  0
VERTEX
  8
0
 10
3.54411
 20
9.51603
 30
0.0
 40
0
 41
0
  0
VERTEX
  8
0
 10
3.56299
 20
9.53447
 30
0.0
 40
0
 41
0
  0
VERTEX
  8
0
 10
3.60053
 20
9.53447
 30
0.0
 40
0
 41
0
  0
VERTEX
  8
0
 10
3.61963
 20
9.5156
 30
0.0
 40
0
 41
0
  0
VERTEX
  8
0
 10
3.61963
 20
9.4965
 30
0.0
 40
0
 41
0
  0
SEQEND
 8
0
  0
POLYLINE
  8
0
 62
     1
 66
     1
 10
0
 20
0
 30
0.0
 70
     1
 40
0
 41
0
  0
VERTEX
  8
0
 10
3.62511
 20
9.53329
 30
0.0
 40
0
 41
0
  0
VERTEX
  8
0
 10
3.58843
 20
9.53329
 30
0.0
 40
0
 41
0
  0
VERTEX
  8
0
 10
3.58843
 20
9.53567
 30
0.0
 40
0
 41
0
  0
VERTEX
  8
0
 10
3.60558
 20
9.53567
 30
0.0
 40
0
 41
0
  0
VERTEX
  8
0
 10
3.60558
 20
9.64028
 30
0.0
 40
0
 41
0
  0
VERTEX
  8
0
 10
3.58931
 20
9.62421
 30
0.0
 40
0
 41
0
  0
VERTEX
  8
0
 10
3.58735
 20
9.62594
 30
0.0
 40
0
 41
0
  0
VERTEX
  8
0
 10
3.60622
 20
9.6444
 30
0.0
 40
0
 41
0
  0
VERTEX
  8
0
 10
3.60796
 20
9.6444
 30
0.0
 40
0
 41
0
  0
VERTEX
  8
0
 10
3.60796
 20
9.53567
 30
0.0
 40
0
 41
0
  0
VERTEX
  8
0
 10
3.62511
 20
9.53567
 30
0.0
 40
0
 41
0
  0
VERTEX
  8
0
 10
3.62511
 20
9.53329
 30
0.0
 40
0
 41
0
  0
SEQEND
 8
0
  0
POLYLINE
  8
0
 62
     1
 66
     1
 10
0
 20
0
 30
0.0
 40
0.72
 41
0.72
  0
VERTEX
  8
0
 10
3.58165
 20
9.44501
 30
0.0
 40
0.01
 41
0.01
  0
VERTEX
  8
0
 10
3.70503
 20
9.62167
 30
0.0
 40
0.01
 41
0.01
  0
SEQEND
 8
0
  0
POLYLINE
  8
0
 62
     1
 66
     1
 10
0
 20
0
 30
0.0
 70
     1
 40
0
 41
0
  0
VERTEX
  8
0
 10
3.74957
 20
9.44225
 30
0.0
 40
0
 41
0
  0
VERTEX
  8
0
 10
3.73047
 20
9.42336
 30
0.0
 40
0
 41
0
  0
VERTEX
  8
0
 10
3.69293
 20
9.42336
 30
0.0
 40
0
 41
0
  0
VERTEX
  8
0
 10
3.67383
 20
9.44225
 30
0.0
 40
0
 41
0
  0
VERTEX
  8
0
 10
3.67383
 20
9.46112
 30
0.0
 40
0
 41
0
  0
VERTEX
  8
0
 10
3.69162
 20
9.47892
 30
0.0
 40
0
 41
0
  0
VERTEX
  8
0
 10
3.67383
 20
9.4965
 30
0.0
 40
0
 41
0
  0
VERTEX
  8
0
 10
3.67383
 20
9.5156
 30
0.0
 40
0
 41
0
  0
VERTEX
  8
0
 10
3.69293
 20
9.53447
 30
0.0
 40
0
 41
0
  0
VERTEX
  8
0
 10
3.73047
 20
9.53447
 30
0.0
 40
0
 41
0
  0
VERTEX
  8
0
 10
3.74957
 20
9.5156
 30
0.0
 40
0
 41
0
  0
VERTEX
  8
0
 10
3.74957
 20
9.4965
 30
0.0
 40
0
 41
0
  0
VERTEX
  8
0
 10
3.73178
 20
9.47892
 30
0.0
 40
0
 41
0
  0
VERTEX
  8
0
 10
3.74957
 20
9.46112
 30
0.0
 40
0
 41
0
  0
VERTEX
  8
0
 10
3.74957
 20
9.44225
 30
0.0
 40
0
 41
0
  0
SEQEND
 8
0
  0
POLYLINE
  8
0
 62
     1
 66
     1
 10
0
 20
0
 30
0.0
 70
     1
 40
0
 41
0
  0
VERTEX
  8
0
 10
3.74718
 20
9.49715
 30
0.0
 40
0
 41
0
  0
VERTEX
  8
0
 10
3.74718
 20
9.51451
 30
0.0
 40
0
 41
0
  0
VERTEX
  8
0
 10
3.7296
 20
9.53231
 30
0.0
 40
0
 41
0
  0
VERTEX
  8
0
 10
3.69379
 20
9.53231
 30
0.0
 40
0
 41
0
  0
VERTEX
  8
0
 10
3.67622
 20
9.51451
 30
0.0
 40
0
 41
0
  0
VERTEX
  8
0
 10
3.67622
 20
9.49715
 30
0.0
 40
0
 41
0
  0
VERTEX
  8
0
 10
3.69379
 20
9.47957
 30
0.0
 40
0
 41
0
  0
VERTEX
  8
0
 10
3.7296
 20
9.47957
 30
0.0
 40
0
 41
0
  0
VERTEX
  8
0
 10
3.74718
 20
9.49715
 30
0.0
 40
0
 41
0
  0
SEQEND
 8
0
  0
POLYLINE
  8
0
 62
     1
 66
     1
 10
0
 20
0
 30
0.0
 70
     1
 40
0
 41
0
  0
VERTEX
  8
0
 10
3.74718
 20
9.44225
 30
0.0
 40
0
 41
0
  0
VERTEX
  8
0
 10
3.74718
 20
9.45961
 30
0.0
 40
0
 41
0
  0
VERTEX
  8
0
 10
3.7296
 20
9.47718
 30
0.0
 40
0
 41
0
  0
VERTEX
  8
0
 10
3.69379
 20
9.47718
 30
0.0
 40
0
 41
0
  0
VERTEX
  8
0
 10
3.67622
 20
9.45961
 30
0.0
 40
0
 41
0
  0
VERTEX
  8
0
 10
3.67622
 20
9.44225
 30
0.0
 40
0
 41
0
  0
VERTEX
  8
0
 10
3.69379
 20
9.42467
 30
0.0
 40
0
 41
0
  0
VERTEX
  8
0
 10
3.7296
 20
9.42467
 30
0.0
 40
0
 41
0
  0
VERTEX
  8
0
 10
3.74718
 20
9.44225
 30
0.0
 40
0
 41
0
  0
SEQEND
 8
0
  0
POLYLINE
  8
0
 62
     1
 66
     1
 10
0
 20
0
 30
0.0
 70
     1
 40
0
 41
0
  0
VERTEX
  8
0
 10
3.79596
 20
9.53274
 30
0.0
 40
0
 41
0
  0
VERTEX
  8
0
 10
3.7775
 20
9.49607
 30
0.0
 40
0
 41
0
  0
VERTEX
  8
0
 10
3.77533
 20
9.49737
 30
0.0
 40
0
 41
0
  0
VERTEX
  8
0
 10
3.79378
 20
9.53404
 30
0.0
 40
0
 41
0
  0
VERTEX
  8
0
 10
3.79596
 20
9.53274
 30
0.0
 40
0
 41
0
  0
SEQEND
 8
0
  0
POLYLINE
  8
0
 62
     1
 66
     1
 10
0
 20
0
 30
0.0
 70
     1
 40
0
 41
0
  0
VERTEX
  8
0
 10
3.7775
 20
9.53318
 30
0.0
 40
0
 41
0
  0
VERTEX
  8
0
 10
3.75906
 20
9.49281
 30
0.0
 40
0
 41
0
  0
VERTEX
  8
0
 10
3.75711
 20
9.49411
 30
0.0
 40
0
 41
0
  0
VERTEX
  8
0
 10
3.77533
 20
9.53447
 30
0.0
 40
0
 41
0
  0
VERTEX
  8
0
 10
3.7775
 20
9.53318
 30
0.0
 40
0
 41
0
  0
SEQEND
 8
0
  0
POLYLINE
  8
0
 62
     1
 66
     1
 10
0
 20
0
 30
0.0
 40
0.72
 41
0.72
  0
VERTEX
  8
0
 10
3.64165
 20
8.95831
 30
0.0
 40
0.01
 41
0.01
  0
VERTEX
  8
0
 10
6.47835
 20
8.95831
 30
0.0
 40
0.01
 41
0.01
  0
SEQEND
 8
0
  0
POLYLINE
  8
0
 62
     1
 66
     1
 10
0
 20
0
 30
0.0
 40
0.72
 41
0.72
  0
VERTEX
  8
0
 10
4.63667
 20
5.92168
 30
0.0
 40
0.01
 41
0.01
  0
VERTEX
  8
0
 10
6.47835
 20
5.92168
 30
0.0
 40
0.01
 41
0.01
  0
SEQEND
 8
0
  0
POLYLINE
  8
0
 62
     1
 66
     1
 10
0
 20
0
 30
0.0
 40
0.72
 41
0.72
  0
VERTEX
  8
0
 10
6.47
 20
8.88669
 30
0.0
 40
0.01
 41
0.01
  0
VERTEX
  8
0
 10
6.47
 20
5.99336
 30
0.0
 40
0.01
 41
0.01
  0
SEQEND
 8
0
  0
POLYLINE
  8
0
 62
     1
 66
     1
 10
0
 20
0
 30
0.0
 70
     1
 40
0
 41
0
  0
VERTEX
  8
0
 10
6.48167
 20
8.88669
 30
0.0
 40
0
 41
0
  0
VERTEX
  8
0
 10
6.45665
 20
8.88669
 30
0.0
 40
0
 41
0
  0
VERTEX
  8
0
 10
6.47
 20
8.95831
 30
0.0
 40
0
 41
0
  0
VERTEX
  8
0
 10
6.48167
 20
8.88669
 30
0.0
 40
0
 41
0
  0
SEQEND
 8
0
  0
POLYLINE
  8
0
 62
     1
 66
     1
 10
0
 20
0
 30
0.0
 70
     1
 40
0
 41
0
  0
VERTEX
  8
0
 10
6.48167
 20
5.99336
 30
0.0
 40
0
 41
0
  0
VERTEX
  8
0
 10
6.45665
 20
5.99336
 30
0.0
 40
0
 41
0
  0
VERTEX
  8
0
 10
6.47
 20
5.92168
 30
0.0
 40
0
 41
0
  0
VERTEX
  8
0
 10
6.48167
 20
5.99336
 30
0.0
 40
0
 41
0
  0
SEQEND
 8
0
  0
POLYLINE
  8
0
 62
     1
 66
     1
 10
0
 20
0
 30
0.0
 70
     1
 40
0
 41
0
  0
VERTEX
  8
0
 10
6.54329
 20
7.59324
 30
0.0
 40
0
 41
0
  0
VERTEX
  8
0
 10
6.54329
 20
7.62992
 30
0.0
 40
0
 41
0
  0
VERTEX
  8
0
 10
6.54568
 20
7.62992
 30
0.0
 40
0
 41
0
  0
VERTEX
  8
0
 10
6.54568
 20
7.61276
 30
0.0
 40
0
 41
0
  0
VERTEX
  8
0
 10
6.65028
 20
7.61276
 30
0.0
 40
0
 41
0
  0
VERTEX
  8
0
 10
6.63422
 20
7.62904
 30
0.0
 40
0
 41
0
  0
VERTEX
  8
0
 10
6.63596
 20
7.631
 30
0.0
 40
0
 41
0
  0
VERTEX
  8
0
 10
6.6544
 20
7.61211
 30
0.0
 40
0
 41
0
  0
VERTEX
  8
0
 10
6.6544
 20
7.61038
 30
0.0
 40
0
 41
0
  0
VERTEX
  8
0
 10
6.54568
 20
7.61038
 30
0.0
 40
0
 41
0
  0
VERTEX
  8
0
 10
6.54568
 20
7.59324
 30
0.0
 40
0
 41
0
  0
VERTEX
  8
0
 10
6.54329
 20
7.59324
 30
0.0
 40
0
 41
0
  0
SEQEND
 8
0
  0
POLYLINE
  8
0
 62
     1
 66
     1
 10
0
 20
0
 30
0.0
 70
     1
 40
0
 41
0
  0
VERTEX
  8
0
 10
6.56218
 20
7.48429
 30
0.0
 40
0
 41
0
  0
VERTEX
  8
0
 10
6.54329
 20
7.50339
 30
0.0
 40
0
 41
0
  0
VERTEX
  8
0
 10
6.54329
 20
7.54093
 30
0.0
 40
0
 41
0
  0
VERTEX
  8
0
 10
6.56218
 20
7.56003
 30
0.0
 40
0
 41
0
  0
VERTEX
  8
0
 10
6.61751
 20
7.56003
 30
0.0
 40
0
 41
0
  0
VERTEX
  8
0
 10
6.6544
 20
7.52249
 30
0.0
 40
0
 41
0
  0
VERTEX
  8
0
 10
6.6544
 20
7.50382
 30
0.0
 40
0
 41
0
  0
VERTEX
  8
0
 10
6.65201
 20
7.50382
 30
0.0
 40
0
 41
0
  0
VERTEX
  8
0
 10
6.65201
 20
7.52163
 30
0.0
 40
0
 41
0
  0
VERTEX
  8
0
 10
6.61643
 20
7.55764
 30
0.0
 40
0
 41
0
  0
VERTEX
  8
0
 10
6.59993
 20
7.55764
 30
0.0
 40
0
 41
0
  0
VERTEX
  8
0
 10
6.59993
 20
7.50339
 30
0.0
 40
0
 41
0
  0
VERTEX
  8
0
 10
6.58106
 20
7.48429
 30
0.0
 40
0
 41
0
  0
VERTEX
  8
0
 10
6.56218
 20
7.48429
 30
0.0
 40
0
 41
0
  0
SEQEND
 8
0
  0
POLYLINE
  8
0
 62
     1
 66
     1
 10
0
 20
0
 30
0.0
 70
     1
 40
0
 41
0
  0
VERTEX
  8
0
 10
6.56218
 20
7.48668
 30
0.0
 40
0
 41
0
  0
VERTEX
  8
0
 10
6.57954
 20
7.48668
 30
0.0
 40
0
 41
0
  0
VERTEX
  8
0
 10
6.59711
 20
7.50426
 30
0.0
 40
0
 41
0
  0
VERTEX
  8
0
 10
6.59711
 20
7.55764
 30
0.0
 40
0
 41
0
  0
VERTEX
  8
0
 10
6.56218
 20
7.55764
 30
0.0
 40
0
 41
0
  0
VERTEX
  8
0
 10
6.5446
 20
7.54007
 30
0.0
 40
0
 41
0
  0
VERTEX
  8
0
 10
6.5446
 20
7.50426
 30
0.0
 40
0
 41
0
  0
VERTEX
  8
0
 10
6.56218
 20
7.48668
 30
0.0
 40
0
 41
0
  0
SEQEND
 8
0
  0
POLYLINE
  8
0
 62
     1
 66
     1
 10
0
 20
0
 30
0.0
 70
     1
 40
0
 41
0
  0
VERTEX
  8
0
 10
6.66889
 20
7.39549
 30
0.0
 40
0
 41
0
  0
VERTEX
  8
0
 10
6.65001
 20
7.41458
 30
0.0
 40
0
 41
0
  0
VERTEX
  8
0
 10
6.65001
 20
7.45212
 30
0.0
 40
0
 41
0
  0
VERTEX
  8
0
 10
6.66846
 20
7.471
 30
0.0
 40
0
 41
0
  0
VERTEX
  8
0
 10
6.67019
 20
7.46906
 30
0.0
 40
0
 41
0
  0
VERTEX
  8
0
 10
6.6524
 20
7.45125
 30
0.0
 40
0
 41
0
  0
VERTEX
  8
0
 10
6.6524
 20
7.41544
 30
0.0
 40
0
 41
0
  0
VERTEX
  8
0
 10
6.66976
 20
7.39787
 30
0.0
 40
0
 41
0
  0
VERTEX
  8
0
 10
6.6869
 20
7.39787
 30
0.0
 40
0
 41
0
  0
VERTEX
  8
0
 10
6.70426
 20
7.41544
 30
0.0
 40
0
 41
0
  0
VERTEX
  8
0
 10
6.70426
 20
7.43324
 30
0.0
 40
0
 41
0
  0
VERTEX
  8
0
 10
6.70665
 20
7.43324
 30
0.0
 40
0
 41
0
  0
VERTEX
  8
0
 10
6.70665
 20
7.41544
 30
0.0
 40
0
 41
0
  0
VERTEX
  8
0
 10
6.72424
 20
7.39787
 30
0.0
 40
0
 41
0
  0
VERTEX
  8
0
 10
6.74138
 20
7.39787
 30
0.0
 40
0
 41
0
  0
VERTEX
  8
0
 10
6.75874
 20
7.41544
 30
0.0
 40
0
 41
0
  0
VERTEX
  8
0
 10
6.75874
 20
7.45125
 30
0.0
 40
0
 41
0
  0
VERTEX
  8
0
 10
6.74094
 20
7.46906
 30
0.0
 40
0
 41
0
  0
VERTEX
  8
0
 10
6.74268
 20
7.471
 30
0.0
 40
0
 41
0
  0
VERTEX
  8
0
 10
6.76112
 20
7.45212
 30
0.0
 40
0
 41
0
  0
VERTEX
  8
0
 10
6.76112
 20
7.41458
 30
0.0
 40
0
 41
0
  0
VERTEX
  8
0
 10
6.74224
 20
7.39549
 30
0.0
 40
0
 41
0
  0
VERTEX
  8
0
 10
6.72314
 20
7.39549
 30
0.0
 40
0
 41
0
  0
VERTEX
  8
0
 10
6.70557
 20
7.41328
 30
0.0
 40
0
 41
0
  0
VERTEX
  8
0
 10
6.68778
 20
7.39549
 30
0.0
 40
0
 41
0
  0
VERTEX
  8
0
 10
6.66889
 20
7.39549
 30
0.0
 40
0
 41
0
  0
SEQEND
 8
0
  0
POLYLINE
  8
0
 62
     1
 66
     1
 10
0
 20
0
 30
0.0
 40
0.72
 41
0.72
  0
VERTEX
  8
0
 10
6.56168
 20
7.455
 30
0.0
 40
0.01
 41
0.01
  0
VERTEX
  8
0
 10
6.73833
 20
7.33168
 30
0.0
 40
0.01
 41
0.01
  0
SEQEND
 8
0
  0
POLYLINE
  8
0
 62
     1
 66
     1
 10
0
 20
0
 30
0.0
 70
     1
 40
0
 41
0
  0
VERTEX
  8
0
 10
6.57801
 20
7.28676
 30
0.0
 40
0
 41
0
  0
VERTEX
  8
0
 10
6.57801
 20
7.30368
 30
0.0
 40
0
 41
0
  0
VERTEX
  8
0
 10
6.54329
 20
7.30368
 30
0.0
 40
0
 41
0
  0
VERTEX
  8
0
 10
6.54329
 20
7.30629
 30
0.0
 40
0
 41
0
  0
VERTEX
  8
0
 10
6.57801
 20
7.30629
 30
0.0
 40
0
 41
0
  0
VERTEX
  8
0
 10
6.57801
 20
7.3625
 30
0.0
 40
0
 41
0
  0
VERTEX
  8
0
 10
6.6544
 20
7.30368
 30
0.0
 40
0
 41
0
  0
VERTEX
  8
0
 10
6.5804
 20
7.30368
 30
0.0
 40
0
 41
0
  0
VERTEX
  8
0
 10
6.5804
 20
7.28676
 30
0.0
 40
0
 41
0
  0
VERTEX
  8
0
 10
6.57801
 20
7.28676
 30
0.0
 40
0
 41
0
  0
SEQEND
 8
0
  0
POLYLINE
  8
0
 62
     1
 66
     1
 10
0
 20
0
 30
0.0
 70
     1
 40
0
 41
0
  0
VERTEX
  8
0
 10
6.58128
 20
7.30629
 30
0.0
 40
0
 41
0
  0
VERTEX
  8
0
 10
6.64963
 20
7.30629
 30
0.0
 40
0
 41
0
  0
VERTEX
  8
0
 10
6.58128
 20
7.3575
 30
0.0
 40
0
 41
0
  0
VERTEX
  8
0
 10
6.58128
 20
7.30629
 30
0.0
 40
0
 41
0
  0
SEQEND
 8
0
  0
POLYLINE
  8
0
 62
     1
 66
     1
 10
0
 20
0
 30
0.0
 70
     1
 40
0
 41
0
  0
VERTEX
  8
0
 10
6.65267
 20
7.23912
 30
0.0
 40
0
 41
0
  0
VERTEX
  8
0
 10
6.616
 20
7.25757
 30
0.0
 40
0
 41
0
  0
VERTEX
  8
0
 10
6.61729
 20
7.25974
 30
0.0
 40
0
 41
0
  0
VERTEX
  8
0
 10
6.65397
 20
7.24129
 30
0.0
 40
0
 41
0
  0
VERTEX
  8
0
 10
6.65267
 20
7.23912
 30
0.0
 40
0
 41
0
  0
SEQEND
 8
0
  0
POLYLINE
  8
0
 62
     1
 66
     1
 10
0
 20
0
 30
0.0
 70
     1
 40
0
 41
0
  0
VERTEX
  8
0
 10
6.6531
 20
7.25757
 30
0.0
 40
0
 41
0
  0
VERTEX
  8
0
 10
6.61274
 20
7.27601
 30
0.0
 40
0
 41
0
  0
VERTEX
  8
0
 10
6.61404
 20
7.27797
 30
0.0
 40
0
 41
0
  0
VERTEX
  8
0
 10
6.6544
 20
7.25974
 30
0.0
 40
0
 41
0
  0
VERTEX
  8
0
 10
6.6531
 20
7.25757
 30
0.0
 40
0
 41
0
  0
SEQEND
 8
0
  0
POLYLINE
  8
0
 62
     1
 66
     1
 10
0
 20
0
 30
0.0
 40
0.72
 41
0.72
  0
VERTEX
  8
0
 10
4.63667
 20
5.74336
 30
0.0
 40
0.01
 41
0.01
  0
VERTEX
  8
0
 10
6.47835
 20
5.74336
 30
0.0
 40
0.01
 41
0.01
  0
SEQEND
 8
0
  0
POLYLINE
  8
0
 62
     1
 66
     1
 10
0
 20
0
 30
0.0
 40
0.72
 41
0.72
  0
VERTEX
  8
0
 10
3.64165
 20
2.70668
 30
0.0
 40
0.01
 41
0.01
  0
VERTEX
  8
0
 10
6.47835
 20
2.70668
 30
0.0
 40
0.01
 41
0.01
  0
SEQEND
 8
0
  0
POLYLINE
  8
0
 62
     1
 66
     1
 10
0
 20
0
 30
0.0
 40
0.72
 41
0.72
  0
VERTEX
  8
0
 10
6.47
 20
5.67168
 30
0.0
 40
0.01
 41
0.01
  0
VERTEX
  8
0
 10
6.47
 20
2.77835
 30
0.0
 40
0.01
 41
0.01
  0
SEQEND
 8
0
  0
POLYLINE
  8
0
 62
     1
 66
     1
 10
0
 20
0
 30
0.0
 70
     1
 40
0
 41
0
  0
VERTEX
  8
0
 10
6.48167
 20
5.67168
 30
0.0
 40
0
 41
0
  0
VERTEX
  8
0
 10
6.45665
 20
5.67168
 30
0.0
 40
0
 41
0
  0
VERTEX
  8
0
 10
6.47
 20
5.74336
 30
0.0
 40
0
 41
0
  0
VERTEX
  8
0
 10
6.48167
 20
5.67168
 30
0.0
 40
0
 41
0
  0
SEQEND
 8
0
  0
POLYLINE
  8
0
 62
     1
 66
     1
 10
0
 20
0
 30
0.0
 70
     1
 40
0
 41
0
  0
VERTEX
  8
0
 10
6.48167
 20
2.77835
 30
0.0
 40
0
 41
0
  0
VERTEX
  8
0
 10
6.45665
 20
2.77835
 30
0.0
 40
0
 41
0
  0
VERTEX
  8
0
 10
6.47
 20
2.70668
 30
0.0
 40
0
 41
0
  0
VERTEX
  8
0
 10
6.48167
 20
2.77835
 30
0.0
 40
0
 41
0
  0
SEQEND
 8
0
  0
POLYLINE
  8
0
 62
     1
 66
     1
 10
0
 20
0
 30
0.0
 70
     1
 40
0
 41
0
  0
VERTEX
  8
0
 10
6.54329
 20
4.37822
 30
0.0
 40
0
 41
0
  0
VERTEX
  8
0
 10
6.54329
 20
4.4149
 30
0.0
 40
0
 41
0
  0
VERTEX
  8
0
 10
6.54568
 20
4.4149
 30
0.0
 40
0
 41
0
  0
VERTEX
  8
0
 10
6.54568
 20
4.39776
 30
0.0
 40
0
 41
0
  0
VERTEX
  8
0
 10
6.65028
 20
4.39776
 30
0.0
 40
0
 41
0
  0
VERTEX
  8
0
 10
6.63422
 20
4.41404
 30
0.0
 40
0
 41
0
  0
VERTEX
  8
0
 10
6.63596
 20
4.41599
 30
0.0
 40
0
 41
0
  0
VERTEX
  8
0
 10
6.6544
 20
4.39711
 30
0.0
 40
0
 41
0
  0
VERTEX
  8
0
 10
6.6544
 20
4.39538
 30
0.0
 40
0
 41
0
  0
VERTEX
  8
0
 10
6.54568
 20
4.39538
 30
0.0
 40
0
 41
0
  0
VERTEX
  8
0
 10
6.54568
 20
4.37822
 30
0.0
 40
0
 41
0
  0
VERTEX
  8
0
 10
6.54329
 20
4.37822
 30
0.0
 40
0
 41
0
  0
SEQEND
 8
0
  0
POLYLINE
  8
0
 62
     1
 66
     1
 10
0
 20
0
 30
0.0
 70
     1
 40
0
 41
0
  0
VERTEX
  8
0
 10
6.56218
 20
4.26929
 30
0.0
 40
0
 41
0
  0
VERTEX
  8
0
 10
6.54329
 20
4.28839
 30
0.0
 40
0
 41
0
  0
VERTEX
  8
0
 10
6.54329
 20
4.32593
 30
0.0
 40
0
 41
0
  0
VERTEX
  8
0
 10
6.56218
 20
4.34503
 30
0.0
 40
0
 41
0
  0
VERTEX
  8
0
 10
6.61751
 20
4.34503
 30
0.0
 40
0
 41
0
  0
VERTEX
  8
0
 10
6.6544
 20
4.30749
 30
0.0
 40
0
 41
0
  0
VERTEX
  8
0
 10
6.6544
 20
4.28882
 30
0.0
 40
0
 41
0
  0
VERTEX
  8
0
 10
6.65201
 20
4.28882
 30
0.0
 40
0
 41
0
  0
VERTEX
  8
0
 10
6.65201
 20
4.30661
 30
0.0
 40
0
 41
0
  0
VERTEX
  8
0
 10
6.61643
 20
4.34264
 30
0.0
 40
0
 41
0
  0
VERTEX
  8
0
 10
6.59993
 20
4.34264
 30
0.0
 40
0
 41
0
  0
VERTEX
  8
0
 10
6.59993
 20
4.28839
 30
0.0
 40
0
 41
0
  0
VERTEX
  8
0
 10
6.58106
 20
4.26929
 30
0.0
 40
0
 41
0
  0
VERTEX
  8
0
 10
6.56218
 20
4.26929
 30
0.0
 40
0
 41
0
  0
SEQEND
 8
0
  0
POLYLINE
  8
0
 62
     1
 66
     1
 10
0
 20
0
 30
0.0
 70
     1
 40
0
 41
0
  0
VERTEX
  8
0
 10
6.56218
 20
4.27168
 30
0.0
 40
0
 41
0
  0
VERTEX
  8
0
 10
6.57954
 20
4.27168
 30
0.0
 40
0
 41
0
  0
VERTEX
  8
0
 10
6.59711
 20
4.28925
 30
0.0
 40
0
 41
0
  0
VERTEX
  8
0
 10
6.59711
 20
4.34264
 30
0.0
 40
0
 41
0
  0
VERTEX
  8
0
 10
6.56218
 20
4.34264
 30
0.0
 40
0
 41
0
  0
VERTEX
  8
0
 10
6.5446
 20
4.32506
 30
0.0
 40
0
 41
0
  0
VERTEX
  8
0
 10
6.5446
 20
4.28925
 30
0.0
 40
0
 41
0
  0
VERTEX
  8
0
 10
6.56218
 20
4.27168
 30
0.0
 40
0
 41
0
  0
SEQEND
 8
0
  0
POLYLINE
  8
0
 62
     1
 66
     1
 10
0
 20
0
 30
0.0
 70
     1
 40
0
 41
0
  0
VERTEX
  8
0
 10
6.66889
 20
4.18042
 30
0.0
 40
0
 41
0
  0
VERTEX
  8
0
 10
6.65001
 20
4.19951
 30
0.0
 40
0
 41
0
  0
VERTEX
  8
0
 10
6.65001
 20
4.23706
 30
0.0
 40
0
 41
0
  0
VERTEX
  8
0
 10
6.66846
 20
4.25594
 30
0.0
 40
0
 41
0
  0
VERTEX
  8
0
 10
6.67019
 20
4.25399
 30
0.0
 40
0
 41
0
  0
VERTEX
  8
0
 10
6.6524
 20
4.23619
 30
0.0
 40
0
 41
0
  0
VERTEX
  8
0
 10
6.6524
 20
4.20039
 30
0.0
 40
0
 41
0
  0
VERTEX
  8
0
 10
6.66976
 20
4.18281
 30
0.0
 40
0
 41
0
  0
VERTEX
  8
0
 10
6.6869
 20
4.18281
 30
0.0
 40
0
 41
0
  0
VERTEX
  8
0
 10
6.70426
 20
4.20039
 30
0.0
 40
0
 41
0
  0
VERTEX
  8
0
 10
6.70426
 20
4.21818
 30
0.0
 40
0
 41
0
  0
VERTEX
  8
0
 10
6.70665
 20
4.21818
 30
0.0
 40
0
 41
0
  0
VERTEX
  8
0
 10
6.70665
 20
4.20039
 30
0.0
 40
0
 41
0
  0
VERTEX
  8
0
 10
6.72424
 20
4.18281
 30
0.0
 40
0
 41
0
  0
VERTEX
  8
0
 10
6.74138
 20
4.18281
 30
0.0
 40
0
 41
0
  0
VERTEX
  8
0
 10
6.75874
 20
4.20039
 30
0.0
 40
0
 41
0
  0
VERTEX
  8
0
 10
6.75874
 20
4.23619
 30
0.0
 40
0
 41
0
  0
VERTEX
  8
0
 10
6.74094
 20
4.25399
 30
0.0
 40
0
 41
0
  0
VERTEX
  8
0
 10
6.74268
 20
4.25594
 30
0.0
 40
0
 41
0
  0
VERTEX
  8
0
 10
6.76112
 20
4.23706
 30
0.0
 40
0
 41
0
  0
VERTEX
  8
0
 10
6.76112
 20
4.19951
 30
0.0
 40
0
 41
0
  0
VERTEX
  8
0
 10
6.74224
 20
4.18042
 30
0.0
 40
0
 41
0
  0
VERTEX
  8
0
 10
6.72314
 20
4.18042
 30
0.0
 40
0
 41
0
  0
VERTEX
  8
0
 10
6.70557
 20
4.19822
 30
0.0
 40
0
 41
0
  0
VERTEX
  8
0
 10
6.68778
 20
4.18042
 30
0.0
 40
0
 41
0
  0
VERTEX
  8
0
 10
6.66889
 20
4.18042
 30
0.0
 40
0
 41
0
  0
SEQEND
 8
0
  0
POLYLINE
  8
0
 62
     1
 66
     1
 10
0
 20
0
 30
0.0
 40
0.72
 41
0.72
  0
VERTEX
  8
0
 10
6.56168
 20
4.23999
 30
0.0
 40
0.01
 41
0.01
  0
VERTEX
  8
0
 10
6.73833
 20
4.11667
 30
0.0
 40
0.01
 41
0.01
  0
SEQEND
 8
0
  0
POLYLINE
  8
0
 62
     1
 66
     1
 10
0
 20
0
 30
0.0
 70
     1
 40
0
 41
0
  0
VERTEX
  8
0
 10
6.57801
 20
4.07175
 30
0.0
 40
0
 41
0
  0
VERTEX
  8
0
 10
6.57801
 20
4.08868
 30
0.0
 40
0
 41
0
  0
VERTEX
  8
0
 10
6.54329
 20
4.08868
 30
0.0
 40
0
 41
0
  0
VERTEX
  8
0
 10
6.54329
 20
4.09128
 30
0.0
 40
0
 41
0
  0
VERTEX
  8
0
 10
6.57801
 20
4.09128
 30
0.0
 40
0
 41
0
  0
VERTEX
  8
0
 10
6.57801
 20
4.14749
 30
0.0
 40
0
 41
0
  0
VERTEX
  8
0
 10
6.6544
 20
4.08868
 30
0.0
 40
0
 41
0
  0
VERTEX
  8
0
 10
6.5804
 20
4.08868
 30
0.0
 40
0
 41
0
  0
VERTEX
  8
0
 10
6.5804
 20
4.07175
 30
0.0
 40
0
 41
0
  0
VERTEX
  8
0
 10
6.57801
 20
4.07175
 30
0.0
 40
0
 41
0
  0
SEQEND
 8
0
  0
POLYLINE
  8
0
 62
     1
 66
     1
 10
0
 20
0
 30
0.0
 70
     1
 40
0
 41
0
  0
VERTEX
  8
0
 10
6.58128
 20
4.09128
 30
0.0
 40
0
 41
0
  0
VERTEX
  8
0
 10
6.64963
 20
4.09128
 30
0.0
 40
0
 41
0
  0
VERTEX
  8
0
 10
6.58128
 20
4.1425
 30
0.0
 40
0
 41
0
  0
VERTEX
  8
0
 10
6.58128
 20
4.09128
 30
0.0
 40
0
 41
0
  0
SEQEND
 8
0
  0
POLYLINE
  8
0
 62
     1
 66
     1
 10
0
 20
0
 30
0.0
 70
     1
 40
0
 41
0
  0
VERTEX
  8
0
 10
6.65267
 20
4.02406
 30
0.0
 40
0
 41
0
  0
VERTEX
  8
0
 10
6.616
 20
4.04251
 30
0.0
 40
0
 41
0
  0
VERTEX
  8
0
 10
6.61729
 20
4.04468
 30
0.0
 40
0
 41
0
  0
VERTEX
  8
0
 10
6.65397
 20
4.02624
 30
0.0
 40
0
 41
0
  0
VERTEX
  8
0
 10
6.65267
 20
4.02406
 30
0.0
 40
0
 41
0
  0
SEQEND
 8
0
  0
POLYLINE
  8
0
 62
     1
 66
     1
 10
0
 20
0
 30
0.0
 70
     1
 40
0
 41
0
  0
VERTEX
  8
0
 10
6.6531
 20
4.04251
 30
0.0
 40
0
 41
0
  0
VERTEX
  8
0
 10
6.61274
 20
4.06096
 30
0.0
 40
0
 41
0
  0
VERTEX
  8
0
 10
6.61404
 20
4.0629
 30
0.0
 40
0
 41
0
  0
VERTEX
  8
0
 10
6.6544
 20
4.04468
 30
0.0
 40
0
 41
0
  0
VERTEX
  8
0
 10
6.6531
 20
4.04251
 30
0.0
 40
0
 41
0
  0
SEQEND
 8
0
  0
POLYLINE
  8
0
 62
     1
 66
     1
 10
0
 20
0
 30
0.0
 40
0.72
 41
0.72
  0
VERTEX
  8
0
 10
3.64165
 20
8.95831
 30
0.0
 40
0.01
 41
0.01
  0
VERTEX
  8
0
 10
6.97
 20
8.95831
 30
0.0
 40
0.01
 41
0.01
  0
SEQEND
 8
0
  0
POLYLINE
  8
0
 62
     1
 66
     1
 10
0
 20
0
 30
0.0
 40
0.72
 41
0.72
  0
VERTEX
  8
0
 10
3.64165
 20
2.70668
 30
0.0
 40
0.01
 41
0.01
  0
VERTEX
  8
0
 10
6.97
 20
2.70668
 30
0.0
 40
0.01
 41
0.01
  0
SEQEND
 8
0
  0
POLYLINE
  8
0
 62
     1
 66
     1
 10
0
 20
0
 30
0.0
 40
0.72
 41
0.72
  0
VERTEX
  8
0
 10
6.96164
 20
8.88669
 30
0.0
 40
0.01
 41
0.01
  0
VERTEX
  8
0
 10
6.96164
 20
2.77835
 30
0.0
 40
0.01
 41
0.01
  0
SEQEND
 8
0
  0
POLYLINE
  8
0
 62
     1
 66
     1
 10
0
 20
0
 30
0.0
 70
     1
 40
0
 41
0
  0
VERTEX
  8
0
 10
6.97331
 20
8.88669
 30
0.0
 40
0
 41
0
  0
VERTEX
  8
0
 10
6.94997
 20
8.88669
 30
0.0
 40
0
 41
0
  0
VERTEX
  8
0
 10
6.96164
 20
8.95831
 30
0.0
 40
0
 41
0
  0
VERTEX
  8
0
 10
6.97331
 20
8.88669
 30
0.0
 40
0
 41
0
  0
SEQEND
 8
0
  0
POLYLINE
  8
0
 62
     1
 66
     1
 10
0
 20
0
 30
0.0
 70
     1
 40
0
 41
0
  0
VERTEX
  8
0
 10
6.97331
 20
2.77835
 30
0.0
 40
0
 41
0
  0
VERTEX
  8
0
 10
6.94997
 20
2.77835
 30
0.0
 40
0
 41
0
  0
VERTEX
  8
0
 10
6.96164
 20
2.70668
 30
0.0
 40
0
 41
0
  0
VERTEX
  8
0
 10
6.97331
 20
2.77835
 30
0.0
 40
0
 41
0
  0
SEQEND
 8
0
  0
POLYLINE
  8
0
 62
     1
 66
     1
 10
0
 20
0
 30
0.0
 70
     1
 40
0
 41
0
  0
VERTEX
  8
0
 10
7.05382
 20
5.95711
 30
0.0
 40
0
 41
0
  0
VERTEX
  8
0
 10
7.03494
 20
5.97621
 30
0.0
 40
0
 41
0
  0
VERTEX
  8
0
 10
7.03494
 20
6.01375
 30
0.0
 40
0
 41
0
  0
VERTEX
  8
0
 10
7.05339
 20
6.03264
 30
0.0
 40
0
 41
0
  0
VERTEX
  8
0
 10
7.05512
 20
6.03068
 30
0.0
 40
0
 41
0
  0
VERTEX
  8
0
 10
7.03733
 20
6.01289
 30
0.0
 40
0
 41
0
  0
VERTEX
  8
0
 10
7.03733
 20
5.97708
 30
0.0
 40
0
 41
0
  0
VERTEX
  8
0
 10
7.05469
 20
5.9595
 30
0.0
 40
0
 41
0
  0
VERTEX
  8
0
 10
7.07183
 20
5.9595
 30
0.0
 40
0
 41
0
  0
VERTEX
  8
0
 10
7.08919
 20
5.97708
 30
0.0
 40
0
 41
0
  0
VERTEX
  8
0
 10
7.08919
 20
5.99488
 30
0.0
 40
0
 41
0
  0
VERTEX
  8
0
 10
7.09158
 20
5.99488
 30
0.0
 40
0
 41
0
  0
VERTEX
  8
0
 10
7.09158
 20
5.97708
 30
0.0
 40
0
 41
0
  0
VERTEX
  8
0
 10
7.10915
 20
5.9595
 30
0.0
 40
0
 41
0
  0
VERTEX
  8
0
 10
7.12631
 20
5.9595
 30
0.0
 40
0
 41
0
  0
VERTEX
  8
0
 10
7.14367
 20
5.97708
 30
0.0
 40
0
 41
0
  0
VERTEX
  8
0
 10
7.14367
 20
6.01289
 30
0.0
 40
0
 41
0
  0
VERTEX
  8
0
 10
7.12587
 20
6.03068
 30
0.0
 40
0
 41
0
  0
VERTEX
  8
0
 10
7.12761
 20
6.03264
 30
0.0
 40
0
 41
0
  0
VERTEX
  8
0
 10
7.14606
 20
6.01375
 30
0.0
 40
0
 41
0
  0
VERTEX
  8
0
 10
7.14606
 20
5.97621
 30
0.0
 40
0
 41
0
  0
VERTEX
  8
0
 10
7.12717
 20
5.95711
 30
0.0
 40
0
 41
0
  0
VERTEX
  8
0
 10
7.10807
 20
5.95711
 30
0.0
 40
0
 41
0
  0
VERTEX
  8
0
 10
7.0905
 20
5.9749
 30
0.0
 40
0
 41
0
  0
VERTEX
  8
0
 10
7.07269
 20
5.95711
 30
0.0
 40
0
 41
0
  0
VERTEX
  8
0
 10
7.05382
 20
5.95711
 30
0.0
 40
0
 41
0
  0
SEQEND
 8
0
  0
POLYLINE
  8
0
 62
     1
 66
     1
 10
0
 20
0
 30
0.0
 70
     1
 40
0
 41
0
  0
VERTEX
  8
0
 10
7.06967
 20
5.85164
 30
0.0
 40
0
 41
0
  0
VERTEX
  8
0
 10
7.06967
 20
5.86857
 30
0.0
 40
0
 41
0
  0
VERTEX
  8
0
 10
7.03494
 20
5.86857
 30
0.0
 40
0
 41
0
  0
VERTEX
  8
0
 10
7.03494
 20
5.87118
 30
0.0
 40
0
 41
0
  0
VERTEX
  8
0
 10
7.06967
 20
5.87118
 30
0.0
 40
0
 41
0
  0
VERTEX
  8
0
 10
7.06967
 20
5.92739
 30
0.0
 40
0
 41
0
  0
VERTEX
  8
0
 10
7.14606
 20
5.86857
 30
0.0
 40
0
 41
0
  0
VERTEX
  8
0
 10
7.07206
 20
5.86857
 30
0.0
 40
0
 41
0
  0
VERTEX
  8
0
 10
7.07206
 20
5.85164
 30
0.0
 40
0
 41
0
  0
VERTEX
  8
0
 10
7.06967
 20
5.85164
 30
0.0
 40
0
 41
0
  0
SEQEND
 8
0
  0
POLYLINE
  8
0
 62
     1
 66
     1
 10
0
 20
0
 30
0.0
 70
     1
 40
0
 41
0
  0
VERTEX
  8
0
 10
7.07292
 20
5.87118
 30
0.0
 40
0
 41
0
  0
VERTEX
  8
0
 10
7.14128
 20
5.87118
 30
0.0
 40
0
 41
0
  0
VERTEX
  8
0
 10
7.07292
 20
5.92239
 30
0.0
 40
0
 41
0
  0
VERTEX
  8
0
 10
7.07292
 20
5.87118
 30
0.0
 40
0
 41
0
  0
SEQEND
 8
0
  0
POLYLINE
  8
0
 62
     1
 66
     1
 10
0
 20
0
 30
0.0
 70
     1
 40
0
 41
0
  0
VERTEX
  8
0
 10
7.16385
 20
5.79713
 30
0.0
 40
0
 41
0
  0
VERTEX
  8
0
 10
7.14497
 20
5.81622
 30
0.0
 40
0
 41
0
  0
VERTEX
  8
0
 10
7.14497
 20
5.85376
 30
0.0
 40
0
 41
0
  0
VERTEX
  8
0
 10
7.16342
 20
5.87264
 30
0.0
 40
0
 41
0
  0
VERTEX
  8
0
 10
7.16515
 20
5.87069
 30
0.0
 40
0
 41
0
  0
VERTEX
  8
0
 10
7.14735
 20
5.85289
 30
0.0
 40
0
 41
0
  0
VERTEX
  8
0
 10
7.14735
 20
5.81708
 30
0.0
 40
0
 41
0
  0
VERTEX
  8
0
 10
7.16471
 20
5.79951
 30
0.0
 40
0
 41
0
  0
VERTEX
  8
0
 10
7.18186
 20
5.79951
 30
0.0
 40
0
 41
0
  0
VERTEX
  8
0
 10
7.19922
 20
5.81708
 30
0.0
 40
0
 41
0
  0
VERTEX
  8
0
 10
7.19922
 20
5.83487
 30
0.0
 40
0
 41
0
  0
VERTEX
  8
0
 10
7.20161
 20
5.83487
 30
0.0
 40
0
 41
0
  0
VERTEX
  8
0
 10
7.20161
 20
5.81708
 30
0.0
 40
0
 41
0
  0
VERTEX
  8
0
 10
7.21918
 20
5.79951
 30
0.0
 40
0
 41
0
  0
VERTEX
  8
0
 10
7.23633
 20
5.79951
 30
0.0
 40
0
 41
0
  0
VERTEX
  8
0
 10
7.25369
 20
5.81708
 30
0.0
 40
0
 41
0
  0
VERTEX
  8
0
 10
7.25369
 20
5.85289
 30
0.0
 40
0
 41
0
  0
VERTEX
  8
0
 10
7.23589
 20
5.87069
 30
0.0
 40
0
 41
0
  0
VERTEX
  8
0
 10
7.23763
 20
5.87264
 30
0.0
 40
0
 41
0
  0
VERTEX
  8
0
 10
7.25608
 20
5.85376
 30
0.0
 40
0
 41
0
  0
VERTEX
  8
0
 10
7.25608
 20
5.81622
 30
0.0
 40
0
 41
0
  0
VERTEX
  8
0
 10
7.23719
 20
5.79713
 30
0.0
 40
0
 41
0
  0
VERTEX
  8
0
 10
7.2181
 20
5.79713
 30
0.0
 40
0
 41
0
  0
VERTEX
  8
0
 10
7.20053
 20
5.81492
 30
0.0
 40
0
 41
0
  0
VERTEX
  8
0
 10
7.18272
 20
5.79713
 30
0.0
 40
0
 41
0
  0
VERTEX
  8
0
 10
7.16385
 20
5.79713
 30
0.0
 40
0
 41
0
  0
SEQEND
 8
0
  0
POLYLINE
  8
0
 62
     1
 66
     1
 10
0
 20
0
 30
0.0
 40
0.72
 41
0.72
  0
VERTEX
  8
0
 10
7.05664
 20
5.85669
 30
0.0
 40
0.01
 41
0.01
  0
VERTEX
  8
0
 10
7.23335
 20
5.73332
 30
0.0
 40
0.01
 41
0.01
  0
SEQEND
 8
0
  0
POLYLINE
  8
0
 62
     1
 66
     1
 10
0
 20
0
 30
0.0
 70
     1
 40
0
 41
0
  0
VERTEX
  8
0
 10
7.05382
 20
5.69046
 30
0.0
 40
0
 41
0
  0
VERTEX
  8
0
 10
7.03494
 20
5.70956
 30
0.0
 40
0
 41
0
  0
VERTEX
  8
0
 10
7.03494
 20
5.7471
 30
0.0
 40
0
 41
0
  0
VERTEX
  8
0
 10
7.05382
 20
5.76619
 30
0.0
 40
0
 41
0
  0
VERTEX
  8
0
 10
7.07269
 20
5.76619
 30
0.0
 40
0
 41
0
  0
VERTEX
  8
0
 10
7.0905
 20
5.7484
 30
0.0
 40
0
 41
0
  0
VERTEX
  8
0
 10
7.10807
 20
5.76619
 30
0.0
 40
0
 41
0
  0
VERTEX
  8
0
 10
7.12717
 20
5.76619
 30
0.0
 40
0
 41
0
  0
VERTEX
  8
0
 10
7.14606
 20
5.7471
 30
0.0
 40
0
 41
0
  0
VERTEX
  8
0
 10
7.14606
 20
5.70956
 30
0.0
 40
0
 41
0
  0
VERTEX
  8
0
 10
7.12717
 20
5.69046
 30
0.0
 40
0
 41
0
  0
VERTEX
  8
0
 10
7.10807
 20
5.69046
 30
0.0
 40
0
 41
0
  0
VERTEX
  8
0
 10
7.0905
 20
5.70825
 30
0.0
 40
0
 41
0
  0
VERTEX
  8
0
 10
7.07269
 20
5.69046
 30
0.0
 40
0
 41
0
  0
VERTEX
  8
0
 10
7.05382
 20
5.69046
 30
0.0
 40
0
 41
0
  0
SEQEND
 8
0
  0
POLYLINE
  8
0
 62
     1
 66
     1
 10
0
 20
0
 30
0.0
 70
     1
 40
0
 41
0
  0
VERTEX
  8
0
 10
7.10872
 20
5.69285
 30
0.0
 40
0
 41
0
  0
VERTEX
  8
0
 10
7.12608
 20
5.69285
 30
0.0
 40
0
 41
0
  0
VERTEX
  8
0
 10
7.14388
 20
5.71042
 30
0.0
 40
0
 41
0
  0
VERTEX
  8
0
 10
7.14388
 20
5.74624
 30
0.0
 40
0
 41
0
  0
VERTEX
  8
0
 10
7.12608
 20
5.76381
 30
0.0
 40
0
 41
0
  0
VERTEX
  8
0
 10
7.10872
 20
5.76381
 30
0.0
 40
0
 41
0
  0
VERTEX
  8
0
 10
7.09115
 20
5.74624
 30
0.0
 40
0
 41
0
  0
VERTEX
  8
0
 10
7.09115
 20
5.71042
 30
0.0
 40
0
 41
0
  0
VERTEX
  8
0
 10
7.10872
 20
5.69285
 30
0.0
 40
0
 41
0
  0
SEQEND
 8
0
  0
POLYLINE
  8
0
 62
     1
 66
     1
 10
0
 20
0
 30
0.0
 70
     1
 40
0
 41
0
  0
VERTEX
  8
0
 10
7.05382
 20
5.69285
 30
0.0
 40
0
 41
0
  0
VERTEX
  8
0
 10
7.07118
 20
5.69285
 30
0.0
 40
0
 41
0
  0
VERTEX
  8
0
 10
7.08876
 20
5.71042
 30
0.0
 40
0
 41
0
  0
VERTEX
  8
0
 10
7.08876
 20
5.74624
 30
0.0
 40
0
 41
0
  0
VERTEX
  8
0
 10
7.07118
 20
5.76381
 30
0.0
 40
0
 41
0
  0
VERTEX
  8
0
 10
7.05382
 20
5.76381
 30
0.0
 40
0
 41
0
  0
VERTEX
  8
0
 10
7.03624
 20
5.74624
 30
0.0
 40
0
 41
0
  0
VERTEX
  8
0
 10
7.03624
 20
5.71042
 30
0.0
 40
0
 41
0
  0
VERTEX
  8
0
 10
7.05382
 20
5.69285
 30
0.0
 40
0
 41
0
  0
SEQEND
 8
0
  0
POLYLINE
  8
0
 62
     1
 66
     1
 10
0
 20
0
 30
0.0
 70
     1
 40
0
 41
0
  0
VERTEX
  8
0
 10
7.14432
 20
5.64407
 30
0.0
 40
0
 41
0
  0
VERTEX
  8
0
 10
7.10764
 20
5.66251
 30
0.0
 40
0
 41
0
  0
VERTEX
  8
0
 10
7.10894
 20
5.66468
 30
0.0
 40
0
 41
0
  0
VERTEX
  8
0
 10
7.14561
 20
5.64624
 30
0.0
 40
0
 41
0
  0
VERTEX
  8
0
 10
7.14432
 20
5.64407
 30
0.0
 40
0
 41
0
  0
SEQEND
 8
0
  0
POLYLINE
  8
0
 62
     1
 66
     1
 10
0
 20
0
 30
0.0
 70
     1
 40
0
 41
0
  0
VERTEX
  8
0
 10
7.14475
 20
5.66251
 30
0.0
 40
0
 41
0
  0
VERTEX
  8
0
 10
7.10439
 20
5.68096
 30
0.0
 40
0
 41
0
  0
VERTEX
  8
0
 10
7.10568
 20
5.68292
 30
0.0
 40
0
 41
0
  0
VERTEX
  8
0
 10
7.14606
 20
5.66468
 30
0.0
 40
0
 41
0
  0
VERTEX
  8
0
 10
7.14475
 20
5.66251
 30
0.0
 40
0
 41
0
  0
SEQEND
 8
0
  0
POLYLINE
  8
0
 62
     0
 66
     1
 10
0
 20
0
 30
0.0
 40
0.72
 41
0.72
  0
VERTEX
  8
0
 10
1.62001
 20
6.86667
 30
0.0
 40
0.01
 41
0.01
  0
VERTEX
  8
0
 10
2.53331
 20
5.95332
 30
0.0
 40
0.01
 41
0.01
  0
SEQEND
 8
0
  0
POLYLINE
  8
0
 62
     0
 66
     1
 10
0
 20
0
 30
0.0
 40
0.72
 41
0.72
  0
VERTEX
  8
0
 10
2.53331
 20
5.955
 30
0.0
 40
0.01
 41
0.01
  0
VERTEX
  8
0
 10
2.54833
 20
5.94165
 30
0.0
 40
0.01
 41
0.01
  0
VERTEX
  8
0
 10
2.56836
 20
5.93167
 30
0.0
 40
0.01
 41
0.01
  0
VERTEX
  8
0
 10
2.58832
 20
5.925
 30
0.0
 40
0.01
 41
0.01
  0
VERTEX
  8
0
 10
2.60835
 20
5.92332
 30
0.0
 40
0.01
 41
0.01
  0
SEQEND
 8
0
  0
POLYLINE
  8
0
 62
     0
 66
     1
 10
0
 20
0
 30
0.0
 40
0.72
 41
0.72
  0
VERTEX
  8
0
 10
2.60835
 20
5.92168
 30
0.0
 40
0.01
 41
0.01
  0
VERTEX
  8
0
 10
4.60167
 20
5.92168
 30
0.0
 40
0.01
 41
0.01
  0
SEQEND
 8
0
  0
POLYLINE
  8
0
 62
     0
 66
     1
 10
0
 20
0
 30
0.0
 40
0.72
 41
0.72
  0
VERTEX
  8
0
 10
4.60167
 20
5.92332
 30
0.0
 40
0.01
 41
0.01
  0
VERTEX
  8
0
 10
4.62999
 20
5.92668
 30
0.0
 40
0.01
 41
0.01
  0
VERTEX
  8
0
 10
4.655
 20
5.93835
 30
0.0
 40
0.01
 41
0.01
  0
VERTEX
  8
0
 10
4.67665
 20
5.955
 30
0.0
 40
0.01
 41
0.01
  0
SEQEND
 8
0
  0
POLYLINE
  8
0
 62
     0
 66
     1
 10
0
 20
0
 30
0.0
 40
0.72
 41
0.72
  0
VERTEX
  8
0
 10
4.67665
 20
5.95332
 30
0.0
 40
0.01
 41
0.01
  0
VERTEX
  8
0
 10
5.59
 20
6.86667
 30
0.0
 40
0.01
 41
0.01
  0
SEQEND
 8
0
  0
POLYLINE
  8
0
 62
     0
 66
     1
 10
0
 20
0
 30
0.0
 40
0.72
 41
0.72
  0
VERTEX
  8
0
 10
5.58832
 20
6.86667
 30
0.0
 40
0.01
 41
0.01
  0
VERTEX
  8
0
 10
5.60335
 20
6.88501
 30
0.0
 40
0.01
 41
0.01
  0
VERTEX
  8
0
 10
5.61333
 20
6.90665
 30
0.0
 40
0.01
 41
0.01
  0
VERTEX
  8
0
 10
5.62001
 20
6.92999
 30
0.0
 40
0.01
 41
0.01
  0
VERTEX
  8
0
 10
5.62001
 20
6.95332
 30
0.0
 40
0.01
 41
0.01
  0
VERTEX
  8
0
 10
5.61333
 20
6.97664
 30
0.0
 40
0.01
 41
0.01
  0
VERTEX
  8
0
 10
5.60335
 20
6.99835
 30
0.0
 40
0.01
 41
0.01
  0
VERTEX
  8
0
 10
5.58832
 20
7.01668
 30
0.0
 40
0.01
 41
0.01
  0
SEQEND
 8
0
  0
POLYLINE
  8
0
 62
     0
 66
     1
 10
0
 20
0
 30
0.0
 40
0.72
 41
0.72
  0
VERTEX
  8
0
 10
5.59
 20
7.01831
 30
0.0
 40
0.01
 41
0.01
  0
VERTEX
  8
0
 10
3.68164
 20
8.92668
 30
0.0
 40
0.01
 41
0.01
  0
SEQEND
 8
0
  0
POLYLINE
  8
0
 62
     0
 66
     1
 10
0
 20
0
 30
0.0
 40
0.72
 41
0.72
  0
VERTEX
  8
0
 10
3.68001
 20
8.92668
 30
0.0
 40
0.01
 41
0.01
  0
VERTEX
  8
0
 10
3.66168
 20
8.94165
 30
0.0
 40
0.01
 41
0.01
  0
VERTEX
  8
0
 10
3.63997
 20
8.95169
 30
0.0
 40
0.01
 41
0.01
  0
VERTEX
  8
0
 10
3.61664
 20
8.95831
 30
0.0
 40
0.01
 41
0.01
  0
VERTEX
  8
0
 10
3.59332
 20
8.95831
 30
0.0
 40
0.01
 41
0.01
  0
VERTEX
  8
0
 10
3.56999
 20
8.95169
 30
0.0
 40
0.01
 41
0.01
  0
VERTEX
  8
0
 10
3.54833
 20
8.94165
 30
0.0
 40
0.01
 41
0.01
  0
VERTEX
  8
0
 10
3.53
 20
8.92668
 30
0.0
 40
0.01
 41
0.01
  0
SEQEND
 8
0
  0
POLYLINE
  8
0
 62
     0
 66
     1
 10
0
 20
0
 30
0.0
 40
0.72
 41
0.72
  0
VERTEX
  8
0
 10
3.52832
 20
8.92668
 30
0.0
 40
0.01
 41
0.01
  0
VERTEX
  8
0
 10
1.62001
 20
7.01831
 30
0.0
 40
0.01
 41
0.01
  0
SEQEND
 8
0
  0
POLYLINE
  8
0
 62
     0
 66
     1
 10
0
 20
0
 30
0.0
 40
0.72
 41
0.72
  0
VERTEX
  8
0
 10
1.62169
 20
7.01668
 30
0.0
 40
0.01
 41
0.01
  0
VERTEX
  8
0
 10
1.60667
 20
6.99835
 30
0.0
 40
0.01
 41
0.01
  0
VERTEX
  8
0
 10
1.59668
 20
6.97664
 30
0.0
 40
0.01
 41
0.01
  0
VERTEX
  8
0
 10
1.59
 20
6.95332
 30
0.0
 40
0.01
 41
0.01
  0
VERTEX
  8
0
 10
1.59
 20
6.92999
 30
0.0
 40
0.01
 41
0.01
  0
VERTEX
  8
0
 10
1.59668
 20
6.90665
 30
0.0
 40
0.01
 41
0.01
  0
VERTEX
  8
0
 10
1.60667
 20
6.88501
 30
0.0
 40
0.01
 41
0.01
  0
VERTEX
  8
0
 10
1.62169
 20
6.86667
 30
0.0
 40
0.01
 41
0.01
  0
SEQEND
 8
0
  0
POLYLINE
  8
0
 62
     0
 66
     1
 10
0
 20
0
 30
0.0
 40
0.72
 41
0.72
  0
VERTEX
  8
0
 10
1.62001
 20
4.64836
 30
0.0
 40
0.01
 41
0.01
  0
VERTEX
  8
0
 10
3.52832
 20
2.73831
 30
0.0
 40
0.01
 41
0.01
  0
SEQEND
 8
0
  0
POLYLINE
  8
0
 62
     0
 66
     1
 10
0
 20
0
 30
0.0
 40
0.72
 41
0.72
  0
VERTEX
  8
0
 10
3.53
 20
2.73999
 30
0.0
 40
0.01
 41
0.01
  0
VERTEX
  8
0
 10
3.54497
 20
2.72664
 30
0.0
 40
0.01
 41
0.01
  0
VERTEX
  8
0
 10
3.565
 20
2.71667
 30
0.0
 40
0.01
 41
0.01
  0
VERTEX
  8
0
 10
3.58501
 20
2.70999
 30
0.0
 40
0.01
 41
0.01
  0
VERTEX
  8
0
 10
3.60499
 20
2.70831
 30
0.0
 40
0.01
 41
0.01
  0
VERTEX
  8
0
 10
3.625
 20
2.70999
 30
0.0
 40
0.01
 41
0.01
  0
VERTEX
  8
0
 10
3.64501
 20
2.71667
 30
0.0
 40
0.01
 41
0.01
  0
VERTEX
  8
0
 10
3.66499
 20
2.72664
 30
0.0
 40
0.01
 41
0.01
  0
VERTEX
  8
0
 10
3.68001
 20
2.73999
 30
0.0
 40
0.01
 41
0.01
  0
SEQEND
 8
0
  0
POLYLINE
  8
0
 62
     0
 66
     1
 10
0
 20
0
 30
0.0
 40
0.72
 41
0.72
  0
VERTEX
  8
0
 10
3.68164
 20
2.73831
 30
0.0
 40
0.01
 41
0.01
  0
VERTEX
  8
0
 10
5.59
 20
4.64836
 30
0.0
 40
0.01
 41
0.01
  0
SEQEND
 8
0
  0
POLYLINE
  8
0
 62
     0
 66
     1
 10
0
 20
0
 30
0.0
 40
0.72
 41
0.72
  0
VERTEX
  8
0
 10
5.58832
 20
4.64836
 30
0.0
 40
0.01
 41
0.01
  0
VERTEX
  8
0
 10
5.60335
 20
4.66664
 30
0.0
 40
0.01
 41
0.01
  0
VERTEX
  8
0
 10
5.61333
 20
4.68835
 30
0.0
 40
0.01
 41
0.01
  0
VERTEX
  8
0
 10
5.62001
 20
4.71167
 30
0.0
 40
0.01
 41
0.01
  0
VERTEX
  8
0
 10
5.62001
 20
4.735
 30
0.0
 40
0.01
 41
0.01
  0
VERTEX
  8
0
 10
5.61333
 20
4.75833
 30
0.0
 40
0.01
 41
0.01
  0
VERTEX
  8
0
 10
5.60335
 20
4.77997
 30
0.0
 40
0.01
 41
0.01
  0
VERTEX
  8
0
 10
5.58832
 20
4.79832
 30
0.0
 40
0.01
 41
0.01
  0
SEQEND
 8
0
  0
POLYLINE
  8
0
 62
     0
 66
     1
 10
0
 20
0
 30
0.0
 40
0.72
 41
0.72
  0
VERTEX
  8
0
 10
5.59
 20
4.8
 30
0.0
 40
0.01
 41
0.01
  0
VERTEX
  8
0
 10
4.67665
 20
5.71167
 30
0.0
 40
0.01
 41
0.01
  0
SEQEND
 8
0
  0
POLYLINE
  8
0
 62
     0
 66
     1
 10
0
 20
0
 30
0.0
 40
0.72
 41
0.72
  0
VERTEX
  8
0
 10
4.67665
 20
5.71167
 30
0.0
 40
0.01
 41
0.01
  0
VERTEX
  8
0
 10
4.66168
 20
5.72501
 30
0.0
 40
0.01
 41
0.01
  0
VERTEX
  8
0
 10
4.64165
 20
5.735
 30
0.0
 40
0.01
 41
0.01
  0
VERTEX
  8
0
 10
4.62169
 20
5.74167
 30
0.0
 40
0.01
 41
0.01
  0
VERTEX
  8
0
 10
4.60167
 20
5.74336
 30
0.0
 40
0.01
 41
0.01
  0
SEQEND
 8
0
  0
POLYLINE
  8
0
 62
     0
 66
     1
 10
0
 20
0
 30
0.0
 40
0.72
 41
0.72
  0
VERTEX
  8
0
 10
4.60167
 20
5.74336
 30
0.0
 40
0.01
 41
0.01
  0
VERTEX
  8
0
 10
2.60835
 20
5.74336
 30
0.0
 40
0.01
 41
0.01
  0
SEQEND
 8
0
  0
POLYLINE
  8
0
 62
     0
 66
     1
 10
0
 20
0
 30
0.0
 40
0.72
 41
0.72
  0
VERTEX
  8
0
 10
2.60835
 20
5.74336
 30
0.0
 40
0.01
 41
0.01
  0
VERTEX
  8
0
 10
2.58003
 20
5.73999
 30
0.0
 40
0.01
 41
0.01
  0
VERTEX
  8
0
 10
2.55501
 20
5.72833
 30
0.0
 40
0.01
 41
0.01
  0
VERTEX
  8
0
 10
2.53331
 20
5.71167
 30
0.0
 40
0.01
 41
0.01
  0
SEQEND
 8
0
  0
POLYLINE
  8
0
 62
     0
 66
     1
 10
0
 20
0
 30
0.0
 40
0.72
 41
0.72
  0
VERTEX
  8
0
 10
2.53331
 20
5.71167
 30
0.0
 40
0.01
 41
0.01
  0
VERTEX
  8
0
 10
1.62001
 20
4.8
 30
0.0
 40
0.01
 41
0.01
  0
SEQEND
 8
0
  0
POLYLINE
  8
0
 62
     0
 66
     1
 10
0
 20
0
 30
0.0
 40
0.72
 41
0.72
  0
VERTEX
  8
0
 10
1.62169
 20
4.79832
 30
0.0
 40
0.01
 41
0.01
  0
VERTEX
  8
0
 10
1.60667
 20
4.77997
 30
0.0
 40
0.01
 41
0.01
  0
VERTEX
  8
0
 10
1.59668
 20
4.75833
 30
0.0
 40
0.01
 41
0.01
  0
VERTEX
  8
0
 10
1.59
 20
4.735
 30
0.0
 40
0.01
 41
0.01
  0
VERTEX
  8
0
 10
1.59
 20
4.71167
 30
0.0
 40
0.01
 41
0.01
  0
VERTEX
  8
0
 10
1.59668
 20
4.68835
 30
0.0
 40
0.01
 41
0.01
  0
VERTEX
  8
0
 10
1.60667
 20
4.66664
 30
0.0
 40
0.01
 41
0.01
  0
VERTEX
  8
0
 10
1.62169
 20
4.64836
 30
0.0
 40
0.01
 41
0.01
  0
SEQEND
 8
0
  0
POLYLINE
  8
0
 62
     1
 66
     1
 10
0
 20
0
 30
0.0
 40
0.72
 41
0.72
  0
VERTEX
  8
0
 10
1.595
 20
4.77499
 30
0.0
 40
0.01
 41
0.01
  0
VERTEX
  8
0
 10
1.09001
 20
4.26831
 30
0.0
 40
0.01
 41
0.01
  0
SEQEND
 8
0
  0
POLYLINE
  8
0
 62
     1
 66
     1
 10
0
 20
0
 30
0.0
 40
0.72
 41
0.72
  0
VERTEX
  8
0
 10
3.655
 20
2.71335
 30
0.0
 40
0.01
 41
0.01
  0
VERTEX
  8
0
 10
3.15001
 20
2.20831
 30
0.0
 40
0.01
 41
0.01
  0
SEQEND
 8
0
  0
POLYLINE
  8
0
 62
     1
 66
     1
 10
0
 20
0
 30
0.0
 40
0.72
 41
0.72
  0
VERTEX
  8
0
 10
1.14665
 20
4.22501
 30
0.0
 40
0.01
 41
0.01
  0
VERTEX
  8
0
 10
3.10499
 20
2.265
 30
0.0
 40
0.01
 41
0.01
  0
SEQEND
 8
0
  0
POLYLINE
  8
0
 62
     1
 66
     1
 10
0
 20
0
 30
0.0
 70
     1
 40
0
 41
0
  0
VERTEX
  8
0
 10
1.155
 20
4.23332
 30
0.0
 40
0
 41
0
  0
VERTEX
  8
0
 10
1.13835
 20
4.21499
 30
0.0
 40
0
 41
0
  0
VERTEX
  8
0
 10
1.095
 20
4.27499
 30
0.0
 40
0
 41
0
  0
VERTEX
  8
0
 10
1.155
 20
4.23332
 30
0.0
 40
0
 41
0
  0
SEQEND
 8
0
  0
POLYLINE
  8
0
 62
     1
 66
     1
 10
0
 20
0
 30
0.0
 70
     1
 40
0
 41
0
  0
VERTEX
  8
0
 10
3.11501
 20
2.27336
 30
0.0
 40
0
 41
0
  0
VERTEX
  8
0
 10
3.09668
 20
2.25665
 30
0.0
 40
0
 41
0
  0
VERTEX
  8
0
 10
3.15668
 20
2.21499
 30
0.0
 40
0
 41
0
  0
VERTEX
  8
0
 10
3.11501
 20
2.27336
 30
0.0
 40
0
 41
0
  0
SEQEND
 8
0
  0
POLYLINE
  8
0
 62
     1
 66
     1
 10
0
 20
0
 30
0.0
 70
     1
 40
0
 41
0
  0
VERTEX
  8
0
 10
2.13569
 20
3.33922
 30
0.0
 40
0
 41
0
  0
VERTEX
  8
0
 10
2.10965
 20
3.36526
 30
0.0
 40
0
 41
0
  0
VERTEX
  8
0
 10
2.11139
 20
3.367
 30
0.0
 40
0
 41
0
  0
VERTEX
  8
0
 10
2.12354
 20
3.35485
 30
0.0
 40
0
 41
0
  0
VERTEX
  8
0
 10
2.19754
 20
3.42885
 30
0.0
 40
0
 41
0
  0
VERTEX
  8
0
 10
2.17453
 20
3.42885
 30
0.0
 40
0
 41
0
  0
VERTEX
  8
0
 10
2.17453
 20
3.43146
 30
0.0
 40
0
 41
0
  0
VERTEX
  8
0
 10
2.20079
 20
3.43124
 30
0.0
 40
0
 41
0
  0
VERTEX
  8
0
 10
2.2021
 20
3.42993
 30
0.0
 40
0
 41
0
  0
VERTEX
  8
0
 10
2.12528
 20
3.35311
 30
0.0
 40
0
 41
0
  0
VERTEX
  8
0
 10
2.13743
 20
3.34096
 30
0.0
 40
0
 41
0
  0
VERTEX
  8
0
 10
2.13569
 20
3.33922
 30
0.0
 40
0
 41
0
  0
SEQEND
 8
0
  0
POLYLINE
  8
0
 62
     1
 66
     1
 10
0
 20
0
 30
0.0
 70
     1
 40
0
 41
0
  0
VERTEX
  8
0
 10
2.22613
 20
3.27569
 30
0.0
 40
0
 41
0
  0
VERTEX
  8
0
 10
2.199
 20
3.2759
 30
0.0
 40
0
 41
0
  0
VERTEX
  8
0
 10
2.17253
 20
3.30239
 30
0.0
 40
0
 41
0
  0
VERTEX
  8
0
 10
2.17253
 20
3.32929
 30
0.0
 40
0
 41
0
  0
VERTEX
  8
0
 10
2.21158
 20
3.36836
 30
0.0
 40
0
 41
0
  0
VERTEX
  8
0
 10
2.26411
 20
3.36792
 30
0.0
 40
0
 41
0
  0
VERTEX
  8
0
 10
2.27735
 20
3.35468
 30
0.0
 40
0
 41
0
  0
VERTEX
  8
0
 10
2.27561
 20
3.35294
 30
0.0
 40
0
 41
0
  0
VERTEX
  8
0
 10
2.26303
 20
3.36553
 30
0.0
 40
0
 41
0
  0
VERTEX
  8
0
 10
2.21246
 20
3.36575
 30
0.0
 40
0
 41
0
  0
VERTEX
  8
0
 10
2.20096
 20
3.35425
 30
0.0
 40
0
 41
0
  0
VERTEX
  8
0
 10
2.23915
 20
3.31606
 30
0.0
 40
0
 41
0
  0
VERTEX
  8
0
 10
2.23936
 20
3.28893
 30
0.0
 40
0
 41
0
  0
VERTEX
  8
0
 10
2.22613
 20
3.27569
 30
0.0
 40
0
 41
0
  0
SEQEND
 8
0
  0
POLYLINE
  8
0
 62
     1
 66
     1
 10
0
 20
0
 30
0.0
 70
     1
 40
0
 41
0
  0
VERTEX
  8
0
 10
2.22439
 20
3.27743
 30
0.0
 40
0
 41
0
  0
VERTEX
  8
0
 10
2.23654
 20
3.28958
 30
0.0
 40
0
 41
0
  0
VERTEX
  8
0
 10
2.23654
 20
3.31432
 30
0.0
 40
0
 41
0
  0
VERTEX
  8
0
 10
2.19879
 20
3.35208
 30
0.0
 40
0
 41
0
  0
VERTEX
  8
0
 10
2.17426
 20
3.32756
 30
0.0
 40
0
 41
0
  0
VERTEX
  8
0
 10
2.17404
 20
3.3026
 30
0.0
 40
0
 41
0
  0
VERTEX
  8
0
 10
2.19943
 20
3.27721
 30
0.0
 40
0
 41
0
  0
VERTEX
  8
0
 10
2.22439
 20
3.27743
 30
0.0
 40
0
 41
0
  0
SEQEND
 8
0
  0
POLYLINE
  8
0
 62
     1
 66
     1
 10
0
 20
0
 30
0.0
 70
     1
 40
0
 41
0
  0
VERTEX
  8
0
 10
2.34039
 20
3.28904
 30
0.0
 40
0
 41
0
  0
VERTEX
  8
0
 10
2.30154
 20
3.27624
 30
0.0
 40
0
 41
0
  0
VERTEX
  8
0
 10
2.30089
 20
3.27863
 30
0.0
 40
0
 41
0
  0
VERTEX
  8
0
 10
2.33996
 20
3.29164
 30
0.0
 40
0
 41
0
  0
VERTEX
  8
0
 10
2.34039
 20
3.28904
 30
0.0
 40
0
 41
0
  0
SEQEND
 8
0
  0
POLYLINE
  8
0
 62
     1
 66
     1
 10
0
 20
0
 30
0.0
 70
     1
 40
0
 41
0
  0
VERTEX
  8
0
 10
2.32781
 20
3.30249
 30
0.0
 40
0
 41
0
  0
VERTEX
  8
0
 10
2.28614
 20
3.28686
 30
0.0
 40
0
 41
0
  0
VERTEX
  8
0
 10
2.28592
 20
3.28925
 30
0.0
 40
0
 41
0
  0
VERTEX
  8
0
 10
2.32715
 20
3.30488
 30
0.0
 40
0
 41
0
  0
VERTEX
  8
0
 10
2.32781
 20
3.30249
 30
0.0
 40
0
 41
0
  0
SEQEND
 8
0
  0
ENDSEC
  0
EOF
