  0
SECTION
  2
HEADER
  9
$ACADVER
  1
AC1009
  9
$FILLMODE
 70
 0
  9
$SPLFRAME
 70
 1
  9
$EXTMIN
 10
0
 20
0
 30
0.0
  9
$EXTMAX
 10
41.6667
 20
41.6667
 30
0.0
  0
ENDSEC
  0
SECTION
  2
TABLES
  0
TABLE
  2
LAYER
 70
1
  0
LAYER
  2
0
 70
     0
 62
     7
  6
CONTINUOUS
  0
ENDTAB
  0
ENDSEC
  0
SECTION
  2
ENTITIES
  0
POLYLINE
  8
0
 62
     0
 66
     1
 10
0
 20
0
 30
0.0
 40
0.72
 41
0.72
  0
VERTEX
  8
0
 10
5.05501
 20
2.82332
 30
0.0
 40
0.01
 41
0.01
  0
VERTEX
  8
0
 10
5.08165
 20
2.82669
 30
0.0
 40
0.01
 41
0.01
  0
VERTEX
  8
0
 10
5.10667
 20
2.83331
 30
0.0
 40
0.01
 41
0.01
  0
VERTEX
  8
0
 10
5.12831
 20
2.84503
 30
0.0
 40
0.01
 41
0.01
  0
VERTEX
  8
0
 10
5.15001
 20
2.86168
 30
0.0
 40
0.01
 41
0.01
  0
VERTEX
  8
0
 10
5.16667
 20
2.88333
 30
0.0
 40
0.01
 41
0.01
  0
VERTEX
  8
0
 10
5.17833
 20
2.90497
 30
0.0
 40
0.01
 41
0.01
  0
VERTEX
  8
0
 10
5.185
 20
2.92999
 30
0.0
 40
0.01
 41
0.01
  0
VERTEX
  8
0
 10
5.18832
 20
2.95668
 30
0.0
 40
0.01
 41
0.01
  0
SEQEND
 8
0
  0
POLYLINE
  8
0
 62
     0
 66
     1
 10
0
 20
0
 30
0.0
 40
0.72
 41
0.72
  0
VERTEX
  8
0
 10
5.05501
 20
2.82332
 30
0.0
 40
0.01
 41
0.01
  0
VERTEX
  8
0
 10
1.905
 20
2.82332
 30
0.0
 40
0.01
 41
0.01
  0
SEQEND
 8
0
  0
POLYLINE
  8
0
 62
     0
 66
     1
 10
0
 20
0
 30
0.0
 40
0.72
 41
0.72
  0
VERTEX
  8
0
 10
1.77165
 20
2.95668
 30
0.0
 40
0.01
 41
0.01
  0
VERTEX
  8
0
 10
1.77501
 20
2.92999
 30
0.0
 40
0.01
 41
0.01
  0
VERTEX
  8
0
 10
1.78168
 20
2.90497
 30
0.0
 40
0.01
 41
0.01
  0
VERTEX
  8
0
 10
1.79335
 20
2.88333
 30
0.0
 40
0.01
 41
0.01
  0
VERTEX
  8
0
 10
1.81
 20
2.86168
 30
0.0
 40
0.01
 41
0.01
  0
VERTEX
  8
0
 10
1.83165
 20
2.84503
 30
0.0
 40
0.01
 41
0.01
  0
VERTEX
  8
0
 10
1.85335
 20
2.83331
 30
0.0
 40
0.01
 41
0.01
  0
VERTEX
  8
0
 10
1.87831
 20
2.82669
 30
0.0
 40
0.01
 41
0.01
  0
VERTEX
  8
0
 10
1.905
 20
2.82332
 30
0.0
 40
0.01
 41
0.01
  0
SEQEND
 8
0
  0
POLYLINE
  8
0
 62
     0
 66
     1
 10
0
 20
0
 30
0.0
 40
0.72
 41
0.72
  0
VERTEX
  8
0
 10
1.77165
 20
2.95668
 30
0.0
 40
0.01
 41
0.01
  0
VERTEX
  8
0
 10
1.77165
 20
9.05835
 30
0.0
 40
0.01
 41
0.01
  0
SEQEND
 8
0
  0
POLYLINE
  8
0
 62
     0
 66
     1
 10
0
 20
0
 30
0.0
 40
0.72
 41
0.72
  0
VERTEX
  8
0
 10
1.905
 20
9.19165
 30
0.0
 40
0.01
 41
0.01
  0
VERTEX
  8
0
 10
1.87831
 20
9.18835
 30
0.0
 40
0.01
 41
0.01
  0
VERTEX
  8
0
 10
1.85335
 20
9.18167
 30
0.0
 40
0.01
 41
0.01
  0
VERTEX
  8
0
 10
1.83165
 20
9.17
 30
0.0
 40
0.01
 41
0.01
  0
VERTEX
  8
0
 10
1.81
 20
9.15335
 30
0.0
 40
0.01
 41
0.01
  0
VERTEX
  8
0
 10
1.79335
 20
9.13165
 30
0.0
 40
0.01
 41
0.01
  0
VERTEX
  8
0
 10
1.78168
 20
9.11
 30
0.0
 40
0.01
 41
0.01
  0
VERTEX
  8
0
 10
1.77501
 20
9.08499
 30
0.0
 40
0.01
 41
0.01
  0
VERTEX
  8
0
 10
1.77165
 20
9.05835
 30
0.0
 40
0.01
 41
0.01
  0
SEQEND
 8
0
  0
POLYLINE
  8
0
 62
     0
 66
     1
 10
0
 20
0
 30
0.0
 40
0.72
 41
0.72
  0
VERTEX
  8
0
 10
1.905
 20
9.19333
 30
0.0
 40
0.01
 41
0.01
  0
VERTEX
  8
0
 10
5.05501
 20
9.19333
 30
0.0
 40
0.01
 41
0.01
  0
SEQEND
 8
0
  0
POLYLINE
  8
0
 62
     0
 66
     1
 10
0
 20
0
 30
0.0
 40
0.72
 41
0.72
  0
VERTEX
  8
0
 10
5.18832
 20
9.05835
 30
0.0
 40
0.01
 41
0.01
  0
VERTEX
  8
0
 10
5.185
 20
9.08499
 30
0.0
 40
0.01
 41
0.01
  0
VERTEX
  8
0
 10
5.17833
 20
9.11
 30
0.0
 40
0.01
 41
0.01
  0
VERTEX
  8
0
 10
5.16667
 20
9.13165
 30
0.0
 40
0.01
 41
0.01
  0
VERTEX
  8
0
 10
5.15001
 20
9.15335
 30
0.0
 40
0.01
 41
0.01
  0
VERTEX
  8
0
 10
5.12831
 20
9.17
 30
0.0
 40
0.01
 41
0.01
  0
VERTEX
  8
0
 10
5.10667
 20
9.18167
 30
0.0
 40
0.01
 41
0.01
  0
VERTEX
  8
0
 10
5.08165
 20
9.18835
 30
0.0
 40
0.01
 41
0.01
  0
VERTEX
  8
0
 10
5.05501
 20
9.19165
 30
0.0
 40
0.01
 41
0.01
  0
SEQEND
 8
0
  0
POLYLINE
  8
0
 62
     0
 66
     1
 10
0
 20
0
 30
0.0
 40
0.72
 41
0.72
  0
VERTEX
  8
0
 10
5.18832
 20
9.05835
 30
0.0
 40
0.01
 41
0.01
  0
VERTEX
  8
0
 10
5.18832
 20
2.95668
 30
0.0
 40
0.01
 41
0.01
  0
SEQEND
 8
0
  0
POLYLINE
  8
0
 62
     1
 66
     1
 10
0
 20
0
 30
0.0
 40
0.72
 41
0.72
  0
VERTEX
  8
0
 10
5.09999
 20
9.19333
 30
0.0
 40
0.01
 41
0.01
  0
VERTEX
  8
0
 10
5.76335
 20
9.19333
 30
0.0
 40
0.01
 41
0.01
  0
SEQEND
 8
0
  0
POLYLINE
  8
0
 62
     1
 66
     1
 10
0
 20
0
 30
0.0
 40
0.72
 41
0.72
  0
VERTEX
  8
0
 10
5.09999
 20
2.82332
 30
0.0
 40
0.01
 41
0.01
  0
VERTEX
  8
0
 10
5.76335
 20
2.82332
 30
0.0
 40
0.01
 41
0.01
  0
SEQEND
 8
0
  0
POLYLINE
  8
0
 62
     1
 66
     1
 10
0
 20
0
 30
0.0
 40
0.72
 41
0.72
  0
VERTEX
  8
0
 10
5.75331
 20
9.10333
 30
0.0
 40
0.01
 41
0.01
  0
VERTEX
  8
0
 10
5.75331
 20
2.91165
 30
0.0
 40
0.01
 41
0.01
  0
SEQEND
 8
0
  0
POLYLINE
  8
0
 62
     1
 66
     1
 10
0
 20
0
 30
0.0
 70
     1
 40
0
 41
0
  0
VERTEX
  8
0
 10
5.76833
 20
9.10333
 30
0.0
 40
0
 41
0
  0
VERTEX
  8
0
 10
5.73833
 20
9.10333
 30
0.0
 40
0
 41
0
  0
VERTEX
  8
0
 10
5.75331
 20
9.19333
 30
0.0
 40
0
 41
0
  0
VERTEX
  8
0
 10
5.76833
 20
9.10333
 30
0.0
 40
0
 41
0
  0
SEQEND
 8
0
  0
POLYLINE
  8
0
 62
     1
 66
     1
 10
0
 20
0
 30
0.0
 70
     1
 40
0
 41
0
  0
VERTEX
  8
0
 10
5.76833
 20
2.91165
 30
0.0
 40
0
 41
0
  0
VERTEX
  8
0
 10
5.73833
 20
2.91165
 30
0.0
 40
0
 41
0
  0
VERTEX
  8
0
 10
5.75331
 20
2.82332
 30
0.0
 40
0
 41
0
  0
VERTEX
  8
0
 10
5.76833
 20
2.91165
 30
0.0
 40
0
 41
0
  0
SEQEND
 8
0
  0
POLYLINE
  8
0
 62
     1
 66
     1
 10
0
 20
0
 30
0.0
 70
     1
 40
0
 41
0
  0
VERTEX
  8
0
 10
5.85894
 20
6.05997
 30
0.0
 40
0
 41
0
  0
VERTEX
  8
0
 10
5.84506
 20
6.05997
 30
0.0
 40
0
 41
0
  0
VERTEX
  8
0
 10
5.84506
 20
6.14331
 30
0.0
 40
0
 41
0
  0
VERTEX
  8
0
 10
5.84603
 20
6.14336
 30
0.0
 40
0
 41
0
  0
VERTEX
  8
0
 10
5.85504
 20
6.14136
 30
0.0
 40
0
 41
0
  0
VERTEX
  8
0
 10
5.8559
 20
6.14093
 30
0.0
 40
0
 41
0
  0
VERTEX
  8
0
 10
5.85644
 20
6.14043
 30
0.0
 40
0
 41
0
  0
VERTEX
  8
0
 10
5.86253
 20
6.13567
 30
0.0
 40
0
 41
0
  0
VERTEX
  8
0
 10
5.86979
 20
6.12883
 30
0.0
 40
0
 41
0
  0
VERTEX
  8
0
 10
5.87088
 20
6.12725
 30
0.0
 40
0
 41
0
  0
VERTEX
  8
0
 10
5.87099
 20
6.12585
 30
0.0
 40
0
 41
0
  0
VERTEX
  8
0
 10
5.87625
 20
6.11743
 30
0.0
 40
0
 41
0
  0
VERTEX
  8
0
 10
5.8839
 20
6.10778
 30
0.0
 40
0
 41
0
  0
VERTEX
  8
0
 10
5.88519
 20
6.10576
 30
0.0
 40
0
 41
0
  0
VERTEX
  8
0
 10
5.88775
 20
6.10349
 30
0.0
 40
0
 41
0
  0
VERTEX
  8
0
 10
5.90256
 20
6.09139
 30
0.0
 40
0
 41
0
  0
VERTEX
  8
0
 10
5.91624
 20
6.08168
 30
0.0
 40
0
 41
0
  0
VERTEX
  8
0
 10
5.91818
 20
6.0806
 30
0.0
 40
0
 41
0
  0
VERTEX
  8
0
 10
5.91986
 20
6.08011
 30
0.0
 40
0
 41
0
  0
VERTEX
  8
0
 10
5.93799
 20
6.07386
 30
0.0
 40
0
 41
0
  0
VERTEX
  8
0
 10
5.94401
 20
6.07386
 30
0.0
 40
0
 41
0
  0
VERTEX
  8
0
 10
5.94862
 20
6.07386
 30
0.0
 40
0
 41
0
  0
VERTEX
  8
0
 10
5.96121
 20
6.07875
 30
0.0
 40
0
 41
0
  0
VERTEX
  8
0
 10
5.96246
 20
6.07972
 30
0.0
 40
0
 41
0
  0
VERTEX
  8
0
 10
5.96322
 20
6.0814
 30
0.0
 40
0
 41
0
  0
VERTEX
  8
0
 10
5.96739
 20
6.089
 30
0.0
 40
0
 41
0
  0
VERTEX
  8
0
 10
5.97006
 20
6.09801
 30
0.0
 40
0
 41
0
  0
VERTEX
  8
0
 10
5.97006
 20
6.101
 30
0.0
 40
0
 41
0
  0
VERTEX
  8
0
 10
5.97006
 20
6.10621
 30
0.0
 40
0
 41
0
  0
VERTEX
  8
0
 10
5.96701
 20
6.12053
 30
0.0
 40
0
 41
0
  0
VERTEX
  8
0
 10
5.96636
 20
6.12183
 30
0.0
 40
0
 41
0
  0
VERTEX
  8
0
 10
5.96506
 20
6.12357
 30
0.0
 40
0
 41
0
  0
VERTEX
  8
0
 10
5.96072
 20
6.1285
 30
0.0
 40
0
 41
0
  0
VERTEX
  8
0
 10
5.95731
 20
6.12942
 30
0.0
 40
0
 41
0
  0
VERTEX
  8
0
 10
5.95617
 20
6.12942
 30
0.0
 40
0
 41
0
  0
VERTEX
  8
0
 10
5.95617
 20
6.14331
 30
0.0
 40
0
 41
0
  0
VERTEX
  8
0
 10
5.95844
 20
6.14304
 30
0.0
 40
0
 41
0
  0
VERTEX
  8
0
 10
5.97558
 20
6.13235
 30
0.0
 40
0
 41
0
  0
VERTEX
  8
0
 10
5.97678
 20
6.13051
 30
0.0
 40
0
 41
0
  0
VERTEX
  8
0
 10
5.97743
 20
6.12975
 30
0.0
 40
0
 41
0
  0
VERTEX
  8
0
 10
5.98133
 20
6.11917
 30
0.0
 40
0
 41
0
  0
VERTEX
  8
0
 10
5.98394
 20
6.10539
 30
0.0
 40
0
 41
0
  0
VERTEX
  8
0
 10
5.98394
 20
6.10078
 30
0.0
 40
0
 41
0
  0
VERTEX
  8
0
 10
5.98394
 20
6.09335
 30
0.0
 40
0
 41
0
  0
VERTEX
  8
0
 10
5.97456
 20
6.07289
 30
0.0
 40
0
 41
0
  0
VERTEX
  8
0
 10
5.97265
 20
6.07104
 30
0.0
 40
0
 41
0
  0
VERTEX
  8
0
 10
5.9706
 20
6.06947
 30
0.0
 40
0
 41
0
  0
VERTEX
  8
0
 10
5.95133
 20
6.05997
 30
0.0
 40
0
 41
0
  0
VERTEX
  8
0
 10
5.94488
 20
6.05997
 30
0.0
 40
0
 41
0
  0
VERTEX
  8
0
 10
5.94069
 20
6.05997
 30
0.0
 40
0
 41
0
  0
VERTEX
  8
0
 10
5.92958
 20
6.06269
 30
0.0
 40
0
 41
0
  0
VERTEX
  8
0
 10
5.92817
 20
6.06324
 30
0.0
 40
0
 41
0
  0
VERTEX
  8
0
 10
5.92572
 20
6.06464
 30
0.0
 40
0
 41
0
  0
VERTEX
  8
0
 10
5.91818
 20
6.06871
 30
0.0
 40
0
 41
0
  0
VERTEX
  8
0
 10
5.91254
 20
6.07246
 30
0.0
 40
0
 41
0
  0
VERTEX
  8
0
 10
5.91103
 20
6.07365
 30
0.0
 40
0
 41
0
  0
VERTEX
  8
0
 10
5.90869
 20
6.0749
 30
0.0
 40
0
 41
0
  0
VERTEX
  8
0
 10
5.88894
 20
6.09187
 30
0.0
 40
0
 41
0
  0
VERTEX
  8
0
 10
5.88629
 20
6.09406
 30
0.0
 40
0
 41
0
  0
VERTEX
  8
0
 10
5.88297
 20
6.09703
 30
0.0
 40
0
 41
0
  0
VERTEX
  8
0
 10
5.87349
 20
6.10685
 30
0.0
 40
0
 41
0
  0
VERTEX
  8
0
 10
5.86908
 20
6.11265
 30
0.0
 40
0
 41
0
  0
VERTEX
  8
0
 10
5.86828
 20
6.11358
 30
0.0
 40
0
 41
0
  0
VERTEX
  8
0
 10
5.86675
 20
6.11472
 30
0.0
 40
0
 41
0
  0
VERTEX
  8
0
 10
5.85975
 20
6.12232
 30
0.0
 40
0
 41
0
  0
VERTEX
  8
0
 10
5.85894
 20
6.12292
 30
0.0
 40
0
 41
0
  0
VERTEX
  8
0
 10
5.85894
 20
6.05997
 30
0.0
 40
0
 41
0
  0
SEQEND
 8
0
  0
POLYLINE
  8
0
 62
     1
 66
     1
 10
0
 20
0
 30
0.0
 70
     1
 40
0
 41
0
  0
VERTEX
  8
0
 10
5.92188
 20
6.02081
 30
0.0
 40
0
 41
0
  0
VERTEX
  8
0
 10
5.92188
 20
6.02297
 30
0.0
 40
0
 41
0
  0
VERTEX
  8
0
 10
5.92546
 20
6.02932
 30
0.0
 40
0
 41
0
  0
VERTEX
  8
0
 10
5.93137
 20
6.03372
 30
0.0
 40
0
 41
0
  0
VERTEX
  8
0
 10
5.93251
 20
6.03449
 30
0.0
 40
0
 41
0
  0
VERTEX
  8
0
 10
5.93338
 20
6.03557
 30
0.0
 40
0
 41
0
  0
VERTEX
  8
0
 10
5.94526
 20
6.03882
 30
0.0
 40
0
 41
0
  0
VERTEX
  8
0
 10
5.94922
 20
6.03882
 30
0.0
 40
0
 41
0
  0
VERTEX
  8
0
 10
5.9554
 20
6.03882
 30
0.0
 40
0
 41
0
  0
VERTEX
  8
0
 10
5.97233
 20
6.02943
 30
0.0
 40
0
 41
0
  0
VERTEX
  8
0
 10
5.97396
 20
6.02754
 30
0.0
 40
0
 41
0
  0
VERTEX
  8
0
 10
5.97532
 20
6.02661
 30
0.0
 40
0
 41
0
  0
VERTEX
  8
0
 10
5.98096
 20
6.01582
 30
0.0
 40
0
 41
0
  0
VERTEX
  8
0
 10
5.98394
 20
6.00199
 30
0.0
 40
0
 41
0
  0
VERTEX
  8
0
 10
5.98394
 20
5.99738
 30
0.0
 40
0
 41
0
  0
VERTEX
  8
0
 10
5.98394
 20
5.99357
 30
0.0
 40
0
 41
0
  0
VERTEX
  8
0
 10
5.98139
 20
5.98207
 30
0.0
 40
0
 41
0
  0
VERTEX
  8
0
 10
5.97547
 20
5.96894
 30
0.0
 40
0
 41
0
  0
VERTEX
  8
0
 10
5.97374
 20
5.96699
 30
0.0
 40
0
 41
0
  0
VERTEX
  8
0
 10
5.97174
 20
5.96531
 30
0.0
 40
0
 41
0
  0
VERTEX
  8
0
 10
5.95454
 20
5.95549
 30
0.0
 40
0
 41
0
  0
VERTEX
  8
0
 10
5.94879
 20
5.95549
 30
0.0
 40
0
 41
0
  0
VERTEX
  8
0
 10
5.94472
 20
5.95549
 30
0.0
 40
0
 41
0
  0
VERTEX
  8
0
 10
5.93371
 20
5.95913
 30
0.0
 40
0
 41
0
  0
VERTEX
  8
0
 10
5.93251
 20
5.95983
 30
0.0
 40
0
 41
0
  0
VERTEX
  8
0
 10
5.93104
 20
5.96135
 30
0.0
 40
0
 41
0
  0
VERTEX
  8
0
 10
5.92253
 20
5.9716
 30
0.0
 40
0
 41
0
  0
VERTEX
  8
0
 10
5.92188
 20
5.97307
 30
0.0
 40
0
 41
0
  0
VERTEX
  8
0
 10
5.92057
 20
5.97247
 30
0.0
 40
0
 41
0
  0
VERTEX
  8
0
 10
5.91553
 20
5.96678
 30
0.0
 40
0
 41
0
  0
VERTEX
  8
0
 10
5.91
 20
5.96081
 30
0.0
 40
0
 41
0
  0
VERTEX
  8
0
 10
5.90842
 20
5.96004
 30
0.0
 40
0
 41
0
  0
VERTEX
  8
0
 10
5.90625
 20
5.9601
 30
0.0
 40
0
 41
0
  0
VERTEX
  8
0
 10
5.8916
 20
5.95549
 30
0.0
 40
0
 41
0
  0
VERTEX
  8
0
 10
5.88672
 20
5.95549
 30
0.0
 40
0
 41
0
  0
VERTEX
  8
0
 10
5.87929
 20
5.95549
 30
0.0
 40
0
 41
0
  0
VERTEX
  8
0
 10
5.85906
 20
5.96508
 30
0.0
 40
0
 41
0
  0
VERTEX
  8
0
 10
5.85699
 20
5.96699
 30
0.0
 40
0
 41
0
  0
VERTEX
  8
0
 10
5.854
 20
5.96911
 30
0.0
 40
0
 41
0
  0
VERTEX
  8
0
 10
5.84657
 20
5.98061
 30
0.0
 40
0
 41
0
  0
VERTEX
  8
0
 10
5.84506
 20
5.99303
 30
0.0
 40
0
 41
0
  0
VERTEX
  8
0
 10
5.84506
 20
5.99715
 30
0.0
 40
0
 41
0
  0
VERTEX
  8
0
 10
5.84506
 20
6.00469
 30
0.0
 40
0
 41
0
  0
VERTEX
  8
0
 10
5.85504
 20
6.02542
 30
0.0
 40
0
 41
0
  0
VERTEX
  8
0
 10
5.85699
 20
6.02732
 30
0.0
 40
0
 41
0
  0
VERTEX
  8
0
 10
5.85801
 20
6.03019
 30
0.0
 40
0
 41
0
  0
VERTEX
  8
0
 10
5.86914
 20
6.0374
 30
0.0
 40
0
 41
0
  0
VERTEX
  8
0
 10
5.88265
 20
6.03882
 30
0.0
 40
0
 41
0
  0
VERTEX
  8
0
 10
5.88715
 20
6.03882
 30
0.0
 40
0
 41
0
  0
VERTEX
  8
0
 10
5.89274
 20
6.03882
 30
0.0
 40
0
 41
0
  0
VERTEX
  8
0
 10
5.90804
 20
6.03503
 30
0.0
 40
0
 41
0
  0
VERTEX
  8
0
 10
5.9095
 20
6.03426
 30
0.0
 40
0
 41
0
  0
VERTEX
  8
0
 10
5.91032
 20
6.03389
 30
0.0
 40
0
 41
0
  0
VERTEX
  8
0
 10
5.91607
 20
6.02911
 30
0.0
 40
0
 41
0
  0
VERTEX
  8
0
 10
5.92133
 20
6.02228
 30
0.0
 40
0
 41
0
  0
VERTEX
  8
0
 10
5.92188
 20
6.02081
 30
0.0
 40
0
 41
0
  0
SEQEND
 8
0
  0
POLYLINE
  8
0
 62
     1
 66
     1
 10
0
 20
0
 30
0.0
 70
     1
 40
0
 41
0
  0
VERTEX
  8
0
 10
5.94987
 20
6.02493
 30
0.0
 40
0
 41
0
  0
VERTEX
  8
0
 10
5.94596
 20
6.02493
 30
0.0
 40
0
 41
0
  0
VERTEX
  8
0
 10
5.93528
 20
6.02135
 30
0.0
 40
0
 41
0
  0
VERTEX
  8
0
 10
5.93425
 20
6.0206
 30
0.0
 40
0
 41
0
  0
VERTEX
  8
0
 10
5.93278
 20
6.02026
 30
0.0
 40
0
 41
0
  0
VERTEX
  8
0
 10
5.92914
 20
6.0131
 30
0.0
 40
0
 41
0
  0
VERTEX
  8
0
 10
5.92839
 20
6.001
 30
0.0
 40
0
 41
0
  0
VERTEX
  8
0
 10
5.92839
 20
5.99693
 30
0.0
 40
0
 41
0
  0
VERTEX
  8
0
 10
5.92839
 20
5.99112
 30
0.0
 40
0
 41
0
  0
VERTEX
  8
0
 10
5.93326
 20
5.97442
 30
0.0
 40
0
 41
0
  0
VERTEX
  8
0
 10
5.93425
 20
5.97372
 30
0.0
 40
0
 41
0
  0
VERTEX
  8
0
 10
5.93479
 20
5.97382
 30
0.0
 40
0
 41
0
  0
VERTEX
  8
0
 10
5.94021
 20
5.97171
 30
0.0
 40
0
 41
0
  0
VERTEX
  8
0
 10
5.94667
 20
5.96938
 30
0.0
 40
0
 41
0
  0
VERTEX
  8
0
 10
5.94879
 20
5.96938
 30
0.0
 40
0
 41
0
  0
VERTEX
  8
0
 10
5.95258
 20
5.96938
 30
0.0
 40
0
 41
0
  0
VERTEX
  8
0
 10
5.963
 20
5.97317
 30
0.0
 40
0
 41
0
  0
VERTEX
  8
0
 10
5.96397
 20
5.97393
 30
0.0
 40
0
 41
0
  0
VERTEX
  8
0
 10
5.96436
 20
5.97546
 30
0.0
 40
0
 41
0
  0
VERTEX
  8
0
 10
5.96756
 20
5.9831
 30
0.0
 40
0
 41
0
  0
VERTEX
  8
0
 10
5.97006
 20
5.99368
 30
0.0
 40
0
 41
0
  0
VERTEX
  8
0
 10
5.97006
 20
5.99715
 30
0.0
 40
0
 41
0
  0
VERTEX
  8
0
 10
5.97006
 20
6.00301
 30
0.0
 40
0
 41
0
  0
VERTEX
  8
0
 10
5.965
 20
6.01983
 30
0.0
 40
0
 41
0
  0
VERTEX
  8
0
 10
5.96397
 20
6.0206
 30
0.0
 40
0
 41
0
  0
VERTEX
  8
0
 10
5.96235
 20
6.02168
 30
0.0
 40
0
 41
0
  0
VERTEX
  8
0
 10
5.95301
 20
6.02493
 30
0.0
 40
0
 41
0
  0
VERTEX
  8
0
 10
5.94987
 20
6.02493
 30
0.0
 40
0
 41
0
  0
SEQEND
 8
0
  0
POLYLINE
  8
0
 62
     1
 66
     1
 10
0
 20
0
 30
0.0
 70
     1
 40
0
 41
0
  0
VERTEX
  8
0
 10
5.88693
 20
6.02493
 30
0.0
 40
0
 41
0
  0
VERTEX
  8
0
 10
5.88346
 20
6.02493
 30
0.0
 40
0
 41
0
  0
VERTEX
  8
0
 10
5.87418
 20
6.02515
 30
0.0
 40
0
 41
0
  0
VERTEX
  8
0
 10
5.87304
 20
6.02515
 30
0.0
 40
0
 41
0
  0
VERTEX
  8
0
 10
5.87244
 20
6.02581
 30
0.0
 40
0
 41
0
  0
VERTEX
  8
0
 10
5.86708
 20
6.02433
 30
0.0
 40
0
 41
0
  0
VERTEX
  8
0
 10
5.86328
 20
6.01668
 30
0.0
 40
0
 41
0
  0
VERTEX
  8
0
 10
5.86263
 20
6.01494
 30
0.0
 40
0
 41
0
  0
VERTEX
  8
0
 10
5.86171
 20
6.01408
 30
0.0
 40
0
 41
0
  0
VERTEX
  8
0
 10
5.85943
 20
6.0066
 30
0.0
 40
0
 41
0
  0
VERTEX
  8
0
 10
5.85894
 20
5.99937
 30
0.0
 40
0
 41
0
  0
VERTEX
  8
0
 10
5.85894
 20
5.99693
 30
0.0
 40
0
 41
0
  0
VERTEX
  8
0
 10
5.85894
 20
5.99112
 30
0.0
 40
0
 41
0
  0
VERTEX
  8
0
 10
5.86546
 20
5.97447
 30
0.0
 40
0
 41
0
  0
VERTEX
  8
0
 10
5.86675
 20
5.97372
 30
0.0
 40
0
 41
0
  0
VERTEX
  8
0
 10
5.8674
 20
5.97382
 30
0.0
 40
0
 41
0
  0
VERTEX
  8
0
 10
5.87462
 20
5.97171
 30
0.0
 40
0
 41
0
  0
VERTEX
  8
0
 10
5.88357
 20
5.96938
 30
0.0
 40
0
 41
0
  0
VERTEX
  8
0
 10
5.8865
 20
5.96938
 30
0.0
 40
0
 41
0
  0
VERTEX
  8
0
 10
5.8915
 20
5.96938
 30
0.0
 40
0
 41
0
  0
VERTEX
  8
0
 10
5.90517
 20
5.97317
 30
0.0
 40
0
 41
0
  0
VERTEX
  8
0
 10
5.90647
 20
5.97393
 30
0.0
 40
0
 41
0
  0
VERTEX
  8
0
 10
5.90733
 20
5.9755
 30
0.0
 40
0
 41
0
  0
VERTEX
  8
0
 10
5.91178
 20
5.98332
 30
0.0
 40
0
 41
0
  0
VERTEX
  8
0
 10
5.9145
 20
5.99406
 30
0.0
 40
0
 41
0
  0
VERTEX
  8
0
 10
5.9145
 20
5.99758
 30
0.0
 40
0
 41
0
  0
VERTEX
  8
0
 10
5.9145
 20
6.00182
 30
0.0
 40
0
 41
0
  0
VERTEX
  8
0
 10
5.91254
 20
6.0144
 30
0.0
 40
0
 41
0
  0
VERTEX
  8
0
 10
5.90799
 20
6.01989
 30
0.0
 40
0
 41
0
  0
VERTEX
  8
0
 10
5.90668
 20
6.0206
 30
0.0
 40
0
 41
0
  0
VERTEX
  8
0
 10
5.90489
 20
6.02168
 30
0.0
 40
0
 41
0
  0
VERTEX
  8
0
 10
5.89144
 20
6.02493
 30
0.0
 40
0
 41
0
  0
VERTEX
  8
0
 10
5.88693
 20
6.02493
 30
0.0
 40
0
 41
0
  0
SEQEND
 8
0
  0
POLYLINE
  8
0
 62
     1
 66
     1
 10
0
 20
0
 30
0.0
 70
     1
 40
0
 41
0
  0
VERTEX
  8
0
 10
5.94228
 20
5.91513
 30
0.0
 40
0
 41
0
  0
VERTEX
  8
0
 10
5.96463
 20
5.9186
 30
0.0
 40
0
 41
0
  0
VERTEX
  8
0
 10
5.98394
 20
5.9186
 30
0.0
 40
0
 41
0
  0
VERTEX
  8
0
 10
5.98394
 20
5.90471
 30
0.0
 40
0
 41
0
  0
VERTEX
  8
0
 10
5.96463
 20
5.90471
 30
0.0
 40
0
 41
0
  0
VERTEX
  8
0
 10
5.94228
 20
5.90775
 30
0.0
 40
0
 41
0
  0
VERTEX
  8
0
 10
5.94228
 20
5.91513
 30
0.0
 40
0
 41
0
  0
SEQEND
 8
0
  0
POLYLINE
  8
0
 62
     1
 66
     1
 10
0
 20
0
 30
0.0
 70
     1
 40
0
 41
0
  0
VERTEX
  8
0
 10
5.94228
 20
5.88756
 30
0.0
 40
0
 41
0
  0
VERTEX
  8
0
 10
5.96463
 20
5.89082
 30
0.0
 40
0
 41
0
  0
VERTEX
  8
0
 10
5.98394
 20
5.89082
 30
0.0
 40
0
 41
0
  0
VERTEX
  8
0
 10
5.98394
 20
5.87693
 30
0.0
 40
0
 41
0
  0
VERTEX
  8
0
 10
5.96463
 20
5.87693
 30
0.0
 40
0
 41
0
  0
VERTEX
  8
0
 10
5.94228
 20
5.88018
 30
0.0
 40
0
 41
0
  0
VERTEX
  8
0
 10
5.94228
 20
5.88756
 30
0.0
 40
0
 41
0
  0
SEQEND
 8
0
  0
POLYLINE
  8
0
 62
     1
 66
     1
 10
0
 20
0
 30
0.0
 40
0.72
 41
0.72
  0
VERTEX
  8
0
 10
5.18832
 20
9.10333
 30
0.0
 40
0.01
 41
0.01
  0
VERTEX
  8
0
 10
5.18832
 20
9.78833
 30
0.0
 40
0.01
 41
0.01
  0
SEQEND
 8
0
  0
POLYLINE
  8
0
 62
     1
 66
     1
 10
0
 20
0
 30
0.0
 40
0.72
 41
0.72
  0
VERTEX
  8
0
 10
1.77165
 20
9.10333
 30
0.0
 40
0.01
 41
0.01
  0
VERTEX
  8
0
 10
1.77165
 20
9.78833
 30
0.0
 40
0.01
 41
0.01
  0
SEQEND
 8
0
  0
POLYLINE
  8
0
 62
     1
 66
     1
 10
0
 20
0
 30
0.0
 40
0.72
 41
0.72
  0
VERTEX
  8
0
 10
5.09999
 20
9.77667
 30
0.0
 40
0.01
 41
0.01
  0
VERTEX
  8
0
 10
1.86003
 20
9.77667
 30
0.0
 40
0.01
 41
0.01
  0
SEQEND
 8
0
  0
POLYLINE
  8
0
 62
     1
 66
     1
 10
0
 20
0
 30
0.0
 70
     1
 40
0
 41
0
  0
VERTEX
  8
0
 10
5.09999
 20
9.79164
 30
0.0
 40
0
 41
0
  0
VERTEX
  8
0
 10
5.09999
 20
9.76169
 30
0.0
 40
0
 41
0
  0
VERTEX
  8
0
 10
5.18832
 20
9.77667
 30
0.0
 40
0
 41
0
  0
VERTEX
  8
0
 10
5.09999
 20
9.79164
 30
0.0
 40
0
 41
0
  0
SEQEND
 8
0
  0
POLYLINE
  8
0
 62
     1
 66
     1
 10
0
 20
0
 30
0.0
 70
     1
 40
0
 41
0
  0
VERTEX
  8
0
 10
1.86003
 20
9.79164
 30
0.0
 40
0
 41
0
  0
VERTEX
  8
0
 10
1.86003
 20
9.76169
 30
0.0
 40
0
 41
0
  0
VERTEX
  8
0
 10
1.77165
 20
9.77667
 30
0.0
 40
0
 41
0
  0
VERTEX
  8
0
 10
1.86003
 20
9.79164
 30
0.0
 40
0
 41
0
  0
SEQEND
 8
0
  0
POLYLINE
  8
0
 62
     1
 66
     1
 10
0
 20
0
 30
0.0
 70
     1
 40
0
 41
0
  0
VERTEX
  8
0
 10
3.39225
 20
9.86831
 30
0.0
 40
0
 41
0
  0
VERTEX
  8
0
 10
3.37836
 20
9.86831
 30
0.0
 40
0
 41
0
  0
VERTEX
  8
0
 10
3.37836
 20
9.9766
 30
0.0
 40
0
 41
0
  0
VERTEX
  8
0
 10
3.37771
 20
9.97783
 30
0.0
 40
0
 41
0
  0
VERTEX
  8
0
 10
3.37256
 20
9.97979
 30
0.0
 40
0
 41
0
  0
VERTEX
  8
0
 10
3.36654
 20
9.97399
 30
0.0
 40
0
 41
0
  0
VERTEX
  8
0
 10
3.36513
 20
9.97182
 30
0.0
 40
0
 41
0
  0
VERTEX
  8
0
 10
3.36376
 20
9.97035
 30
0.0
 40
0
 41
0
  0
VERTEX
  8
0
 10
3.35167
 20
9.95651
 30
0.0
 40
0
 41
0
  0
VERTEX
  8
0
 10
3.35058
 20
9.95597
 30
0.0
 40
0
 41
0
  0
VERTEX
  8
0
 10
3.35058
 20
9.97247
 30
0.0
 40
0
 41
0
  0
VERTEX
  8
0
 10
3.35254
 20
9.97421
 30
0.0
 40
0
 41
0
  0
VERTEX
  8
0
 10
3.36957
 20
9.98717
 30
0.0
 40
0
 41
0
  0
VERTEX
  8
0
 10
3.37099
 20
9.98875
 30
0.0
 40
0
 41
0
  0
VERTEX
  8
0
 10
3.3719
 20
9.99075
 30
0.0
 40
0
 41
0
  0
VERTEX
  8
0
 10
3.38276
 20
10.0057
 30
0.0
 40
0
 41
0
  0
VERTEX
  8
0
 10
3.38336
 20
10.0072
 30
0.0
 40
0
 41
0
  0
VERTEX
  8
0
 10
3.39225
 20
10.0072
 30
0.0
 40
0
 41
0
  0
VERTEX
  8
0
 10
3.39225
 20
9.86831
 30
0.0
 40
0
 41
0
  0
SEQEND
 8
0
  0
POLYLINE
  8
0
 62
     1
 66
     1
 10
0
 20
0
 30
0.0
 70
     1
 40
0
 41
0
  0
VERTEX
  8
0
 10
3.44119
 20
9.89608
 30
0.0
 40
0
 41
0
  0
VERTEX
  8
0
 10
3.45508
 20
9.89608
 30
0.0
 40
0
 41
0
  0
VERTEX
  8
0
 10
3.4554
 20
9.89494
 30
0.0
 40
0
 41
0
  0
VERTEX
  8
0
 10
3.46012
 20
9.88626
 30
0.0
 40
0
 41
0
  0
VERTEX
  8
0
 10
3.46072
 20
9.88567
 30
0.0
 40
0
 41
0
  0
VERTEX
  8
0
 10
3.46089
 20
9.88599
 30
0.0
 40
0
 41
0
  0
VERTEX
  8
0
 10
3.46707
 20
9.88436
 30
0.0
 40
0
 41
0
  0
VERTEX
  8
0
 10
3.47797
 20
9.88219
 30
0.0
 40
0
 41
0
  0
VERTEX
  8
0
 10
3.48156
 20
9.88219
 30
0.0
 40
0
 41
0
  0
VERTEX
  8
0
 10
3.48562
 20
9.88219
 30
0.0
 40
0
 41
0
  0
VERTEX
  8
0
 10
3.49772
 20
9.88414
 30
0.0
 40
0
 41
0
  0
VERTEX
  8
0
 10
3.50683
 20
9.88869
 30
0.0
 40
0
 41
0
  0
VERTEX
  8
0
 10
3.50738
 20
9.89
 30
0.0
 40
0
 41
0
  0
VERTEX
  8
0
 10
3.50706
 20
9.89185
 30
0.0
 40
0
 41
0
  0
VERTEX
  8
0
 10
3.50851
 20
9.90004
 30
0.0
 40
0
 41
0
  0
VERTEX
  8
0
 10
3.51064
 20
9.90835
 30
0.0
 40
0
 41
0
  0
VERTEX
  8
0
 10
3.51064
 20
9.91106
 30
0.0
 40
0
 41
0
  0
VERTEX
  8
0
 10
3.51064
 20
9.91425
 30
0.0
 40
0
 41
0
  0
VERTEX
  8
0
 10
3.50988
 20
9.92375
 30
0.0
 40
0
 41
0
  0
VERTEX
  8
0
 10
3.50814
 20
9.92939
 30
0.0
 40
0
 41
0
  0
VERTEX
  8
0
 10
3.5076
 20
9.93058
 30
0.0
 40
0
 41
0
  0
VERTEX
  8
0
 10
3.50618
 20
9.93237
 30
0.0
 40
0
 41
0
  0
VERTEX
  8
0
 10
3.49799
 20
9.93688
 30
0.0
 40
0
 41
0
  0
VERTEX
  8
0
 10
3.48503
 20
9.93775
 30
0.0
 40
0
 41
0
  0
VERTEX
  8
0
 10
3.48068
 20
9.93775
 30
0.0
 40
0
 41
0
  0
VERTEX
  8
0
 10
3.47726
 20
9.93775
 30
0.0
 40
0
 41
0
  0
VERTEX
  8
0
 10
3.46685
 20
9.93676
 30
0.0
 40
0
 41
0
  0
VERTEX
  8
0
 10
3.46257
 20
9.93449
 30
0.0
 40
0
 41
0
  0
VERTEX
  8
0
 10
3.46203
 20
9.93383
 30
0.0
 40
0
 41
0
  0
VERTEX
  8
0
 10
3.46094
 20
9.93351
 30
0.0
 40
0
 41
0
  0
VERTEX
  8
0
 10
3.45574
 20
9.92489
 30
0.0
 40
0
 41
0
  0
VERTEX
  8
0
 10
3.45508
 20
9.92386
 30
0.0
 40
0
 41
0
  0
VERTEX
  8
0
 10
3.44119
 20
9.92386
 30
0.0
 40
0
 41
0
  0
VERTEX
  8
0
 10
3.45508
 20
10.0072
 30
0.0
 40
0
 41
0
  0
VERTEX
  8
0
 10
3.52453
 20
10.0072
 30
0.0
 40
0
 41
0
  0
VERTEX
  8
0
 10
3.52453
 20
9.99331
 30
0.0
 40
0
 41
0
  0
VERTEX
  8
0
 10
3.46679
 20
9.99331
 30
0.0
 40
0
 41
0
  0
VERTEX
  8
0
 10
3.45747
 20
9.94361
 30
0.0
 40
0
 41
0
  0
VERTEX
  8
0
 10
3.45931
 20
9.94561
 30
0.0
 40
0
 41
0
  0
VERTEX
  8
0
 10
3.46963
 20
9.95065
 30
0.0
 40
0
 41
0
  0
VERTEX
  8
0
 10
3.47954
 20
9.95164
 30
0.0
 40
0
 41
0
  0
VERTEX
  8
0
 10
3.48286
 20
9.95164
 30
0.0
 40
0
 41
0
  0
VERTEX
  8
0
 10
3.49024
 20
9.95164
 30
0.0
 40
0
 41
0
  0
VERTEX
  8
0
 10
3.51042
 20
9.94242
 30
0.0
 40
0
 41
0
  0
VERTEX
  8
0
 10
3.51238
 20
9.94057
 30
0.0
 40
0
 41
0
  0
VERTEX
  8
0
 10
3.51426
 20
9.93964
 30
0.0
 40
0
 41
0
  0
VERTEX
  8
0
 10
3.52126
 20
9.92928
 30
0.0
 40
0
 41
0
  0
VERTEX
  8
0
 10
3.52453
 20
9.91626
 30
0.0
 40
0
 41
0
  0
VERTEX
  8
0
 10
3.52453
 20
9.91192
 30
0.0
 40
0
 41
0
  0
VERTEX
  8
0
 10
3.52453
 20
9.91192
 30
0.0
 40
0
 41
0
  0
VERTEX
  8
0
 10
3.52203
 20
9.88528
 30
0.0
 40
0
 41
0
  0
VERTEX
  8
0
 10
3.52149
 20
9.88328
 30
0.0
 40
0
 41
0
  0
VERTEX
  8
0
 10
3.51742
 20
9.88186
 30
0.0
 40
0
 41
0
  0
VERTEX
  8
0
 10
3.5006
 20
9.87367
 30
0.0
 40
0
 41
0
  0
VERTEX
  8
0
 10
3.48633
 20
9.86831
 30
0.0
 40
0
 41
0
  0
VERTEX
  8
0
 10
3.48156
 20
9.86831
 30
0.0
 40
0
 41
0
  0
VERTEX
  8
0
 10
3.47726
 20
9.86831
 30
0.0
 40
0
 41
0
  0
VERTEX
  8
0
 10
3.46442
 20
9.87019
 30
0.0
 40
0
 41
0
  0
VERTEX
  8
0
 10
3.4554
 20
9.87465
 30
0.0
 40
0
 41
0
  0
VERTEX
  8
0
 10
3.45356
 20
9.8759
 30
0.0
 40
0
 41
0
  0
VERTEX
  8
0
 10
3.45074
 20
9.87768
 30
0.0
 40
0
 41
0
  0
VERTEX
  8
0
 10
3.44347
 20
9.88556
 30
0.0
 40
0
 41
0
  0
VERTEX
  8
0
 10
3.44146
 20
9.89401
 30
0.0
 40
0
 41
0
  0
VERTEX
  8
0
 10
3.44119
 20
9.89608
 30
0.0
 40
0
 41
0
  0
SEQEND
 8
0
  0
POLYLINE
  8
0
 62
     1
 66
     1
 10
0
 20
0
 30
0.0
 70
     1
 40
0
 41
0
  0
VERTEX
  8
0
 10
3.56489
 20
9.96553
 30
0.0
 40
0
 41
0
  0
VERTEX
  8
0
 10
3.56142
 20
9.98788
 30
0.0
 40
0
 41
0
  0
VERTEX
  8
0
 10
3.56142
 20
10.0072
 30
0.0
 40
0
 41
0
  0
VERTEX
  8
0
 10
3.57531
 20
10.0072
 30
0.0
 40
0
 41
0
  0
VERTEX
  8
0
 10
3.57531
 20
9.98788
 30
0.0
 40
0
 41
0
  0
VERTEX
  8
0
 10
3.57226
 20
9.96553
 30
0.0
 40
0
 41
0
  0
VERTEX
  8
0
 10
3.56489
 20
9.96553
 30
0.0
 40
0
 41
0
  0
SEQEND
 8
0
  0
POLYLINE
  8
0
 62
     1
 66
     1
 10
0
 20
0
 30
0.0
 70
     1
 40
0
 41
0
  0
VERTEX
  8
0
 10
3.59244
 20
9.96553
 30
0.0
 40
0
 41
0
  0
VERTEX
  8
0
 10
3.58919
 20
9.98788
 30
0.0
 40
0
 41
0
  0
VERTEX
  8
0
 10
3.58919
 20
10.0072
 30
0.0
 40
0
 41
0
  0
VERTEX
  8
0
 10
3.60308
 20
10.0072
 30
0.0
 40
0
 41
0
  0
VERTEX
  8
0
 10
3.60308
 20
9.98788
 30
0.0
 40
0
 41
0
  0
VERTEX
  8
0
 10
3.59983
 20
9.96553
 30
0.0
 40
0
 41
0
  0
VERTEX
  8
0
 10
3.59244
 20
9.96553
 30
0.0
 40
0
 41
0
  0
SEQEND
 8
0
  0
POLYLINE
  8
0
 62
     0
 66
     1
 10
0
 20
0
 30
0.0
 70
     1
 40
0
 41
0
  0
VERTEX
  8
0
 10
6.91493
 20
8.02558
 30
0.0
 40
0
 41
0
  0
VERTEX
  8
0
 10
6.87326
 20
8.02558
 30
0.0
 40
0
 41
0
  0
VERTEX
  8
0
 10
6.87326
 20
8.26169
 30
0.0
 40
0
 41
0
  0
VERTEX
  8
0
 10
6.87587
 20
8.26181
 30
0.0
 40
0
 41
0
  0
VERTEX
  8
0
 10
6.90082
 20
8.25725
 30
0.0
 40
0
 41
0
  0
VERTEX
  8
0
 10
6.90321
 20
8.25626
 30
0.0
 40
0
 41
0
  0
VERTEX
  8
0
 10
6.90701
 20
8.25513
 30
0.0
 40
0
 41
0
  0
VERTEX
  8
0
 10
6.94444
 20
8.22936
 30
0.0
 40
0
 41
0
  0
VERTEX
  8
0
 10
6.94792
 20
8.22589
 30
0.0
 40
0
 41
0
  0
VERTEX
  8
0
 10
6.95107
 20
8.22307
 30
0.0
 40
0
 41
0
  0
VERTEX
  8
0
 10
6.96994
 20
8.20201
 30
0.0
 40
0
 41
0
  0
VERTEX
  8
0
 10
6.99164
 20
8.17446
 30
0.0
 40
0
 41
0
  0
VERTEX
  8
0
 10
6.9961
 20
8.16837
 30
0.0
 40
0
 41
0
  0
VERTEX
  8
0
 10
7.00364
 20
8.15975
 30
0.0
 40
0
 41
0
  0
VERTEX
  8
0
 10
7.03982
 20
8.1215
 30
0.0
 40
0
 41
0
  0
VERTEX
  8
0
 10
7.07026
 20
8.09307
 30
0.0
 40
0
 41
0
  0
VERTEX
  8
0
 10
7.07487
 20
8.08939
 30
0.0
 40
0
 41
0
  0
VERTEX
  8
0
 10
7.07894
 20
8.08618
 30
0.0
 40
0
 41
0
  0
VERTEX
  8
0
 10
7.10194
 20
8.07354
 30
0.0
 40
0
 41
0
  0
VERTEX
  8
0
 10
7.12381
 20
8.06725
 30
0.0
 40
0
 41
0
  0
VERTEX
  8
0
 10
7.13108
 20
8.06725
 30
0.0
 40
0
 41
0
  0
VERTEX
  8
0
 10
7.13683
 20
8.06725
 30
0.0
 40
0
 41
0
  0
VERTEX
  8
0
 10
7.15392
 20
8.07246
 30
0.0
 40
0
 41
0
  0
VERTEX
  8
0
 10
7.17176
 20
8.08461
 30
0.0
 40
0
 41
0
  0
VERTEX
  8
0
 10
7.17469
 20
8.08808
 30
0.0
 40
0
 41
0
  0
VERTEX
  8
0
 10
7.17692
 20
8.0921
 30
0.0
 40
0
 41
0
  0
VERTEX
  8
0
 10
7.18701
 20
8.11282
 30
0.0
 40
0
 41
0
  0
VERTEX
  8
0
 10
7.19271
 20
8.13479
 30
0.0
 40
0
 41
0
  0
VERTEX
  8
0
 10
7.19271
 20
8.14212
 30
0.0
 40
0
 41
0
  0
VERTEX
  8
0
 10
7.19271
 20
8.15036
 30
0.0
 40
0
 41
0
  0
VERTEX
  8
0
 10
7.18901
 20
8.17506
 30
0.0
 40
0
 41
0
  0
VERTEX
  8
0
 10
7.18044
 20
8.19524
 30
0.0
 40
0
 41
0
  0
VERTEX
  8
0
 10
7.17796
 20
8.19876
 30
0.0
 40
0
 41
0
  0
VERTEX
  8
0
 10
7.17443
 20
8.20289
 30
0.0
 40
0
 41
0
  0
VERTEX
  8
0
 10
7.15875
 20
8.21558
 30
0.0
 40
0
 41
0
  0
VERTEX
  8
0
 10
7.1415
 20
8.22003
 30
0.0
 40
0
 41
0
  0
VERTEX
  8
0
 10
7.13715
 20
8.22003
 30
0.0
 40
0
 41
0
  0
VERTEX
  8
0
 10
7.13715
 20
8.26169
 30
0.0
 40
0
 41
0
  0
VERTEX
  8
0
 10
7.14507
 20
8.26093
 30
0.0
 40
0
 41
0
  0
VERTEX
  8
0
 10
7.17899
 20
8.25036
 30
0.0
 40
0
 41
0
  0
VERTEX
  8
0
 10
7.20529
 20
8.23087
 30
0.0
 40
0
 41
0
  0
VERTEX
  8
0
 10
7.20942
 20
8.22567
 30
0.0
 40
0
 41
0
  0
VERTEX
  8
0
 10
7.21337
 20
8.22111
 30
0.0
 40
0
 41
0
  0
VERTEX
  8
0
 10
7.22781
 20
8.18992
 30
0.0
 40
0
 41
0
  0
VERTEX
  8
0
 10
7.23438
 20
8.15346
 30
0.0
 40
0
 41
0
  0
VERTEX
  8
0
 10
7.23438
 20
8.14125
 30
0.0
 40
0
 41
0
  0
VERTEX
  8
0
 10
7.23438
 20
8.12964
 30
0.0
 40
0
 41
0
  0
VERTEX
  8
0
 10
7.22711
 20
8.09465
 30
0.0
 40
0
 41
0
  0
VERTEX
  8
0
 10
7.21018
 20
8.06204
 30
0.0
 40
0
 41
0
  0
VERTEX
  8
0
 10
7.20529
 20
8.05683
 30
0.0
 40
0
 41
0
  0
VERTEX
  8
0
 10
7.19943
 20
8.05249
 30
0.0
 40
0
 41
0
  0
VERTEX
  8
0
 10
7.17117
 20
8.03469
 30
0.0
 40
0
 41
0
  0
VERTEX
  8
0
 10
7.14274
 20
8.02558
 30
0.0
 40
0
 41
0
  0
VERTEX
  8
0
 10
7.13325
 20
8.02558
 30
0.0
 40
0
 41
0
  0
VERTEX
  8
0
 10
7.12756
 20
8.02558
 30
0.0
 40
0
 41
0
  0
VERTEX
  8
0
 10
7.1104
 20
8.02786
 30
0.0
 40
0
 41
0
  0
VERTEX
  8
0
 10
7.09386
 20
8.03301
 30
0.0
 40
0
 41
0
  0
VERTEX
  8
0
 10
7.09028
 20
8.03449
 30
0.0
 40
0
 41
0
  0
VERTEX
  8
0
 10
7.08604
 20
8.03638
 30
0.0
 40
0
 41
0
  0
VERTEX
  8
0
 10
7.06754
 20
8.04696
 30
0.0
 40
0
 41
0
  0
VERTEX
  8
0
 10
7.04969
 20
8.06057
 30
0.0
 40
0
 41
0
  0
VERTEX
  8
0
 10
7.04579
 20
8.064
 30
0.0
 40
0
 41
0
  0
VERTEX
  8
0
 10
7.04144
 20
8.06768
 30
0.0
 40
0
 41
0
  0
VERTEX
  8
0
 10
7.01779
 20
8.09064
 30
0.0
 40
0
 41
0
  0
VERTEX
  8
0
 10
6.98969
 20
8.12074
 30
0.0
 40
0
 41
0
  0
VERTEX
  8
0
 10
6.98307
 20
8.12801
 30
0.0
 40
0
 41
0
  0
VERTEX
  8
0
 10
6.97657
 20
8.13533
 30
0.0
 40
0
 41
0
  0
VERTEX
  8
0
 10
6.954
 20
8.16262
 30
0.0
 40
0
 41
0
  0
VERTEX
  8
0
 10
6.94054
 20
8.18036
 30
0.0
 40
0
 41
0
  0
VERTEX
  8
0
 10
6.93858
 20
8.18292
 30
0.0
 40
0
 41
0
  0
VERTEX
  8
0
 10
6.93582
 20
8.18622
 30
0.0
 40
0
 41
0
  0
VERTEX
  8
0
 10
6.92562
 20
8.198
 30
0.0
 40
0
 41
0
  0
VERTEX
  8
0
 10
6.91694
 20
8.20646
 30
0.0
 40
0
 41
0
  0
VERTEX
  8
0
 10
6.91493
 20
8.2081
 30
0.0
 40
0
 41
0
  0
VERTEX
  8
0
 10
6.91493
 20
8.02558
 30
0.0
 40
0
 41
0
  0
SEQEND
 8
0
  0
POLYLINE
  8
0
 62
     0
 66
     1
 10
0
 20
0
 30
0.0
 70
     1
 40
0
 41
0
  0
VERTEX
  8
0
 10
7.0536
 20
7.96981
 30
0.0
 40
0
 41
0
  0
VERTEX
  8
0
 10
7.06754
 20
7.96981
 30
0.0
 40
0
 41
0
  0
VERTEX
  8
0
 10
7.10938
 20
7.96672
 30
0.0
 40
0
 41
0
  0
VERTEX
  8
0
 10
7.15104
 20
7.9595
 30
0.0
 40
0
 41
0
  0
VERTEX
  8
0
 10
7.15799
 20
7.95744
 30
0.0
 40
0
 41
0
  0
VERTEX
  8
0
 10
7.16439
 20
7.9564
 30
0.0
 40
0
 41
0
  0
VERTEX
  8
0
 10
7.19282
 20
7.94344
 30
0.0
 40
0
 41
0
  0
VERTEX
  8
0
 10
7.21419
 20
7.92446
 30
0.0
 40
0
 41
0
  0
VERTEX
  8
0
 10
7.21701
 20
7.92033
 30
0.0
 40
0
 41
0
  0
VERTEX
  8
0
 10
7.21907
 20
7.91692
 30
0.0
 40
0
 41
0
  0
VERTEX
  8
0
 10
7.22874
 20
7.89369
 30
0.0
 40
0
 41
0
  0
VERTEX
  8
0
 10
7.23438
 20
7.86749
 30
0.0
 40
0
 41
0
  0
VERTEX
  8
0
 10
7.23438
 20
7.85869
 30
0.0
 40
0
 41
0
  0
VERTEX
  8
0
 10
7.23438
 20
7.84585
 30
0.0
 40
0
 41
0
  0
VERTEX
  8
0
 10
7.22483
 20
7.81128
 30
0.0
 40
0
 41
0
  0
VERTEX
  8
0
 10
7.22288
 20
7.80726
 30
0.0
 40
0
 41
0
  0
VERTEX
  8
0
 10
7.22076
 20
7.80407
 30
0.0
 40
0
 41
0
  0
VERTEX
  8
0
 10
7.20856
 20
7.78779
 30
0.0
 40
0
 41
0
  0
VERTEX
  8
0
 10
7.19331
 20
7.77467
 30
0.0
 40
0
 41
0
  0
VERTEX
  8
0
 10
7.18967
 20
7.77297
 30
0.0
 40
0
 41
0
  0
VERTEX
  8
0
 10
7.18522
 20
7.77151
 30
0.0
 40
0
 41
0
  0
VERTEX
  8
0
 10
7.14236
 20
7.75671
 30
0.0
 40
0
 41
0
  0
VERTEX
  8
0
 10
7.13715
 20
7.7554
 30
0.0
 40
0
 41
0
  0
VERTEX
  8
0
 10
7.13206
 20
7.75464
 30
0.0
 40
0
 41
0
  0
VERTEX
  8
0
 10
7.10086
 20
7.75036
 30
0.0
 40
0
 41
0
  0
VERTEX
  8
0
 10
7.06543
 20
7.74758
 30
0.0
 40
0
 41
0
  0
VERTEX
  8
0
 10
7.0536
 20
7.74758
 30
0.0
 40
0
 41
0
  0
VERTEX
  8
0
 10
7.03896
 20
7.74758
 30
0.0
 40
0
 41
0
  0
VERTEX
  8
0
 10
6.9949
 20
7.75068
 30
0.0
 40
0
 41
0
  0
VERTEX
  8
0
 10
6.95665
 20
7.75789
 30
0.0
 40
0
 41
0
  0
VERTEX
  8
0
 10
6.94965
 20
7.75996
 30
0.0
 40
0
 41
0
  0
VERTEX
  8
0
 10
6.94217
 20
7.76218
 30
0.0
 40
0
 41
0
  0
VERTEX
  8
0
 10
6.91319
 20
7.77558
 30
0.0
 40
0
 41
0
  0
VERTEX
  8
0
 10
6.89356
 20
7.79278
 30
0.0
 40
0
 41
0
  0
VERTEX
  8
0
 10
6.89063
 20
7.79685
 30
0.0
 40
0
 41
0
  0
VERTEX
  8
0
 10
6.88747
 20
7.80146
 30
0.0
 40
0
 41
0
  0
VERTEX
  8
0
 10
6.87717
 20
7.82539
 30
0.0
 40
0
 41
0
  0
VERTEX
  8
0
 10
6.87326
 20
7.8504
 30
0.0
 40
0
 41
0
  0
VERTEX
  8
0
 10
6.87326
 20
7.85869
 30
0.0
 40
0
 41
0
  0
VERTEX
  8
0
 10
6.87326
 20
7.86971
 30
0.0
 40
0
 41
0
  0
VERTEX
  8
0
 10
6.88069
 20
7.90275
 30
0.0
 40
0
 41
0
  0
VERTEX
  8
0
 10
6.89806
 20
7.9315
 30
0.0
 40
0
 41
0
  0
VERTEX
  8
0
 10
6.903
 20
7.93617
 30
0.0
 40
0
 41
0
  0
VERTEX
  8
0
 10
6.91135
 20
7.94231
 30
0.0
 40
0
 41
0
  0
VERTEX
  8
0
 10
6.96593
 20
7.96217
 30
0.0
 40
0
 41
0
  0
VERTEX
  8
0
 10
7.03168
 20
7.96981
 30
0.0
 40
0
 41
0
  0
VERTEX
  8
0
 10
7.0536
 20
7.96981
 30
0.0
 40
0
 41
0
  0
SEQEND
 8
0
  0
POLYLINE
  8
0
 62
     0
 66
     1
 10
0
 20
0
 30
0.0
 70
     1
 40
0
 41
0
  0
VERTEX
  8
0
 10
7.05382
 20
7.92814
 30
0.0
 40
0
 41
0
  0
VERTEX
  8
0
 10
7.03538
 20
7.92814
 30
0.0
 40
0
 41
0
  0
VERTEX
  8
0
 10
6.97987
 20
7.92321
 30
0.0
 40
0
 41
0
  0
VERTEX
  8
0
 10
6.94308
 20
7.91154
 30
0.0
 40
0
 41
0
  0
VERTEX
  8
0
 10
6.93901
 20
7.90818
 30
0.0
 40
0
 41
0
  0
VERTEX
  8
0
 10
6.93419
 20
7.90536
 30
0.0
 40
0
 41
0
  0
VERTEX
  8
0
 10
6.91971
 20
7.88653
 30
0.0
 40
0
 41
0
  0
VERTEX
  8
0
 10
6.91493
 20
7.86569
 30
0.0
 40
0
 41
0
  0
VERTEX
  8
0
 10
6.91493
 20
7.85869
 30
0.0
 40
0
 41
0
  0
VERTEX
  8
0
 10
6.91493
 20
7.85197
 30
0.0
 40
0
 41
0
  0
VERTEX
  8
0
 10
6.92101
 20
7.83179
 30
0.0
 40
0
 41
0
  0
VERTEX
  8
0
 10
6.93522
 20
7.81281
 30
0.0
 40
0
 41
0
  0
VERTEX
  8
0
 10
6.93924
 20
7.80943
 30
0.0
 40
0
 41
0
  0
VERTEX
  8
0
 10
6.94233
 20
7.80683
 30
0.0
 40
0
 41
0
  0
VERTEX
  8
0
 10
6.95404
 20
7.80174
 30
0.0
 40
0
 41
0
  0
VERTEX
  8
0
 10
6.97874
 20
7.79528
 30
0.0
 40
0
 41
0
  0
VERTEX
  8
0
 10
7.01232
 20
7.79087
 30
0.0
 40
0
 41
0
  0
VERTEX
  8
0
 10
7.04346
 20
7.78925
 30
0.0
 40
0
 41
0
  0
VERTEX
  8
0
 10
7.05382
 20
7.78925
 30
0.0
 40
0
 41
0
  0
VERTEX
  8
0
 10
7.07129
 20
7.78925
 30
0.0
 40
0
 41
0
  0
VERTEX
  8
0
 10
7.12354
 20
7.79392
 30
0.0
 40
0
 41
0
  0
VERTEX
  8
0
 10
7.1606
 20
7.80467
 30
0.0
 40
0
 41
0
  0
VERTEX
  8
0
 10
7.16515
 20
7.80769
 30
0.0
 40
0
 41
0
  0
VERTEX
  8
0
 10
7.16976
 20
7.81156
 30
0.0
 40
0
 41
0
  0
VERTEX
  8
0
 10
7.18582
 20
7.83086
 30
0.0
 40
0
 41
0
  0
VERTEX
  8
0
 10
7.19271
 20
7.85208
 30
0.0
 40
0
 41
0
  0
VERTEX
  8
0
 10
7.19271
 20
7.85914
 30
0.0
 40
0
 41
0
  0
VERTEX
  8
0
 10
7.19271
 20
7.8664
 30
0.0
 40
0
 41
0
  0
VERTEX
  8
0
 10
7.18664
 20
7.88821
 30
0.0
 40
0
 41
0
  0
VERTEX
  8
0
 10
7.17247
 20
7.90601
 30
0.0
 40
0
 41
0
  0
VERTEX
  8
0
 10
7.1684
 20
7.90949
 30
0.0
 40
0
 41
0
  0
VERTEX
  8
0
 10
7.16297
 20
7.913
 30
0.0
 40
0
 41
0
  0
VERTEX
  8
0
 10
7.12381
 20
7.92412
 30
0.0
 40
0
 41
0
  0
VERTEX
  8
0
 10
7.07135
 20
7.92814
 30
0.0
 40
0
 41
0
  0
VERTEX
  8
0
 10
7.05382
 20
7.92814
 30
0.0
 40
0
 41
0
  0
SEQEND
 8
0
  0
POLYLINE
  8
0
 62
     0
 66
     1
 10
0
 20
0
 30
0.0
 70
     1
 40
0
 41
0
  0
VERTEX
  8
0
 10
6.87326
 20
7.53904
 30
0.0
 40
0
 41
0
  0
VERTEX
  8
0
 10
6.87326
 20
7.58071
 30
0.0
 40
0
 41
0
  0
VERTEX
  8
0
 10
7.15474
 20
7.58071
 30
0.0
 40
0
 41
0
  0
VERTEX
  8
0
 10
7.15192
 20
7.58319
 30
0.0
 40
0
 41
0
  0
VERTEX
  8
0
 10
7.12674
 20
7.61613
 30
0.0
 40
0
 41
0
  0
VERTEX
  8
0
 10
7.12414
 20
7.62019
 30
0.0
 40
0
 41
0
  0
VERTEX
  8
0
 10
7.12153
 20
7.62443
 30
0.0
 40
0
 41
0
  0
VERTEX
  8
0
 10
7.10265
 20
7.66078
 30
0.0
 40
0
 41
0
  0
VERTEX
  8
0
 10
7.10135
 20
7.66404
 30
0.0
 40
0
 41
0
  0
VERTEX
  8
0
 10
7.1441
 20
7.66404
 30
0.0
 40
0
 41
0
  0
VERTEX
  8
0
 10
7.14643
 20
7.65824
 30
0.0
 40
0
 41
0
  0
VERTEX
  8
0
 10
7.16243
 20
7.63137
 30
0.0
 40
0
 41
0
  0
VERTEX
  8
0
 10
7.18207
 20
7.6074
 30
0.0
 40
0
 41
0
  0
VERTEX
  8
0
 10
7.18619
 20
7.60306
 30
0.0
 40
0
 41
0
  0
VERTEX
  8
0
 10
7.18978
 20
7.59915
 30
0.0
 40
0
 41
0
  0
VERTEX
  8
0
 10
7.20979
 20
7.58136
 30
0.0
 40
0
 41
0
  0
VERTEX
  8
0
 10
7.23053
 20
7.56779
 30
0.0
 40
0
 41
0
  0
VERTEX
  8
0
 10
7.23438
 20
7.56594
 30
0.0
 40
0
 41
0
  0
VERTEX
  8
0
 10
7.23438
 20
7.53904
 30
0.0
 40
0
 41
0
  0
VERTEX
  8
0
 10
6.87326
 20
7.53904
 30
0.0
 40
0
 41
0
  0
SEQEND
 8
0
  0
POLYLINE
  8
0
 62
     0
 66
     1
 10
0
 20
0
 30
0.0
 70
     1
 40
0
 41
0
  0
VERTEX
  8
0
 10
7.19271
 20
7.42771
 30
0.0
 40
0
 41
0
  0
VERTEX
  8
0
 10
7.23438
 20
7.42771
 30
0.0
 40
0
 41
0
  0
VERTEX
  8
0
 10
7.23438
 20
7.1916
 30
0.0
 40
0
 41
0
  0
VERTEX
  8
0
 10
7.20074
 20
7.1916
 30
0.0
 40
0
 41
0
  0
VERTEX
  8
0
 10
7.1939
 20
7.1974
 30
0.0
 40
0
 41
0
  0
VERTEX
  8
0
 10
7.15636
 20
7.22626
 30
0.0
 40
0
 41
0
  0
VERTEX
  8
0
 10
7.11193
 20
7.25492
 30
0.0
 40
0
 41
0
  0
VERTEX
  8
0
 10
7.10157
 20
7.26061
 30
0.0
 40
0
 41
0
  0
VERTEX
  8
0
 10
7.09076
 20
7.26636
 30
0.0
 40
0
 41
0
  0
VERTEX
  8
0
 10
6.98529
 20
7.31025
 30
0.0
 40
0
 41
0
  0
VERTEX
  8
0
 10
6.97439
 20
7.31335
 30
0.0
 40
0
 41
0
  0
VERTEX
  8
0
 10
6.96636
 20
7.31589
 30
0.0
 40
0
 41
0
  0
VERTEX
  8
0
 10
6.92551
 20
7.32479
 30
0.0
 40
0
 41
0
  0
VERTEX
  8
0
 10
6.88243
 20
7.32989
 30
0.0
 40
0
 41
0
  0
VERTEX
  8
0
 10
6.87326
 20
7.33049
 30
0.0
 40
0
 41
0
  0
VERTEX
  8
0
 10
6.87326
 20
7.37215
 30
0.0
 40
0
 41
0
  0
VERTEX
  8
0
 10
6.88053
 20
7.37204
 30
0.0
 40
0
 41
0
  0
VERTEX
  8
0
 10
6.92117
 20
7.36717
 30
0.0
 40
0
 41
0
  0
VERTEX
  8
0
 10
6.96789
 20
7.35664
 30
0.0
 40
0
 41
0
  0
VERTEX
  8
0
 10
6.97808
 20
7.35371
 30
0.0
 40
0
 41
0
  0
VERTEX
  8
0
 10
6.98768
 20
7.35115
 30
0.0
 40
0
 41
0
  0
VERTEX
  8
0
 10
7.03749
 20
7.33293
 30
0.0
 40
0
 41
0
  0
VERTEX
  8
0
 10
7.08708
 20
7.30883
 30
0.0
 40
0
 41
0
  0
VERTEX
  8
0
 10
7.09657
 20
7.30336
 30
0.0
 40
0
 41
0
  0
VERTEX
  8
0
 10
7.10601
 20
7.29897
 30
0.0
 40
0
 41
0
  0
VERTEX
  8
0
 10
7.14903
 20
7.27103
 30
0.0
 40
0
 41
0
  0
VERTEX
  8
0
 10
7.18619
 20
7.23944
 30
0.0
 40
0
 41
0
  0
VERTEX
  8
0
 10
7.19271
 20
7.23326
 30
0.0
 40
0
 41
0
  0
VERTEX
  8
0
 10
7.19271
 20
7.42771
 30
0.0
 40
0
 41
0
  0
SEQEND
 8
0
  0
POLYLINE
  8
0
 62
     0
 66
     1
 10
0
 20
0
 30
0.0
 70
     1
 40
0
 41
0
  0
VERTEX
  8
0
 10
7.0536
 20
7.13582
 30
0.0
 40
0
 41
0
  0
VERTEX
  8
0
 10
7.06754
 20
7.13582
 30
0.0
 40
0
 41
0
  0
VERTEX
  8
0
 10
7.10938
 20
7.13274
 30
0.0
 40
0
 41
0
  0
VERTEX
  8
0
 10
7.15104
 20
7.12551
 30
0.0
 40
0
 41
0
  0
VERTEX
  8
0
 10
7.15799
 20
7.12346
 30
0.0
 40
0
 41
0
  0
VERTEX
  8
0
 10
7.16439
 20
7.12243
 30
0.0
 40
0
 41
0
  0
VERTEX
  8
0
 10
7.19282
 20
7.10946
 30
0.0
 40
0
 41
0
  0
VERTEX
  8
0
 10
7.21419
 20
7.09047
 30
0.0
 40
0
 41
0
  0
VERTEX
  8
0
 10
7.21701
 20
7.08635
 30
0.0
 40
0
 41
0
  0
VERTEX
  8
0
 10
7.21907
 20
7.08293
 30
0.0
 40
0
 41
0
  0
VERTEX
  8
0
 10
7.22874
 20
7.05971
 30
0.0
 40
0
 41
0
  0
VERTEX
  8
0
 10
7.23438
 20
7.0335
 30
0.0
 40
0
 41
0
  0
VERTEX
  8
0
 10
7.23438
 20
7.02471
 30
0.0
 40
0
 41
0
  0
VERTEX
  8
0
 10
7.23438
 20
7.01186
 30
0.0
 40
0
 41
0
  0
VERTEX
  8
0
 10
7.22483
 20
6.97729
 30
0.0
 40
0
 41
0
  0
VERTEX
  8
0
 10
7.22288
 20
6.97328
 30
0.0
 40
0
 41
0
  0
VERTEX
  8
0
 10
7.22076
 20
6.97008
 30
0.0
 40
0
 41
0
  0
VERTEX
  8
0
 10
7.20856
 20
6.95381
 30
0.0
 40
0
 41
0
  0
VERTEX
  8
0
 10
7.19331
 20
6.94068
 30
0.0
 40
0
 41
0
  0
VERTEX
  8
0
 10
7.18967
 20
6.939
 30
0.0
 40
0
 41
0
  0
VERTEX
  8
0
 10
7.18522
 20
6.93753
 30
0.0
 40
0
 41
0
  0
VERTEX
  8
0
 10
7.14236
 20
6.92272
 30
0.0
 40
0
 41
0
  0
VERTEX
  8
0
 10
7.13715
 20
6.92142
 30
0.0
 40
0
 41
0
  0
VERTEX
  8
0
 10
7.13206
 20
6.92065
 30
0.0
 40
0
 41
0
  0
VERTEX
  8
0
 10
7.10086
 20
6.91638
 30
0.0
 40
0
 41
0
  0
VERTEX
  8
0
 10
7.06543
 20
6.9136
 30
0.0
 40
0
 41
0
  0
VERTEX
  8
0
 10
7.0536
 20
6.9136
 30
0.0
 40
0
 41
0
  0
VERTEX
  8
0
 10
7.03896
 20
6.9136
 30
0.0
 40
0
 41
0
  0
VERTEX
  8
0
 10
6.9949
 20
6.91669
 30
0.0
 40
0
 41
0
  0
VERTEX
  8
0
 10
6.95665
 20
6.92392
 30
0.0
 40
0
 41
0
  0
VERTEX
  8
0
 10
6.94965
 20
6.92597
 30
0.0
 40
0
 41
0
  0
VERTEX
  8
0
 10
6.94217
 20
6.92819
 30
0.0
 40
0
 41
0
  0
VERTEX
  8
0
 10
6.91319
 20
6.9416
 30
0.0
 40
0
 41
0
  0
VERTEX
  8
0
 10
6.89356
 20
6.95879
 30
0.0
 40
0
 41
0
  0
VERTEX
  8
0
 10
6.89063
 20
6.96286
 30
0.0
 40
0
 41
0
  0
VERTEX
  8
0
 10
6.88747
 20
6.96747
 30
0.0
 40
0
 41
0
  0
VERTEX
  8
0
 10
6.87717
 20
6.9914
 30
0.0
 40
0
 41
0
  0
VERTEX
  8
0
 10
6.87326
 20
7.01642
 30
0.0
 40
0
 41
0
  0
VERTEX
  8
0
 10
6.87326
 20
7.02471
 30
0.0
 40
0
 41
0
  0
VERTEX
  8
0
 10
6.87326
 20
7.03572
 30
0.0
 40
0
 41
0
  0
VERTEX
  8
0
 10
6.88069
 20
7.06876
 30
0.0
 40
0
 41
0
  0
VERTEX
  8
0
 10
6.89806
 20
7.09753
 30
0.0
 40
0
 41
0
  0
VERTEX
  8
0
 10
6.903
 20
7.10219
 30
0.0
 40
0
 41
0
  0
VERTEX
  8
0
 10
6.91135
 20
7.10832
 30
0.0
 40
0
 41
0
  0
VERTEX
  8
0
 10
6.96593
 20
7.12818
 30
0.0
 40
0
 41
0
  0
VERTEX
  8
0
 10
7.03168
 20
7.13582
 30
0.0
 40
0
 41
0
  0
VERTEX
  8
0
 10
7.0536
 20
7.13582
 30
0.0
 40
0
 41
0
  0
SEQEND
 8
0
  0
POLYLINE
  8
0
 62
     0
 66
     1
 10
0
 20
0
 30
0.0
 70
     1
 40
0
 41
0
  0
VERTEX
  8
0
 10
7.05382
 20
7.09415
 30
0.0
 40
0
 41
0
  0
VERTEX
  8
0
 10
7.03538
 20
7.09415
 30
0.0
 40
0
 41
0
  0
VERTEX
  8
0
 10
6.97987
 20
7.08922
 30
0.0
 40
0
 41
0
  0
VERTEX
  8
0
 10
6.94308
 20
7.07756
 30
0.0
 40
0
 41
0
  0
VERTEX
  8
0
 10
6.93901
 20
7.07419
 30
0.0
 40
0
 41
0
  0
VERTEX
  8
0
 10
6.93419
 20
7.07138
 30
0.0
 40
0
 41
0
  0
VERTEX
  8
0
 10
6.91971
 20
7.05254
 30
0.0
 40
0
 41
0
  0
VERTEX
  8
0
 10
6.91493
 20
7.03171
 30
0.0
 40
0
 41
0
  0
VERTEX
  8
0
 10
6.91493
 20
7.02471
 30
0.0
 40
0
 41
0
  0
VERTEX
  8
0
 10
6.91493
 20
7.01799
 30
0.0
 40
0
 41
0
  0
VERTEX
  8
0
 10
6.92101
 20
6.99781
 30
0.0
 40
0
 41
0
  0
VERTEX
  8
0
 10
6.93522
 20
6.97882
 30
0.0
 40
0
 41
0
  0
VERTEX
  8
0
 10
6.93924
 20
6.97546
 30
0.0
 40
0
 41
0
  0
VERTEX
  8
0
 10
6.94233
 20
6.97285
 30
0.0
 40
0
 41
0
  0
VERTEX
  8
0
 10
6.95404
 20
6.96775
 30
0.0
 40
0
 41
0
  0
VERTEX
  8
0
 10
6.97874
 20
6.96129
 30
0.0
 40
0
 41
0
  0
VERTEX
  8
0
 10
7.01232
 20
6.9569
 30
0.0
 40
0
 41
0
  0
VERTEX
  8
0
 10
7.04346
 20
6.95526
 30
0.0
 40
0
 41
0
  0
VERTEX
  8
0
 10
7.05382
 20
6.95526
 30
0.0
 40
0
 41
0
  0
VERTEX
  8
0
 10
7.07129
 20
6.95526
 30
0.0
 40
0
 41
0
  0
VERTEX
  8
0
 10
7.12354
 20
6.95993
 30
0.0
 40
0
 41
0
  0
VERTEX
  8
0
 10
7.1606
 20
6.97068
 30
0.0
 40
0
 41
0
  0
VERTEX
  8
0
 10
7.16515
 20
6.97372
 30
0.0
 40
0
 41
0
  0
VERTEX
  8
0
 10
7.16976
 20
6.97757
 30
0.0
 40
0
 41
0
  0
VERTEX
  8
0
 10
7.18582
 20
6.99689
 30
0.0
 40
0
 41
0
  0
VERTEX
  8
0
 10
7.19271
 20
7.0181
 30
0.0
 40
0
 41
0
  0
VERTEX
  8
0
 10
7.19271
 20
7.02515
 30
0.0
 40
0
 41
0
  0
VERTEX
  8
0
 10
7.19271
 20
7.03242
 30
0.0
 40
0
 41
0
  0
VERTEX
  8
0
 10
7.18664
 20
7.05422
 30
0.0
 40
0
 41
0
  0
VERTEX
  8
0
 10
7.17247
 20
7.07203
 30
0.0
 40
0
 41
0
  0
VERTEX
  8
0
 10
7.1684
 20
7.0755
 30
0.0
 40
0
 41
0
  0
VERTEX
  8
0
 10
7.16297
 20
7.07903
 30
0.0
 40
0
 41
0
  0
VERTEX
  8
0
 10
7.12381
 20
7.09014
 30
0.0
 40
0
 41
0
  0
VERTEX
  8
0
 10
7.07135
 20
7.09415
 30
0.0
 40
0
 41
0
  0
VERTEX
  8
0
 10
7.05382
 20
7.09415
 30
0.0
 40
0
 41
0
  0
SEQEND
 8
0
  0
POLYLINE
  8
0
 62
     0
 66
     1
 10
0
 20
0
 30
0.0
 70
     1
 40
0
 41
0
  0
VERTEX
  8
0
 10
7.07596
 20
6.79381
 30
0.0
 40
0
 41
0
  0
VERTEX
  8
0
 10
7.07688
 20
6.79881
 30
0.0
 40
0
 41
0
  0
VERTEX
  8
0
 10
7.08653
 20
6.81719
 30
0.0
 40
0
 41
0
  0
VERTEX
  8
0
 10
7.10037
 20
6.82972
 30
0.0
 40
0
 41
0
  0
VERTEX
  8
0
 10
7.10331
 20
6.83179
 30
0.0
 40
0
 41
0
  0
VERTEX
  8
0
 10
7.10563
 20
6.83483
 30
0.0
 40
0
 41
0
  0
VERTEX
  8
0
 10
7.12185
 20
6.84242
 30
0.0
 40
0
 41
0
  0
VERTEX
  8
0
 10
7.13986
 20
6.84394
 30
0.0
 40
0
 41
0
  0
VERTEX
  8
0
 10
7.14583
 20
6.84394
 30
0.0
 40
0
 41
0
  0
VERTEX
  8
0
 10
7.15419
 20
6.84394
 30
0.0
 40
0
 41
0
  0
VERTEX
  8
0
 10
7.17925
 20
6.83743
 30
0.0
 40
0
 41
0
  0
VERTEX
  8
0
 10
7.20454
 20
6.82208
 30
0.0
 40
0
 41
0
  0
VERTEX
  8
0
 10
7.20876
 20
6.81768
 30
0.0
 40
0
 41
0
  0
VERTEX
  8
0
 10
7.21289
 20
6.81432
 30
0.0
 40
0
 41
0
  0
VERTEX
  8
0
 10
7.22771
 20
6.78844
 30
0.0
 40
0
 41
0
  0
VERTEX
  8
0
 10
7.23438
 20
6.75768
 30
0.0
 40
0
 41
0
  0
VERTEX
  8
0
 10
7.23438
 20
6.74738
 30
0.0
 40
0
 41
0
  0
VERTEX
  8
0
 10
7.23438
 20
6.73788
 30
0.0
 40
0
 41
0
  0
VERTEX
  8
0
 10
7.22786
 20
6.70928
 30
0.0
 40
0
 41
0
  0
VERTEX
  8
0
 10
7.21268
 20
6.68092
 30
0.0
 40
0
 41
0
  0
VERTEX
  8
0
 10
7.20833
 20
6.6764
 30
0.0
 40
0
 41
0
  0
VERTEX
  8
0
 10
7.20389
 20
6.67201
 30
0.0
 40
0
 41
0
  0
VERTEX
  8
0
 10
7.17919
 20
6.65639
 30
0.0
 40
0
 41
0
  0
VERTEX
  8
0
 10
7.15338
 20
6.6495
 30
0.0
 40
0
 41
0
  0
VERTEX
  8
0
 10
7.14475
 20
6.6495
 30
0.0
 40
0
 41
0
  0
VERTEX
  8
0
 10
7.13894
 20
6.6495
 30
0.0
 40
0
 41
0
  0
VERTEX
  8
0
 10
7.12147
 20
6.65258
 30
0.0
 40
0
 41
0
  0
VERTEX
  8
0
 10
7.10607
 20
6.65964
 30
0.0
 40
0
 41
0
  0
VERTEX
  8
0
 10
7.10308
 20
6.66165
 30
0.0
 40
0
 41
0
  0
VERTEX
  8
0
 10
7.09956
 20
6.66382
 30
0.0
 40
0
 41
0
  0
VERTEX
  8
0
 10
7.08658
 20
6.67706
 30
0.0
 40
0
 41
0
  0
VERTEX
  8
0
 10
7.07758
 20
6.69421
 30
0.0
 40
0
 41
0
  0
VERTEX
  8
0
 10
7.07596
 20
6.69832
 30
0.0
 40
0
 41
0
  0
VERTEX
  8
0
 10
7.07346
 20
6.69382
 30
0.0
 40
0
 41
0
  0
VERTEX
  8
0
 10
7.06071
 20
6.67224
 30
0.0
 40
0
 41
0
  0
VERTEX
  8
0
 10
7.04486
 20
6.65437
 30
0.0
 40
0
 41
0
  0
VERTEX
  8
0
 10
7.04081
 20
6.65167
 30
0.0
 40
0
 41
0
  0
VERTEX
  8
0
 10
7.03674
 20
6.64999
 30
0.0
 40
0
 41
0
  0
VERTEX
  8
0
 10
7.01421
 20
6.64114
 30
0.0
 40
0
 41
0
  0
VERTEX
  8
0
 10
6.99089
 20
6.63561
 30
0.0
 40
0
 41
0
  0
VERTEX
  8
0
 10
6.98307
 20
6.63561
 30
0.0
 40
0
 41
0
  0
VERTEX
  8
0
 10
6.972
 20
6.63561
 30
0.0
 40
0
 41
0
  0
VERTEX
  8
0
 10
6.93875
 20
6.64326
 30
0.0
 40
0
 41
0
  0
VERTEX
  8
0
 10
6.91026
 20
6.66111
 30
0.0
 40
0
 41
0
  0
VERTEX
  8
0
 10
6.90494
 20
6.66621
 30
0.0
 40
0
 41
0
  0
VERTEX
  8
0
 10
6.89936
 20
6.67224
 30
0.0
 40
0
 41
0
  0
VERTEX
  8
0
 10
6.88069
 20
6.70304
 30
0.0
 40
0
 41
0
  0
VERTEX
  8
0
 10
6.87326
 20
6.73582
 30
0.0
 40
0
 41
0
  0
VERTEX
  8
0
 10
6.87326
 20
6.74672
 30
0.0
 40
0
 41
0
  0
VERTEX
  8
0
 10
6.87326
 20
6.758
 30
0.0
 40
0
 41
0
  0
VERTEX
  8
0
 10
6.88118
 20
6.79186
 30
0.0
 40
0
 41
0
  0
VERTEX
  8
0
 10
6.89968
 20
6.82212
 30
0.0
 40
0
 41
0
  0
VERTEX
  8
0
 10
6.90494
 20
6.82724
 30
0.0
 40
0
 41
0
  0
VERTEX
  8
0
 10
6.90994
 20
6.8326
 30
0.0
 40
0
 41
0
  0
VERTEX
  8
0
 10
6.94021
 20
6.85056
 30
0.0
 40
0
 41
0
  0
VERTEX
  8
0
 10
6.97319
 20
6.85783
 30
0.0
 40
0
 41
0
  0
VERTEX
  8
0
 10
6.98415
 20
6.85783
 30
0.0
 40
0
 41
0
  0
VERTEX
  8
0
 10
6.99186
 20
6.85783
 30
0.0
 40
0
 41
0
  0
VERTEX
  8
0
 10
7.01492
 20
6.85376
 30
0.0
 40
0
 41
0
  0
VERTEX
  8
0
 10
7.03944
 20
6.84411
 30
0.0
 40
0
 41
0
  0
VERTEX
  8
0
 10
7.0434
 20
6.84133
 30
0.0
 40
0
 41
0
  0
VERTEX
  8
0
 10
7.0471
 20
6.83879
 30
0.0
 40
0
 41
0
  0
VERTEX
  8
0
 10
7.06304
 20
6.82149
 30
0.0
 40
0
 41
0
  0
VERTEX
  8
0
 10
7.07454
 20
6.79897
 30
0.0
 40
0
 41
0
  0
VERTEX
  8
0
 10
7.07596
 20
6.79381
 30
0.0
 40
0
 41
0
  0
SEQEND
 8
0
  0
POLYLINE
  8
0
 62
     0
 66
     1
 10
0
 20
0
 30
0.0
 70
     1
 40
0
 41
0
  0
VERTEX
  8
0
 10
7.1454
 20
6.80228
 30
0.0
 40
0
 41
0
  0
VERTEX
  8
0
 10
7.14019
 20
6.80228
 30
0.0
 40
0
 41
0
  0
VERTEX
  8
0
 10
7.1244
 20
6.79929
 30
0.0
 40
0
 41
0
  0
VERTEX
  8
0
 10
7.11176
 20
6.79218
 30
0.0
 40
0
 41
0
  0
VERTEX
  8
0
 10
7.10938
 20
6.79013
 30
0.0
 40
0
 41
0
  0
VERTEX
  8
0
 10
7.1071
 20
6.78914
 30
0.0
 40
0
 41
0
  0
VERTEX
  8
0
 10
7.09896
 20
6.77467
 30
0.0
 40
0
 41
0
  0
VERTEX
  8
0
 10
7.09549
 20
6.75339
 30
0.0
 40
0
 41
0
  0
VERTEX
  8
0
 10
7.09549
 20
6.74629
 30
0.0
 40
0
 41
0
  0
VERTEX
  8
0
 10
7.09549
 20
6.73972
 30
0.0
 40
0
 41
0
  0
VERTEX
  8
0
 10
7.09896
 20
6.71997
 30
0.0
 40
0
 41
0
  0
VERTEX
  8
0
 10
7.1071
 20
6.70511
 30
0.0
 40
0
 41
0
  0
VERTEX
  8
0
 10
7.10938
 20
6.7031
 30
0.0
 40
0
 41
0
  0
VERTEX
  8
0
 10
7.11171
 20
6.70131
 30
0.0
 40
0
 41
0
  0
VERTEX
  8
0
 10
7.13536
 20
6.69117
 30
0.0
 40
0
 41
0
  0
VERTEX
  8
0
 10
7.14324
 20
6.69117
 30
0.0
 40
0
 41
0
  0
VERTEX
  8
0
 10
7.15201
 20
6.69117
 30
0.0
 40
0
 41
0
  0
VERTEX
  8
0
 10
7.17606
 20
6.70169
 30
0.0
 40
0
 41
0
  0
VERTEX
  8
0
 10
7.17839
 20
6.70375
 30
0.0
 40
0
 41
0
  0
VERTEX
  8
0
 10
7.17969
 20
6.70592
 30
0.0
 40
0
 41
0
  0
VERTEX
  8
0
 10
7.18744
 20
6.72085
 30
0.0
 40
0
 41
0
  0
VERTEX
  8
0
 10
7.19271
 20
6.74026
 30
0.0
 40
0
 41
0
  0
VERTEX
  8
0
 10
7.19271
 20
6.74672
 30
0.0
 40
0
 41
0
  0
VERTEX
  8
0
 10
7.19271
 20
6.75328
 30
0.0
 40
0
 41
0
  0
VERTEX
  8
0
 10
7.18918
 20
6.77297
 30
0.0
 40
0
 41
0
  0
VERTEX
  8
0
 10
7.18099
 20
6.78785
 30
0.0
 40
0
 41
0
  0
VERTEX
  8
0
 10
7.1786
 20
6.7899
 30
0.0
 40
0
 41
0
  0
VERTEX
  8
0
 10
7.17518
 20
6.793
 30
0.0
 40
0
 41
0
  0
VERTEX
  8
0
 10
7.16168
 20
6.80075
 30
0.0
 40
0
 41
0
  0
VERTEX
  8
0
 10
7.14947
 20
6.80228
 30
0.0
 40
0
 41
0
  0
VERTEX
  8
0
 10
7.1454
 20
6.80228
 30
0.0
 40
0
 41
0
  0
SEQEND
 8
0
  0
POLYLINE
  8
0
 62
     0
 66
     1
 10
0
 20
0
 30
0.0
 70
     1
 40
0
 41
0
  0
VERTEX
  8
0
 10
6.98503
 20
6.81617
 30
0.0
 40
0
 41
0
  0
VERTEX
  8
0
 10
6.97629
 20
6.81617
 30
0.0
 40
0
 41
0
  0
VERTEX
  8
0
 10
6.9529
 20
6.81204
 30
0.0
 40
0
 41
0
  0
VERTEX
  8
0
 10
6.95008
 20
6.81117
 30
0.0
 40
0
 41
0
  0
VERTEX
  8
0
 10
6.94672
 20
6.81079
 30
0.0
 40
0
 41
0
  0
VERTEX
  8
0
 10
6.93431
 20
6.80303
 30
0.0
 40
0
 41
0
  0
VERTEX
  8
0
 10
6.92562
 20
6.78936
 30
0.0
 40
0
 41
0
  0
VERTEX
  8
0
 10
6.92404
 20
6.786
 30
0.0
 40
0
 41
0
  0
VERTEX
  8
0
 10
6.92176
 20
6.78279
 30
0.0
 40
0
 41
0
  0
VERTEX
  8
0
 10
6.91607
 20
6.76619
 30
0.0
 40
0
 41
0
  0
VERTEX
  8
0
 10
6.91493
 20
6.75128
 30
0.0
 40
0
 41
0
  0
VERTEX
  8
0
 10
6.91493
 20
6.74629
 30
0.0
 40
0
 41
0
  0
VERTEX
  8
0
 10
6.91493
 20
6.73842
 30
0.0
 40
0
 41
0
  0
VERTEX
  8
0
 10
6.91976
 20
6.71471
 30
0.0
 40
0
 41
0
  0
VERTEX
  8
0
 10
6.93104
 20
6.69604
 30
0.0
 40
0
 41
0
  0
VERTEX
  8
0
 10
6.93425
 20
6.69333
 30
0.0
 40
0
 41
0
  0
VERTEX
  8
0
 10
6.93707
 20
6.69165
 30
0.0
 40
0
 41
0
  0
VERTEX
  8
0
 10
6.95574
 20
6.68281
 30
0.0
 40
0
 41
0
  0
VERTEX
  8
0
 10
6.97672
 20
6.67728
 30
0.0
 40
0
 41
0
  0
VERTEX
  8
0
 10
6.98372
 20
6.67728
 30
0.0
 40
0
 41
0
  0
VERTEX
  8
0
 10
6.99029
 20
6.67728
 30
0.0
 40
0
 41
0
  0
VERTEX
  8
0
 10
7.00982
 20
6.6815
 30
0.0
 40
0
 41
0
  0
VERTEX
  8
0
 10
7.0306
 20
6.69122
 30
0.0
 40
0
 41
0
  0
VERTEX
  8
0
 10
7.03386
 20
6.69399
 30
0.0
 40
0
 41
0
  0
VERTEX
  8
0
 10
7.03657
 20
6.69768
 30
0.0
 40
0
 41
0
  0
VERTEX
  8
0
 10
7.04785
 20
6.7171
 30
0.0
 40
0
 41
0
  0
VERTEX
  8
0
 10
7.05382
 20
6.74015
 30
0.0
 40
0
 41
0
  0
VERTEX
  8
0
 10
7.05382
 20
6.74781
 30
0.0
 40
0
 41
0
  0
VERTEX
  8
0
 10
7.05382
 20
6.75606
 30
0.0
 40
0
 41
0
  0
VERTEX
  8
0
 10
7.04889
 20
6.78079
 30
0.0
 40
0
 41
0
  0
VERTEX
  8
0
 10
7.03738
 20
6.79767
 30
0.0
 40
0
 41
0
  0
VERTEX
  8
0
 10
7.03407
 20
6.80032
 30
0.0
 40
0
 41
0
  0
VERTEX
  8
0
 10
7.03017
 20
6.80314
 30
0.0
 40
0
 41
0
  0
VERTEX
  8
0
 10
7.01101
 20
6.81247
 30
0.0
 40
0
 41
0
  0
VERTEX
  8
0
 10
6.99154
 20
6.81617
 30
0.0
 40
0
 41
0
  0
VERTEX
  8
0
 10
6.98503
 20
6.81617
 30
0.0
 40
0
 41
0
  0
SEQEND
 8
0
  0
POLYLINE
  8
0
 62
     0
 66
     1
 10
0
 20
0
 30
0.0
 70
     1
 40
0
 41
0
  0
VERTEX
  8
0
 10
6.87326
 20
6.42831
 30
0.0
 40
0
 41
0
  0
VERTEX
  8
0
 10
7.23438
 20
6.42831
 30
0.0
 40
0
 41
0
  0
VERTEX
  8
0
 10
7.23438
 20
6.29787
 30
0.0
 40
0
 41
0
  0
VERTEX
  8
0
 10
7.23438
 20
6.28475
 30
0.0
 40
0
 41
0
  0
VERTEX
  8
0
 10
7.23167
 20
6.2484
 30
0.0
 40
0
 41
0
  0
VERTEX
  8
0
 10
7.23112
 20
6.24536
 30
0.0
 40
0
 41
0
  0
VERTEX
  8
0
 10
7.22954
 20
6.24129
 30
0.0
 40
0
 41
0
  0
VERTEX
  8
0
 10
7.22353
 20
6.22219
 30
0.0
 40
0
 41
0
  0
VERTEX
  8
0
 10
7.21669
 20
6.20549
 30
0.0
 40
0
 41
0
  0
VERTEX
  8
0
 10
7.21463
 20
6.20261
 30
0.0
 40
0
 41
0
  0
VERTEX
  8
0
 10
7.21197
 20
6.20006
 30
0.0
 40
0
 41
0
  0
VERTEX
  8
0
 10
7.19906
 20
6.18764
 30
0.0
 40
0
 41
0
  0
VERTEX
  8
0
 10
7.18425
 20
6.17679
 30
0.0
 40
0
 41
0
  0
VERTEX
  8
0
 10
7.18056
 20
6.17506
 30
0.0
 40
0
 41
0
  0
VERTEX
  8
0
 10
7.17681
 20
6.17358
 30
0.0
 40
0
 41
0
  0
VERTEX
  8
0
 10
7.14382
 20
6.16442
 30
0.0
 40
0
 41
0
  0
VERTEX
  8
0
 10
7.13282
 20
6.16442
 30
0.0
 40
0
 41
0
  0
VERTEX
  8
0
 10
7.12224
 20
6.16442
 30
0.0
 40
0
 41
0
  0
VERTEX
  8
0
 10
7.09033
 20
6.17158
 30
0.0
 40
0
 41
0
  0
VERTEX
  8
0
 10
7.06228
 20
6.18829
 30
0.0
 40
0
 41
0
  0
VERTEX
  8
0
 10
7.05707
 20
6.19307
 30
0.0
 40
0
 41
0
  0
VERTEX
  8
0
 10
7.05165
 20
6.19892
 30
0.0
 40
0
 41
0
  0
VERTEX
  8
0
 10
7.03342
 20
6.23478
 30
0.0
 40
0
 41
0
  0
VERTEX
  8
0
 10
7.02604
 20
6.28101
 30
0.0
 40
0
 41
0
  0
VERTEX
  8
0
 10
7.02604
 20
6.29636
 30
0.0
 40
0
 41
0
  0
VERTEX
  8
0
 10
7.02604
 20
6.38664
 30
0.0
 40
0
 41
0
  0
VERTEX
  8
0
 10
6.87326
 20
6.38664
 30
0.0
 40
0
 41
0
  0
VERTEX
  8
0
 10
6.87326
 20
6.42831
 30
0.0
 40
0
 41
0
  0
SEQEND
 8
0
  0
POLYLINE
  8
0
 62
     0
 66
     1
 10
0
 20
0
 30
0.0
 70
     1
 40
0
 41
0
  0
VERTEX
  8
0
 10
7.06771
 20
6.38664
 30
0.0
 40
0
 41
0
  0
VERTEX
  8
0
 10
7.06771
 20
6.29224
 30
0.0
 40
0
 41
0
  0
VERTEX
  8
0
 10
7.06771
 20
6.28258
 30
0.0
 40
0
 41
0
  0
VERTEX
  8
0
 10
7.07189
 20
6.25361
 30
0.0
 40
0
 41
0
  0
VERTEX
  8
0
 10
7.08165
 20
6.22908
 30
0.0
 40
0
 41
0
  0
VERTEX
  8
0
 10
7.08442
 20
6.22583
 30
0.0
 40
0
 41
0
  0
VERTEX
  8
0
 10
7.08697
 20
6.22322
 30
0.0
 40
0
 41
0
  0
VERTEX
  8
0
 10
7.10417
 20
6.21206
 30
0.0
 40
0
 41
0
  0
VERTEX
  8
0
 10
7.12451
 20
6.20608
 30
0.0
 40
0
 41
0
  0
VERTEX
  8
0
 10
7.13129
 20
6.20608
 30
0.0
 40
0
 41
0
  0
VERTEX
  8
0
 10
7.14074
 20
6.20608
 30
0.0
 40
0
 41
0
  0
VERTEX
  8
0
 10
7.16644
 20
6.21585
 30
0.0
 40
0
 41
0
  0
VERTEX
  8
0
 10
7.16906
 20
6.21781
 30
0.0
 40
0
 41
0
  0
VERTEX
  8
0
 10
7.17133
 20
6.21992
 30
0.0
 40
0
 41
0
  0
VERTEX
  8
0
 10
7.18886
 20
6.24504
 30
0.0
 40
0
 41
0
  0
VERTEX
  8
0
 10
7.18967
 20
6.24818
 30
0.0
 40
0
 41
0
  0
VERTEX
  8
0
 10
7.18929
 20
6.25133
 30
0.0
 40
0
 41
0
  0
VERTEX
  8
0
 10
7.1906
 20
6.26728
 30
0.0
 40
0
 41
0
  0
VERTEX
  8
0
 10
7.19271
 20
6.28682
 30
0.0
 40
0
 41
0
  0
VERTEX
  8
0
 10
7.19271
 20
6.29332
 30
0.0
 40
0
 41
0
  0
VERTEX
  8
0
 10
7.19271
 20
6.38664
 30
0.0
 40
0
 41
0
  0
VERTEX
  8
0
 10
7.06771
 20
6.38664
 30
0.0
 40
0
 41
0
  0
SEQEND
 8
0
  0
POLYLINE
  8
0
 62
     0
 66
     1
 10
0
 20
0
 30
0.0
 70
     1
 40
0
 41
0
  0
VERTEX
  8
0
 10
6.87326
 20
6.09535
 30
0.0
 40
0
 41
0
  0
VERTEX
  8
0
 10
7.23438
 20
6.09535
 30
0.0
 40
0
 41
0
  0
VERTEX
  8
0
 10
7.23438
 20
6.05368
 30
0.0
 40
0
 41
0
  0
VERTEX
  8
0
 10
6.91493
 20
6.05368
 30
0.0
 40
0
 41
0
  0
VERTEX
  8
0
 10
6.91493
 20
5.87312
 30
0.0
 40
0
 41
0
  0
VERTEX
  8
0
 10
6.87326
 20
5.87312
 30
0.0
 40
0
 41
0
  0
VERTEX
  8
0
 10
6.87326
 20
6.09535
 30
0.0
 40
0
 41
0
  0
SEQEND
 8
0
  0
POLYLINE
  8
0
 62
     0
 66
     1
 10
0
 20
0
 30
0.0
 70
     1
 40
0
 41
0
  0
VERTEX
  8
0
 10
7.23438
 20
5.58125
 30
0.0
 40
0
 41
0
  0
VERTEX
  8
0
 10
7.23438
 20
5.53958
 30
0.0
 40
0
 41
0
  0
VERTEX
  8
0
 10
7.02929
 20
5.53958
 30
0.0
 40
0
 41
0
  0
VERTEX
  8
0
 10
7.01719
 20
5.53958
 30
0.0
 40
0
 41
0
  0
VERTEX
  8
0
 10
6.98085
 20
5.54267
 30
0.0
 40
0
 41
0
  0
VERTEX
  8
0
 10
6.94949
 20
5.54972
 30
0.0
 40
0
 41
0
  0
VERTEX
  8
0
 10
6.94422
 20
5.55174
 30
0.0
 40
0
 41
0
  0
VERTEX
  8
0
 10
6.93886
 20
5.5539
 30
0.0
 40
0
 41
0
  0
VERTEX
  8
0
 10
6.91553
 20
5.56882
 30
0.0
 40
0
 41
0
  0
VERTEX
  8
0
 10
6.89632
 20
5.58993
 30
0.0
 40
0
 41
0
  0
VERTEX
  8
0
 10
6.89301
 20
5.59514
 30
0.0
 40
0
 41
0
  0
VERTEX
  8
0
 10
6.88926
 20
5.6004
 30
0.0
 40
0
 41
0
  0
VERTEX
  8
0
 10
6.8775
 20
5.63154
 30
0.0
 40
0
 41
0
  0
VERTEX
  8
0
 10
6.87326
 20
5.6661
 30
0.0
 40
0
 41
0
  0
VERTEX
  8
0
 10
6.87326
 20
5.6776
 30
0.0
 40
0
 41
0
  0
VERTEX
  8
0
 10
6.87326
 20
5.68894
 30
0.0
 40
0
 41
0
  0
VERTEX
  8
0
 10
6.87756
 20
5.72296
 30
0.0
 40
0
 41
0
  0
VERTEX
  8
0
 10
6.88758
 20
5.75372
 30
0.0
 40
0
 41
0
  0
VERTEX
  8
0
 10
6.8904
 20
5.75899
 30
0.0
 40
0
 41
0
  0
VERTEX
  8
0
 10
6.89301
 20
5.76446
 30
0.0
 40
0
 41
0
  0
VERTEX
  8
0
 10
6.91103
 20
5.78632
 30
0.0
 40
0
 41
0
  0
VERTEX
  8
0
 10
6.93468
 20
5.80168
 30
0.0
 40
0
 41
0
  0
VERTEX
  8
0
 10
6.94011
 20
5.8039
 30
0.0
 40
0
 41
0
  0
VERTEX
  8
0
 10
6.94467
 20
5.80726
 30
0.0
 40
0
 41
0
  0
VERTEX
  8
0
 10
6.97738
 20
5.81568
 30
0.0
 40
0
 41
0
  0
VERTEX
  8
0
 10
7.01633
 20
5.81736
 30
0.0
 40
0
 41
0
  0
VERTEX
  8
0
 10
7.02929
 20
5.81736
 30
0.0
 40
0
 41
0
  0
VERTEX
  8
0
 10
7.23438
 20
5.81736
 30
0.0
 40
0
 41
0
  0
VERTEX
  8
0
 10
7.23438
 20
5.77569
 30
0.0
 40
0
 41
0
  0
VERTEX
  8
0
 10
7.02908
 20
5.77569
 30
0.0
 40
0
 41
0
  0
VERTEX
  8
0
 10
7.01893
 20
5.77569
 30
0.0
 40
0
 41
0
  0
VERTEX
  8
0
 10
6.98839
 20
5.77351
 30
0.0
 40
0
 41
0
  0
VERTEX
  8
0
 10
6.96442
 20
5.76831
 30
0.0
 40
0
 41
0
  0
VERTEX
  8
0
 10
6.96072
 20
5.76679
 30
0.0
 40
0
 41
0
  0
VERTEX
  8
0
 10
6.95676
 20
5.76603
 30
0.0
 40
0
 41
0
  0
VERTEX
  8
0
 10
6.94081
 20
5.75561
 30
0.0
 40
0
 41
0
  0
VERTEX
  8
0
 10
6.92888
 20
5.73944
 30
0.0
 40
0
 41
0
  0
VERTEX
  8
0
 10
6.92686
 20
5.73576
 30
0.0
 40
0
 41
0
  0
VERTEX
  8
0
 10
6.92389
 20
5.7331
 30
0.0
 40
0
 41
0
  0
VERTEX
  8
0
 10
6.91644
 20
5.71281
 30
0.0
 40
0
 41
0
  0
VERTEX
  8
0
 10
6.91493
 20
5.68969
 30
0.0
 40
0
 41
0
  0
VERTEX
  8
0
 10
6.91493
 20
5.68194
 30
0.0
 40
0
 41
0
  0
VERTEX
  8
0
 10
6.91493
 20
5.67065
 30
0.0
 40
0
 41
0
  0
VERTEX
  8
0
 10
6.92079
 20
5.63669
 30
0.0
 40
0
 41
0
  0
VERTEX
  8
0
 10
6.93446
 20
5.60832
 30
0.0
 40
0
 41
0
  0
VERTEX
  8
0
 10
6.93837
 20
5.60447
 30
0.0
 40
0
 41
0
  0
VERTEX
  8
0
 10
6.94151
 20
5.601
 30
0.0
 40
0
 41
0
  0
VERTEX
  8
0
 10
6.97168
 20
5.58765
 30
0.0
 40
0
 41
0
  0
VERTEX
  8
0
 10
7.01476
 20
5.58125
 30
0.0
 40
0
 41
0
  0
VERTEX
  8
0
 10
7.02908
 20
5.58125
 30
0.0
 40
0
 41
0
  0
VERTEX
  8
0
 10
7.23438
 20
5.58125
 30
0.0
 40
0
 41
0
  0
SEQEND
 8
0
  0
POLYLINE
  8
0
 62
     0
 66
     1
 10
0
 20
0
 30
0.0
 70
     1
 40
0
 41
0
  0
VERTEX
  8
0
 10
6.99826
 20
5.47029
 30
0.0
 40
0
 41
0
  0
VERTEX
  8
0
 10
6.99826
 20
5.42862
 30
0.0
 40
0
 41
0
  0
VERTEX
  8
0
 10
6.99376
 20
5.42808
 30
0.0
 40
0
 41
0
  0
VERTEX
  8
0
 10
6.95671
 20
5.41583
 30
0.0
 40
0
 41
0
  0
VERTEX
  8
0
 10
6.95378
 20
5.41388
 30
0.0
 40
0
 41
0
  0
VERTEX
  8
0
 10
6.94997
 20
5.41203
 30
0.0
 40
0
 41
0
  0
VERTEX
  8
0
 10
6.93668
 20
5.39933
 30
0.0
 40
0
 41
0
  0
VERTEX
  8
0
 10
6.9274
 20
5.38214
 30
0.0
 40
0
 41
0
  0
VERTEX
  8
0
 10
6.92557
 20
5.37807
 30
0.0
 40
0
 41
0
  0
VERTEX
  8
0
 10
6.9229
 20
5.37476
 30
0.0
 40
0
 41
0
  0
VERTEX
  8
0
 10
6.91629
 20
5.35317
 30
0.0
 40
0
 41
0
  0
VERTEX
  8
0
 10
6.91493
 20
5.33054
 30
0.0
 40
0
 41
0
  0
VERTEX
  8
0
 10
6.91493
 20
5.32294
 30
0.0
 40
0
 41
0
  0
VERTEX
  8
0
 10
6.91493
 20
5.31101
 30
0.0
 40
0
 41
0
  0
VERTEX
  8
0
 10
6.92165
 20
5.27868
 30
0.0
 40
0
 41
0
  0
VERTEX
  8
0
 10
6.92296
 20
5.27521
 30
0.0
 40
0
 41
0
  0
VERTEX
  8
0
 10
6.92367
 20
5.27178
 30
0.0
 40
0
 41
0
  0
VERTEX
  8
0
 10
6.93169
 20
5.25719
 30
0.0
 40
0
 41
0
  0
VERTEX
  8
0
 10
6.94299
 20
5.24607
 30
0.0
 40
0
 41
0
  0
VERTEX
  8
0
 10
6.94532
 20
5.24439
 30
0.0
 40
0
 41
0
  0
VERTEX
  8
0
 10
6.94749
 20
5.24303
 30
0.0
 40
0
 41
0
  0
VERTEX
  8
0
 10
6.96832
 20
5.23418
 30
0.0
 40
0
 41
0
  0
VERTEX
  8
0
 10
6.97526
 20
5.23418
 30
0.0
 40
0
 41
0
  0
VERTEX
  8
0
 10
6.98215
 20
5.23418
 30
0.0
 40
0
 41
0
  0
VERTEX
  8
0
 10
7.00087
 20
5.24379
 30
0.0
 40
0
 41
0
  0
VERTEX
  8
0
 10
7.00282
 20
5.24569
 30
0.0
 40
0
 41
0
  0
VERTEX
  8
0
 10
7.00444
 20
5.24781
 30
0.0
 40
0
 41
0
  0
VERTEX
  8
0
 10
7.02181
 20
5.27542
 30
0.0
 40
0
 41
0
  0
VERTEX
  8
0
 10
7.02322
 20
5.27911
 30
0.0
 40
0
 41
0
  0
VERTEX
  8
0
 10
7.02322
 20
5.28236
 30
0.0
 40
0
 41
0
  0
VERTEX
  8
0
 10
7.02875
 20
5.30319
 30
0.0
 40
0
 41
0
  0
VERTEX
  8
0
 10
7.03825
 20
5.33374
 30
0.0
 40
0
 41
0
  0
VERTEX
  8
0
 10
7.04015
 20
5.34182
 30
0.0
 40
0
 41
0
  0
VERTEX
  8
0
 10
7.04204
 20
5.35018
 30
0.0
 40
0
 41
0
  0
VERTEX
  8
0
 10
7.05132
 20
5.38322
 30
0.0
 40
0
 41
0
  0
VERTEX
  8
0
 10
7.06017
 20
5.40562
 30
0.0
 40
0
 41
0
  0
VERTEX
  8
0
 10
7.06185
 20
5.40867
 30
0.0
 40
0
 41
0
  0
VERTEX
  8
0
 10
7.06342
 20
5.41322
 30
0.0
 40
0
 41
0
  0
VERTEX
  8
0
 10
7.07563
 20
5.43053
 30
0.0
 40
0
 41
0
  0
VERTEX
  8
0
 10
7.09119
 20
5.44274
 30
0.0
 40
0
 41
0
  0
VERTEX
  8
0
 10
7.0944
 20
5.44469
 30
0.0
 40
0
 41
0
  0
VERTEX
  8
0
 10
7.09663
 20
5.44763
 30
0.0
 40
0
 41
0
  0
VERTEX
  8
0
 10
7.1135
 20
5.45494
 30
0.0
 40
0
 41
0
  0
VERTEX
  8
0
 10
7.13189
 20
5.4564
 30
0.0
 40
0
 41
0
  0
VERTEX
  8
0
 10
7.13803
 20
5.4564
 30
0.0
 40
0
 41
0
  0
VERTEX
  8
0
 10
7.15039
 20
5.4564
 30
0.0
 40
0
 41
0
  0
VERTEX
  8
0
 10
7.18371
 20
5.44415
 30
0.0
 40
0
 41
0
  0
VERTEX
  8
0
 10
7.1875
 20
5.44165
 30
0.0
 40
0
 41
0
  0
VERTEX
  8
0
 10
7.19065
 20
5.43926
 30
0.0
 40
0
 41
0
  0
VERTEX
  8
0
 10
7.20665
 20
5.42369
 30
0.0
 40
0
 41
0
  0
VERTEX
  8
0
 10
7.22049
 20
5.4034
 30
0.0
 40
0
 41
0
  0
VERTEX
  8
0
 10
7.22244
 20
5.39868
 30
0.0
 40
0
 41
0
  0
VERTEX
  8
0
 10
7.22428
 20
5.39413
 30
0.0
 40
0
 41
0
  0
VERTEX
  8
0
 10
7.23438
 20
5.35018
 30
0.0
 40
0
 41
0
  0
VERTEX
  8
0
 10
7.23438
 20
5.33553
 30
0.0
 40
0
 41
0
  0
VERTEX
  8
0
 10
7.23438
 20
5.3269
 30
0.0
 40
0
 41
0
  0
VERTEX
  8
0
 10
7.23101
 20
5.30086
 30
0.0
 40
0
 41
0
  0
VERTEX
  8
0
 10
7.22319
 20
5.27314
 30
0.0
 40
0
 41
0
  0
VERTEX
  8
0
 10
7.22092
 20
5.26826
 30
0.0
 40
0
 41
0
  0
VERTEX
  8
0
 10
7.21869
 20
5.26403
 30
0.0
 40
0
 41
0
  0
VERTEX
  8
0
 10
7.20449
 20
5.24336
 30
0.0
 40
0
 41
0
  0
VERTEX
  8
0
 10
7.18619
 20
5.22594
 30
0.0
 40
0
 41
0
  0
VERTEX
  8
0
 10
7.18186
 20
5.22333
 30
0.0
 40
0
 41
0
  0
VERTEX
  8
0
 10
7.17731
 20
5.2216
 30
0.0
 40
0
 41
0
  0
VERTEX
  8
0
 10
7.15392
 20
5.2126
 30
0.0
 40
0
 41
0
  0
VERTEX
  8
0
 10
7.12875
 20
5.20663
 30
0.0
 40
0
 41
0
  0
VERTEX
  8
0
 10
7.12326
 20
5.2064
 30
0.0
 40
0
 41
0
  0
VERTEX
  8
0
 10
7.12326
 20
5.24807
 30
0.0
 40
0
 41
0
  0
VERTEX
  8
0
 10
7.12901
 20
5.24872
 30
0.0
 40
0
 41
0
  0
VERTEX
  8
0
 10
7.15338
 20
5.25611
 30
0.0
 40
0
 41
0
  0
VERTEX
  8
0
 10
7.17219
 20
5.26913
 30
0.0
 40
0
 41
0
  0
VERTEX
  8
0
 10
7.17513
 20
5.2726
 30
0.0
 40
0
 41
0
  0
VERTEX
  8
0
 10
7.17725
 20
5.27635
 30
0.0
 40
0
 41
0
  0
VERTEX
  8
0
 10
7.18707
 20
5.29864
 30
0.0
 40
0
 41
0
  0
VERTEX
  8
0
 10
7.19271
 20
5.32501
 30
0.0
 40
0
 41
0
  0
VERTEX
  8
0
 10
7.19271
 20
5.33379
 30
0.0
 40
0
 41
0
  0
VERTEX
  8
0
 10
7.19271
 20
5.34335
 30
0.0
 40
0
 41
0
  0
VERTEX
  8
0
 10
7.18886
 20
5.37183
 30
0.0
 40
0
 41
0
  0
VERTEX
  8
0
 10
7.1799
 20
5.39222
 30
0.0
 40
0
 41
0
  0
VERTEX
  8
0
 10
7.17731
 20
5.39543
 30
0.0
 40
0
 41
0
  0
VERTEX
  8
0
 10
7.17378
 20
5.39911
 30
0.0
 40
0
 41
0
  0
VERTEX
  8
0
 10
7.15896
 20
5.41063
 30
0.0
 40
0
 41
0
  0
VERTEX
  8
0
 10
7.14507
 20
5.41474
 30
0.0
 40
0
 41
0
  0
VERTEX
  8
0
 10
7.1404
 20
5.41474
 30
0.0
 40
0
 41
0
  0
VERTEX
  8
0
 10
7.13276
 20
5.41474
 30
0.0
 40
0
 41
0
  0
VERTEX
  8
0
 10
7.11182
 20
5.40335
 30
0.0
 40
0
 41
0
  0
VERTEX
  8
0
 10
7.10981
 20
5.40107
 30
0.0
 40
0
 41
0
  0
VERTEX
  8
0
 10
7.10775
 20
5.39999
 30
0.0
 40
0
 41
0
  0
VERTEX
  8
0
 10
7.09744
 20
5.37856
 30
0.0
 40
0
 41
0
  0
VERTEX
  8
0
 10
7.08703
 20
5.34042
 30
0.0
 40
0
 41
0
  0
VERTEX
  8
0
 10
7.08485
 20
5.33097
 30
0.0
 40
0
 41
0
  0
VERTEX
  8
0
 10
7.08251
 20
5.32154
 30
0.0
 40
0
 41
0
  0
VERTEX
  8
0
 10
7.07264
 20
5.28313
 30
0.0
 40
0
 41
0
  0
VERTEX
  8
0
 10
7.06435
 20
5.25643
 30
0.0
 40
0
 41
0
  0
VERTEX
  8
0
 10
7.06272
 20
5.25285
 30
0.0
 40
0
 41
0
  0
VERTEX
  8
0
 10
7.05968
 20
5.24851
 30
0.0
 40
0
 41
0
  0
VERTEX
  8
0
 10
7.04574
 20
5.22724
 30
0.0
 40
0
 41
0
  0
VERTEX
  8
0
 10
7.03076
 20
5.20978
 30
0.0
 40
0
 41
0
  0
VERTEX
  8
0
 10
7.02713
 20
5.20728
 30
0.0
 40
0
 41
0
  0
VERTEX
  8
0
 10
7.02349
 20
5.20592
 30
0.0
 40
0
 41
0
  0
VERTEX
  8
0
 10
7.0039
 20
5.19789
 30
0.0
 40
0
 41
0
  0
VERTEX
  8
0
 10
6.98421
 20
5.19251
 30
0.0
 40
0
 41
0
  0
VERTEX
  8
0
 10
6.97765
 20
5.19251
 30
0.0
 40
0
 41
0
  0
VERTEX
  8
0
 10
6.97071
 20
5.19251
 30
0.0
 40
0
 41
0
  0
VERTEX
  8
0
 10
6.94976
 20
5.19658
 30
0.0
 40
0
 41
0
  0
VERTEX
  8
0
 10
6.92925
 20
5.20592
 30
0.0
 40
0
 41
0
  0
VERTEX
  8
0
 10
6.92513
 20
5.20858
 30
0.0
 40
0
 41
0
  0
VERTEX
  8
0
 10
6.92019
 20
5.21221
 30
0.0
 40
0
 41
0
  0
VERTEX
  8
0
 10
6.90207
 20
5.22947
 30
0.0
 40
0
 41
0
  0
VERTEX
  8
0
 10
6.88921
 20
5.24937
 30
0.0
 40
0
 41
0
  0
VERTEX
  8
0
 10
6.88693
 20
5.25438
 30
0.0
 40
0
 41
0
  0
VERTEX
  8
0
 10
6.88351
 20
5.25996
 30
0.0
 40
0
 41
0
  0
VERTEX
  8
0
 10
6.875
 20
5.28697
 30
0.0
 40
0
 41
0
  0
VERTEX
  8
0
 10
6.87326
 20
5.31286
 30
0.0
 40
0
 41
0
  0
VERTEX
  8
0
 10
6.87326
 20
5.32143
 30
0.0
 40
0
 41
0
  0
VERTEX
  8
0
 10
6.87326
 20
5.33271
 30
0.0
 40
0
 41
0
  0
VERTEX
  8
0
 10
6.8769
 20
5.3664
 30
0.0
 40
0
 41
0
  0
VERTEX
  8
0
 10
6.88542
 20
5.39575
 30
0.0
 40
0
 41
0
  0
VERTEX
  8
0
 10
6.88781
 20
5.40107
 30
0.0
 40
0
 41
0
  0
VERTEX
  8
0
 10
6.89025
 20
5.40753
 30
0.0
 40
0
 41
0
  0
VERTEX
  8
0
 10
6.90614
 20
5.43129
 30
0.0
 40
0
 41
0
  0
VERTEX
  8
0
 10
6.92697
 20
5.44817
 30
0.0
 40
0
 41
0
  0
VERTEX
  8
0
 10
6.93186
 20
5.45119
 30
0.0
 40
0
 41
0
  0
VERTEX
  8
0
 10
6.93653
 20
5.45467
 30
0.0
 40
0
 41
0
  0
VERTEX
  8
0
 10
6.96272
 20
5.46579
 30
0.0
 40
0
 41
0
  0
VERTEX
  8
0
 10
6.99208
 20
5.47019
 30
0.0
 40
0
 41
0
  0
VERTEX
  8
0
 10
6.99826
 20
5.47029
 30
0.0
 40
0
 41
0
  0
SEQEND
 8
0
  0
POLYLINE
  8
0
 62
     0
 66
     1
 10
0
 20
0
 30
0.0
 70
     1
 40
0
 41
0
  0
VERTEX
  8
0
 10
6.87326
 20
4.89657
 30
0.0
 40
0
 41
0
  0
VERTEX
  8
0
 10
7.19271
 20
4.89657
 30
0.0
 40
0
 41
0
  0
VERTEX
  8
0
 10
7.19271
 20
5.00768
 30
0.0
 40
0
 41
0
  0
VERTEX
  8
0
 10
7.23438
 20
5.00768
 30
0.0
 40
0
 41
0
  0
VERTEX
  8
0
 10
7.23438
 20
4.74379
 30
0.0
 40
0
 41
0
  0
VERTEX
  8
0
 10
7.19271
 20
4.74379
 30
0.0
 40
0
 41
0
  0
VERTEX
  8
0
 10
7.19271
 20
4.8549
 30
0.0
 40
0
 41
0
  0
VERTEX
  8
0
 10
6.87326
 20
4.8549
 30
0.0
 40
0
 41
0
  0
VERTEX
  8
0
 10
6.87326
 20
4.89657
 30
0.0
 40
0
 41
0
  0
SEQEND
 8
0
  0
POLYLINE
  8
0
 62
     0
 66
     1
 10
0
 20
0
 30
0.0
 70
     1
 40
0
 41
0
  0
VERTEX
  8
0
 10
6.87326
 20
4.67494
 30
0.0
 40
0
 41
0
  0
VERTEX
  8
0
 10
7.23438
 20
4.67494
 30
0.0
 40
0
 41
0
  0
VERTEX
  8
0
 10
7.23438
 20
4.42494
 30
0.0
 40
0
 41
0
  0
VERTEX
  8
0
 10
7.19271
 20
4.42494
 30
0.0
 40
0
 41
0
  0
VERTEX
  8
0
 10
7.19271
 20
4.63328
 30
0.0
 40
0
 41
0
  0
VERTEX
  8
0
 10
7.0816
 20
4.63328
 30
0.0
 40
0
 41
0
  0
VERTEX
  8
0
 10
7.0816
 20
4.43883
 30
0.0
 40
0
 41
0
  0
VERTEX
  8
0
 10
7.03993
 20
4.43883
 30
0.0
 40
0
 41
0
  0
VERTEX
  8
0
 10
7.03993
 20
4.63328
 30
0.0
 40
0
 41
0
  0
VERTEX
  8
0
 10
6.91493
 20
4.63328
 30
0.0
 40
0
 41
0
  0
VERTEX
  8
0
 10
6.91493
 20
4.41106
 30
0.0
 40
0
 41
0
  0
VERTEX
  8
0
 10
6.87326
 20
4.41106
 30
0.0
 40
0
 41
0
  0
VERTEX
  8
0
 10
6.87326
 20
4.67494
 30
0.0
 40
0
 41
0
  0
SEQEND
 8
0
  0
POLYLINE
  8
0
 62
     0
 66
     1
 10
0
 20
0
 30
0.0
 70
     1
 40
0
 41
0
  0
VERTEX
  8
0
 10
6.87326
 20
4.34199
 30
0.0
 40
0
 41
0
  0
VERTEX
  8
0
 10
7.23438
 20
4.34199
 30
0.0
 40
0
 41
0
  0
VERTEX
  8
0
 10
7.23438
 20
4.26929
 30
0.0
 40
0
 41
0
  0
VERTEX
  8
0
 10
6.98112
 20
4.19681
 30
0.0
 40
0
 41
0
  0
VERTEX
  8
0
 10
6.97433
 20
4.19567
 30
0.0
 40
0
 41
0
  0
VERTEX
  8
0
 10
6.94874
 20
4.189
 30
0.0
 40
0
 41
0
  0
VERTEX
  8
0
 10
6.93088
 20
4.18303
 30
0.0
 40
0
 41
0
  0
VERTEX
  8
0
 10
6.92796
 20
4.18226
 30
0.0
 40
0
 41
0
  0
VERTEX
  8
0
 10
6.93012
 20
4.182
 30
0.0
 40
0
 41
0
  0
VERTEX
  8
0
 10
6.95047
 20
4.17651
 30
0.0
 40
0
 41
0
  0
VERTEX
  8
0
 10
6.97917
 20
4.16783
 30
0.0
 40
0
 41
0
  0
VERTEX
  8
0
 10
6.98546
 20
4.16599
 30
0.0
 40
0
 41
0
  0
VERTEX
  8
0
 10
7.23438
 20
4.09307
 30
0.0
 40
0
 41
0
  0
VERTEX
  8
0
 10
7.23438
 20
4.02254
 30
0.0
 40
0
 41
0
  0
VERTEX
  8
0
 10
6.87326
 20
4.02254
 30
0.0
 40
0
 41
0
  0
VERTEX
  8
0
 10
6.87326
 20
4.06421
 30
0.0
 40
0
 41
0
  0
VERTEX
  8
0
 10
7.19271
 20
4.06421
 30
0.0
 40
0
 41
0
  0
VERTEX
  8
0
 10
6.87326
 20
4.15796
 30
0.0
 40
0
 41
0
  0
VERTEX
  8
0
 10
6.87326
 20
4.20831
 30
0.0
 40
0
 41
0
  0
VERTEX
  8
0
 10
7.19271
 20
4.30032
 30
0.0
 40
0
 41
0
  0
VERTEX
  8
0
 10
6.87326
 20
4.30032
 30
0.0
 40
0
 41
0
  0
VERTEX
  8
0
 10
6.87326
 20
4.34199
 30
0.0
 40
0
 41
0
  0
SEQEND
 8
0
  0
POLYLINE
  8
0
 62
     0
 66
     1
 10
0
 20
0
 30
0.0
 70
     1
 40
0
 41
0
  0
VERTEX
  8
0
 10
6.87326
 20
3.92554
 30
0.0
 40
0
 41
0
  0
VERTEX
  8
0
 10
7.23438
 20
3.92554
 30
0.0
 40
0
 41
0
  0
VERTEX
  8
0
 10
7.23438
 20
3.79511
 30
0.0
 40
0
 41
0
  0
VERTEX
  8
0
 10
7.23438
 20
3.78199
 30
0.0
 40
0
 41
0
  0
VERTEX
  8
0
 10
7.23167
 20
3.74564
 30
0.0
 40
0
 41
0
  0
VERTEX
  8
0
 10
7.23112
 20
3.7426
 30
0.0
 40
0
 41
0
  0
VERTEX
  8
0
 10
7.22954
 20
3.73853
 30
0.0
 40
0
 41
0
  0
VERTEX
  8
0
 10
7.22353
 20
3.71943
 30
0.0
 40
0
 41
0
  0
VERTEX
  8
0
 10
7.21669
 20
3.70272
 30
0.0
 40
0
 41
0
  0
VERTEX
  8
0
 10
7.21463
 20
3.69985
 30
0.0
 40
0
 41
0
  0
VERTEX
  8
0
 10
7.21197
 20
3.69729
 30
0.0
 40
0
 41
0
  0
VERTEX
  8
0
 10
7.19906
 20
3.68488
 30
0.0
 40
0
 41
0
  0
VERTEX
  8
0
 10
7.18425
 20
3.67401
 30
0.0
 40
0
 41
0
  0
VERTEX
  8
0
 10
7.18056
 20
3.67228
 30
0.0
 40
0
 41
0
  0
VERTEX
  8
0
 10
7.17681
 20
3.67082
 30
0.0
 40
0
 41
0
  0
VERTEX
  8
0
 10
7.14382
 20
3.66165
 30
0.0
 40
0
 41
0
  0
VERTEX
  8
0
 10
7.13282
 20
3.66165
 30
0.0
 40
0
 41
0
  0
VERTEX
  8
0
 10
7.12224
 20
3.66165
 30
0.0
 40
0
 41
0
  0
VERTEX
  8
0
 10
7.09033
 20
3.66881
 30
0.0
 40
0
 41
0
  0
VERTEX
  8
0
 10
7.06228
 20
3.68553
 30
0.0
 40
0
 41
0
  0
VERTEX
  8
0
 10
7.05707
 20
3.69029
 30
0.0
 40
0
 41
0
  0
VERTEX
  8
0
 10
7.05165
 20
3.69615
 30
0.0
 40
0
 41
0
  0
VERTEX
  8
0
 10
7.03342
 20
3.73201
 30
0.0
 40
0
 41
0
  0
VERTEX
  8
0
 10
7.02604
 20
3.77824
 30
0.0
 40
0
 41
0
  0
VERTEX
  8
0
 10
7.02604
 20
3.7936
 30
0.0
 40
0
 41
0
  0
VERTEX
  8
0
 10
7.02604
 20
3.88388
 30
0.0
 40
0
 41
0
  0
VERTEX
  8
0
 10
6.87326
 20
3.88388
 30
0.0
 40
0
 41
0
  0
VERTEX
  8
0
 10
6.87326
 20
3.92554
 30
0.0
 40
0
 41
0
  0
SEQEND
 8
0
  0
POLYLINE
  8
0
 62
     0
 66
     1
 10
0
 20
0
 30
0.0
 70
     1
 40
0
 41
0
  0
VERTEX
  8
0
 10
7.06771
 20
3.88388
 30
0.0
 40
0
 41
0
  0
VERTEX
  8
0
 10
7.06771
 20
3.78947
 30
0.0
 40
0
 41
0
  0
VERTEX
  8
0
 10
7.06771
 20
3.77982
 30
0.0
 40
0
 41
0
  0
VERTEX
  8
0
 10
7.07189
 20
3.75085
 30
0.0
 40
0
 41
0
  0
VERTEX
  8
0
 10
7.08165
 20
3.72632
 30
0.0
 40
0
 41
0
  0
VERTEX
  8
0
 10
7.08442
 20
3.72307
 30
0.0
 40
0
 41
0
  0
VERTEX
  8
0
 10
7.08697
 20
3.72046
 30
0.0
 40
0
 41
0
  0
VERTEX
  8
0
 10
7.10417
 20
3.70928
 30
0.0
 40
0
 41
0
  0
VERTEX
  8
0
 10
7.12451
 20
3.70332
 30
0.0
 40
0
 41
0
  0
VERTEX
  8
0
 10
7.13129
 20
3.70332
 30
0.0
 40
0
 41
0
  0
VERTEX
  8
0
 10
7.14074
 20
3.70332
 30
0.0
 40
0
 41
0
  0
VERTEX
  8
0
 10
7.16644
 20
3.71308
 30
0.0
 40
0
 41
0
  0
VERTEX
  8
0
 10
7.16906
 20
3.71504
 30
0.0
 40
0
 41
0
  0
VERTEX
  8
0
 10
7.17133
 20
3.71715
 30
0.0
 40
0
 41
0
  0
VERTEX
  8
0
 10
7.18886
 20
3.74226
 30
0.0
 40
0
 41
0
  0
VERTEX
  8
0
 10
7.18967
 20
3.74542
 30
0.0
 40
0
 41
0
  0
VERTEX
  8
0
 10
7.18929
 20
3.74857
 30
0.0
 40
0
 41
0
  0
VERTEX
  8
0
 10
7.1906
 20
3.76451
 30
0.0
 40
0
 41
0
  0
VERTEX
  8
0
 10
7.19271
 20
3.78404
 30
0.0
 40
0
 41
0
  0
VERTEX
  8
0
 10
7.19271
 20
3.79056
 30
0.0
 40
0
 41
0
  0
VERTEX
  8
0
 10
7.19271
 20
3.88388
 30
0.0
 40
0
 41
0
  0
VERTEX
  8
0
 10
7.06771
 20
3.88388
 30
0.0
 40
0
 41
0
  0
SEQEND
 8
0
  0
POLYLINE
  8
0
 62
     0
 66
     1
 10
0
 20
0
 30
0.0
 70
     1
 40
0
 41
0
  0
VERTEX
  8
0
 10
6.87326
 20
3.59258
 30
0.0
 40
0
 41
0
  0
VERTEX
  8
0
 10
7.23438
 20
3.59258
 30
0.0
 40
0
 41
0
  0
VERTEX
  8
0
 10
7.23438
 20
3.55092
 30
0.0
 40
0
 41
0
  0
VERTEX
  8
0
 10
6.91493
 20
3.55092
 30
0.0
 40
0
 41
0
  0
VERTEX
  8
0
 10
6.91493
 20
3.37036
 30
0.0
 40
0
 41
0
  0
VERTEX
  8
0
 10
6.87326
 20
3.37036
 30
0.0
 40
0
 41
0
  0
VERTEX
  8
0
 10
6.87326
 20
3.59258
 30
0.0
 40
0
 41
0
  0
SEQEND
 8
0
  0
POLYLINE
  8
0
 62
     0
 66
     1
 10
0
 20
0
 30
0.0
 70
     1
 40
0
 41
0
  0
VERTEX
  8
0
 10
6.87326
 20
3.35864
 30
0.0
 40
0
 41
0
  0
VERTEX
  8
0
 10
7.23438
 20
3.22518
 30
0.0
 40
0
 41
0
  0
VERTEX
  8
0
 10
7.23438
 20
3.16789
 30
0.0
 40
0
 41
0
  0
VERTEX
  8
0
 10
6.87326
 20
3.03443
 30
0.0
 40
0
 41
0
  0
VERTEX
  8
0
 10
6.87326
 20
3.07849
 30
0.0
 40
0
 41
0
  0
VERTEX
  8
0
 10
6.98438
 20
3.1195
 30
0.0
 40
0
 41
0
  0
VERTEX
  8
0
 10
6.98438
 20
3.27357
 30
0.0
 40
0
 41
0
  0
VERTEX
  8
0
 10
6.87326
 20
3.3146
 30
0.0
 40
0
 41
0
  0
VERTEX
  8
0
 10
6.87326
 20
3.35864
 30
0.0
 40
0
 41
0
  0
SEQEND
 8
0
  0
POLYLINE
  8
0
 62
     0
 66
     1
 10
0
 20
0
 30
0.0
 70
     1
 40
0
 41
0
  0
VERTEX
  8
0
 10
7.02604
 20
3.25817
 30
0.0
 40
0
 41
0
  0
VERTEX
  8
0
 10
7.02604
 20
3.1349
 30
0.0
 40
0
 41
0
  0
VERTEX
  8
0
 10
7.11936
 20
3.1694
 30
0.0
 40
0
 41
0
  0
VERTEX
  8
0
 10
7.12608
 20
3.17272
 30
0.0
 40
0
 41
0
  0
VERTEX
  8
0
 10
7.15912
 20
3.18536
 30
0.0
 40
0
 41
0
  0
VERTEX
  8
0
 10
7.18804
 20
3.19481
 30
0.0
 40
0
 41
0
  0
VERTEX
  8
0
 10
7.19271
 20
3.19654
 30
0.0
 40
0
 41
0
  0
VERTEX
  8
0
 10
7.1875
 20
3.19903
 30
0.0
 40
0
 41
0
  0
VERTEX
  8
0
 10
7.13325
 20
3.21856
 30
0.0
 40
0
 41
0
  0
VERTEX
  8
0
 10
7.12761
 20
3.22062
 30
0.0
 40
0
 41
0
  0
VERTEX
  8
0
 10
7.02604
 20
3.25817
 30
0.0
 40
0
 41
0
  0
SEQEND
 8
0
  0
POLYLINE
  8
0
 62
     0
 66
     1
 10
0
 20
0
 30
0.0
 70
     1
 40
0
 41
0
  0
VERTEX
  8
0
 10
6.87326
 20
2.89831
 30
0.0
 40
0
 41
0
  0
VERTEX
  8
0
 10
7.19271
 20
2.89831
 30
0.0
 40
0
 41
0
  0
VERTEX
  8
0
 10
7.19271
 20
3.00942
 30
0.0
 40
0
 41
0
  0
VERTEX
  8
0
 10
7.23438
 20
3.00942
 30
0.0
 40
0
 41
0
  0
VERTEX
  8
0
 10
7.23438
 20
2.74553
 30
0.0
 40
0
 41
0
  0
VERTEX
  8
0
 10
7.19271
 20
2.74553
 30
0.0
 40
0
 41
0
  0
VERTEX
  8
0
 10
7.19271
 20
2.85664
 30
0.0
 40
0
 41
0
  0
VERTEX
  8
0
 10
6.87326
 20
2.85664
 30
0.0
 40
0
 41
0
  0
VERTEX
  8
0
 10
6.87326
 20
2.89831
 30
0.0
 40
0
 41
0
  0
SEQEND
 8
0
  0
POLYLINE
  8
0
 62
     0
 66
     1
 10
0
 20
0
 30
0.0
 70
     1
 40
0
 41
0
  0
VERTEX
  8
0
 10
6.87326
 20
2.67668
 30
0.0
 40
0
 41
0
  0
VERTEX
  8
0
 10
7.23438
 20
2.67668
 30
0.0
 40
0
 41
0
  0
VERTEX
  8
0
 10
7.23438
 20
2.42668
 30
0.0
 40
0
 41
0
  0
VERTEX
  8
0
 10
7.19271
 20
2.42668
 30
0.0
 40
0
 41
0
  0
VERTEX
  8
0
 10
7.19271
 20
2.63501
 30
0.0
 40
0
 41
0
  0
VERTEX
  8
0
 10
7.0816
 20
2.63501
 30
0.0
 40
0
 41
0
  0
VERTEX
  8
0
 10
7.0816
 20
2.44057
 30
0.0
 40
0
 41
0
  0
VERTEX
  8
0
 10
7.03993
 20
2.44057
 30
0.0
 40
0
 41
0
  0
VERTEX
  8
0
 10
7.03993
 20
2.63501
 30
0.0
 40
0
 41
0
  0
VERTEX
  8
0
 10
6.91493
 20
2.63501
 30
0.0
 40
0
 41
0
  0
VERTEX
  8
0
 10
6.91493
 20
2.41279
 30
0.0
 40
0
 41
0
  0
VERTEX
  8
0
 10
6.87326
 20
2.41279
 30
0.0
 40
0
 41
0
  0
VERTEX
  8
0
 10
6.87326
 20
2.67668
 30
0.0
 40
0
 41
0
  0
SEQEND
 8
0
  0
ENDSEC
  0
EOF
