  0
SECTION
  2
HEADER
  9
$ACADVER
  1
AC1021
  9
$ACADMAINTVER
 70
    25
  9
$DWGCODEPAGE
  3
ANSI_1252
  9
$INSBASE
 10
0.0
 20
0.0
 30
0.0
  9
$EXTMIN
 10
-9.52148
 20
-7.64935
 30
0.0
  9
$EXTMAX
 10
7.52052
 20
8.40267
 30
0.0
  9
$LIMMIN
 10
0.0
 20
0.0
  9
$LIMMAX
 10
12.0
 20
9.0
  9
$ORTHOMODE
 70
     0
  9
$REGENMODE
 70
     1
  9
$FILLMODE
 70
     1
  9
$QTEXTMODE
 70
     0
  9
$MIRRTEXT
 70
     1
  9
$LTSCALE
 40
1.0
  9
$ATTMODE
 70
     1
  9
$TEXTSIZE
 40
0.2
  9
$TRACEWID
 40
0.05
  9
$TEXTSTYLE
  7
Standard
  9
$CLAYER
  8
0
  9
$CELTYPE
  6
ByLayer
  9
$CECOLOR
 62
   256
  9
$CELTSCALE
 40
1.0
  9
$DISPSILH
 70
     0
  9
$DIMSCALE
 40
1.0
  9
$DIMASZ
 40
0.18
  9
$DIMEXO
 40
0.0625
  9
$DIMDLI
 40
0.38
  9
$DIMRND
 40
0.0
  9
$DIMDLE
 40
0.0
  9
$DIMEXE
 40
0.18
  9
$DIMTP
 40
0.0
  9
$DIMTM
 40
0.0
  9
$DIMTXT
 40
0.18
  9
$DIMCEN
 40
0.09
  9
$DIMTSZ
 40
0.0
  9
$DIMTOL
 70
     0
  9
$DIMLIM
 70
     0
  9
$DIMTIH
 70
     1
  9
$DIMTOH
 70
     1
  9
$DIMSE1
 70
     0
  9
$DIMSE2
 70
     0
  9
$DIMTAD
 70
     0
  9
$DIMZIN
 70
     0
  9
$DIMBLK
  1

  9
$DIMASO
 70
     1
  9
$DIMSHO
 70
     1
  9
$DIMPOST
  1

  9
$DIMAPOST
  1

  9
$DIMALT
 70
     0
  9
$DIMALTD
 70
     2
  9
$DIMALTF
 40
25.4
  9
$DIMLFAC
 40
1.0
  9
$DIMTOFL
 70
     0
  9
$DIMTVP
 40
0.0
  9
$DIMTIX
 70
     0
  9
$DIMSOXD
 70
     0
  9
$DIMSAH
 70
     0
  9
$DIMBLK1
  1

  9
$DIMBLK2
  1

  9
$DIMSTYLE
  2
Standard
  9
$DIMCLRD
 70
     0
  9
$DIMCLRE
 70
     0
  9
$DIMCLRT
 70
     0
  9
$DIMTFAC
 40
1.0
  9
$DIMGAP
 40
0.09
  9
$DIMJUST
 70
     0
  9
$DIMSD1
 70
     0
  9
$DIMSD2
 70
     0
  9
$DIMTOLJ
 70
     1
  9
$DIMTZIN
 70
     0
  9
$DIMALTZ
 70
     0
  9
$DIMALTTZ
 70
     0
  9
$DIMUPT
 70
     0
  9
$DIMDEC
 70
     4
  9
$DIMTDEC
 70
     4
  9
$DIMALTU
 70
     2
  9
$DIMALTTD
 70
     2
  9
$DIMTXSTY
  7
Standard
  9
$DIMAUNIT
 70
     0
  9
$DIMADEC
 70
     0
  9
$DIMALTRND
 40
0.0
  9
$DIMAZIN
 70
     0
  9
$DIMDSEP
 70
    46
  9
$DIMATFIT
 70
     3
  9
$DIMFRAC
 70
     0
  9
$DIMLDRBLK
  1

  9
$DIMLUNIT
 70
     2
  9
$DIMLWD
 70
    -2
  9
$DIMLWE
 70
    -2
  9
$DIMTMOVE
 70
     0
  9
$DIMFXL
 40
1.0
  9
$DIMFXLON
 70
     0
  9
$DIMJOGANG
 40
0.7853981633974483
  9
$DIMTFILL
 70
     0
  9
$DIMTFILLCLR
 70
     0
  9
$DIMARCSYM
 70
     0
  9
$DIMLTYPE
  6

  9
$DIMLTEX1
  6

  9
$DIMLTEX2
  6

  9
$LUNITS
 70
     2
  9
$LUPREC
 70
     4
  9
$SKETCHINC
 40
0.1
  9
$FILLETRAD
 40
0.5
  9
$AUNITS
 70
     0
  9
$AUPREC
 70
     0
  9
$MENU
  1
.
  9
$ELEVATION
 40
0.0
  9
$PELEVATION
 40
0.0
  9
$THICKNESS
 40
0.0
  9
$LIMCHECK
 70
     0
  9
$CHAMFERA
 40
0.5
  9
$CHAMFERB
 40
0.5
  9
$CHAMFERC
 40
1.0
  9
$CHAMFERD
 40
0.0
  9
$SKPOLY
 70
     0
  9
$TDCREATE
 40
2456231.934146944
  9
$TDUCREATE
 40
2456232.100813611
  9
$TDUPDATE
 40
2456231.934147083
  9
$TDUUPDATE
 40
2456232.10081375
  9
$TDINDWG
 40
0.0000000116
  9
$TDUSRTIMER
 40
0.0000000116
  9
$USRTIMER
 70
     1
  9
$ANGBASE
 50
0.0
  9
$ANGDIR
 70
     0
  9
$PDMODE
 70
     0
  9
$PDSIZE
 40
0.0
  9
$PLINEWID
 40
0.0
  9
$SPLFRAME
 70
     0
  9
$SPLINETYPE
 70
     6
  9
$SPLINESEGS
 70
     8
  9
$HANDSEED
  5
10E
  9
$SURFTAB1
 70
     6
  9
$SURFTAB2
 70
     6
  9
$SURFTYPE
 70
     6
  9
$SURFU
 70
     6
  9
$SURFV
 70
     6
  9
$UCSBASE
  2

  9
$UCSNAME
  2

  9
$UCSORG
 10
0.0
 20
0.0
 30
0.0
  9
$UCSXDIR
 10
1.0
 20
0.0
 30
0.0
  9
$UCSYDIR
 10
0.0
 20
1.0
 30
0.0
  9
$UCSORTHOREF
  2

  9
$UCSORTHOVIEW
 70
     0
  9
$UCSORGTOP
 10
0.0
 20
0.0
 30
0.0
  9
$UCSORGBOTTOM
 10
0.0
 20
0.0
 30
0.0
  9
$UCSORGLEFT
 10
0.0
 20
0.0
 30
0.0
  9
$UCSORGRIGHT
 10
0.0
 20
0.0
 30
0.0
  9
$UCSORGFRONT
 10
0.0
 20
0.0
 30
0.0
  9
$UCSORGBACK
 10
0.0
 20
0.0
 30
0.0
  9
$PUCSBASE
  2

  9
$PUCSNAME
  2

  9
$PUCSORG
 10
0.0
 20
0.0
 30
0.0
  9
$PUCSXDIR
 10
1.0
 20
0.0
 30
0.0
  9
$PUCSYDIR
 10
0.0
 20
1.0
 30
0.0
  9
$PUCSORTHOREF
  2

  9
$PUCSORTHOVIEW
 70
     0
  9
$PUCSORGTOP
 10
0.0
 20
0.0
 30
0.0
  9
$PUCSORGBOTTOM
 10
0.0
 20
0.0
 30
0.0
  9
$PUCSORGLEFT
 10
0.0
 20
0.0
 30
0.0
  9
$PUCSORGRIGHT
 10
0.0
 20
0.0
 30
0.0
  9
$PUCSORGFRONT
 10
0.0
 20
0.0
 30
0.0
  9
$PUCSORGBACK
 10
0.0
 20
0.0
 30
0.0
  9
$USERI1
 70
     0
  9
$USERI2
 70
     0
  9
$USERI3
 70
     0
  9
$USERI4
 70
     0
  9
$USERI5
 70
     0
  9
$USERR1
 40
0.0
  9
$USERR2
 40
0.0
  9
$USERR3
 40
0.0
  9
$USERR4
 40
0.0
  9
$USERR5
 40
0.0
  9
$WORLDVIEW
 70
     1
  9
$SHADEDGE
 70
     3
  9
$SHADEDIF
 70
    70
  9
$TILEMODE
 70
     1
  9
$MAXACTVP
 70
    64
  9
$PINSBASE
 10
0.0
 20
0.0
 30
0.0
  9
$PLIMCHECK
 70
     0
  9
$PEXTMIN
 10
1.000000000000000E+20
 20
1.000000000000000E+20
 30
1.000000000000000E+20
  9
$PEXTMAX
 10
-1.000000000000000E+20
 20
-1.000000000000000E+20
 30
-1.000000000000000E+20
  9
$PLIMMIN
 10
0.0
 20
0.0
  9
$PLIMMAX
 10
12.0
 20
9.0
  9
$UNITMODE
 70
     0
  9
$VISRETAIN
 70
     1
  9
$PLINEGEN
 70
     0
  9
$PSLTSCALE
 70
     1
  9
$TREEDEPTH
 70
  3020
  9
$CMLSTYLE
  2
Standard
  9
$CMLJUST
 70
     0
  9
$CMLSCALE
 40
1.0
  9
$PROXYGRAPHICS
 70
     1
  9
$MEASUREMENT
 70
     0
  9
$CELWEIGHT
370
    -1
  9
$ENDCAPS
280
     0
  9
$JOINSTYLE
280
     0
  9
$LWDISPLAY
290
     0
  9
$INSUNITS
 70
     5
  9
$HYPERLINKBASE
  1

  9
$STYLESHEET
  1

  9
$XEDIT
290
     1
  9
$CEPSNTYPE
380
     0
  9
$PSTYLEMODE
290
     1
  9
$FINGERPRINTGUID
  2
{93E11C95-7F4D-40FB-85CE-492D2A08481E}
  9
$VERSIONGUID
  2
{FAEB1C32-E019-11D5-929B-00C0DF256EC4}
  9
$EXTNAMES
290
     1
  9
$PSVPSCALE
 40
0.0
  9
$OLESTARTUP
290
     0
  9
$SORTENTS
280
   127
  9
$INDEXCTL
280
     0
  9
$HIDETEXT
280
     1
  9
$XCLIPFRAME
290
     0
  9
$HALOGAP
280
     0
  9
$OBSCOLOR
 70
   257
  9
$OBSLTYPE
280
     0
  9
$INTERSECTIONDISPLAY
280
     0
  9
$INTERSECTIONCOLOR
 70
   257
  9
$DIMASSOC
280
     2
  9
$PROJECTNAME
  1

  9
$CAMERADISPLAY
290
     0
  9
$LENSLENGTH
 40
50.0
  9
$CAMERAHEIGHT
 40
0.0
  9
$STEPSPERSEC
 40
2.0
  9
$STEPSIZE
 40
6.0
  9
$3DDWFPREC
 40
2.0
  9
$PSOLWIDTH
 40
0.25
  9
$PSOLHEIGHT
 40
4.0
  9
$LOFTANG1
 40
1.570796326794897
  9
$LOFTANG2
 40
1.570796326794897
  9
$LOFTMAG1
 40
0.0
  9
$LOFTMAG2
 40
0.0
  9
$LOFTPARAM
 70
     7
  9
$LOFTNORMALS
280
     1
  9
$LATITUDE
 40
37.795
  9
$LONGITUDE
 40
-122.394
  9
$NORTHDIRECTION
 40
0.0
  9
$TIMEZONE
 70
 -8000
  9
$LIGHTGLYPHDISPLAY
280
     1
  9
$TILEMODELIGHTSYNCH
280
     1
  9
$SOLIDHIST
280
     1
  9
$SHOWHIST
280
     1
  9
$DWFFRAME
280
     2
  9
$DGNFRAME
280
     2
  9
$REALWORLDSCALE
290
     1
  9
$INTERFERECOLOR
 62
   256
  9
$CSHADOW
280
     0
  9
$SHADOWPLANELOCATION
 40
0.0
  0
ENDSEC
  0
SECTION
  2
CLASSES
  0
CLASS
  1
ACDBDICTIONARYWDFLT
  2
AcDbDictionaryWithDefault
  3
ObjectDBX Classes
 90
        0
 91
        4
280
     0
281
     0
  0
CLASS
  1
VISUALSTYLE
  2
AcDbVisualStyle
  3
ObjectDBX Classes
 90
     4095
 91
        4
280
     0
281
     0
  0
CLASS
  1
MATERIAL
  2
AcDbMaterial
  3
ObjectDBX Classes
 90
     1153
 91
        4
280
     0
281
     0
  0
ENDSEC
  0
SECTION
  2
TABLES
  0
TABLE
  2
VPORT
  5
8
330
0
100
AcDbSymbolTable
 70
     1
  0
VPORT
  5
29
330
8
100
AcDbSymbolTableRecord
100
AcDbViewportTableRecord
  2
*Active
 70
     0
 10
0.0
 20
0.0
 11
1.0
 21
1.0
 12
10.42990654205607
 22
4.5
 13
0.0
 23
0.0
 14
0.5
 24
0.5
 15
0.5
 25
0.5
 16
0.0
 26
0.0
 36
1.0
 17
0.0
 27
0.0
 37
0.0
 40
9.0
 41
1.972972972850329
 42
50.0
 43
0.0
 44
0.0
 50
0.0
 51
0.0
 71
     0
 72
   100
 73
     1
 74
     3
 75
     0
 76
     0
 77
     0
 78
     0
281
     0
 65
     1
110
0.0
120
0.0
130
0.0
111
1.0
121
0.0
131
0.0
112
0.0
122
1.0
132
0.0
 79
     0
146
0.0
 60
     3
 61
     5
292
     1
282
     1
141
0.0
142
0.0
 63
   250
  0
ENDTAB
  0
TABLE
  2
LTYPE
  5
5
330
0
100
AcDbSymbolTable
 70
    10
  0
LTYPE
  5
14
330
5
100
AcDbSymbolTableRecord
100
AcDbLinetypeTableRecord
  2
ByBlock
 70
     0
  3

 72
    65
 73
     0
 40
0.0
  0
LTYPE
  5
15
330
5
100
AcDbSymbolTableRecord
100
AcDbLinetypeTableRecord
  2
ByLayer
 70
     0
  3

 72
    65
 73
     0
 40
0.0
  0
LTYPE
  5
16
330
5
100
AcDbSymbolTableRecord
100
AcDbLinetypeTableRecord
  2
Continuous
 70
     0
  3
Solid line
 72
    65
 73
     0
 40
0.0
  0
LTYPE
  5
5A
330
5
100
AcDbSymbolTableRecord
100
AcDbLinetypeTableRecord
  2
New Line1
 70
     0
  3

 72
    65
 73
     2
 40
19.0
 49
12.7
 74
     4
 75
     0
340
0
 46
1.0
 50
0.0
 44
0.0
 45
0.0
 49
-6.300000000000001
 74
     4
 75
     0
340
0
 46
1.0
 50
0.0
 44
0.0
 45
0.0
  0
LTYPE
  5
5C
330
5
100
AcDbSymbolTableRecord
100
AcDbLinetypeTableRecord
  2
New Line2
 70
     0
  3

 72
    65
 73
     2
 40
19.0
 49
12.7
 74
     4
 75
     0
340
0
 46
1.0
 50
0.0
 44
0.0
 45
0.0
 49
-6.300000000000001
 74
     4
 75
     0
340
0
 46
1.0
 50
0.0
 44
0.0
 45
0.0
  0
LTYPE
  5
5E
330
5
100
AcDbSymbolTableRecord
100
AcDbLinetypeTableRecord
  2
New Line3
 70
     0
  3

 72
    65
 73
     2
 40
19.0
 49
12.7
 74
     4
 75
     0
340
0
 46
1.0
 50
0.0
 44
0.0
 45
0.0
 49
-6.300000000000001
 74
     4
 75
     0
340
0
 46
1.0
 50
0.0
 44
0.0
 45
0.0
  0
LTYPE
  5
60
330
5
100
AcDbSymbolTableRecord
100
AcDbLinetypeTableRecord
  2
New Line4
 70
     0
  3

 72
    65
 73
     2
 40
19.0
 49
12.7
 74
     4
 75
     0
340
0
 46
1.0
 50
0.0
 44
0.0
 45
0.0
 49
-6.300000000000001
 74
     4
 75
     0
340
0
 46
1.0
 50
0.0
 44
0.0
 45
0.0
  0
LTYPE
  5
62
330
5
100
AcDbSymbolTableRecord
100
AcDbLinetypeTableRecord
  2
New Line5
 70
     0
  3

 72
    65
 73
     2
 40
19.0
 49
12.7
 74
     4
 75
     0
340
0
 46
1.0
 50
0.0
 44
0.0
 45
0.0
 49
-6.300000000000001
 74
     4
 75
     0
340
0
 46
1.0
 50
0.0
 44
0.0
 45
0.0
  0
LTYPE
  5
64
330
5
100
AcDbSymbolTableRecord
100
AcDbLinetypeTableRecord
  2
New Line6
 70
     0
  3

 72
    65
 73
     2
 40
19.0
 49
12.7
 74
     4
 75
     0
340
0
 46
1.0
 50
0.0
 44
0.0
 45
0.0
 49
-6.300000000000001
 74
     4
 75
     0
340
0
 46
1.0
 50
0.0
 44
0.0
 45
0.0
  0
LTYPE
  5
66
330
5
100
AcDbSymbolTableRecord
100
AcDbLinetypeTableRecord
  2
New Line7
 70
     0
  3

 72
    65
 73
     2
 40
19.0
 49
12.7
 74
     4
 75
     0
340
0
 46
1.0
 50
0.0
 44
0.0
 45
0.0
 49
-6.300000000000001
 74
     4
 75
     0
340
0
 46
1.0
 50
0.0
 44
0.0
 45
0.0
  0
LTYPE
  5
68
330
5
100
AcDbSymbolTableRecord
100
AcDbLinetypeTableRecord
  2
New Line8
 70
     0
  3

 72
    65
 73
     2
 40
19.0
 49
12.7
 74
     4
 75
     0
340
0
 46
1.0
 50
0.0
 44
0.0
 45
0.0
 49
-6.300000000000001
 74
     4
 75
     0
340
0
 46
1.0
 50
0.0
 44
0.0
 45
0.0
  0
LTYPE
  5
6A
330
5
100
AcDbSymbolTableRecord
100
AcDbLinetypeTableRecord
  2
New Line9
 70
     0
  3

 72
    65
 73
     2
 40
19.0
 49
12.7
 74
     4
 75
     0
340
0
 46
1.0
 50
0.0
 44
0.0
 45
0.0
 49
-6.300000000000001
 74
     4
 75
     0
340
0
 46
1.0
 50
0.0
 44
0.0
 45
0.0
  0
ENDTAB
  0
TABLE
  2
LAYER
  5
2
330
0
100
AcDbSymbolTable
 70
     4
  0
LAYER
  5
10
330
2
100
AcDbSymbolTableRecord
100
AcDbLayerTableRecord
  2
0
 70
     0
 62
     7
  6
Continuous
370
    -3
390
F
347
3E
  0
LAYER
  5
40
330
2
100
AcDbSymbolTableRecord
100
AcDbLayerTableRecord
  2
Layer 1
 70
     0
 62
     7
  6
Continuous
370
    -3
390
F
347
3E
  0
LAYER
  5
6B
330
2
100
AcDbSymbolTableRecord
100
AcDbLayerTableRecord
  2
layer 2
 70
     0
 62
     7
  6
Continuous
370
    -3
390
F
347
3E
  0
LAYER
  5
73
330
2
100
AcDbSymbolTableRecord
100
AcDbLayerTableRecord
  2
layer 3
 70
     0
 62
     7
  6
Continuous
370
    -3
390
F
347
3E
  0
ENDTAB
  0
TABLE
  2
STYLE
  5
3
330
0
100
AcDbSymbolTable
 70
     1
  0
STYLE
  5
11
330
3
100
AcDbSymbolTableRecord
100
AcDbTextStyleTableRecord
  2
Standard
 70
     0
 40
0.0
 41
1.0
 50
0.0
 71
     0
 42
0.2
  3
txt
  4

  0
ENDTAB
  0
TABLE
  2
VIEW
  5
6
330
0
100
AcDbSymbolTable
 70
     0
  0
ENDTAB
  0
TABLE
  2
UCS
  5
7
330
0
100
AcDbSymbolTable
 70
     0
  0
ENDTAB
  0
TABLE
  2
APPID
  5
9
330
0
100
AcDbSymbolTable
 70
     2
  0
APPID
  5
12
330
9
100
AcDbSymbolTableRecord
100
AcDbRegAppTableRecord
  2
ACAD
 70
     0
  0
APPID
  5
3F
330
9
100
AcDbSymbolTableRecord
100
AcDbRegAppTableRecord
  2
ODA
 70
     0
  0
ENDTAB
  0
TABLE
  2
DIMSTYLE
  5
A
330
0
100
AcDbSymbolTable
 70
     1
100
AcDbDimStyleTable
  0
DIMSTYLE
105
27
330
A
100
AcDbSymbolTableRecord
100
AcDbDimStyleTableRecord
  2
Standard
 70
     0
178
     0
340
11
  0
ENDTAB
  0
TABLE
  2
BLOCK_RECORD
  5
1
330
0
100
AcDbSymbolTable
 70
     1
  0
BLOCK_RECORD
  5
1F
330
1
100
AcDbSymbolTableRecord
100
AcDbBlockTableRecord
  2
*Model_Space
340
22
 70
     0
280
     1
281
     0
  0
BLOCK_RECORD
  5
1B
330
1
100
AcDbSymbolTableRecord
100
AcDbBlockTableRecord
  2
*Paper_Space
340
1E
 70
     0
280
     1
281
     0
  0
BLOCK_RECORD
  5
23
330
1
100
AcDbSymbolTableRecord
100
AcDbBlockTableRecord
  2
*Paper_Space0
340
26
 70
     0
280
     1
281
     0
  0
ENDTAB
  0
ENDSEC
  0
SECTION
  2
BLOCKS
  0
BLOCK
  5
20
330
1F
100
AcDbEntity
  8
0
100
AcDbBlockBegin
  2
*Model_Space
 70
     0
 10
0.0
 20
0.0
 30
0.0
  3
*Model_Space
  1

  0
ENDBLK
  5
21
330
1F
100
AcDbEntity
  8
0
100
AcDbBlockEnd
  0
BLOCK
  5
1C
330
1B
100
AcDbEntity
 67
     1
  8
0
100
AcDbBlockBegin
  2
*Paper_Space
 70
     0
 10
0.0
 20
0.0
 30
0.0
  3
*Paper_Space
  1

  0
ENDBLK
  5
1D
330
1B
100
AcDbEntity
 67
     1
  8
0
100
AcDbBlockEnd
  0
BLOCK
  5
24
330
23
100
AcDbEntity
  8
0
100
AcDbBlockBegin
  2
*Paper_Space0
 70
     0
 10
0.0
 20
0.0
 30
0.0
  3
*Paper_Space0
  1

  0
ENDBLK
  5
25
330
23
100
AcDbEntity
  8
0
100
AcDbBlockEnd
  0
ENDSEC
  0
SECTION
  2
ENTITIES
  0
SPLINE
  5
41
330
1F
100
AcDbEntity
  8
Layer 1
 62
   250
100
AcDbSpline
210
0.0
220
0.0
230
1.0
 70
    11
 71
     3
 72
    36
 73
    32
 74
     0
 42
0.0000000001
 43
0.0000000001
 12
1.0
 22
0.0
 32
0.0
 13
1.0
 23
0.0
 33
0.0
 40
0.0
 40
0.0
 40
0.0
 40
0.0
 40
0.1111111111111111
 40
0.1111111111111111
 40
0.1111111111111111
 40
0.1111111111111111
 40
0.2222222222222222
 40
0.2222222222222222
 40
0.2222222222222222
 40
0.2222222222222222
 40
0.3333333333333333
 40
0.3333333333333333
 40
0.3333333333333333
 40
0.3333333333333333
 40
0.4444444444444444
 40
0.4444444444444444
 40
0.4444444444444444
 40
0.4444444444444444
 40
0.5555555555555556
 40
0.5555555555555556
 40
0.5555555555555556
 40
0.5555555555555556
 40
0.6666666666666666
 40
0.6666666666666666
 40
0.6666666666666666
 40
0.6666666666666666
 40
0.7777777777777778
 40
0.7777777777777778
 40
0.7777777777777778
 40
0.7777777777777778
 40
1.0
 40
1.0
 40
1.0
 40
1.0
 10
-2.99524
 20
-7.48086
 30
0.0
 10
-2.99524
 20
-7.48086
 30
0.0
 10
-2.99524
 20
-6.94576
 30
0.0
 10
-2.99524
 20
-6.94576
 30
0.0
 10
-2.99524
 20
-6.94576
 30
0.0
 10
-2.99524
 20
-6.94576
 30
0.0
 10
-3.19506
 20
-6.94576
 30
0.0
 10
-3.19506
 20
-6.94576
 30
0.0
 10
-3.19506
 20
-6.94576
 30
0.0
 10
-3.19506
 20
-6.94576
 30
0.0
 10
-3.19506
 20
-6.87464
 30
0.0
 10
-3.19506
 20
-6.87464
 30
0.0
 10
-3.19506
 20
-6.87464
 30
0.0
 10
-3.19506
 20
-6.87464
 30
0.0
 10
-2.71499
 20
-6.87464
 30
0.0
 10
-2.71499
 20
-6.87464
 30
0.0
 10
-2.71499
 20
-6.87464
 30
0.0
 10
-2.71499
 20
-6.87464
 30
0.0
 10
-2.71499
 20
-6.94576
 30
0.0
 10
-2.71499
 20
-6.94576
 30
0.0
 10
-2.71499
 20
-6.94576
 30
0.0
 10
-2.71499
 20
-6.94576
 30
0.0
 10
-2.91481
 20
-6.94576
 30
0.0
 10
-2.91481
 20
-6.94576
 30
0.0
 10
-2.91481
 20
-6.94576
 30
0.0
 10
-2.91481
 20
-6.94576
 30
0.0
 10
-2.91481
 20
-7.48086
 30
0.0
 10
-2.91481
 20
-7.48086
 30
0.0
 10
-2.91481
 20
-7.48086
 30
0.0
 10
-2.91481
 20
-7.48086
 30
0.0
 10
-2.99524
 20
-7.48086
 30
0.0
 10
-2.99524
 20
-7.48086
 30
0.0
  0
SPLINE
  5
42
330
1F
100
AcDbEntity
  8
Layer 1
 62
   250
100
AcDbSpline
210
0.0
220
0.0
230
1.0
 70
    11
 71
     3
 72
    92
 73
    88
 74
     0
 42
0.0000000001
 43
0.0000000001
 12
1.0
 22
0.0
 32
0.0
 13
1.0
 23
0.0
 33
0.0
 40
0.0
 40
0.0
 40
0.0
 40
0.0
 40
0.0434782608695652
 40
0.0434782608695652
 40
0.0434782608695652
 40
0.0434782608695652
 40
0.0869565217391304
 40
0.0869565217391304
 40
0.0869565217391304
 40
0.0869565217391304
 40
0.1304347826086956
 40
0.1304347826086956
 40
0.1304347826086956
 40
0.1304347826086956
 40
0.1739130434782609
 40
0.1739130434782609
 40
0.1739130434782609
 40
0.1739130434782609
 40
0.2173913043478261
 40
0.2173913043478261
 40
0.2173913043478261
 40
0.2173913043478261
 40
0.2608695652173913
 40
0.2608695652173913
 40
0.2608695652173913
 40
0.2608695652173913
 40
0.3043478260869565
 40
0.3043478260869565
 40
0.3043478260869565
 40
0.3043478260869565
 40
0.3478260869565217
 40
0.3478260869565217
 40
0.3478260869565217
 40
0.3478260869565217
 40
0.391304347826087
 40
0.391304347826087
 40
0.391304347826087
 40
0.391304347826087
 40
0.4347826086956522
 40
0.4347826086956522
 40
0.4347826086956522
 40
0.4347826086956522
 40
0.4782608695652174
 40
0.4782608695652174
 40
0.4782608695652174
 40
0.4782608695652174
 40
0.5217391304347826
 40
0.5217391304347826
 40
0.5217391304347826
 40
0.5217391304347826
 40
0.5652173913043478
 40
0.5652173913043478
 40
0.5652173913043478
 40
0.5652173913043478
 40
0.6086956521739131
 40
0.6086956521739131
 40
0.6086956521739131
 40
0.6086956521739131
 40
0.6521739130434783
 40
0.6521739130434783
 40
0.6521739130434783
 40
0.6521739130434783
 40
0.6956521739130435
 40
0.6956521739130435
 40
0.6956521739130435
 40
0.6956521739130435
 40
0.7391304347826086
 40
0.7391304347826086
 40
0.7391304347826086
 40
0.7391304347826086
 40
0.782608695652174
 40
0.782608695652174
 40
0.782608695652174
 40
0.782608695652174
 40
0.8260869565217391
 40
0.8260869565217391
 40
0.8260869565217391
 40
0.8260869565217391
 40
0.8695652173913043
 40
0.8695652173913043
 40
0.8695652173913043
 40
0.8695652173913043
 40
0.9130434782608695
 40
0.9130434782608695
 40
0.9130434782608695
 40
0.9130434782608695
 40
1.0
 40
1.0
 40
1.0
 40
1.0
 10
-2.27148
 20
-7.40974
 30
0.0
 10
-2.27148
 20
-7.40974
 30
0.0
 10
-2.27148
 20
-7.48086
 30
0.0
 10
-2.27148
 20
-7.48086
 30
0.0
 10
-2.27148
 20
-7.48086
 30
0.0
 10
-2.27148
 20
-7.48086
 30
0.0
 10
-2.67281
 20
-7.48086
 30
0.0
 10
-2.67281
 20
-7.48086
 30
0.0
 10
-2.67281
 20
-7.48086
 30
0.0
 10
-2.67337
 20
-7.46294
 30
0.0
 10
-2.67041
 20
-7.44572
 30
0.0
 10
-2.66406
 20
-7.42907
 30
0.0
 10
-2.66406
 20
-7.42907
 30
0.0
 10
-2.65376
 20
-7.40184
 30
0.0
 10
-2.63725
 20
-7.37489
 30
0.0
 10
-2.61453
 20
-7.3485
 30
0.0
 10
-2.61453
 20
-7.3485
 30
0.0
 10
-2.59181
 20
-7.32211
 30
0.0
 10
-2.55935
 20
-7.29163
 30
0.0
 10
-2.51716
 20
-7.25706
 30
0.0
 10
-2.51716
 20
-7.25706
 30
0.0
 10
-2.45154
 20
-7.20301
 30
0.0
 10
-2.40695
 20
-7.16025
 30
0.0
 10
-2.38367
 20
-7.12865
 30
0.0
 10
-2.38367
 20
-7.12865
 30
0.0
 10
-2.36024
 20
-7.09704
 30
0.0
 10
-2.34853
 20
-7.06712
 30
0.0
 10
-2.34853
 20
-7.0389
 30
0.0
 10
-2.34853
 20
-7.0389
 30
0.0
 10
-2.34853
 20
-7.00941
 30
0.0
 10
-2.35912
 20
-6.98457
 30
0.0
 10
-2.38028
 20
-6.96425
 30
0.0
 10
-2.38028
 20
-6.96425
 30
0.0
 10
-2.40145
 20
-6.94407
 30
0.0
 10
-2.42911
 20
-6.93391
 30
0.0
 10
-2.46311
 20
-6.93391
 30
0.0
 10
-2.46311
 20
-6.93391
 30
0.0
 10
-2.4991
 20
-6.93391
 30
0.0
 10
-2.52788
 20
-6.94464
 30
0.0
 10
-2.54947
 20
-6.96608
 30
0.0
 10
-2.54947
 20
-6.96608
 30
0.0
 10
-2.57107
 20
-6.98739
 30
0.0
 10
-2.58193
 20
-7.01703
 30
0.0
 10
-2.58221
 20
-7.05498
 30
0.0
 10
-2.58221
 20
-7.05498
 30
0.0
 10
-2.58221
 20
-7.05498
 30
0.0
 10
-2.65841
 20
-7.04736
 30
0.0
 10
-2.65841
 20
-7.04736
 30
0.0
 10
-2.65841
 20
-7.04736
 30
0.0
 10
-2.65319
 20
-6.99036
 30
0.0
 10
-2.63344
 20
-6.94689
 30
0.0
 10
-2.59929
 20
-6.91698
 30
0.0
 10
-2.59929
 20
-6.91698
 30
0.0
 10
-2.565
 20
-6.88706
 30
0.0
 10
-2.51914
 20
-6.8721
 30
0.0
 10
-2.46142
 20
-6.8721
 30
0.0
 10
-2.46142
 20
-6.8721
 30
0.0
 10
-2.40328
 20
-6.8721
 30
0.0
 10
-2.35714
 20
-6.88819
 30
0.0
 10
-2.32327
 20
-6.92051
 30
0.0
 10
-2.32327
 20
-6.92051
 30
0.0
 10
-2.28927
 20
-6.95282
 30
0.0
 10
-2.27233
 20
-6.9929
 30
0.0
 10
-2.27233
 20
-7.04059
 30
0.0
 10
-2.27233
 20
-7.04059
 30
0.0
 10
-2.27233
 20
-7.06486
 30
0.0
 10
-2.27727
 20
-7.08871
 30
0.0
 10
-2.28729
 20
-7.11214
 30
0.0
 10
-2.28729
 20
-7.11214
 30
0.0
 10
-2.29717
 20
-7.1357
 30
0.0
 10
-2.31368
 20
-7.1604
 30
0.0
 10
-2.33668
 20
-7.18636
 30
0.0
 10
-2.33668
 20
-7.18636
 30
0.0
 10
-2.35982
 20
-7.21218
 30
0.0
 10
-2.39806
 20
-7.24788
 30
0.0
 10
-2.4514
 20
-7.29304
 30
0.0
 10
-2.4514
 20
-7.29304
 30
0.0
 10
-2.49613
 20
-7.33058
 30
0.0
 10
-2.52492
 20
-7.35598
 30
0.0
 10
-2.53762
 20
-7.36938
 30
0.0
 10
-2.53762
 20
-7.36938
 30
0.0
 10
-2.55032
 20
-7.38279
 30
0.0
 10
-2.56076
 20
-7.39619
 30
0.0
 10
-2.56909
 20
-7.40974
 30
0.0
 10
-2.56909
 20
-7.40974
 30
0.0
 10
-2.56909
 20
-7.40974
 30
0.0
 10
-2.27148
 20
-7.40974
 30
0.0
 10
-2.27148
 20
-7.40974
 30
0.0
  0
SPLINE
  5
43
330
1F
100
AcDbEntity
  8
Layer 1
 62
   250
100
AcDbSpline
210
0.0
220
0.0
230
1.0
 70
    11
 71
     3
 72
    52
 73
    48
 74
     0
 42
0.0000000001
 43
0.0000000001
 12
1.0
 22
0.0
 32
0.0
 13
1.0
 23
0.0
 33
0.0
 40
0.0
 40
0.0
 40
0.0
 40
0.0
 40
0.0769230769230769
 40
0.0769230769230769
 40
0.0769230769230769
 40
0.0769230769230769
 40
0.1538461538461539
 40
0.1538461538461539
 40
0.1538461538461539
 40
0.1538461538461539
 40
0.2307692307692308
 40
0.2307692307692308
 40
0.2307692307692308
 40
0.2307692307692308
 40
0.3076923076923077
 40
0.3076923076923077
 40
0.3076923076923077
 40
0.3076923076923077
 40
0.3846153846153846
 40
0.3846153846153846
 40
0.3846153846153846
 40
0.3846153846153846
 40
0.4615384615384616
 40
0.4615384615384616
 40
0.4615384615384616
 40
0.4615384615384616
 40
0.5384615384615384
 40
0.5384615384615384
 40
0.5384615384615384
 40
0.5384615384615384
 40
0.6153846153846154
 40
0.6153846153846154
 40
0.6153846153846154
 40
0.6153846153846154
 40
0.6923076923076923
 40
0.6923076923076923
 40
0.6923076923076923
 40
0.6923076923076923
 40
0.7692307692307693
 40
0.7692307692307693
 40
0.7692307692307693
 40
0.7692307692307693
 40
0.8461538461538461
 40
0.8461538461538461
 40
0.8461538461538461
 40
0.8461538461538461
 40
1.0
 40
1.0
 40
1.0
 40
1.0
 10
-2.19091
 20
-7.1817
 30
0.0
 10
-2.19091
 20
-7.11016
 30
0.0
 10
-2.18357
 20
-7.0523
 30
0.0
 10
-2.1689
 20
-7.00856
 30
0.0
 10
-2.1689
 20
-7.00856
 30
0.0
 10
-2.15408
 20
-6.96467
 30
0.0
 10
-2.13221
 20
-6.93095
 30
0.0
 10
-2.10314
 20
-6.90738
 30
0.0
 10
-2.10314
 20
-6.90738
 30
0.0
 10
-2.07421
 20
-6.88382
 30
0.0
 10
-2.03766
 20
-6.8721
 30
0.0
 10
-1.99364
 20
-6.8721
 30
0.0
 10
-1.99364
 20
-6.8721
 30
0.0
 10
-1.96118
 20
-6.8721
 30
0.0
 10
-1.93268
 20
-6.8786
 30
0.0
 10
-1.90798
 20
-6.89172
 30
0.0
 10
-1.90798
 20
-6.89172
 30
0.0
 10
-1.88343
 20
-6.90484
 30
0.0
 10
-1.86311
 20
-6.92375
 30
0.0
 10
-1.8473
 20
-6.94845
 30
0.0
 10
-1.8473
 20
-6.94845
 30
0.0
 10
-1.8315
 20
-6.973
 30
0.0
 10
-1.81908
 20
-7.00306
 30
0.0
 10
-1.81005
 20
-7.03847
 30
0.0
 10
-1.81005
 20
-7.03847
 30
0.0
 10
-1.80088
 20
-7.07389
 30
0.0
 10
-1.79636
 20
-7.12173
 30
0.0
 10
-1.79636
 20
-7.1817
 30
0.0
 10
-1.79636
 20
-7.1817
 30
0.0
 10
-1.79636
 20
-7.25282
 30
0.0
 10
-1.8037
 20
-7.3104
 30
0.0
 10
-1.81823
 20
-7.35414
 30
0.0
 10
-1.81823
 20
-7.35414
 30
0.0
 10
-1.83277
 20
-7.39803
 30
0.0
 10
-1.85464
 20
-7.43175
 30
0.0
 10
-1.88371
 20
-7.45546
 30
0.0
 10
-1.88371
 20
-7.45546
 30
0.0
 10
-1.91264
 20
-7.47917
 30
0.0
 10
-1.94933
 20
-7.49102
 30
0.0
 10
-1.99364
 20
-7.49102
 30
0.0
 10
-1.99364
 20
-7.49102
 30
0.0
 10
-2.05191
 20
-7.49102
 30
0.0
 10
-2.09778
 20
-7.47028
 30
0.0
 10
-2.13108
 20
-7.42865
 30
0.0
 10
-2.13108
 20
-7.42865
 30
0.0
 10
-2.17101
 20
-7.37785
 30
0.0
 10
-2.19091
 20
-7.29558
 30
0.0
 10
-2.19091
 20
-7.1817
 30
0.0
  0
SPLINE
  5
44
330
1F
100
AcDbEntity
  8
Layer 1
 62
   250
100
AcDbSpline
210
0.0
220
0.0
230
1.0
 70
    11
 71
     3
 72
    36
 73
    32
 74
     0
 42
0.0000000001
 43
0.0000000001
 12
1.0
 22
0.0
 32
0.0
 13
1.0
 23
0.0
 33
0.0
 40
0.0
 40
0.0
 40
0.0
 40
0.0
 40
0.1111111111111111
 40
0.1111111111111111
 40
0.1111111111111111
 40
0.1111111111111111
 40
0.2222222222222222
 40
0.2222222222222222
 40
0.2222222222222222
 40
0.2222222222222222
 40
0.3333333333333333
 40
0.3333333333333333
 40
0.3333333333333333
 40
0.3333333333333333
 40
0.4444444444444444
 40
0.4444444444444444
 40
0.4444444444444444
 40
0.4444444444444444
 40
0.5555555555555556
 40
0.5555555555555556
 40
0.5555555555555556
 40
0.5555555555555556
 40
0.6666666666666666
 40
0.6666666666666666
 40
0.6666666666666666
 40
0.6666666666666666
 40
0.7777777777777778
 40
0.7777777777777778
 40
0.7777777777777778
 40
0.7777777777777778
 40
1.0
 40
1.0
 40
1.0
 40
1.0
 10
-2.11471
 20
-7.18199
 30
0.0
 10
-2.11471
 20
-7.28175
 30
0.0
 10
-2.10314
 20
-7.34807
 30
0.0
 10
-2.07985
 20
-7.38081
 30
0.0
 10
-2.07985
 20
-7.38081
 30
0.0
 10
-2.05657
 20
-7.41369
 30
0.0
 10
-2.02778
 20
-7.43006
 30
0.0
 10
-1.99364
 20
-7.43006
 30
0.0
 10
-1.99364
 20
-7.43006
 30
0.0
 10
-1.95949
 20
-7.43006
 30
0.0
 10
-1.9307
 20
-7.41355
 30
0.0
 10
-1.90742
 20
-7.38067
 30
0.0
 10
-1.90742
 20
-7.38067
 30
0.0
 10
-1.88413
 20
-7.34765
 30
0.0
 10
-1.87256
 20
-7.28147
 30
0.0
 10
-1.87256
 20
-7.18199
 30
0.0
 10
-1.87256
 20
-7.18199
 30
0.0
 10
-1.87256
 20
-7.08222
 30
0.0
 10
-1.88413
 20
-7.0159
 30
0.0
 10
-1.90742
 20
-6.98316
 30
0.0
 10
-1.90742
 20
-6.98316
 30
0.0
 10
-1.93056
 20
-6.95028
 30
0.0
 10
-1.95963
 20
-6.93391
 30
0.0
 10
-1.99448
 20
-6.93391
 30
0.0
 10
-1.99448
 20
-6.93391
 30
0.0
 10
-2.02863
 20
-6.93391
 30
0.0
 10
-2.05601
 20
-6.94845
 30
0.0
 10
-2.07647
 20
-6.97737
 30
0.0
 10
-2.07647
 20
-6.97737
 30
0.0
 10
-2.10201
 20
-7.0142
 30
0.0
 10
-2.11471
 20
-7.0825
 30
0.0
 10
-2.11471
 20
-7.18199
 30
0.0
  0
SPLINE
  5
45
330
1F
100
AcDbEntity
  8
Layer 1
 62
   250
100
AcDbSpline
210
0.0
220
0.0
230
1.0
 70
    11
 71
     3
 72
    48
 73
    44
 74
     0
 42
0.0000000001
 43
0.0000000001
 12
1.0
 22
0.0
 32
0.0
 13
1.0
 23
0.0
 33
0.0
 40
0.0
 40
0.0
 40
0.0
 40
0.0
 40
0.0833333333333333
 40
0.0833333333333333
 40
0.0833333333333333
 40
0.0833333333333333
 40
0.1666666666666667
 40
0.1666666666666667
 40
0.1666666666666667
 40
0.1666666666666667
 40
0.25
 40
0.25
 40
0.25
 40
0.25
 40
0.3333333333333333
 40
0.3333333333333333
 40
0.3333333333333333
 40
0.3333333333333333
 40
0.4166666666666667
 40
0.4166666666666667
 40
0.4166666666666667
 40
0.4166666666666667
 40
0.5
 40
0.5
 40
0.5
 40
0.5
 40
0.5833333333333334
 40
0.5833333333333334
 40
0.5833333333333334
 40
0.5833333333333334
 40
0.6666666666666666
 40
0.6666666666666666
 40
0.6666666666666666
 40
0.6666666666666666
 40
0.75
 40
0.75
 40
0.75
 40
0.75
 40
0.8333333333333334
 40
0.8333333333333334
 40
0.8333333333333334
 40
0.8333333333333334
 40
1.0
 40
1.0
 40
1.0
 40
1.0
 10
-1.71579
 20
-6.95338
 30
0.0
 10
-1.71579
 20
-6.95338
 30
0.0
 10
-1.71579
 20
-6.88226
 30
0.0
 10
-1.71579
 20
-6.88226
 30
0.0
 10
-1.71579
 20
-6.88226
 30
0.0
 10
-1.71579
 20
-6.88226
 30
0.0
 10
-1.32378
 20
-6.88226
 30
0.0
 10
-1.32378
 20
-6.88226
 30
0.0
 10
-1.32378
 20
-6.88226
 30
0.0
 10
-1.32378
 20
-6.88226
 30
0.0
 10
-1.32378
 20
-6.93984
 30
0.0
 10
-1.32378
 20
-6.93984
 30
0.0
 10
-1.32378
 20
-6.93984
 30
0.0
 10
-1.3623
 20
-6.9809
 30
0.0
 10
-1.40068
 20
-7.03551
 30
0.0
 10
-1.4385
 20
-7.10367
 30
0.0
 10
-1.4385
 20
-7.10367
 30
0.0
 10
-1.47646
 20
-7.17183
 30
0.0
 10
-1.50567
 20
-7.24196
 30
0.0
 10
-1.52641
 20
-7.31407
 30
0.0
 10
-1.52641
 20
-7.31407
 30
0.0
 10
-1.54123
 20
-7.36473
 30
0.0
 10
-1.55083
 20
-7.42046
 30
0.0
 10
-1.55492
 20
-7.48086
 30
0.0
 10
-1.55492
 20
-7.48086
 30
0.0
 10
-1.55492
 20
-7.48086
 30
0.0
 10
-1.63112
 20
-7.48086
 30
0.0
 10
-1.63112
 20
-7.48086
 30
0.0
 10
-1.63112
 20
-7.48086
 30
0.0
 10
-1.63027
 20
-7.43316
 30
0.0
 10
-1.62096
 20
-7.37545
 30
0.0
 10
-1.60304
 20
-7.30786
 30
0.0
 10
-1.60304
 20
-7.30786
 30
0.0
 10
-1.58512
 20
-7.24012
 30
0.0
 10
-1.55958
 20
-7.17493
 30
0.0
 10
-1.52613
 20
-7.11214
 30
0.0
 10
-1.52613
 20
-7.11214
 30
0.0
 10
-1.49269
 20
-7.04934
 30
0.0
 10
-1.45713
 20
-6.99642
 30
0.0
 10
-1.41945
 20
-6.95338
 30
0.0
 10
-1.41945
 20
-6.95338
 30
0.0
 10
-1.41945
 20
-6.95338
 30
0.0
 10
-1.71579
 20
-6.95338
 30
0.0
 10
-1.71579
 20
-6.95338
 30
0.0
  0
SPLINE
  5
46
330
1F
100
AcDbEntity
  8
Layer 1
 62
   250
100
AcDbSpline
210
0.0
220
0.0
230
1.0
 70
    11
 71
     3
 72
    52
 73
    48
 74
     0
 42
0.0000000001
 43
0.0000000001
 12
1.0
 22
0.0
 32
0.0
 13
1.0
 23
0.0
 33
0.0
 40
0.0
 40
0.0
 40
0.0
 40
0.0
 40
0.0769230769230769
 40
0.0769230769230769
 40
0.0769230769230769
 40
0.0769230769230769
 40
0.1538461538461539
 40
0.1538461538461539
 40
0.1538461538461539
 40
0.1538461538461539
 40
0.2307692307692308
 40
0.2307692307692308
 40
0.2307692307692308
 40
0.2307692307692308
 40
0.3076923076923077
 40
0.3076923076923077
 40
0.3076923076923077
 40
0.3076923076923077
 40
0.3846153846153846
 40
0.3846153846153846
 40
0.3846153846153846
 40
0.3846153846153846
 40
0.4615384615384616
 40
0.4615384615384616
 40
0.4615384615384616
 40
0.4615384615384616
 40
0.5384615384615384
 40
0.5384615384615384
 40
0.5384615384615384
 40
0.5384615384615384
 40
0.6153846153846154
 40
0.6153846153846154
 40
0.6153846153846154
 40
0.6153846153846154
 40
0.6923076923076923
 40
0.6923076923076923
 40
0.6923076923076923
 40
0.6923076923076923
 40
0.7692307692307693
 40
0.7692307692307693
 40
0.7692307692307693
 40
0.7692307692307693
 40
0.8461538461538461
 40
0.8461538461538461
 40
0.8461538461538461
 40
0.8461538461538461
 40
1.0
 40
1.0
 40
1.0
 40
1.0
 10
-1.24913
 20
-7.1817
 30
0.0
 10
-1.24913
 20
-7.11016
 30
0.0
 10
-1.24179
 20
-7.0523
 30
0.0
 10
-1.22712
 20
-7.00856
 30
0.0
 10
-1.22712
 20
-7.00856
 30
0.0
 10
-1.2123
 20
-6.96467
 30
0.0
 10
-1.19043
 20
-6.93095
 30
0.0
 10
-1.16136
 20
-6.90738
 30
0.0
 10
-1.16136
 20
-6.90738
 30
0.0
 10
-1.13243
 20
-6.88382
 30
0.0
 10
-1.09588
 20
-6.8721
 30
0.0
 10
-1.05186
 20
-6.8721
 30
0.0
 10
-1.05186
 20
-6.8721
 30
0.0
 10
-1.0194
 20
-6.8721
 30
0.0
 10
-0.9909
 20
-6.8786
 30
0.0
 10
-0.9662
 20
-6.89172
 30
0.0
 10
-0.9662
 20
-6.89172
 30
0.0
 10
-0.94165
 20
-6.90484
 30
0.0
 10
-0.92133
 20
-6.92375
 30
0.0
 10
-0.90552
 20
-6.94845
 30
0.0
 10
-0.90552
 20
-6.94845
 30
0.0
 10
-0.88972
 20
-6.973
 30
0.0
 10
-0.8773
 20
-7.00306
 30
0.0
 10
-0.86827
 20
-7.03847
 30
0.0
 10
-0.86827
 20
-7.03847
 30
0.0
 10
-0.8591
 20
-7.07389
 30
0.0
 10
-0.85458
 20
-7.12173
 30
0.0
 10
-0.85458
 20
-7.1817
 30
0.0
 10
-0.85458
 20
-7.1817
 30
0.0
 10
-0.85458
 20
-7.25282
 30
0.0
 10
-0.86192
 20
-7.3104
 30
0.0
 10
-0.87645
 20
-7.35414
 30
0.0
 10
-0.87645
 20
-7.35414
 30
0.0
 10
-0.89099
 20
-7.39803
 30
0.0
 10
-0.91286
 20
-7.43175
 30
0.0
 10
-0.94193
 20
-7.45546
 30
0.0
 10
-0.94193
 20
-7.45546
 30
0.0
 10
-0.97086
 20
-7.47917
 30
0.0
 10
-1.00755
 20
-7.49102
 30
0.0
 10
-1.05186
 20
-7.49102
 30
0.0
 10
-1.05186
 20
-7.49102
 30
0.0
 10
-1.11013
 20
-7.49102
 30
0.0
 10
-1.156
 20
-7.47028
 30
0.0
 10
-1.1893
 20
-7.42865
 30
0.0
 10
-1.1893
 20
-7.42865
 30
0.0
 10
-1.22923
 20
-7.37785
 30
0.0
 10
-1.24913
 20
-7.29558
 30
0.0
 10
-1.24913
 20
-7.1817
 30
0.0
  0
SPLINE
  5
47
330
1F
100
AcDbEntity
  8
Layer 1
 62
   250
100
AcDbSpline
210
0.0
220
0.0
230
1.0
 70
    11
 71
     3
 72
    36
 73
    32
 74
     0
 42
0.0000000001
 43
0.0000000001
 12
1.0
 22
0.0
 32
0.0
 13
1.0
 23
0.0
 33
0.0
 40
0.0
 40
0.0
 40
0.0
 40
0.0
 40
0.1111111111111111
 40
0.1111111111111111
 40
0.1111111111111111
 40
0.1111111111111111
 40
0.2222222222222222
 40
0.2222222222222222
 40
0.2222222222222222
 40
0.2222222222222222
 40
0.3333333333333333
 40
0.3333333333333333
 40
0.3333333333333333
 40
0.3333333333333333
 40
0.4444444444444444
 40
0.4444444444444444
 40
0.4444444444444444
 40
0.4444444444444444
 40
0.5555555555555556
 40
0.5555555555555556
 40
0.5555555555555556
 40
0.5555555555555556
 40
0.6666666666666666
 40
0.6666666666666666
 40
0.6666666666666666
 40
0.6666666666666666
 40
0.7777777777777778
 40
0.7777777777777778
 40
0.7777777777777778
 40
0.7777777777777778
 40
1.0
 40
1.0
 40
1.0
 40
1.0
 10
-1.17293
 20
-7.18199
 30
0.0
 10
-1.17293
 20
-7.28175
 30
0.0
 10
-1.16136
 20
-7.34807
 30
0.0
 10
-1.13807
 20
-7.38081
 30
0.0
 10
-1.13807
 20
-7.38081
 30
0.0
 10
-1.11479
 20
-7.41369
 30
0.0
 10
-1.086
 20
-7.43006
 30
0.0
 10
-1.05186
 20
-7.43006
 30
0.0
 10
-1.05186
 20
-7.43006
 30
0.0
 10
-1.01771
 20
-7.43006
 30
0.0
 10
-0.98892
 20
-7.41355
 30
0.0
 10
-0.96564
 20
-7.38067
 30
0.0
 10
-0.96564
 20
-7.38067
 30
0.0
 10
-0.94235
 20
-7.34765
 30
0.0
 10
-0.93078
 20
-7.28147
 30
0.0
 10
-0.93078
 20
-7.18199
 30
0.0
 10
-0.93078
 20
-7.18199
 30
0.0
 10
-0.93078
 20
-7.08222
 30
0.0
 10
-0.94235
 20
-7.0159
 30
0.0
 10
-0.96564
 20
-6.98316
 30
0.0
 10
-0.96564
 20
-6.98316
 30
0.0
 10
-0.98878
 20
-6.95028
 30
0.0
 10
-1.01785
 20
-6.93391
 30
0.0
 10
-1.0527
 20
-6.93391
 30
0.0
 10
-1.0527
 20
-6.93391
 30
0.0
 10
-1.08685
 20
-6.93391
 30
0.0
 10
-1.11423
 20
-6.94845
 30
0.0
 10
-1.13469
 20
-6.97737
 30
0.0
 10
-1.13469
 20
-6.97737
 30
0.0
 10
-1.16023
 20
-7.0142
 30
0.0
 10
-1.17293
 20
-7.0825
 30
0.0
 10
-1.17293
 20
-7.18199
 30
0.0
  0
SPLINE
  5
48
330
1F
100
AcDbEntity
  8
Layer 1
 62
   250
100
AcDbSpline
210
0.0
220
0.0
230
1.0
 70
    11
 71
     3
 72
    52
 73
    48
 74
     0
 42
0.0000000001
 43
0.0000000001
 12
1.0
 22
0.0
 32
0.0
 13
1.0
 23
0.0
 33
0.0
 40
0.0
 40
0.0
 40
0.0
 40
0.0
 40
0.0769230769230769
 40
0.0769230769230769
 40
0.0769230769230769
 40
0.0769230769230769
 40
0.1538461538461539
 40
0.1538461538461539
 40
0.1538461538461539
 40
0.1538461538461539
 40
0.2307692307692308
 40
0.2307692307692308
 40
0.2307692307692308
 40
0.2307692307692308
 40
0.3076923076923077
 40
0.3076923076923077
 40
0.3076923076923077
 40
0.3076923076923077
 40
0.3846153846153846
 40
0.3846153846153846
 40
0.3846153846153846
 40
0.3846153846153846
 40
0.4615384615384616
 40
0.4615384615384616
 40
0.4615384615384616
 40
0.4615384615384616
 40
0.5384615384615384
 40
0.5384615384615384
 40
0.5384615384615384
 40
0.5384615384615384
 40
0.6153846153846154
 40
0.6153846153846154
 40
0.6153846153846154
 40
0.6153846153846154
 40
0.6923076923076923
 40
0.6923076923076923
 40
0.6923076923076923
 40
0.6923076923076923
 40
0.7692307692307693
 40
0.7692307692307693
 40
0.7692307692307693
 40
0.7692307692307693
 40
0.8461538461538461
 40
0.8461538461538461
 40
0.8461538461538461
 40
0.8461538461538461
 40
1.0
 40
1.0
 40
1.0
 40
1.0
 10
-0.77824
 20
-7.1817
 30
0.0
 10
-0.77824
 20
-7.11016
 30
0.0
 10
-0.7709
 20
-7.0523
 30
0.0
 10
-0.75623
 20
-7.00856
 30
0.0
 10
-0.75623
 20
-7.00856
 30
0.0
 10
-0.74141
 20
-6.96467
 30
0.0
 10
-0.71954
 20
-6.93095
 30
0.0
 10
-0.69047
 20
-6.90738
 30
0.0
 10
-0.69047
 20
-6.90738
 30
0.0
 10
-0.66154
 20
-6.88382
 30
0.0
 10
-0.62499
 20
-6.8721
 30
0.0
 10
-0.58097
 20
-6.8721
 30
0.0
 10
-0.58097
 20
-6.8721
 30
0.0
 10
-0.54851
 20
-6.8721
 30
0.0
 10
-0.52001
 20
-6.8786
 30
0.0
 10
-0.49531
 20
-6.89172
 30
0.0
 10
-0.49531
 20
-6.89172
 30
0.0
 10
-0.47076
 20
-6.90484
 30
0.0
 10
-0.45044
 20
-6.92375
 30
0.0
 10
-0.43463
 20
-6.94845
 30
0.0
 10
-0.43463
 20
-6.94845
 30
0.0
 10
-0.41883
 20
-6.973
 30
0.0
 10
-0.40641
 20
-7.00306
 30
0.0
 10
-0.39738
 20
-7.03847
 30
0.0
 10
-0.39738
 20
-7.03847
 30
0.0
 10
-0.38821
 20
-7.07389
 30
0.0
 10
-0.38369
 20
-7.12173
 30
0.0
 10
-0.38369
 20
-7.1817
 30
0.0
 10
-0.38369
 20
-7.1817
 30
0.0
 10
-0.38369
 20
-7.25282
 30
0.0
 10
-0.39103
 20
-7.3104
 30
0.0
 10
-0.40556
 20
-7.35414
 30
0.0
 10
-0.40556
 20
-7.35414
 30
0.0
 10
-0.4201
 20
-7.39803
 30
0.0
 10
-0.44197
 20
-7.43175
 30
0.0
 10
-0.47104
 20
-7.45546
 30
0.0
 10
-0.47104
 20
-7.45546
 30
0.0
 10
-0.49997
 20
-7.47917
 30
0.0
 10
-0.53666
 20
-7.49102
 30
0.0
 10
-0.58097
 20
-7.49102
 30
0.0
 10
-0.58097
 20
-7.49102
 30
0.0
 10
-0.63924
 20
-7.49102
 30
0.0
 10
-0.68511
 20
-7.47028
 30
0.0
 10
-0.71841
 20
-7.42865
 30
0.0
 10
-0.71841
 20
-7.42865
 30
0.0
 10
-0.75834
 20
-7.37785
 30
0.0
 10
-0.77824
 20
-7.29558
 30
0.0
 10
-0.77824
 20
-7.1817
 30
0.0
  0
SPLINE
  5
49
330
1F
100
AcDbEntity
  8
Layer 1
 62
   250
100
AcDbSpline
210
0.0
220
0.0
230
1.0
 70
    11
 71
     3
 72
    36
 73
    32
 74
     0
 42
0.0000000001
 43
0.0000000001
 12
1.0
 22
0.0
 32
0.0
 13
1.0
 23
0.0
 33
0.0
 40
0.0
 40
0.0
 40
0.0
 40
0.0
 40
0.1111111111111111
 40
0.1111111111111111
 40
0.1111111111111111
 40
0.1111111111111111
 40
0.2222222222222222
 40
0.2222222222222222
 40
0.2222222222222222
 40
0.2222222222222222
 40
0.3333333333333333
 40
0.3333333333333333
 40
0.3333333333333333
 40
0.3333333333333333
 40
0.4444444444444444
 40
0.4444444444444444
 40
0.4444444444444444
 40
0.4444444444444444
 40
0.5555555555555556
 40
0.5555555555555556
 40
0.5555555555555556
 40
0.5555555555555556
 40
0.6666666666666666
 40
0.6666666666666666
 40
0.6666666666666666
 40
0.6666666666666666
 40
0.7777777777777778
 40
0.7777777777777778
 40
0.7777777777777778
 40
0.7777777777777778
 40
1.0
 40
1.0
 40
1.0
 40
1.0
 10
-0.70204
 20
-7.18199
 30
0.0
 10
-0.70204
 20
-7.28175
 30
0.0
 10
-0.69047
 20
-7.34807
 30
0.0
 10
-0.66718
 20
-7.38081
 30
0.0
 10
-0.66718
 20
-7.38081
 30
0.0
 10
-0.6439
 20
-7.41369
 30
0.0
 10
-0.61511
 20
-7.43006
 30
0.0
 10
-0.58097
 20
-7.43006
 30
0.0
 10
-0.58097
 20
-7.43006
 30
0.0
 10
-0.54682
 20
-7.43006
 30
0.0
 10
-0.51803
 20
-7.41355
 30
0.0
 10
-0.49475
 20
-7.38067
 30
0.0
 10
-0.49475
 20
-7.38067
 30
0.0
 10
-0.47146
 20
-7.34765
 30
0.0
 10
-0.45989
 20
-7.28147
 30
0.0
 10
-0.45989
 20
-7.18199
 30
0.0
 10
-0.45989
 20
-7.18199
 30
0.0
 10
-0.45989
 20
-7.08222
 30
0.0
 10
-0.47146
 20
-7.0159
 30
0.0
 10
-0.49475
 20
-6.98316
 30
0.0
 10
-0.49475
 20
-6.98316
 30
0.0
 10
-0.51789
 20
-6.95028
 30
0.0
 10
-0.54696
 20
-6.93391
 30
0.0
 10
-0.58181
 20
-6.93391
 30
0.0
 10
-0.58181
 20
-6.93391
 30
0.0
 10
-0.61596
 20
-6.93391
 30
0.0
 10
-0.64334
 20
-6.94845
 30
0.0
 10
-0.6638
 20
-6.97737
 30
0.0
 10
-0.6638
 20
-6.97737
 30
0.0
 10
-0.68934
 20
-7.0142
 30
0.0
 10
-0.70204
 20
-7.0825
 30
0.0
 10
-0.70204
 20
-7.18199
 30
0.0
  0
SPLINE
  5
4A
330
1F
100
AcDbEntity
  8
Layer 1
 62
   250
100
AcDbSpline
210
0.0
220
0.0
230
1.0
 70
    11
 71
     3
 72
    80
 73
    76
 74
     0
 42
0.0000000001
 43
0.0000000001
 12
1.0
 22
0.0
 32
0.0
 13
1.0
 23
0.0
 33
0.0
 40
0.0
 40
0.0
 40
0.0
 40
0.0
 40
0.05
 40
0.05
 40
0.05
 40
0.05
 40
0.1
 40
0.1
 40
0.1
 40
0.1
 40
0.15
 40
0.15
 40
0.15
 40
0.15
 40
0.2
 40
0.2
 40
0.2
 40
0.2
 40
0.25
 40
0.25
 40
0.25
 40
0.25
 40
0.3
 40
0.3
 40
0.3
 40
0.3
 40
0.35
 40
0.35
 40
0.35
 40
0.35
 40
0.4
 40
0.4
 40
0.4
 40
0.4
 40
0.45
 40
0.45
 40
0.45
 40
0.45
 40
0.5
 40
0.5
 40
0.5
 40
0.5
 40
0.55
 40
0.55
 40
0.55
 40
0.55
 40
0.6
 40
0.6
 40
0.6
 40
0.6
 40
0.65
 40
0.65
 40
0.65
 40
0.65
 40
0.7
 40
0.7
 40
0.7
 40
0.7
 40
0.75
 40
0.75
 40
0.75
 40
0.75
 40
0.8
 40
0.8
 40
0.8
 40
0.8
 40
0.85
 40
0.85
 40
0.85
 40
0.85
 40
0.9
 40
0.9
 40
0.9
 40
0.9
 40
1.0
 40
1.0
 40
1.0
 40
1.0
 10
0.07958
 20
-7.02281
 30
0.0
 10
0.07958
 20
-7.02281
 30
0.0
 10
0.00592
 20
-7.02874
 30
0.0
 10
0.00592
 20
-7.02874
 30
0.0
 10
0.00592
 20
-7.02874
 30
0.0
 10
-0.00071
 20
-6.99953
 30
0.0
 10
-0.01017
 20
-6.97822
 30
0.0
 10
-0.02245
 20
-6.96496
 30
0.0
 10
-0.02245
 20
-6.96496
 30
0.0
 10
-0.04262
 20
-6.94365
 30
0.0
 10
-0.0676
 20
-6.93306
 30
0.0
 10
-0.09723
 20
-6.93306
 30
0.0
 10
-0.09723
 20
-6.93306
 30
0.0
 10
-0.12108
 20
-6.93306
 30
0.0
 10
-0.14225
 20
-6.9397
 30
0.0
 10
-0.16045
 20
-6.95296
 30
0.0
 10
-0.16045
 20
-6.95296
 30
0.0
 10
-0.18388
 20
-6.97004
 30
0.0
 10
-0.20222
 20
-6.99487
 30
0.0
 10
-0.21591
 20
-7.02761
 30
0.0
 10
-0.21591
 20
-7.02761
 30
0.0
 10
-0.22946
 20
-7.06049
 30
0.0
 10
-0.23651
 20
-7.1072
 30
0.0
 10
-0.23708
 20
-7.16773
 30
0.0
 10
-0.23708
 20
-7.16773
 30
0.0
 10
-0.21916
 20
-7.1405
 30
0.0
 10
-0.19714
 20
-7.12018
 30
0.0
 10
-0.17118
 20
-7.10706
 30
0.0
 10
-0.17118
 20
-7.10706
 30
0.0
 10
-0.14521
 20
-7.09379
 30
0.0
 10
-0.11812
 20
-7.08716
 30
0.0
 10
-0.08961
 20
-7.08716
 30
0.0
 10
-0.08961
 20
-7.08716
 30
0.0
 10
-0.03994
 20
-7.08716
 30
0.0
 10
0.00239
 20
-7.1055
 30
0.0
 10
0.03739
 20
-7.14205
 30
0.0
 10
0.03739
 20
-7.14205
 30
0.0
 10
0.07224
 20
-7.1786
 30
0.0
 10
0.08974
 20
-7.22573
 30
0.0
 10
0.08974
 20
-7.28373
 30
0.0
 10
0.08974
 20
-7.28373
 30
0.0
 10
0.08974
 20
-7.32183
 30
0.0
 10
0.08155
 20
-7.35711
 30
0.0
 10
0.06518
 20
-7.38984
 30
0.0
 10
0.06518
 20
-7.38984
 30
0.0
 10
0.04867
 20
-7.42258
 30
0.0
 10
0.02624
 20
-7.44756
 30
0.0
 10
-0.00255
 20
-7.46491
 30
0.0
 10
-0.00255
 20
-7.46491
 30
0.0
 10
-0.03119
 20
-7.48227
 30
0.0
 10
-0.06379
 20
-7.49102
 30
0.0
 10
-0.1002
 20
-7.49102
 30
0.0
 10
-0.1002
 20
-7.49102
 30
0.0
 10
-0.16215
 20
-7.49102
 30
0.0
 10
-0.21281
 20
-7.46816
 30
0.0
 10
-0.25203
 20
-7.42258
 30
0.0
 10
-0.25203
 20
-7.42258
 30
0.0
 10
-0.29112
 20
-7.377
 30
0.0
 10
-0.31074
 20
-7.30179
 30
0.0
 10
-0.31074
 20
-7.19708
 30
0.0
 10
-0.31074
 20
-7.19708
 30
0.0
 10
-0.31074
 20
-7.07996
 30
0.0
 10
-0.28901
 20
-6.99473
 30
0.0
 10
-0.24568
 20
-6.94153
 30
0.0
 10
-0.24568
 20
-6.94153
 30
0.0
 10
-0.20787
 20
-6.89525
 30
0.0
 10
-0.15692
 20
-6.8721
 30
0.0
 10
-0.09272
 20
-6.8721
 30
0.0
 10
-0.09272
 20
-6.8721
 30
0.0
 10
-0.04502
 20
-6.8721
 30
0.0
 10
-0.00579
 20
-6.88551
 30
0.0
 10
0.02469
 20
-6.91218
 30
0.0
 10
0.02469
 20
-6.91218
 30
0.0
 10
0.05517
 20
-6.93885
 30
0.0
 10
0.07351
 20
-6.97568
 30
0.0
 10
0.07958
 20
-7.02281
 30
0.0
  0
SPLINE
  5
4B
330
1F
100
AcDbEntity
  8
Layer 1
 62
   250
100
AcDbSpline
210
0.0
220
0.0
230
1.0
 70
    11
 71
     3
 72
    40
 73
    36
 74
     0
 42
0.0000000001
 43
0.0000000001
 12
1.0
 22
0.0
 32
0.0
 13
1.0
 23
0.0
 33
0.0
 40
0.0
 40
0.0
 40
0.0
 40
0.0
 40
0.1
 40
0.1
 40
0.1
 40
0.1
 40
0.2
 40
0.2
 40
0.2
 40
0.2
 40
0.3
 40
0.3
 40
0.3
 40
0.3
 40
0.4
 40
0.4
 40
0.4
 40
0.4
 40
0.5
 40
0.5
 40
0.5
 40
0.5
 40
0.6
 40
0.6
 40
0.6
 40
0.6
 40
0.7
 40
0.7
 40
0.7
 40
0.7
 40
0.8
 40
0.8
 40
0.8
 40
0.8
 40
1.0
 40
1.0
 40
1.0
 40
1.0
 10
-0.22522
 20
-7.28443
 30
0.0
 10
-0.22522
 20
-7.31011
 30
0.0
 10
-0.21972
 20
-7.33467
 30
0.0
 10
-0.20885
 20
-7.35809
 30
0.0
 10
-0.20885
 20
-7.35809
 30
0.0
 10
-0.19799
 20
-7.38152
 30
0.0
 10
-0.18275
 20
-7.3993
 30
0.0
 10
-0.16342
 20
-7.41157
 30
0.0
 10
-0.16342
 20
-7.41157
 30
0.0
 10
-0.14394
 20
-7.42385
 30
0.0
 10
-0.12334
 20
-7.43006
 30
0.0
 10
-0.10147
 20
-7.43006
 30
0.0
 10
-0.10147
 20
-7.43006
 30
0.0
 10
-0.06972
 20
-7.43006
 30
0.0
 10
-0.04262
 20
-7.41736
 30
0.0
 10
-0.02019
 20
-7.39196
 30
0.0
 10
-0.02019
 20
-7.39196
 30
0.0
 10
0.00225
 20
-7.36656
 30
0.0
 10
0.01354
 20
-7.33213
 30
0.0
 10
0.01354
 20
-7.28852
 30
0.0
 10
0.01354
 20
-7.28852
 30
0.0
 10
0.01354
 20
-7.24661
 30
0.0
 10
0.00239
 20
-7.21359
 30
0.0
 10
-0.01976
 20
-7.18946
 30
0.0
 10
-0.01976
 20
-7.18946
 30
0.0
 10
-0.04192
 20
-7.16533
 30
0.0
 10
-0.07014
 20
-7.1532
 30
0.0
 10
-0.10443
 20
-7.1532
 30
0.0
 10
-0.10443
 20
-7.1532
 30
0.0
 10
-0.13802
 20
-7.1532
 30
0.0
 10
-0.16666
 20
-7.16533
 30
0.0
 10
-0.19009
 20
-7.18946
 30
0.0
 10
-0.19009
 20
-7.18946
 30
0.0
 10
-0.21351
 20
-7.21359
 30
0.0
 10
-0.22522
 20
-7.2452
 30
0.0
 10
-0.22522
 20
-7.28443
 30
0.0
  0
SPLINE
  5
4C
330
1F
100
AcDbEntity
  8
Layer 1
 62
   250
100
AcDbSpline
210
0.0
220
0.0
230
1.0
 70
    11
 71
     3
 72
    20
 73
    16
 74
     0
 42
0.0000000001
 43
0.0000000001
 12
1.0
 22
0.0
 32
0.0
 13
1.0
 23
0.0
 33
0.0
 40
0.0
 40
0.0
 40
0.0
 40
0.0
 40
0.2
 40
0.2
 40
0.2
 40
0.2
 40
0.4
 40
0.4
 40
0.4
 40
0.4
 40
0.6
 40
0.6
 40
0.6
 40
0.6
 40
1.0
 40
1.0
 40
1.0
 40
1.0
 10
0.15423
 20
-7.29883
 30
0.0
 10
0.15423
 20
-7.29883
 30
0.0
 10
0.15423
 20
-7.22432
 30
0.0
 10
0.15423
 20
-7.22432
 30
0.0
 10
0.15423
 20
-7.22432
 30
0.0
 10
0.15423
 20
-7.22432
 30
0.0
 10
0.38452
 20
-7.22432
 30
0.0
 10
0.38452
 20
-7.22432
 30
0.0
 10
0.38452
 20
-7.22432
 30
0.0
 10
0.38452
 20
-7.22432
 30
0.0
 10
0.38452
 20
-7.29883
 30
0.0
 10
0.38452
 20
-7.29883
 30
0.0
 10
0.38452
 20
-7.29883
 30
0.0
 10
0.38452
 20
-7.29883
 30
0.0
 10
0.15423
 20
-7.29883
 30
0.0
 10
0.15423
 20
-7.29883
 30
0.0
  0
SPLINE
  5
4D
330
1F
100
AcDbEntity
  8
Layer 1
 62
   250
100
AcDbSpline
210
0.0
220
0.0
230
1.0
 70
    11
 71
     3
 72
    84
 73
    80
 74
     0
 42
0.0000000001
 43
0.0000000001
 12
1.0
 22
0.0
 32
0.0
 13
1.0
 23
0.0
 33
0.0
 40
0.0
 40
0.0
 40
0.0
 40
0.0
 40
0.0476190476190476
 40
0.0476190476190476
 40
0.0476190476190476
 40
0.0476190476190476
 40
0.0952380952380952
 40
0.0952380952380952
 40
0.0952380952380952
 40
0.0952380952380952
 40
0.1428571428571428
 40
0.1428571428571428
 40
0.1428571428571428
 40
0.1428571428571428
 40
0.1904761904761905
 40
0.1904761904761905
 40
0.1904761904761905
 40
0.1904761904761905
 40
0.2380952380952381
 40
0.2380952380952381
 40
0.2380952380952381
 40
0.2380952380952381
 40
0.2857142857142857
 40
0.2857142857142857
 40
0.2857142857142857
 40
0.2857142857142857
 40
0.3333333333333333
 40
0.3333333333333333
 40
0.3333333333333333
 40
0.3333333333333333
 40
0.3809523809523809
 40
0.3809523809523809
 40
0.3809523809523809
 40
0.3809523809523809
 40
0.4285714285714285
 40
0.4285714285714285
 40
0.4285714285714285
 40
0.4285714285714285
 40
0.4761904761904762
 40
0.4761904761904762
 40
0.4761904761904762
 40
0.4761904761904762
 40
0.5238095238095238
 40
0.5238095238095238
 40
0.5238095238095238
 40
0.5238095238095238
 40
0.5714285714285714
 40
0.5714285714285714
 40
0.5714285714285714
 40
0.5714285714285714
 40
0.6190476190476191
 40
0.6190476190476191
 40
0.6190476190476191
 40
0.6190476190476191
 40
0.6666666666666666
 40
0.6666666666666666
 40
0.6666666666666666
 40
0.6666666666666666
 40
0.7142857142857143
 40
0.7142857142857143
 40
0.7142857142857143
 40
0.7142857142857143
 40
0.7619047619047619
 40
0.7619047619047619
 40
0.7619047619047619
 40
0.7619047619047619
 40
0.8095238095238095
 40
0.8095238095238095
 40
0.8095238095238095
 40
0.8095238095238095
 40
0.8571428571428571
 40
0.8571428571428571
 40
0.8571428571428571
 40
0.8571428571428571
 40
0.9047619047619048
 40
0.9047619047619048
 40
0.9047619047619048
 40
0.9047619047619048
 40
1.0
 40
1.0
 40
1.0
 40
1.0
 10
0.62751
 20
-7.4144
 30
0.0
 10
0.62751
 20
-7.4144
 30
0.0
 10
0.63767
 20
-7.48015
 30
0.0
 10
0.63767
 20
-7.48015
 30
0.0
 10
0.63767
 20
-7.48015
 30
0.0
 10
0.61679
 20
-7.48453
 30
0.0
 10
0.59802
 20
-7.48679
 30
0.0
 10
0.58165
 20
-7.48679
 30
0.0
 10
0.58165
 20
-7.48679
 30
0.0
 10
0.5547
 20
-7.48679
 30
0.0
 10
0.53382
 20
-7.48255
 30
0.0
 10
0.51886
 20
-7.47395
 30
0.0
 10
0.51886
 20
-7.47395
 30
0.0
 10
0.50404
 20
-7.46534
 30
0.0
 10
0.4936
 20
-7.45419
 30
0.0
 10
0.48753
 20
-7.44022
 30
0.0
 10
0.48753
 20
-7.44022
 30
0.0
 10
0.48146
 20
-7.42625
 30
0.0
 10
0.4785
 20
-7.3969
 30
0.0
 10
0.4785
 20
-7.35217
 30
0.0
 10
0.4785
 20
-7.35217
 30
0.0
 10
0.4785
 20
-7.35217
 30
0.0
 10
0.4785
 20
-7.09901
 30
0.0
 10
0.4785
 20
-7.09901
 30
0.0
 10
0.4785
 20
-7.09901
 30
0.0
 10
0.4785
 20
-7.09901
 30
0.0
 10
0.42347
 20
-7.09901
 30
0.0
 10
0.42347
 20
-7.09901
 30
0.0
 10
0.42347
 20
-7.09901
 30
0.0
 10
0.42347
 20
-7.09901
 30
0.0
 10
0.42347
 20
-7.04144
 30
0.0
 10
0.42347
 20
-7.04144
 30
0.0
 10
0.42347
 20
-7.04144
 30
0.0
 10
0.42347
 20
-7.04144
 30
0.0
 10
0.4785
 20
-7.04144
 30
0.0
 10
0.4785
 20
-7.04144
 30
0.0
 10
0.4785
 20
-7.04144
 30
0.0
 10
0.4785
 20
-7.04144
 30
0.0
 10
0.4785
 20
-6.93278
 30
0.0
 10
0.4785
 20
-6.93278
 30
0.0
 10
0.4785
 20
-6.93278
 30
0.0
 10
0.4785
 20
-6.93278
 30
0.0
 10
0.55301
 20
-6.88805
 30
0.0
 10
0.55301
 20
-6.88805
 30
0.0
 10
0.55301
 20
-6.88805
 30
0.0
 10
0.55301
 20
-6.88805
 30
0.0
 10
0.55301
 20
-7.04144
 30
0.0
 10
0.55301
 20
-7.04144
 30
0.0
 10
0.55301
 20
-7.04144
 30
0.0
 10
0.55301
 20
-7.04144
 30
0.0
 10
0.62751
 20
-7.04144
 30
0.0
 10
0.62751
 20
-7.04144
 30
0.0
 10
0.62751
 20
-7.04144
 30
0.0
 10
0.62751
 20
-7.04144
 30
0.0
 10
0.62751
 20
-7.09901
 30
0.0
 10
0.62751
 20
-7.09901
 30
0.0
 10
0.62751
 20
-7.09901
 30
0.0
 10
0.62751
 20
-7.09901
 30
0.0
 10
0.55301
 20
-7.09901
 30
0.0
 10
0.55301
 20
-7.09901
 30
0.0
 10
0.55301
 20
-7.09901
 30
0.0
 10
0.55301
 20
-7.09901
 30
0.0
 10
0.55301
 20
-7.3564
 30
0.0
 10
0.55301
 20
-7.3564
 30
0.0
 10
0.55301
 20
-7.3564
 30
0.0
 10
0.55301
 20
-7.37771
 30
0.0
 10
0.55428
 20
-7.3914
 30
0.0
 10
0.55696
 20
-7.39746
 30
0.0
 10
0.55696
 20
-7.39746
 30
0.0
 10
0.5595
 20
-7.40353
 30
0.0
 10
0.56373
 20
-7.40833
 30
0.0
 10
0.56966
 20
-7.412
 30
0.0
 10
0.56966
 20
-7.412
 30
0.0
 10
0.57559
 20
-7.41553
 30
0.0
 10
0.58405
 20
-7.41736
 30
0.0
 10
0.59506
 20
-7.41736
 30
0.0
 10
0.59506
 20
-7.41736
 30
0.0
 10
0.60324
 20
-7.41736
 30
0.0
 10
0.61411
 20
-7.41637
 30
0.0
 10
0.62751
 20
-7.4144
 30
0.0
  0
SPLINE
  5
4E
330
1F
100
AcDbEntity
  8
Layer 1
 62
   250
100
AcDbSpline
210
0.0
220
0.0
230
1.0
 70
    11
 71
     3
 72
    64
 73
    60
 74
     0
 42
0.0000000001
 43
0.0000000001
 12
1.0
 22
0.0
 32
0.0
 13
1.0
 23
0.0
 33
0.0
 40
0.0
 40
0.0
 40
0.0
 40
0.0
 40
0.0625
 40
0.0625
 40
0.0625
 40
0.0625
 40
0.125
 40
0.125
 40
0.125
 40
0.125
 40
0.1875
 40
0.1875
 40
0.1875
 40
0.1875
 40
0.25
 40
0.25
 40
0.25
 40
0.25
 40
0.3125
 40
0.3125
 40
0.3125
 40
0.3125
 40
0.375
 40
0.375
 40
0.375
 40
0.375
 40
0.4375
 40
0.4375
 40
0.4375
 40
0.4375
 40
0.5
 40
0.5
 40
0.5
 40
0.5
 40
0.5625
 40
0.5625
 40
0.5625
 40
0.5625
 40
0.625
 40
0.625
 40
0.625
 40
0.625
 40
0.6875
 40
0.6875
 40
0.6875
 40
0.6875
 40
0.75
 40
0.75
 40
0.75
 40
0.75
 40
0.8125
 40
0.8125
 40
0.8125
 40
0.8125
 40
0.875
 40
0.875
 40
0.875
 40
0.875
 40
1.0
 40
1.0
 40
1.0
 40
1.0
 10
1.00075
 20
-7.33862
 30
0.0
 10
1.00075
 20
-7.33862
 30
0.0
 10
1.0778
 20
-7.34878
 30
0.0
 10
1.0778
 20
-7.34878
 30
0.0
 10
1.0778
 20
-7.34878
 30
0.0
 10
1.0658
 20
-7.39351
 30
0.0
 10
1.04337
 20
-7.42837
 30
0.0
 10
1.01063
 20
-7.45306
 30
0.0
 10
1.01063
 20
-7.45306
 30
0.0
 10
0.97789
 20
-7.47776
 30
0.0
 10
0.93612
 20
-7.49017
 30
0.0
 10
0.88518
 20
-7.49017
 30
0.0
 10
0.88518
 20
-7.49017
 30
0.0
 10
0.82112
 20
-7.49017
 30
0.0
 10
0.77032
 20
-7.47042
 30
0.0
 10
0.73278
 20
-7.43091
 30
0.0
 10
0.73278
 20
-7.43091
 30
0.0
 10
0.69524
 20
-7.39154
 30
0.0
 10
0.67648
 20
-7.33608
 30
0.0
 10
0.67648
 20
-7.26482
 30
0.0
 10
0.67648
 20
-7.26482
 30
0.0
 10
0.67648
 20
-7.19116
 30
0.0
 10
0.69539
 20
-7.13387
 30
0.0
 10
0.73334
 20
-7.09323
 30
0.0
 10
0.73334
 20
-7.09323
 30
0.0
 10
0.7713
 20
-7.05244
 30
0.0
 10
0.82055
 20
-7.03212
 30
0.0
 10
0.88109
 20
-7.03212
 30
0.0
 10
0.88109
 20
-7.03212
 30
0.0
 10
0.93965
 20
-7.03212
 30
0.0
 10
0.98749
 20
-7.05202
 30
0.0
 10
1.0246
 20
-7.09196
 30
0.0
 10
1.0246
 20
-7.09196
 30
0.0
 10
1.06171
 20
-7.13189
 30
0.0
 10
1.08034
 20
-7.18805
 30
0.0
 10
1.08034
 20
-7.26044
 30
0.0
 10
1.08034
 20
-7.26044
 30
0.0
 10
1.08034
 20
-7.26482
 30
0.0
 10
1.0802
 20
-7.27145
 30
0.0
 10
1.07992
 20
-7.2802
 30
0.0
 10
1.07992
 20
-7.2802
 30
0.0
 10
1.07992
 20
-7.2802
 30
0.0
 10
0.75268
 20
-7.2802
 30
0.0
 10
0.75268
 20
-7.2802
 30
0.0
 10
0.75268
 20
-7.2802
 30
0.0
 10
0.7555
 20
-7.32832
 30
0.0
 10
0.76905
 20
-7.36529
 30
0.0
 10
0.7936
 20
-7.39083
 30
0.0
 10
0.7936
 20
-7.39083
 30
0.0
 10
0.81801
 20
-7.41637
 30
0.0
 10
0.84863
 20
-7.42921
 30
0.0
 10
0.88518
 20
-7.42921
 30
0.0
 10
0.88518
 20
-7.42921
 30
0.0
 10
0.91242
 20
-7.42921
 30
0.0
 10
0.9357
 20
-7.42202
 30
0.0
 10
0.95489
 20
-7.40762
 30
0.0
 10
0.95489
 20
-7.40762
 30
0.0
 10
0.97422
 20
-7.39323
 30
0.0
 10
0.98946
 20
-7.37023
 30
0.0
 10
1.00075
 20
-7.33862
 30
0.0
  0
SPLINE
  5
4F
330
1F
100
AcDbEntity
  8
Layer 1
 62
   250
100
AcDbSpline
210
0.0
220
0.0
230
1.0
 70
    11
 71
     3
 72
    24
 73
    20
 74
     0
 42
0.0000000001
 43
0.0000000001
 12
1.0
 22
0.0
 32
0.0
 13
1.0
 23
0.0
 33
0.0
 40
0.0
 40
0.0
 40
0.0
 40
0.0
 40
0.1666666666666667
 40
0.1666666666666667
 40
0.1666666666666667
 40
0.1666666666666667
 40
0.3333333333333333
 40
0.3333333333333333
 40
0.3333333333333333
 40
0.3333333333333333
 40
0.5
 40
0.5
 40
0.5
 40
0.5
 40
0.6666666666666666
 40
0.6666666666666666
 40
0.6666666666666666
 40
0.6666666666666666
 40
1.0
 40
1.0
 40
1.0
 40
1.0
 10
0.75691
 20
-7.21924
 30
0.0
 10
0.75691
 20
-7.21924
 30
0.0
 10
1.0016
 20
-7.21924
 30
0.0
 10
1.0016
 20
-7.21924
 30
0.0
 10
1.0016
 20
-7.21924
 30
0.0
 10
0.99835
 20
-7.18227
 30
0.0
 10
0.9889
 20
-7.15461
 30
0.0
 10
0.97352
 20
-7.13612
 30
0.0
 10
0.97352
 20
-7.13612
 30
0.0
 10
0.94995
 20
-7.10748
 30
0.0
 10
0.91919
 20
-7.09309
 30
0.0
 10
0.88151
 20
-7.09309
 30
0.0
 10
0.88151
 20
-7.09309
 30
0.0
 10
0.84736
 20
-7.09309
 30
0.0
 10
0.81872
 20
-7.10452
 30
0.0
 10
0.79543
 20
-7.12738
 30
0.0
 10
0.79543
 20
-7.12738
 30
0.0
 10
0.77229
 20
-7.15024
 30
0.0
 10
0.75945
 20
-7.18086
 30
0.0
 10
0.75691
 20
-7.21924
 30
0.0
  0
SPLINE
  5
50
330
1F
100
AcDbEntity
  8
Layer 1
 62
   250
100
AcDbSpline
210
0.0
220
0.0
230
1.0
 70
    11
 71
     3
 72
   116
 73
   112
 74
     0
 42
0.0000000001
 43
0.0000000001
 12
1.0
 22
0.0
 32
0.0
 13
1.0
 23
0.0
 33
0.0
 40
0.0
 40
0.0
 40
0.0
 40
0.0
 40
0.0344827586206897
 40
0.0344827586206897
 40
0.0344827586206897
 40
0.0344827586206897
 40
0.0689655172413793
 40
0.0689655172413793
 40
0.0689655172413793
 40
0.0689655172413793
 40
0.103448275862069
 40
0.103448275862069
 40
0.103448275862069
 40
0.103448275862069
 40
0.1379310344827586
 40
0.1379310344827586
 40
0.1379310344827586
 40
0.1379310344827586
 40
0.1724137931034483
 40
0.1724137931034483
 40
0.1724137931034483
 40
0.1724137931034483
 40
0.2068965517241379
 40
0.2068965517241379
 40
0.2068965517241379
 40
0.2068965517241379
 40
0.2413793103448276
 40
0.2413793103448276
 40
0.2413793103448276
 40
0.2413793103448276
 40
0.2758620689655172
 40
0.2758620689655172
 40
0.2758620689655172
 40
0.2758620689655172
 40
0.3103448275862069
 40
0.3103448275862069
 40
0.3103448275862069
 40
0.3103448275862069
 40
0.3448275862068966
 40
0.3448275862068966
 40
0.3448275862068966
 40
0.3448275862068966
 40
0.3793103448275862
 40
0.3793103448275862
 40
0.3793103448275862
 40
0.3793103448275862
 40
0.4137931034482759
 40
0.4137931034482759
 40
0.4137931034482759
 40
0.4137931034482759
 40
0.4482758620689655
 40
0.4482758620689655
 40
0.4482758620689655
 40
0.4482758620689655
 40
0.4827586206896552
 40
0.4827586206896552
 40
0.4827586206896552
 40
0.4827586206896552
 40
0.5172413793103449
 40
0.5172413793103449
 40
0.5172413793103449
 40
0.5172413793103449
 40
0.5517241379310345
 40
0.5517241379310345
 40
0.5517241379310345
 40
0.5517241379310345
 40
0.5862068965517241
 40
0.5862068965517241
 40
0.5862068965517241
 40
0.5862068965517241
 40
0.6206896551724138
 40
0.6206896551724138
 40
0.6206896551724138
 40
0.6206896551724138
 40
0.6551724137931034
 40
0.6551724137931034
 40
0.6551724137931034
 40
0.6551724137931034
 40
0.6896551724137931
 40
0.6896551724137931
 40
0.6896551724137931
 40
0.6896551724137931
 40
0.7241379310344828
 40
0.7241379310344828
 40
0.7241379310344828
 40
0.7241379310344828
 40
0.7586206896551724
 40
0.7586206896551724
 40
0.7586206896551724
 40
0.7586206896551724
 40
0.7931034482758621
 40
0.7931034482758621
 40
0.7931034482758621
 40
0.7931034482758621
 40
0.8275862068965517
 40
0.8275862068965517
 40
0.8275862068965517
 40
0.8275862068965517
 40
0.8620689655172413
 40
0.8620689655172413
 40
0.8620689655172413
 40
0.8620689655172413
 40
0.896551724137931
 40
0.896551724137931
 40
0.896551724137931
 40
0.896551724137931
 40
0.9310344827586207
 40
0.9310344827586207
 40
0.9310344827586207
 40
0.9310344827586207
 40
1.0
 40
1.0
 40
1.0
 40
1.0
 10
1.17192
 20
-7.48086
 30
0.0
 10
1.17192
 20
-7.48086
 30
0.0
 10
1.17192
 20
-7.04144
 30
0.0
 10
1.17192
 20
-7.04144
 30
0.0
 10
1.17192
 20
-7.04144
 30
0.0
 10
1.17192
 20
-7.04144
 30
0.0
 10
1.23881
 20
-7.04144
 30
0.0
 10
1.23881
 20
-7.04144
 30
0.0
 10
1.23881
 20
-7.04144
 30
0.0
 10
1.23881
 20
-7.04144
 30
0.0
 10
1.23881
 20
-7.10353
 30
0.0
 10
1.23881
 20
-7.10353
 30
0.0
 10
1.23881
 20
-7.10353
 30
0.0
 10
1.25249
 20
-7.08208
 30
0.0
 10
1.27084
 20
-7.06472
 30
0.0
 10
1.2937
 20
-7.05174
 30
0.0
 10
1.2937
 20
-7.05174
 30
0.0
 10
1.31656
 20
-7.03862
 30
0.0
 10
1.34252
 20
-7.03212
 30
0.0
 10
1.37173
 20
-7.03212
 30
0.0
 10
1.37173
 20
-7.03212
 30
0.0
 10
1.40419
 20
-7.03212
 30
0.0
 10
1.43086
 20
-7.0389
 30
0.0
 10
1.4516
 20
-7.0523
 30
0.0
 10
1.4516
 20
-7.0523
 30
0.0
 10
1.47235
 20
-7.06585
 30
0.0
 10
1.48702
 20
-7.08462
 30
0.0
 10
1.49549
 20
-7.10889
 30
0.0
 10
1.49549
 20
-7.10889
 30
0.0
 10
1.53048
 20
-7.05767
 30
0.0
 10
1.57578
 20
-7.03212
 30
0.0
 10
1.63166
 20
-7.03212
 30
0.0
 10
1.63166
 20
-7.03212
 30
0.0
 10
1.67541
 20
-7.03212
 30
0.0
 10
1.70913
 20
-7.04412
 30
0.0
 10
1.73256
 20
-7.06825
 30
0.0
 10
1.73256
 20
-7.06825
 30
0.0
 10
1.75612
 20
-7.09238
 30
0.0
 10
1.76798
 20
-7.12949
 30
0.0
 10
1.76798
 20
-7.17959
 30
0.0
 10
1.76798
 20
-7.17959
 30
0.0
 10
1.76798
 20
-7.17959
 30
0.0
 10
1.76798
 20
-7.48086
 30
0.0
 10
1.76798
 20
-7.48086
 30
0.0
 10
1.76798
 20
-7.48086
 30
0.0
 10
1.76798
 20
-7.48086
 30
0.0
 10
1.69347
 20
-7.48086
 30
0.0
 10
1.69347
 20
-7.48086
 30
0.0
 10
1.69347
 20
-7.48086
 30
0.0
 10
1.69347
 20
-7.48086
 30
0.0
 10
1.69347
 20
-7.20428
 30
0.0
 10
1.69347
 20
-7.20428
 30
0.0
 10
1.69347
 20
-7.20428
 30
0.0
 10
1.69347
 20
-7.17465
 30
0.0
 10
1.69093
 20
-7.1532
 30
0.0
 10
1.68613
 20
-7.14008
 30
0.0
 10
1.68613
 20
-7.14008
 30
0.0
 10
1.68133
 20
-7.12695
 30
0.0
 10
1.67258
 20
-7.11651
 30
0.0
 10
1.65974
 20
-7.10847
 30
0.0
 10
1.65974
 20
-7.10847
 30
0.0
 10
1.64704
 20
-7.10042
 30
0.0
 10
1.63209
 20
-7.09647
 30
0.0
 10
1.61501
 20
-7.09647
 30
0.0
 10
1.61501
 20
-7.09647
 30
0.0
 10
1.58397
 20
-7.09647
 30
0.0
 10
1.55828
 20
-7.10677
 30
0.0
 10
1.53782
 20
-7.12723
 30
0.0
 10
1.53782
 20
-7.12723
 30
0.0
 10
1.51736
 20
-7.14784
 30
0.0
 10
1.5072
 20
-7.18072
 30
0.0
 10
1.5072
 20
-7.22587
 30
0.0
 10
1.5072
 20
-7.22587
 30
0.0
 10
1.5072
 20
-7.22587
 30
0.0
 10
1.5072
 20
-7.48086
 30
0.0
 10
1.5072
 20
-7.48086
 30
0.0
 10
1.5072
 20
-7.48086
 30
0.0
 10
1.5072
 20
-7.48086
 30
0.0
 10
1.43269
 20
-7.48086
 30
0.0
 10
1.43269
 20
-7.48086
 30
0.0
 10
1.43269
 20
-7.48086
 30
0.0
 10
1.43269
 20
-7.48086
 30
0.0
 10
1.43269
 20
-7.19567
 30
0.0
 10
1.43269
 20
-7.19567
 30
0.0
 10
1.43269
 20
-7.19567
 30
0.0
 10
1.43269
 20
-7.16265
 30
0.0
 10
1.42663
 20
-7.13782
 30
0.0
 10
1.41449
 20
-7.12131
 30
0.0
 10
1.41449
 20
-7.12131
 30
0.0
 10
1.40236
 20
-7.1048
 30
0.0
 10
1.38246
 20
-7.09647
 30
0.0
 10
1.35494
 20
-7.09647
 30
0.0
 10
1.35494
 20
-7.09647
 30
0.0
 10
1.33406
 20
-7.09647
 30
0.0
 10
1.31473
 20
-7.10198
 30
0.0
 10
1.29695
 20
-7.11298
 30
0.0
 10
1.29695
 20
-7.11298
 30
0.0
 10
1.27917
 20
-7.12399
 30
0.0
 10
1.26632
 20
-7.14008
 30
0.0
 10
1.25828
 20
-7.16138
 30
0.0
 10
1.25828
 20
-7.16138
 30
0.0
 10
1.25038
 20
-7.18255
 30
0.0
 10
1.24643
 20
-7.21317
 30
0.0
 10
1.24643
 20
-7.25311
 30
0.0
 10
1.24643
 20
-7.25311
 30
0.0
 10
1.24643
 20
-7.25311
 30
0.0
 10
1.24643
 20
-7.48086
 30
0.0
 10
1.24643
 20
-7.48086
 30
0.0
 10
1.24643
 20
-7.48086
 30
0.0
 10
1.24643
 20
-7.48086
 30
0.0
 10
1.17192
 20
-7.48086
 30
0.0
 10
1.17192
 20
-7.48086
 30
0.0
  0
SPLINE
  5
51
330
1F
100
AcDbEntity
  8
Layer 1
 62
   250
100
AcDbSpline
210
0.0
220
0.0
230
1.0
 70
    11
 71
     3
 72
    64
 73
    60
 74
     0
 42
0.0000000001
 43
0.0000000001
 12
1.0
 22
0.0
 32
0.0
 13
1.0
 23
0.0
 33
0.0
 40
0.0
 40
0.0
 40
0.0
 40
0.0
 40
0.0625
 40
0.0625
 40
0.0625
 40
0.0625
 40
0.125
 40
0.125
 40
0.125
 40
0.125
 40
0.1875
 40
0.1875
 40
0.1875
 40
0.1875
 40
0.25
 40
0.25
 40
0.25
 40
0.25
 40
0.3125
 40
0.3125
 40
0.3125
 40
0.3125
 40
0.375
 40
0.375
 40
0.375
 40
0.375
 40
0.4375
 40
0.4375
 40
0.4375
 40
0.4375
 40
0.5
 40
0.5
 40
0.5
 40
0.5
 40
0.5625
 40
0.5625
 40
0.5625
 40
0.5625
 40
0.625
 40
0.625
 40
0.625
 40
0.625
 40
0.6875
 40
0.6875
 40
0.6875
 40
0.6875
 40
0.75
 40
0.75
 40
0.75
 40
0.75
 40
0.8125
 40
0.8125
 40
0.8125
 40
0.8125
 40
0.875
 40
0.875
 40
0.875
 40
0.875
 40
1.0
 40
1.0
 40
1.0
 40
1.0
 10
1.8772
 20
-7.64935
 30
0.0
 10
1.8772
 20
-7.64935
 30
0.0
 10
1.8772
 20
-7.04144
 30
0.0
 10
1.8772
 20
-7.04144
 30
0.0
 10
1.8772
 20
-7.04144
 30
0.0
 10
1.8772
 20
-7.04144
 30
0.0
 10
1.94493
 20
-7.04144
 30
0.0
 10
1.94493
 20
-7.04144
 30
0.0
 10
1.94493
 20
-7.04144
 30
0.0
 10
1.94493
 20
-7.04144
 30
0.0
 10
1.94493
 20
-7.09915
 30
0.0
 10
1.94493
 20
-7.09915
 30
0.0
 10
1.94493
 20
-7.09915
 30
0.0
 10
1.96088
 20
-7.07686
 30
0.0
 10
1.97894
 20
-7.06007
 30
0.0
 10
1.99912
 20
-7.04892
 30
0.0
 10
1.99912
 20
-7.04892
 30
0.0
 10
2.01916
 20
-7.03777
 30
0.0
 10
2.04357
 20
-7.03212
 30
0.0
 10
2.07222
 20
-7.03212
 30
0.0
 10
2.07222
 20
-7.03212
 30
0.0
 10
2.10975
 20
-7.03212
 30
0.0
 10
2.14277
 20
-7.04172
 30
0.0
 10
2.17142
 20
-7.06105
 30
0.0
 10
2.17142
 20
-7.06105
 30
0.0
 10
2.20006
 20
-7.08024
 30
0.0
 10
2.22165
 20
-7.10748
 30
0.0
 10
2.23633
 20
-7.14247
 30
0.0
 10
2.23633
 20
-7.14247
 30
0.0
 10
2.25086
 20
-7.17761
 30
0.0
 10
2.2582
 20
-7.21599
 30
0.0
 10
2.2582
 20
-7.2579
 30
0.0
 10
2.2582
 20
-7.2579
 30
0.0
 10
2.2582
 20
-7.30264
 30
0.0
 10
2.25016
 20
-7.34299
 30
0.0
 10
2.23407
 20
-7.37898
 30
0.0
 10
2.23407
 20
-7.37898
 30
0.0
 10
2.21798
 20
-7.41482
 30
0.0
 10
2.19456
 20
-7.44234
 30
0.0
 10
2.1638
 20
-7.46153
 30
0.0
 10
2.1638
 20
-7.46153
 30
0.0
 10
2.13318
 20
-7.48058
 30
0.0
 10
2.10086
 20
-7.49017
 30
0.0
 10
2.067
 20
-7.49017
 30
0.0
 10
2.067
 20
-7.49017
 30
0.0
 10
2.04216
 20
-7.49017
 30
0.0
 10
2.01986
 20
-7.48495
 30
0.0
 10
2.00025
 20
-7.47451
 30
0.0
 10
2.00025
 20
-7.47451
 30
0.0
 10
1.98049
 20
-7.46407
 30
0.0
 10
1.96441
 20
-7.45094
 30
0.0
 10
1.95171
 20
-7.435
 30
0.0
 10
1.95171
 20
-7.435
 30
0.0
 10
1.95171
 20
-7.435
 30
0.0
 10
1.95171
 20
-7.64935
 30
0.0
 10
1.95171
 20
-7.64935
 30
0.0
 10
1.95171
 20
-7.64935
 30
0.0
 10
1.95171
 20
-7.64935
 30
0.0
 10
1.8772
 20
-7.64935
 30
0.0
 10
1.8772
 20
-7.64935
 30
0.0
  0
SPLINE
  5
52
330
1F
100
AcDbEntity
  8
Layer 1
 62
   250
100
AcDbSpline
210
0.0
220
0.0
230
1.0
 70
    11
 71
     3
 72
    36
 73
    32
 74
     0
 42
0.0000000001
 43
0.0000000001
 12
1.0
 22
0.0
 32
0.0
 13
1.0
 23
0.0
 33
0.0
 40
0.0
 40
0.0
 40
0.0
 40
0.0
 40
0.1111111111111111
 40
0.1111111111111111
 40
0.1111111111111111
 40
0.1111111111111111
 40
0.2222222222222222
 40
0.2222222222222222
 40
0.2222222222222222
 40
0.2222222222222222
 40
0.3333333333333333
 40
0.3333333333333333
 40
0.3333333333333333
 40
0.3333333333333333
 40
0.4444444444444444
 40
0.4444444444444444
 40
0.4444444444444444
 40
0.4444444444444444
 40
0.5555555555555556
 40
0.5555555555555556
 40
0.5555555555555556
 40
0.5555555555555556
 40
0.6666666666666666
 40
0.6666666666666666
 40
0.6666666666666666
 40
0.6666666666666666
 40
0.7777777777777778
 40
0.7777777777777778
 40
0.7777777777777778
 40
0.7777777777777778
 40
1.0
 40
1.0
 40
1.0
 40
1.0
 10
1.94493
 20
-7.26383
 30
0.0
 10
1.94493
 20
-7.32013
 30
0.0
 10
1.95636
 20
-7.36176
 30
0.0
 10
1.97908
 20
-7.38871
 30
0.0
 10
1.97908
 20
-7.38871
 30
0.0
 10
2.00194
 20
-7.41567
 30
0.0
 10
2.0296
 20
-7.42921
 30
0.0
 10
2.06206
 20
-7.42921
 30
0.0
 10
2.06206
 20
-7.42921
 30
0.0
 10
2.09508
 20
-7.42921
 30
0.0
 10
2.1233
 20
-7.41524
 30
0.0
 10
2.14672
 20
-7.3873
 30
0.0
 10
2.14672
 20
-7.3873
 30
0.0
 10
2.17029
 20
-7.35936
 30
0.0
 10
2.182
 20
-7.31618
 30
0.0
 10
2.182
 20
-7.25762
 30
0.0
 10
2.182
 20
-7.25762
 30
0.0
 10
2.182
 20
-7.20174
 30
0.0
 10
2.17057
 20
-7.15997
 30
0.0
 10
2.14757
 20
-7.13217
 30
0.0
 10
2.14757
 20
-7.13217
 30
0.0
 10
2.12457
 20
-7.10437
 30
0.0
 10
2.09719
 20
-7.09055
 30
0.0
 10
2.0653
 20
-7.09055
 30
0.0
 10
2.0653
 20
-7.09055
 30
0.0
 10
2.03369
 20
-7.09055
 30
0.0
 10
2.00575
 20
-7.10536
 30
0.0
 10
1.98148
 20
-7.13485
 30
0.0
 10
1.98148
 20
-7.13485
 30
0.0
 10
1.95707
 20
-7.16449
 30
0.0
 10
1.94493
 20
-7.20739
 30
0.0
 10
1.94493
 20
-7.26383
 30
0.0
  0
SPLINE
  5
53
330
1F
100
AcDbEntity
  8
Layer 1
 62
   250
100
AcDbSpline
210
0.0
220
0.0
230
1.0
 70
    11
 71
     3
 72
    20
 73
    16
 74
     0
 42
0.0000000001
 43
0.0000000001
 12
1.0
 22
0.0
 32
0.0
 13
1.0
 23
0.0
 33
0.0
 40
0.0
 40
0.0
 40
0.0
 40
0.0
 40
0.2
 40
0.2
 40
0.2
 40
0.2
 40
0.4
 40
0.4
 40
0.4
 40
0.4
 40
0.6
 40
0.6
 40
0.6
 40
0.6
 40
1.0
 40
1.0
 40
1.0
 40
1.0
 10
2.3464
 20
-7.48086
 30
0.0
 10
2.3464
 20
-7.48086
 30
0.0
 10
2.3464
 20
-6.87464
 30
0.0
 10
2.3464
 20
-6.87464
 30
0.0
 10
2.3464
 20
-6.87464
 30
0.0
 10
2.3464
 20
-6.87464
 30
0.0
 10
2.4209
 20
-6.87464
 30
0.0
 10
2.4209
 20
-6.87464
 30
0.0
 10
2.4209
 20
-6.87464
 30
0.0
 10
2.4209
 20
-6.87464
 30
0.0
 10
2.4209
 20
-7.48086
 30
0.0
 10
2.4209
 20
-7.48086
 30
0.0
 10
2.4209
 20
-7.48086
 30
0.0
 10
2.4209
 20
-7.48086
 30
0.0
 10
2.3464
 20
-7.48086
 30
0.0
 10
2.3464
 20
-7.48086
 30
0.0
  0
SPLINE
  5
54
330
1F
100
AcDbEntity
  8
Layer 1
 62
   250
100
AcDbSpline
210
0.0
220
0.0
230
1.0
 70
    11
 71
     3
 72
   112
 73
   108
 74
     0
 42
0.0000000001
 43
0.0000000001
 12
1.0
 22
0.0
 32
0.0
 13
1.0
 23
0.0
 33
0.0
 40
0.0
 40
0.0
 40
0.0
 40
0.0
 40
0.0357142857142857
 40
0.0357142857142857
 40
0.0357142857142857
 40
0.0357142857142857
 40
0.0714285714285714
 40
0.0714285714285714
 40
0.0714285714285714
 40
0.0714285714285714
 40
0.1071428571428571
 40
0.1071428571428571
 40
0.1071428571428571
 40
0.1071428571428571
 40
0.1428571428571428
 40
0.1428571428571428
 40
0.1428571428571428
 40
0.1428571428571428
 40
0.1785714285714286
 40
0.1785714285714286
 40
0.1785714285714286
 40
0.1785714285714286
 40
0.2142857142857143
 40
0.2142857142857143
 40
0.2142857142857143
 40
0.2142857142857143
 40
0.25
 40
0.25
 40
0.25
 40
0.25
 40
0.2857142857142857
 40
0.2857142857142857
 40
0.2857142857142857
 40
0.2857142857142857
 40
0.3214285714285715
 40
0.3214285714285715
 40
0.3214285714285715
 40
0.3214285714285715
 40
0.3571428571428572
 40
0.3571428571428572
 40
0.3571428571428572
 40
0.3571428571428572
 40
0.3928571428571428
 40
0.3928571428571428
 40
0.3928571428571428
 40
0.3928571428571428
 40
0.4285714285714285
 40
0.4285714285714285
 40
0.4285714285714285
 40
0.4285714285714285
 40
0.4642857142857143
 40
0.4642857142857143
 40
0.4642857142857143
 40
0.4642857142857143
 40
0.5
 40
0.5
 40
0.5
 40
0.5
 40
0.5357142857142857
 40
0.5357142857142857
 40
0.5357142857142857
 40
0.5357142857142857
 40
0.5714285714285714
 40
0.5714285714285714
 40
0.5714285714285714
 40
0.5714285714285714
 40
0.6071428571428571
 40
0.6071428571428571
 40
0.6071428571428571
 40
0.6071428571428571
 40
0.6428571428571429
 40
0.6428571428571429
 40
0.6428571428571429
 40
0.6428571428571429
 40
0.6785714285714286
 40
0.6785714285714286
 40
0.6785714285714286
 40
0.6785714285714286
 40
0.7142857142857143
 40
0.7142857142857143
 40
0.7142857142857143
 40
0.7142857142857143
 40
0.75
 40
0.75
 40
0.75
 40
0.75
 40
0.7857142857142857
 40
0.7857142857142857
 40
0.7857142857142857
 40
0.7857142857142857
 40
0.8214285714285714
 40
0.8214285714285714
 40
0.8214285714285714
 40
0.8214285714285714
 40
0.8571428571428571
 40
0.8571428571428571
 40
0.8571428571428571
 40
0.8571428571428571
 40
0.8928571428571429
 40
0.8928571428571429
 40
0.8928571428571429
 40
0.8928571428571429
 40
0.9285714285714286
 40
0.9285714285714286
 40
0.9285714285714286
 40
0.9285714285714286
 40
1.0
 40
1.0
 40
1.0
 40
1.0
 10
2.82321
 20
-7.42583
 30
0.0
 10
2.79555
 20
-7.44939
 30
0.0
 10
2.76888
 20
-7.4659
 30
0.0
 10
2.74334
 20
-7.47564
 30
0.0
 10
2.74334
 20
-7.47564
 30
0.0
 10
2.7178
 20
-7.48538
 30
0.0
 10
2.69043
 20
-7.49017
 30
0.0
 10
2.66107
 20
-7.49017
 30
0.0
 10
2.66107
 20
-7.49017
 30
0.0
 10
2.61281
 20
-7.49017
 30
0.0
 10
2.5757
 20
-7.47846
 30
0.0
 10
2.54974
 20
-7.4549
 30
0.0
 10
2.54974
 20
-7.4549
 30
0.0
 10
2.52377
 20
-7.43147
 30
0.0
 10
2.51079
 20
-7.40141
 30
0.0
 10
2.51079
 20
-7.36487
 30
0.0
 10
2.51079
 20
-7.36487
 30
0.0
 10
2.51079
 20
-7.34342
 30
0.0
 10
2.51573
 20
-7.3238
 30
0.0
 10
2.52547
 20
-7.30602
 30
0.0
 10
2.52547
 20
-7.30602
 30
0.0
 10
2.53534
 20
-7.28824
 30
0.0
 10
2.54818
 20
-7.27413
 30
0.0
 10
2.56399
 20
-7.26341
 30
0.0
 10
2.56399
 20
-7.26341
 30
0.0
 10
2.57993
 20
-7.25268
 30
0.0
 10
2.59771
 20
-7.2445
 30
0.0
 10
2.61761
 20
-7.23899
 30
0.0
 10
2.61761
 20
-7.23899
 30
0.0
 10
2.63229
 20
-7.23518
 30
0.0
 10
2.65444
 20
-7.23152
 30
0.0
 10
2.68393
 20
-7.22785
 30
0.0
 10
2.68393
 20
-7.22785
 30
0.0
 10
2.74405
 20
-7.22079
 30
0.0
 10
2.7885
 20
-7.21218
 30
0.0
 10
2.81686
 20
-7.20231
 30
0.0
 10
2.81686
 20
-7.20231
 30
0.0
 10
2.81714
 20
-7.19215
 30
0.0
 10
2.81728
 20
-7.18565
 30
0.0
 10
2.81728
 20
-7.18297
 30
0.0
 10
2.81728
 20
-7.18297
 30
0.0
 10
2.81728
 20
-7.15278
 30
0.0
 10
2.81023
 20
-7.13147
 30
0.0
 10
2.79612
 20
-7.11905
 30
0.0
 10
2.79612
 20
-7.11905
 30
0.0
 10
2.77707
 20
-7.10226
 30
0.0
 10
2.7487
 20
-7.09393
 30
0.0
 10
2.71117
 20
-7.09393
 30
0.0
 10
2.71117
 20
-7.09393
 30
0.0
 10
2.67603
 20
-7.09393
 30
0.0
 10
2.65007
 20
-7.10014
 30
0.0
 10
2.63342
 20
-7.11242
 30
0.0
 10
2.63342
 20
-7.11242
 30
0.0
 10
2.61662
 20
-7.12469
 30
0.0
 10
2.60435
 20
-7.14643
 30
0.0
 10
2.5963
 20
-7.17775
 30
0.0
 10
2.5963
 20
-7.17775
 30
0.0
 10
2.5963
 20
-7.17775
 30
0.0
 10
2.52349
 20
-7.16759
 30
0.0
 10
2.52349
 20
-7.16759
 30
0.0
 10
2.52349
 20
-7.16759
 30
0.0
 10
2.53012
 20
-7.13641
 30
0.0
 10
2.54099
 20
-7.11115
 30
0.0
 10
2.55623
 20
-7.09196
 30
0.0
 10
2.55623
 20
-7.09196
 30
0.0
 10
2.57147
 20
-7.07277
 30
0.0
 10
2.59348
 20
-7.05809
 30
0.0
 10
2.62227
 20
-7.04765
 30
0.0
 10
2.62227
 20
-7.04765
 30
0.0
 10
2.65091
 20
-7.03735
 30
0.0
 10
2.68436
 20
-7.03212
 30
0.0
 10
2.72218
 20
-7.03212
 30
0.0
 10
2.72218
 20
-7.03212
 30
0.0
 10
2.75971
 20
-7.03212
 30
0.0
 10
2.79033
 20
-7.0365
 30
0.0
 10
2.8139
 20
-7.04539
 30
0.0
 10
2.8139
 20
-7.04539
 30
0.0
 10
2.83732
 20
-7.05428
 30
0.0
 10
2.85468
 20
-7.06529
 30
0.0
 10
2.86569
 20
-7.07869
 30
0.0
 10
2.86569
 20
-7.07869
 30
0.0
 10
2.87669
 20
-7.0921
 30
0.0
 10
2.88445
 20
-7.10903
 30
0.0
 10
2.88897
 20
-7.12949
 30
0.0
 10
2.88897
 20
-7.12949
 30
0.0
 10
2.89137
 20
-7.14219
 30
0.0
 10
2.89264
 20
-7.16505
 30
0.0
 10
2.89264
 20
-7.19793
 30
0.0
 10
2.89264
 20
-7.19793
 30
0.0
 10
2.89264
 20
-7.19793
 30
0.0
 10
2.89264
 20
-7.29671
 30
0.0
 10
2.89264
 20
-7.29671
 30
0.0
 10
2.89264
 20
-7.29671
 30
0.0
 10
2.89264
 20
-7.36571
 30
0.0
 10
2.89419
 20
-7.40932
 30
0.0
 10
2.89729
 20
-7.4278
 30
0.0
 10
2.89729
 20
-7.4278
 30
0.0
 10
2.90026
 20
-7.44629
 30
0.0
 10
2.90647
 20
-7.46393
 30
0.0
 10
2.9155
 20
-7.48086
 30
0.0
 10
2.9155
 20
-7.48086
 30
0.0
 10
2.9155
 20
-7.48086
 30
0.0
 10
2.8376
 20
-7.48086
 30
0.0
 10
2.8376
 20
-7.48086
 30
0.0
 10
2.8376
 20
-7.48086
 30
0.0
 10
2.83013
 20
-7.4652
 30
0.0
 10
2.82533
 20
-7.44685
 30
0.0
 10
2.82321
 20
-7.42583
 30
0.0
  0
SPLINE
  5
55
330
1F
100
AcDbEntity
  8
Layer 1
 62
   250
100
AcDbSpline
210
0.0
220
0.0
230
1.0
 70
    11
 71
     3
 72
    44
 73
    40
 74
     0
 42
0.0000000001
 43
0.0000000001
 12
1.0
 22
0.0
 32
0.0
 13
1.0
 23
0.0
 33
0.0
 40
0.0
 40
0.0
 40
0.0
 40
0.0
 40
0.0909090909090909
 40
0.0909090909090909
 40
0.0909090909090909
 40
0.0909090909090909
 40
0.1818181818181818
 40
0.1818181818181818
 40
0.1818181818181818
 40
0.1818181818181818
 40
0.2727272727272727
 40
0.2727272727272727
 40
0.2727272727272727
 40
0.2727272727272727
 40
0.3636363636363636
 40
0.3636363636363636
 40
0.3636363636363636
 40
0.3636363636363636
 40
0.4545454545454545
 40
0.4545454545454545
 40
0.4545454545454545
 40
0.4545454545454545
 40
0.5454545454545454
 40
0.5454545454545454
 40
0.5454545454545454
 40
0.5454545454545454
 40
0.6363636363636364
 40
0.6363636363636364
 40
0.6363636363636364
 40
0.6363636363636364
 40
0.7272727272727273
 40
0.7272727272727273
 40
0.7272727272727273
 40
0.7272727272727273
 40
0.8181818181818182
 40
0.8181818181818182
 40
0.8181818181818182
 40
0.8181818181818182
 40
1.0
 40
1.0
 40
1.0
 40
1.0
 10
2.81728
 20
-7.26073
 30
0.0
 10
2.79019
 20
-7.27173
 30
0.0
 10
2.74955
 20
-7.28105
 30
0.0
 10
2.69536
 20
-7.28867
 30
0.0
 10
2.69536
 20
-7.28867
 30
0.0
 10
2.6646
 20
-7.29304
 30
0.0
 10
2.64287
 20
-7.29798
 30
0.0
 10
2.63017
 20
-7.30348
 30
0.0
 10
2.63017
 20
-7.30348
 30
0.0
 10
2.61747
 20
-7.30899
 30
0.0
 10
2.60773
 20
-7.31703
 30
0.0
 10
2.60082
 20
-7.32747
 30
0.0
 10
2.60082
 20
-7.32747
 30
0.0
 10
2.5939
 20
-7.33805
 30
0.0
 10
2.59038
 20
-7.34977
 30
0.0
 10
2.59038
 20
-7.36275
 30
0.0
 10
2.59038
 20
-7.36275
 30
0.0
 10
2.59038
 20
-7.38236
 30
0.0
 10
2.59786
 20
-7.39887
 30
0.0
 10
2.61295
 20
-7.412
 30
0.0
 10
2.61295
 20
-7.412
 30
0.0
 10
2.62805
 20
-7.42512
 30
0.0
 10
2.65007
 20
-7.43175
 30
0.0
 10
2.679
 20
-7.43175
 30
0.0
 10
2.679
 20
-7.43175
 30
0.0
 10
2.70764
 20
-7.43175
 30
0.0
 10
2.73318
 20
-7.42554
 30
0.0
 10
2.75562
 20
-7.41299
 30
0.0
 10
2.75562
 20
-7.41299
 30
0.0
 10
2.77791
 20
-7.40057
 30
0.0
 10
2.79442
 20
-7.38349
 30
0.0
 10
2.80487
 20
-7.3619
 30
0.0
 10
2.80487
 20
-7.3619
 30
0.0
 10
2.81291
 20
-7.34511
 30
0.0
 10
2.81686
 20
-7.32042
 30
0.0
 10
2.81686
 20
-7.28782
 30
0.0
 10
2.81686
 20
-7.28782
 30
0.0
 10
2.81686
 20
-7.28782
 30
0.0
 10
2.81728
 20
-7.26073
 30
0.0
 10
2.81728
 20
-7.26073
 30
0.0
  0
SPLINE
  5
56
330
1F
100
AcDbEntity
  8
Layer 1
 62
   250
100
AcDbSpline
210
0.0
220
0.0
230
1.0
 70
    11
 71
     3
 72
    84
 73
    80
 74
     0
 42
0.0000000001
 43
0.0000000001
 12
1.0
 22
0.0
 32
0.0
 13
1.0
 23
0.0
 33
0.0
 40
0.0
 40
0.0
 40
0.0
 40
0.0
 40
0.0476190476190476
 40
0.0476190476190476
 40
0.0476190476190476
 40
0.0476190476190476
 40
0.0952380952380952
 40
0.0952380952380952
 40
0.0952380952380952
 40
0.0952380952380952
 40
0.1428571428571428
 40
0.1428571428571428
 40
0.1428571428571428
 40
0.1428571428571428
 40
0.1904761904761905
 40
0.1904761904761905
 40
0.1904761904761905
 40
0.1904761904761905
 40
0.2380952380952381
 40
0.2380952380952381
 40
0.2380952380952381
 40
0.2380952380952381
 40
0.2857142857142857
 40
0.2857142857142857
 40
0.2857142857142857
 40
0.2857142857142857
 40
0.3333333333333333
 40
0.3333333333333333
 40
0.3333333333333333
 40
0.3333333333333333
 40
0.3809523809523809
 40
0.3809523809523809
 40
0.3809523809523809
 40
0.3809523809523809
 40
0.4285714285714285
 40
0.4285714285714285
 40
0.4285714285714285
 40
0.4285714285714285
 40
0.4761904761904762
 40
0.4761904761904762
 40
0.4761904761904762
 40
0.4761904761904762
 40
0.5238095238095238
 40
0.5238095238095238
 40
0.5238095238095238
 40
0.5238095238095238
 40
0.5714285714285714
 40
0.5714285714285714
 40
0.5714285714285714
 40
0.5714285714285714
 40
0.6190476190476191
 40
0.6190476190476191
 40
0.6190476190476191
 40
0.6190476190476191
 40
0.6666666666666666
 40
0.6666666666666666
 40
0.6666666666666666
 40
0.6666666666666666
 40
0.7142857142857143
 40
0.7142857142857143
 40
0.7142857142857143
 40
0.7142857142857143
 40
0.7619047619047619
 40
0.7619047619047619
 40
0.7619047619047619
 40
0.7619047619047619
 40
0.8095238095238095
 40
0.8095238095238095
 40
0.8095238095238095
 40
0.8095238095238095
 40
0.8571428571428571
 40
0.8571428571428571
 40
0.8571428571428571
 40
0.8571428571428571
 40
0.9047619047619048
 40
0.9047619047619048
 40
0.9047619047619048
 40
0.9047619047619048
 40
1.0
 40
1.0
 40
1.0
 40
1.0
 10
3.16879
 20
-7.4144
 30
0.0
 10
3.16879
 20
-7.4144
 30
0.0
 10
3.17895
 20
-7.48015
 30
0.0
 10
3.17895
 20
-7.48015
 30
0.0
 10
3.17895
 20
-7.48015
 30
0.0
 10
3.15807
 20
-7.48453
 30
0.0
 10
3.1393
 20
-7.48679
 30
0.0
 10
3.12293
 20
-7.48679
 30
0.0
 10
3.12293
 20
-7.48679
 30
0.0
 10
3.09598
 20
-7.48679
 30
0.0
 10
3.0751
 20
-7.48255
 30
0.0
 10
3.06014
 20
-7.47395
 30
0.0
 10
3.06014
 20
-7.47395
 30
0.0
 10
3.04532
 20
-7.46534
 30
0.0
 10
3.03488
 20
-7.45419
 30
0.0
 10
3.02881
 20
-7.44022
 30
0.0
 10
3.02881
 20
-7.44022
 30
0.0
 10
3.02274
 20
-7.42625
 30
0.0
 10
3.01978
 20
-7.3969
 30
0.0
 10
3.01978
 20
-7.35217
 30
0.0
 10
3.01978
 20
-7.35217
 30
0.0
 10
3.01978
 20
-7.35217
 30
0.0
 10
3.01978
 20
-7.09901
 30
0.0
 10
3.01978
 20
-7.09901
 30
0.0
 10
3.01978
 20
-7.09901
 30
0.0
 10
3.01978
 20
-7.09901
 30
0.0
 10
2.96475
 20
-7.09901
 30
0.0
 10
2.96475
 20
-7.09901
 30
0.0
 10
2.96475
 20
-7.09901
 30
0.0
 10
2.96475
 20
-7.09901
 30
0.0
 10
2.96475
 20
-7.04144
 30
0.0
 10
2.96475
 20
-7.04144
 30
0.0
 10
2.96475
 20
-7.04144
 30
0.0
 10
2.96475
 20
-7.04144
 30
0.0
 10
3.01978
 20
-7.04144
 30
0.0
 10
3.01978
 20
-7.04144
 30
0.0
 10
3.01978
 20
-7.04144
 30
0.0
 10
3.01978
 20
-7.04144
 30
0.0
 10
3.01978
 20
-6.93278
 30
0.0
 10
3.01978
 20
-6.93278
 30
0.0
 10
3.01978
 20
-6.93278
 30
0.0
 10
3.01978
 20
-6.93278
 30
0.0
 10
3.09429
 20
-6.88805
 30
0.0
 10
3.09429
 20
-6.88805
 30
0.0
 10
3.09429
 20
-6.88805
 30
0.0
 10
3.09429
 20
-6.88805
 30
0.0
 10
3.09429
 20
-7.04144
 30
0.0
 10
3.09429
 20
-7.04144
 30
0.0
 10
3.09429
 20
-7.04144
 30
0.0
 10
3.09429
 20
-7.04144
 30
0.0
 10
3.16879
 20
-7.04144
 30
0.0
 10
3.16879
 20
-7.04144
 30
0.0
 10
3.16879
 20
-7.04144
 30
0.0
 10
3.16879
 20
-7.04144
 30
0.0
 10
3.16879
 20
-7.09901
 30
0.0
 10
3.16879
 20
-7.09901
 30
0.0
 10
3.16879
 20
-7.09901
 30
0.0
 10
3.16879
 20
-7.09901
 30
0.0
 10
3.09429
 20
-7.09901
 30
0.0
 10
3.09429
 20
-7.09901
 30
0.0
 10
3.09429
 20
-7.09901
 30
0.0
 10
3.09429
 20
-7.09901
 30
0.0
 10
3.09429
 20
-7.3564
 30
0.0
 10
3.09429
 20
-7.3564
 30
0.0
 10
3.09429
 20
-7.3564
 30
0.0
 10
3.09429
 20
-7.37771
 30
0.0
 10
3.09556
 20
-7.3914
 30
0.0
 10
3.09824
 20
-7.39746
 30
0.0
 10
3.09824
 20
-7.39746
 30
0.0
 10
3.10078
 20
-7.40353
 30
0.0
 10
3.10501
 20
-7.40833
 30
0.0
 10
3.11094
 20
-7.412
 30
0.0
 10
3.11094
 20
-7.412
 30
0.0
 10
3.11687
 20
-7.41553
 30
0.0
 10
3.12533
 20
-7.41736
 30
0.0
 10
3.13634
 20
-7.41736
 30
0.0
 10
3.13634
 20
-7.41736
 30
0.0
 10
3.14452
 20
-7.41736
 30
0.0
 10
3.15539
 20
-7.41637
 30
0.0
 10
3.16879
 20
-7.4144
 30
0.0
  0
SPLINE
  5
57
330
1F
100
AcDbEntity
  8
Layer 1
 62
   250
100
AcDbSpline
210
0.0
220
0.0
230
1.0
 70
    11
 71
     3
 72
    64
 73
    60
 74
     0
 42
0.0000000001
 43
0.0000000001
 12
1.0
 22
0.0
 32
0.0
 13
1.0
 23
0.0
 33
0.0
 40
0.0
 40
0.0
 40
0.0
 40
0.0
 40
0.0625
 40
0.0625
 40
0.0625
 40
0.0625
 40
0.125
 40
0.125
 40
0.125
 40
0.125
 40
0.1875
 40
0.1875
 40
0.1875
 40
0.1875
 40
0.25
 40
0.25
 40
0.25
 40
0.25
 40
0.3125
 40
0.3125
 40
0.3125
 40
0.3125
 40
0.375
 40
0.375
 40
0.375
 40
0.375
 40
0.4375
 40
0.4375
 40
0.4375
 40
0.4375
 40
0.5
 40
0.5
 40
0.5
 40
0.5
 40
0.5625
 40
0.5625
 40
0.5625
 40
0.5625
 40
0.625
 40
0.625
 40
0.625
 40
0.625
 40
0.6875
 40
0.6875
 40
0.6875
 40
0.6875
 40
0.75
 40
0.75
 40
0.75
 40
0.75
 40
0.8125
 40
0.8125
 40
0.8125
 40
0.8125
 40
0.875
 40
0.875
 40
0.875
 40
0.875
 40
1.0
 40
1.0
 40
1.0
 40
1.0
 10
3.54203
 20
-7.33862
 30
0.0
 10
3.54203
 20
-7.33862
 30
0.0
 10
3.61908
 20
-7.34878
 30
0.0
 10
3.61908
 20
-7.34878
 30
0.0
 10
3.61908
 20
-7.34878
 30
0.0
 10
3.60708
 20
-7.39351
 30
0.0
 10
3.58465
 20
-7.42837
 30
0.0
 10
3.55191
 20
-7.45306
 30
0.0
 10
3.55191
 20
-7.45306
 30
0.0
 10
3.51917
 20
-7.47776
 30
0.0
 10
3.4774
 20
-7.49017
 30
0.0
 10
3.42646
 20
-7.49017
 30
0.0
 10
3.42646
 20
-7.49017
 30
0.0
 10
3.3624
 20
-7.49017
 30
0.0
 10
3.3116
 20
-7.47042
 30
0.0
 10
3.27406
 20
-7.43091
 30
0.0
 10
3.27406
 20
-7.43091
 30
0.0
 10
3.23652
 20
-7.39154
 30
0.0
 10
3.21776
 20
-7.33608
 30
0.0
 10
3.21776
 20
-7.26482
 30
0.0
 10
3.21776
 20
-7.26482
 30
0.0
 10
3.21776
 20
-7.19116
 30
0.0
 10
3.23667
 20
-7.13387
 30
0.0
 10
3.27462
 20
-7.09323
 30
0.0
 10
3.27462
 20
-7.09323
 30
0.0
 10
3.31258
 20
-7.05244
 30
0.0
 10
3.36183
 20
-7.03212
 30
0.0
 10
3.42237
 20
-7.03212
 30
0.0
 10
3.42237
 20
-7.03212
 30
0.0
 10
3.48093
 20
-7.03212
 30
0.0
 10
3.52877
 20
-7.05202
 30
0.0
 10
3.56588
 20
-7.09196
 30
0.0
 10
3.56588
 20
-7.09196
 30
0.0
 10
3.60299
 20
-7.13189
 30
0.0
 10
3.62162
 20
-7.18805
 30
0.0
 10
3.62162
 20
-7.26044
 30
0.0
 10
3.62162
 20
-7.26044
 30
0.0
 10
3.62162
 20
-7.26482
 30
0.0
 10
3.62148
 20
-7.27145
 30
0.0
 10
3.6212
 20
-7.2802
 30
0.0
 10
3.6212
 20
-7.2802
 30
0.0
 10
3.6212
 20
-7.2802
 30
0.0
 10
3.29396
 20
-7.2802
 30
0.0
 10
3.29396
 20
-7.2802
 30
0.0
 10
3.29396
 20
-7.2802
 30
0.0
 10
3.29678
 20
-7.32832
 30
0.0
 10
3.31033
 20
-7.36529
 30
0.0
 10
3.33488
 20
-7.39083
 30
0.0
 10
3.33488
 20
-7.39083
 30
0.0
 10
3.35929
 20
-7.41637
 30
0.0
 10
3.38991
 20
-7.42921
 30
0.0
 10
3.42646
 20
-7.42921
 30
0.0
 10
3.42646
 20
-7.42921
 30
0.0
 10
3.4537
 20
-7.42921
 30
0.0
 10
3.47698
 20
-7.42202
 30
0.0
 10
3.49617
 20
-7.40762
 30
0.0
 10
3.49617
 20
-7.40762
 30
0.0
 10
3.5155
 20
-7.39323
 30
0.0
 10
3.53074
 20
-7.37023
 30
0.0
 10
3.54203
 20
-7.33862
 30
0.0
  0
SPLINE
  5
58
330
1F
100
AcDbEntity
  8
Layer 1
 62
   250
100
AcDbSpline
210
0.0
220
0.0
230
1.0
 70
    11
 71
     3
 72
    24
 73
    20
 74
     0
 42
0.0000000001
 43
0.0000000001
 12
1.0
 22
0.0
 32
0.0
 13
1.0
 23
0.0
 33
0.0
 40
0.0
 40
0.0
 40
0.0
 40
0.0
 40
0.1666666666666667
 40
0.1666666666666667
 40
0.1666666666666667
 40
0.1666666666666667
 40
0.3333333333333333
 40
0.3333333333333333
 40
0.3333333333333333
 40
0.3333333333333333
 40
0.5
 40
0.5
 40
0.5
 40
0.5
 40
0.6666666666666666
 40
0.6666666666666666
 40
0.6666666666666666
 40
0.6666666666666666
 40
1.0
 40
1.0
 40
1.0
 40
1.0
 10
3.29819
 20
-7.21924
 30
0.0
 10
3.29819
 20
-7.21924
 30
0.0
 10
3.54288
 20
-7.21924
 30
0.0
 10
3.54288
 20
-7.21924
 30
0.0
 10
3.54288
 20
-7.21924
 30
0.0
 10
3.53963
 20
-7.18227
 30
0.0
 10
3.53018
 20
-7.15461
 30
0.0
 10
3.5148
 20
-7.13612
 30
0.0
 10
3.5148
 20
-7.13612
 30
0.0
 10
3.49123
 20
-7.10748
 30
0.0
 10
3.46047
 20
-7.09309
 30
0.0
 10
3.42279
 20
-7.09309
 30
0.0
 10
3.42279
 20
-7.09309
 30
0.0
 10
3.38864
 20
-7.09309
 30
0.0
 10
3.36
 20
-7.10452
 30
0.0
 10
3.33671
 20
-7.12738
 30
0.0
 10
3.33671
 20
-7.12738
 30
0.0
 10
3.31357
 20
-7.15024
 30
0.0
 10
3.30073
 20
-7.18086
 30
0.0
 10
3.29819
 20
-7.21924
 30
0.0
  0
SPLINE
  5
59
330
1F
100
AcDbEntity
  8
Layer 1
  6
New Line1
 62
     6
370
    13
100
AcDbSpline
210
0.0
220
0.0
230
1.0
 70
    11
 71
     3
 72
    20
 73
    16
 74
     0
 42
0.0000000001
 43
0.0000000001
 12
1.0
 22
0.0
 32
0.0
 13
1.0
 23
0.0
 33
0.0
 40
0.0
 40
0.0
 40
0.0
 40
0.0
 40
0.2
 40
0.2
 40
0.2
 40
0.2
 40
0.4
 40
0.4
 40
0.4
 40
0.4
 40
0.6
 40
0.6
 40
0.6
 40
0.6
 40
1.0
 40
1.0
 40
1.0
 40
1.0
 10
1.83849
 20
4.93552
 30
0.0
 10
1.83849
 20
5.14137
 30
0.0
 10
1.67162
 20
5.30826
 30
0.0
 10
1.46575
 20
5.30826
 30
0.0
 10
1.46575
 20
5.30826
 30
0.0
 10
1.2599
 20
5.30826
 30
0.0
 10
1.09303
 20
5.14137
 30
0.0
 10
1.09303
 20
4.93552
 30
0.0
 10
1.09303
 20
4.93552
 30
0.0
 10
1.09303
 20
4.72967
 30
0.0
 10
1.2599
 20
4.56279
 30
0.0
 10
1.46575
 20
4.56279
 30
0.0
 10
1.46575
 20
4.56279
 30
0.0
 10
1.67161
 20
4.56279
 30
0.0
 10
1.83849
 20
4.72967
 30
0.0
 10
1.83849
 20
4.93552
 30
0.0
  0
SPLINE
  5
5B
330
1F
100
AcDbEntity
  8
Layer 1
  6
New Line2
 62
     6
370
    13
100
AcDbSpline
210
0.0
220
0.0
230
1.0
 70
    11
 71
     3
 72
    20
 73
    16
 74
     0
 42
0.0000000001
 43
0.0000000001
 12
1.0
 22
0.0
 32
0.0
 13
1.0
 23
0.0
 33
0.0
 40
0.0
 40
0.0
 40
0.0
 40
0.0
 40
0.2
 40
0.2
 40
0.2
 40
0.2
 40
0.4
 40
0.4
 40
0.4
 40
0.4
 40
0.6
 40
0.6
 40
0.6
 40
0.6
 40
1.0
 40
1.0
 40
1.0
 40
1.0
 10
0.53264
 20
4.93552
 30
0.0
 10
0.53264
 20
5.14137
 30
0.0
 10
0.36577
 20
5.30826
 30
0.0
 10
0.15992
 20
5.30826
 30
0.0
 10
0.15992
 20
5.30826
 30
0.0
 10
-0.04594
 20
5.30826
 30
0.0
 10
-0.21282
 20
5.14137
 30
0.0
 10
-0.21282
 20
4.93552
 30
0.0
 10
-0.21282
 20
4.93552
 30
0.0
 10
-0.21282
 20
4.72967
 30
0.0
 10
-0.04595
 20
4.56279
 30
0.0
 10
0.15991
 20
4.56279
 30
0.0
 10
0.15991
 20
4.56279
 30
0.0
 10
0.36577
 20
4.56279
 30
0.0
 10
0.53264
 20
4.72967
 30
0.0
 10
0.53264
 20
4.93552
 30
0.0
  0
SPLINE
  5
5D
330
1F
100
AcDbEntity
  8
Layer 1
  6
New Line3
 62
     6
370
    13
100
AcDbSpline
210
0.0
220
0.0
230
1.0
 70
    11
 71
     3
 72
    20
 73
    16
 74
     0
 42
0.0000000001
 43
0.0000000001
 12
1.0
 22
0.0
 32
0.0
 13
1.0
 23
0.0
 33
0.0
 40
0.0
 40
0.0
 40
0.0
 40
0.0
 40
0.2
 40
0.2
 40
0.2
 40
0.2
 40
0.4
 40
0.4
 40
0.4
 40
0.4
 40
0.6
 40
0.6
 40
0.6
 40
0.6
 40
1.0
 40
1.0
 40
1.0
 40
1.0
 10
-0.7732
 20
4.93552
 30
0.0
 10
-0.7732
 20
5.14137
 30
0.0
 10
-0.94008
 20
5.30826
 30
0.0
 10
-1.14593
 20
5.30826
 30
0.0
 10
-1.14593
 20
5.30826
 30
0.0
 10
-1.35178
 20
5.30826
 30
0.0
 10
-1.51866
 20
5.14137
 30
0.0
 10
-1.51866
 20
4.93552
 30
0.0
 10
-1.51866
 20
4.93552
 30
0.0
 10
-1.51867
 20
4.72967
 30
0.0
 10
-1.35178
 20
4.56279
 30
0.0
 10
-1.14593
 20
4.56279
 30
0.0
 10
-1.14593
 20
4.56279
 30
0.0
 10
-0.94008
 20
4.56279
 30
0.0
 10
-0.7732
 20
4.72967
 30
0.0
 10
-0.7732
 20
4.93552
 30
0.0
  0
SPLINE
  5
5F
330
1F
100
AcDbEntity
  8
Layer 1
  6
New Line4
 62
     6
370
    13
100
AcDbSpline
210
0.0
220
0.0
230
1.0
 70
     8
 71
     3
 72
     8
 73
     4
 74
     0
 42
0.0000000001
 43
0.0000000001
 12
1.0
 22
0.0
 32
0.0
 13
1.0
 23
0.0
 33
0.0
 40
0.0
 40
0.0
 40
0.0
 40
0.0
 40
1.0
 40
1.0
 40
1.0
 40
1.0
 10
5.00363
 20
-2.4962
 30
0.0
 10
6.24799
 20
-1.36406
 30
0.0
 10
6.75666
 20
0.3678
 30
0.0
 10
6.32217
 20
1.99303
 30
0.0
  0
SPLINE
  5
61
330
1F
100
AcDbEntity
  8
Layer 1
  6
New Line5
 62
     6
370
    13
100
AcDbSpline
210
0.0
220
0.0
230
1.0
 70
     8
 71
     3
 72
     8
 73
     4
 74
     0
 42
0.0000000001
 43
0.0000000001
 12
1.0
 22
0.0
 32
0.0
 13
1.0
 23
0.0
 33
0.0
 40
0.0
 40
0.0
 40
0.0
 40
0.0
 40
1.0
 40
1.0
 40
1.0
 40
1.0
 10
6.32216
 20
1.99306
 30
0.0
 10
6.06479
 20
2.95577
 30
0.0
 10
5.24829
 20
3.66551
 30
0.0
 10
4.25913
 20
3.78636
 30
0.0
  0
SPLINE
  5
63
330
1F
100
AcDbEntity
  8
Layer 1
  6
New Line6
 62
     6
370
    13
100
AcDbSpline
210
0.0
220
0.0
230
1.0
 70
     8
 71
     3
 72
     8
 73
     4
 74
     0
 42
0.0000000001
 43
0.0000000001
 12
1.0
 22
0.0
 32
0.0
 13
1.0
 23
0.0
 33
0.0
 40
0.0
 40
0.0
 40
0.0
 40
0.0
 40
1.0
 40
1.0
 40
1.0
 40
1.0
 10
4.25913
 20
3.78636
 30
0.0
 10
1.53644
 20
4.11898
 30
0.0
 10
-1.21662
 20
4.11898
 30
0.0
 10
-3.9393
 20
3.78636
 30
0.0
  0
SPLINE
  5
65
330
1F
100
AcDbEntity
  8
Layer 1
  6
New Line7
 62
     6
370
    13
100
AcDbSpline
210
0.0
220
0.0
230
1.0
 70
     8
 71
     3
 72
     8
 73
     4
 74
     0
 42
0.0000000001
 43
0.0000000001
 12
1.0
 22
0.0
 32
0.0
 13
1.0
 23
0.0
 33
0.0
 40
0.0
 40
0.0
 40
0.0
 40
0.0
 40
1.0
 40
1.0
 40
1.0
 40
1.0
 10
-3.9393
 20
3.78636
 30
0.0
 10
-4.92846
 20
3.66551
 30
0.0
 10
-5.74497
 20
2.95577
 30
0.0
 10
-6.00234
 20
1.99306
 30
0.0
  0
SPLINE
  5
67
330
1F
100
AcDbEntity
  8
Layer 1
  6
New Line8
 62
     6
370
    13
100
AcDbSpline
210
0.0
220
0.0
230
1.0
 70
     8
 71
     3
 72
     8
 73
     4
 74
     0
 42
0.0000000001
 43
0.0000000001
 12
1.0
 22
0.0
 32
0.0
 13
1.0
 23
0.0
 33
0.0
 40
0.0
 40
0.0
 40
0.0
 40
0.0
 40
1.0
 40
1.0
 40
1.0
 40
1.0
 10
-6.00234
 20
1.99306
 30
0.0
 10
-6.43684
 20
0.36781
 30
0.0
 10
-5.92817
 20
-1.36405
 30
0.0
 10
-4.68381
 20
-2.4962
 30
0.0
  0
SPLINE
  5
69
330
1F
100
AcDbEntity
  8
Layer 1
  6
New Line9
 62
     6
370
    13
100
AcDbSpline
210
0.0
220
0.0
230
1.0
 70
     8
 71
     3
 72
     8
 73
     4
 74
     0
 42
0.0000000001
 43
0.0000000001
 12
1.0
 22
0.0
 32
0.0
 13
1.0
 23
0.0
 33
0.0
 40
0.0
 40
0.0
 40
0.0
 40
0.0
 40
1.0
 40
1.0
 40
1.0
 40
1.0
 10
-4.68381
 20
-2.4962
 30
0.0
 10
-1.93787
 20
-4.99448
 30
0.0
 10
2.25769
 20
-4.99448
 30
0.0
 10
5.00363
 20
-2.4962
 30
0.0
  0
SPLINE
  5
6C
330
1F
100
AcDbEntity
  8
layer 2
 62
     4
370
    35
100
AcDbSpline
210
0.0
220
0.0
230
1.0
 70
    27
 71
     3
 72
     8
 73
     4
 74
     0
 42
0.0000000001
 43
0.0000000001
 12
1.0
 22
0.0
 32
0.0
 13
1.0
 23
0.0
 33
0.0
 40
0.0
 40
0.0
 40
0.0
 40
0.0
 40
1.0
 40
1.0
 40
1.0
 40
1.0
 10
7.50302
 20
5.96375
 30
0.0
 10
7.50302
 20
5.96375
 30
0.0
 10
7.50302
 20
5.96375
 30
0.0
 10
7.50302
 20
5.96375
 30
0.0
  0
SPLINE
  5
6D
330
1F
100
AcDbEntity
  8
layer 2
 62
     4
370
    35
100
AcDbSpline
210
0.0
220
0.0
230
1.0
 70
    24
 71
     3
 72
     8
 73
     4
 74
     0
 42
0.0000000001
 43
0.0000000001
 12
1.0
 22
0.0
 32
0.0
 13
1.0
 23
0.0
 33
0.0
 40
0.0
 40
0.0
 40
0.0
 40
0.0
 40
1.0
 40
1.0
 40
1.0
 40
1.0
 10
7.50302
 20
5.96375
 30
0.0
 10
7.50302
 20
5.96375
 30
0.0
 10
-7.1832
 20
5.96375
 30
0.0
 10
-7.1832
 20
5.96375
 30
0.0
  0
SPLINE
  5
6E
330
1F
100
AcDbEntity
  8
layer 2
 62
     4
370
    35
100
AcDbSpline
210
0.0
220
0.0
230
1.0
 70
    27
 71
     3
 72
     8
 73
     4
 74
     0
 42
0.0000000001
 43
0.0000000001
 12
1.0
 22
0.0
 32
0.0
 13
1.0
 23
0.0
 33
0.0
 40
0.0
 40
0.0
 40
0.0
 40
0.0
 40
1.0
 40
1.0
 40
1.0
 40
1.0
 10
7.50302
 20
-5.39814
 30
0.0
 10
7.50302
 20
-5.39814
 30
0.0
 10
7.50302
 20
-5.39814
 30
0.0
 10
7.50302
 20
-5.39814
 30
0.0
  0
SPLINE
  5
6F
330
1F
100
AcDbEntity
  8
layer 2
 62
     4
370
    35
100
AcDbSpline
210
0.0
220
0.0
230
1.0
 70
    24
 71
     3
 72
     8
 73
     4
 74
     0
 42
0.0000000001
 43
0.0000000001
 12
1.0
 22
0.0
 32
0.0
 13
1.0
 23
0.0
 33
0.0
 40
0.0
 40
0.0
 40
0.0
 40
0.0
 40
1.0
 40
1.0
 40
1.0
 40
1.0
 10
7.50302
 20
-5.39814
 30
0.0
 10
7.50302
 20
-5.39814
 30
0.0
 10
-7.1832
 20
-5.39814
 30
0.0
 10
-7.1832
 20
-5.39814
 30
0.0
  0
SPLINE
  5
70
330
1F
100
AcDbEntity
  8
layer 2
 62
     4
370
    35
100
AcDbSpline
210
0.0
220
0.0
230
1.0
 70
    27
 71
     3
 72
     8
 73
     4
 74
     0
 42
0.0000000001
 43
0.0000000001
 12
1.0
 22
0.0
 32
0.0
 13
1.0
 23
0.0
 33
0.0
 40
0.0
 40
0.0
 40
0.0
 40
0.0
 40
1.0
 40
1.0
 40
1.0
 40
1.0
 10
7.50302
 20
5.96375
 30
0.0
 10
7.50302
 20
5.96375
 30
0.0
 10
7.50302
 20
5.96375
 30
0.0
 10
7.50302
 20
5.96375
 30
0.0
  0
SPLINE
  5
71
330
1F
100
AcDbEntity
  8
layer 2
 62
     4
370
    35
100
AcDbSpline
210
0.0
220
0.0
230
1.0
 70
    24
 71
     3
 72
     8
 73
     4
 74
     0
 42
0.0000000001
 43
0.0000000001
 12
1.0
 22
0.0
 32
0.0
 13
1.0
 23
0.0
 33
0.0
 40
0.0
 40
0.0
 40
0.0
 40
0.0
 40
1.0
 40
1.0
 40
1.0
 40
1.0
 10
7.50302
 20
5.96375
 30
0.0
 10
7.50302
 20
5.96375
 30
0.0
 10
7.50302
 20
-5.39814
 30
0.0
 10
7.50302
 20
-5.39814
 30
0.0
  0
SPLINE
  5
72
330
1F
100
AcDbEntity
  8
layer 2
 62
     4
370
    35
100
AcDbSpline
210
0.0
220
0.0
230
1.0
 70
    24
 71
     3
 72
     8
 73
     4
 74
     0
 42
0.0000000001
 43
0.0000000001
 12
1.0
 22
0.0
 32
0.0
 13
1.0
 23
0.0
 33
0.0
 40
0.0
 40
0.0
 40
0.0
 40
0.0
 40
1.0
 40
1.0
 40
1.0
 40
1.0
 10
-7.1832
 20
5.96375
 30
0.0
 10
-7.1832
 20
5.96375
 30
0.0
 10
-7.1832
 20
-5.39814
 30
0.0
 10
-7.1832
 20
-5.39814
 30
0.0
  0
SPLINE
  5
74
330
1F
100
AcDbEntity
  8
layer 3
 62
     3
370
    18
100
AcDbSpline
210
0.0
220
0.0
230
1.0
 70
    27
 71
     3
 72
     8
 73
     4
 74
     0
 42
0.0000000001
 43
0.0000000001
 12
1.0
 22
0.0
 32
0.0
 13
1.0
 23
0.0
 33
0.0
 40
0.0
 40
0.0
 40
0.0
 40
0.0
 40
1.0
 40
1.0
 40
1.0
 40
1.0
 10
1.97987
 20
4.93552
 30
0.0
 10
1.97987
 20
4.93552
 30
0.0
 10
1.97987
 20
4.93552
 30
0.0
 10
1.97987
 20
4.93552
 30
0.0
  0
SPLINE
  5
75
330
1F
100
AcDbEntity
  8
layer 3
 62
     3
370
    18
100
AcDbSpline
210
0.0
220
0.0
230
1.0
 70
    24
 71
     3
 72
     8
 73
     4
 74
     0
 42
0.0000000001
 43
0.0000000001
 12
1.0
 22
0.0
 32
0.0
 13
1.0
 23
0.0
 33
0.0
 40
0.0
 40
0.0
 40
0.0
 40
0.0
 40
1.0
 40
1.0
 40
1.0
 40
1.0
 10
0.95164
 20
4.93552
 30
0.0
 10
0.95164
 20
4.93552
 30
0.0
 10
1.97987
 20
4.93552
 30
0.0
 10
1.97987
 20
4.93552
 30
0.0
  0
SPLINE
  5
76
330
1F
100
AcDbEntity
  8
layer 3
 62
     3
370
    18
100
AcDbSpline
210
0.0
220
0.0
230
1.0
 70
    27
 71
     3
 72
     8
 73
     4
 74
     0
 42
0.0000000001
 43
0.0000000001
 12
1.0
 22
0.0
 32
0.0
 13
1.0
 23
0.0
 33
0.0
 40
0.0
 40
0.0
 40
0.0
 40
0.0
 40
1.0
 40
1.0
 40
1.0
 40
1.0
 10
1.46575
 20
5.44964
 30
0.0
 10
1.46575
 20
5.44964
 30
0.0
 10
1.46575
 20
5.44964
 30
0.0
 10
1.46575
 20
5.44964
 30
0.0
  0
SPLINE
  5
77
330
1F
100
AcDbEntity
  8
layer 3
 62
     3
370
    18
100
AcDbSpline
210
0.0
220
0.0
230
1.0
 70
    24
 71
     3
 72
     8
 73
     4
 74
     0
 42
0.0000000001
 43
0.0000000001
 12
1.0
 22
0.0
 32
0.0
 13
1.0
 23
0.0
 33
0.0
 40
0.0
 40
0.0
 40
0.0
 40
0.0
 40
1.0
 40
1.0
 40
1.0
 40
1.0
 10
1.46575
 20
4.42141
 30
0.0
 10
1.46575
 20
4.42141
 30
0.0
 10
1.46575
 20
5.44964
 30
0.0
 10
1.46575
 20
5.44964
 30
0.0
  0
SPLINE
  5
78
330
1F
100
AcDbEntity
  8
layer 3
 62
     3
370
    18
100
AcDbSpline
210
0.0
220
0.0
230
1.0
 70
    24
 71
     3
 72
     8
 73
     4
 74
     0
 42
0.0000000001
 43
0.0000000001
 12
1.0
 22
0.0
 32
0.0
 13
1.0
 23
0.0
 33
0.0
 40
0.0
 40
0.0
 40
0.0
 40
0.0
 40
1.0
 40
1.0
 40
1.0
 40
1.0
 10
-0.3542
 20
4.93552
 30
0.0
 10
-0.3542
 20
4.93552
 30
0.0
 10
0.67403
 20
4.93552
 30
0.0
 10
0.67403
 20
4.93552
 30
0.0
  0
SPLINE
  5
79
330
1F
100
AcDbEntity
  8
layer 3
 62
     3
370
    18
100
AcDbSpline
210
0.0
220
0.0
230
1.0
 70
    27
 71
     3
 72
     8
 73
     4
 74
     0
 42
0.0000000001
 43
0.0000000001
 12
1.0
 22
0.0
 32
0.0
 13
1.0
 23
0.0
 33
0.0
 40
0.0
 40
0.0
 40
0.0
 40
0.0
 40
1.0
 40
1.0
 40
1.0
 40
1.0
 10
0.15992
 20
5.44964
 30
0.0
 10
0.15992
 20
5.44964
 30
0.0
 10
0.15992
 20
5.44964
 30
0.0
 10
0.15992
 20
5.44964
 30
0.0
  0
SPLINE
  5
7A
330
1F
100
AcDbEntity
  8
layer 3
 62
     3
370
    18
100
AcDbSpline
210
0.0
220
0.0
230
1.0
 70
    24
 71
     3
 72
     8
 73
     4
 74
     0
 42
0.0000000001
 43
0.0000000001
 12
1.0
 22
0.0
 32
0.0
 13
1.0
 23
0.0
 33
0.0
 40
0.0
 40
0.0
 40
0.0
 40
0.0
 40
1.0
 40
1.0
 40
1.0
 40
1.0
 10
0.15992
 20
4.42141
 30
0.0
 10
0.15992
 20
4.42141
 30
0.0
 10
0.15992
 20
5.44964
 30
0.0
 10
0.15992
 20
5.44964
 30
0.0
  0
SPLINE
  5
7B
330
1F
100
AcDbEntity
  8
layer 3
 62
     3
370
    18
100
AcDbSpline
210
0.0
220
0.0
230
1.0
 70
    24
 71
     3
 72
     8
 73
     4
 74
     0
 42
0.0000000001
 43
0.0000000001
 12
1.0
 22
0.0
 32
0.0
 13
1.0
 23
0.0
 33
0.0
 40
0.0
 40
0.0
 40
0.0
 40
0.0
 40
1.0
 40
1.0
 40
1.0
 40
1.0
 10
-1.66005
 20
4.93552
 30
0.0
 10
-1.66005
 20
4.93552
 30
0.0
 10
-0.63182
 20
4.93552
 30
0.0
 10
-0.63182
 20
4.93552
 30
0.0
  0
SPLINE
  5
7C
330
1F
100
AcDbEntity
  8
layer 3
 62
     3
370
    18
100
AcDbSpline
210
0.0
220
0.0
230
1.0
 70
    24
 71
     3
 72
     8
 73
     4
 74
     0
 42
0.0000000001
 43
0.0000000001
 12
1.0
 22
0.0
 32
0.0
 13
1.0
 23
0.0
 33
0.0
 40
0.0
 40
0.0
 40
0.0
 40
0.0
 40
1.0
 40
1.0
 40
1.0
 40
1.0
 10
-1.14593
 20
4.42141
 30
0.0
 10
-1.14593
 20
4.42141
 30
0.0
 10
-1.14593
 20
5.44964
 30
0.0
 10
-1.14593
 20
5.44964
 30
0.0
  0
SPLINE
  5
7D
330
1F
100
AcDbEntity
  8
layer 3
 62
     3
370
     5
100
AcDbSpline
210
0.0
220
0.0
230
1.0
 70
    24
 71
     3
 72
     8
 73
     4
 74
     0
 42
0.0000000001
 43
0.0000000001
 12
1.0
 22
0.0
 32
0.0
 13
1.0
 23
0.0
 33
0.0
 40
0.0
 40
0.0
 40
0.0
 40
0.0
 40
1.0
 40
1.0
 40
1.0
 40
1.0
 10
-1.14593
 20
5.55246
 30
0.0
 10
-1.14593
 20
5.55246
 30
0.0
 10
-1.14593
 20
6.50619
 30
0.0
 10
-1.14593
 20
6.50619
 30
0.0
  0
SPLINE
  5
7E
330
1F
100
AcDbEntity
  8
layer 3
 62
     3
370
     5
100
AcDbSpline
210
0.0
220
0.0
230
1.0
 70
    27
 71
     3
 72
     8
 73
     4
 74
     0
 42
0.0000000001
 43
0.0000000001
 12
1.0
 22
0.0
 32
0.0
 13
1.0
 23
0.0
 33
0.0
 40
0.0
 40
0.0
 40
0.0
 40
0.0
 40
1.0
 40
1.0
 40
1.0
 40
1.0
 10
0.15992
 20
6.50619
 30
0.0
 10
0.15992
 20
6.50619
 30
0.0
 10
0.15992
 20
6.50619
 30
0.0
 10
0.15992
 20
6.50619
 30
0.0
  0
SPLINE
  5
7F
330
1F
100
AcDbEntity
  8
layer 3
 62
     3
370
     5
100
AcDbSpline
210
0.0
220
0.0
230
1.0
 70
    24
 71
     3
 72
     8
 73
     4
 74
     0
 42
0.0000000001
 43
0.0000000001
 12
1.0
 22
0.0
 32
0.0
 13
1.0
 23
0.0
 33
0.0
 40
0.0
 40
0.0
 40
0.0
 40
0.0
 40
1.0
 40
1.0
 40
1.0
 40
1.0
 10
0.15992
 20
5.55246
 30
0.0
 10
0.15992
 20
5.55246
 30
0.0
 10
0.15992
 20
6.50619
 30
0.0
 10
0.15992
 20
6.50619
 30
0.0
  0
SPLINE
  5
80
330
1F
100
AcDbEntity
  8
layer 3
 62
     3
370
     5
100
AcDbSpline
210
0.0
220
0.0
230
1.0
 70
    24
 71
     3
 72
     8
 73
     4
 74
     0
 42
0.0000000001
 43
0.0000000001
 12
1.0
 22
0.0
 32
0.0
 13
1.0
 23
0.0
 33
0.0
 40
0.0
 40
0.0
 40
0.0
 40
0.0
 40
1.0
 40
1.0
 40
1.0
 40
1.0
 10
-0.94029
 20
6.47406
 30
0.0
 10
-0.94029
 20
6.47406
 30
0.0
 10
-0.04573
 20
6.47406
 30
0.0
 10
-0.04573
 20
6.47406
 30
0.0
  0
SPLINE
  5
81
330
1F
100
AcDbEntity
  8
layer 3
 62
     3
370
     9
100
AcDbSpline
210
0.0
220
0.0
230
1.0
 70
    27
 71
     3
 72
    12
 73
     8
 74
     0
 42
0.0000000001
 43
0.0000000001
 12
1.0
 22
0.0
 32
0.0
 13
1.0
 23
0.0
 33
0.0
 40
0.0
 40
0.0
 40
0.0
 40
0.0
 40
0.3333333333333333
 40
0.3333333333333333
 40
0.3333333333333333
 40
0.3333333333333333
 40
1.0
 40
1.0
 40
1.0
 40
1.0
 10
-0.94029
 20
6.50833
 30
0.0
 10
-0.94029
 20
6.50833
 30
0.0
 10
-1.14593
 20
6.47406
 30
0.0
 10
-1.14593
 20
6.47406
 30
0.0
 10
-1.14593
 20
6.47406
 30
0.0
 10
-1.14593
 20
6.47406
 30
0.0
 10
-0.94029
 20
6.50833
 30
0.0
 10
-0.94029
 20
6.50833
 30
0.0
  0
SPLINE
  5
82
330
1F
100
AcDbEntity
  8
layer 3
 62
     3
370
     9
100
AcDbSpline
210
0.0
220
0.0
230
1.0
 70
    11
 71
     3
 72
    16
 73
    12
 74
     0
 42
0.0000000001
 43
0.0000000001
 12
1.0
 22
0.0
 32
0.0
 13
1.0
 23
0.0
 33
0.0
 40
0.0
 40
0.0
 40
0.0
 40
0.0
 40
0.25
 40
0.25
 40
0.25
 40
0.25
 40
0.5
 40
0.5
 40
0.5
 40
0.5
 40
1.0
 40
1.0
 40
1.0
 40
1.0
 10
-1.14593
 20
6.47406
 30
0.0
 10
-1.14593
 20
6.47406
 30
0.0
 10
-0.94029
 20
6.43978
 30
0.0
 10
-0.94029
 20
6.43978
 30
0.0
 10
-0.94029
 20
6.43978
 30
0.0
 10
-0.94029
 20
6.43978
 30
0.0
 10
-0.94029
 20
6.50833
 30
0.0
 10
-0.94029
 20
6.50833
 30
0.0
 10
-0.94029
 20
6.50833
 30
0.0
 10
-0.94029
 20
6.50833
 30
0.0
 10
-1.14593
 20
6.47406
 30
0.0
 10
-1.14593
 20
6.47406
 30
0.0
  0
SPLINE
  5
83
330
1F
100
AcDbEntity
  8
layer 3
 62
     3
370
    18
100
AcDbSpline
210
0.0
220
0.0
230
1.0
 70
    24
 71
     3
 72
     8
 73
     4
 74
     0
 42
0.0000000001
 43
0.0000000001
 12
1.0
 22
0.0
 32
0.0
 13
1.0
 23
0.0
 33
0.0
 40
0.0
 40
0.0
 40
0.0
 40
0.0
 40
1.0
 40
1.0
 40
1.0
 40
1.0
 10
-0.94029
 20
6.50833
 30
0.0
 10
-0.94029
 20
6.50833
 30
0.0
 10
-1.14593
 20
6.47406
 30
0.0
 10
-1.14593
 20
6.47406
 30
0.0
  0
SPLINE
  5
84
330
1F
100
AcDbEntity
  8
layer 3
 62
     3
370
    18
100
AcDbSpline
210
0.0
220
0.0
230
1.0
 70
     8
 71
     3
 72
    12
 73
     8
 74
     0
 42
0.0000000001
 43
0.0000000001
 12
1.0
 22
0.0
 32
0.0
 13
1.0
 23
0.0
 33
0.0
 40
0.0
 40
0.0
 40
0.0
 40
0.0
 40
0.3333333333333333
 40
0.3333333333333333
 40
0.3333333333333333
 40
0.3333333333333333
 40
1.0
 40
1.0
 40
1.0
 40
1.0
 10
-1.14593
 20
6.47406
 30
0.0
 10
-1.14593
 20
6.47406
 30
0.0
 10
-0.94029
 20
6.43978
 30
0.0
 10
-0.94029
 20
6.43978
 30
0.0
 10
-0.94029
 20
6.43978
 30
0.0
 10
-0.94029
 20
6.43978
 30
0.0
 10
-0.94029
 20
6.50833
 30
0.0
 10
-0.94029
 20
6.50833
 30
0.0
  0
SPLINE
  5
85
330
1F
100
AcDbEntity
  8
layer 3
 62
     3
370
     9
100
AcDbSpline
210
0.0
220
0.0
230
1.0
 70
    27
 71
     3
 72
    12
 73
     8
 74
     0
 42
0.0000000001
 43
0.0000000001
 12
1.0
 22
0.0
 32
0.0
 13
1.0
 23
0.0
 33
0.0
 40
0.0
 40
0.0
 40
0.0
 40
0.0
 40
0.3333333333333333
 40
0.3333333333333333
 40
0.3333333333333333
 40
0.3333333333333333
 40
1.0
 40
1.0
 40
1.0
 40
1.0
 10
-0.04573
 20
6.50833
 30
0.0
 10
-0.04573
 20
6.50833
 30
0.0
 10
0.15992
 20
6.47406
 30
0.0
 10
0.15992
 20
6.47406
 30
0.0
 10
0.15992
 20
6.47406
 30
0.0
 10
0.15992
 20
6.47406
 30
0.0
 10
-0.04573
 20
6.50833
 30
0.0
 10
-0.04573
 20
6.50833
 30
0.0
  0
SPLINE
  5
86
330
1F
100
AcDbEntity
  8
layer 3
 62
     3
370
     9
100
AcDbSpline
210
0.0
220
0.0
230
1.0
 70
    11
 71
     3
 72
    16
 73
    12
 74
     0
 42
0.0000000001
 43
0.0000000001
 12
1.0
 22
0.0
 32
0.0
 13
1.0
 23
0.0
 33
0.0
 40
0.0
 40
0.0
 40
0.0
 40
0.0
 40
0.25
 40
0.25
 40
0.25
 40
0.25
 40
0.5
 40
0.5
 40
0.5
 40
0.5
 40
1.0
 40
1.0
 40
1.0
 40
1.0
 10
0.15992
 20
6.47406
 30
0.0
 10
0.15992
 20
6.47406
 30
0.0
 10
-0.04573
 20
6.43978
 30
0.0
 10
-0.04573
 20
6.43978
 30
0.0
 10
-0.04573
 20
6.43978
 30
0.0
 10
-0.04573
 20
6.43978
 30
0.0
 10
-0.04573
 20
6.50833
 30
0.0
 10
-0.04573
 20
6.50833
 30
0.0
 10
-0.04573
 20
6.50833
 30
0.0
 10
-0.04573
 20
6.50833
 30
0.0
 10
0.15992
 20
6.47406
 30
0.0
 10
0.15992
 20
6.47406
 30
0.0
  0
SPLINE
  5
87
330
1F
100
AcDbEntity
  8
layer 3
 62
     3
370
    18
100
AcDbSpline
210
0.0
220
0.0
230
1.0
 70
    24
 71
     3
 72
     8
 73
     4
 74
     0
 42
0.0000000001
 43
0.0000000001
 12
1.0
 22
0.0
 32
0.0
 13
1.0
 23
0.0
 33
0.0
 40
0.0
 40
0.0
 40
0.0
 40
0.0
 40
1.0
 40
1.0
 40
1.0
 40
1.0
 10
-0.04573
 20
6.50833
 30
0.0
 10
-0.04573
 20
6.50833
 30
0.0
 10
0.15992
 20
6.47406
 30
0.0
 10
0.15992
 20
6.47406
 30
0.0
  0
SPLINE
  5
88
330
1F
100
AcDbEntity
  8
layer 3
 62
     3
370
    18
100
AcDbSpline
210
0.0
220
0.0
230
1.0
 70
     8
 71
     3
 72
    12
 73
     8
 74
     0
 42
0.0000000001
 43
0.0000000001
 12
1.0
 22
0.0
 32
0.0
 13
1.0
 23
0.0
 33
0.0
 40
0.0
 40
0.0
 40
0.0
 40
0.0
 40
0.3333333333333333
 40
0.3333333333333333
 40
0.3333333333333333
 40
0.3333333333333333
 40
1.0
 40
1.0
 40
1.0
 40
1.0
 10
0.15992
 20
6.47406
 30
0.0
 10
0.15992
 20
6.47406
 30
0.0
 10
-0.04573
 20
6.43978
 30
0.0
 10
-0.04573
 20
6.43978
 30
0.0
 10
-0.04573
 20
6.43978
 30
0.0
 10
-0.04573
 20
6.43978
 30
0.0
 10
-0.04573
 20
6.50833
 30
0.0
 10
-0.04573
 20
6.50833
 30
0.0
  0
SPLINE
  5
89
330
1F
100
AcDbEntity
  8
layer 3
 62
     3
370
     9
100
AcDbSpline
210
0.0
220
0.0
230
1.0
 70
    11
 71
     3
 72
    92
 73
    88
 74
     0
 42
0.0000000001
 43
0.0000000001
 12
1.0
 22
0.0
 32
0.0
 13
1.0
 23
0.0
 33
0.0
 40
0.0
 40
0.0
 40
0.0
 40
0.0
 40
0.0434782608695652
 40
0.0434782608695652
 40
0.0434782608695652
 40
0.0434782608695652
 40
0.0869565217391304
 40
0.0869565217391304
 40
0.0869565217391304
 40
0.0869565217391304
 40
0.1304347826086956
 40
0.1304347826086956
 40
0.1304347826086956
 40
0.1304347826086956
 40
0.1739130434782609
 40
0.1739130434782609
 40
0.1739130434782609
 40
0.1739130434782609
 40
0.2173913043478261
 40
0.2173913043478261
 40
0.2173913043478261
 40
0.2173913043478261
 40
0.2608695652173913
 40
0.2608695652173913
 40
0.2608695652173913
 40
0.2608695652173913
 40
0.3043478260869565
 40
0.3043478260869565
 40
0.3043478260869565
 40
0.3043478260869565
 40
0.3478260869565217
 40
0.3478260869565217
 40
0.3478260869565217
 40
0.3478260869565217
 40
0.391304347826087
 40
0.391304347826087
 40
0.391304347826087
 40
0.391304347826087
 40
0.4347826086956522
 40
0.4347826086956522
 40
0.4347826086956522
 40
0.4347826086956522
 40
0.4782608695652174
 40
0.4782608695652174
 40
0.4782608695652174
 40
0.4782608695652174
 40
0.5217391304347826
 40
0.5217391304347826
 40
0.5217391304347826
 40
0.5217391304347826
 40
0.5652173913043478
 40
0.5652173913043478
 40
0.5652173913043478
 40
0.5652173913043478
 40
0.6086956521739131
 40
0.6086956521739131
 40
0.6086956521739131
 40
0.6086956521739131
 40
0.6521739130434783
 40
0.6521739130434783
 40
0.6521739130434783
 40
0.6521739130434783
 40
0.6956521739130435
 40
0.6956521739130435
 40
0.6956521739130435
 40
0.6956521739130435
 40
0.7391304347826086
 40
0.7391304347826086
 40
0.7391304347826086
 40
0.7391304347826086
 40
0.782608695652174
 40
0.782608695652174
 40
0.782608695652174
 40
0.782608695652174
 40
0.8260869565217391
 40
0.8260869565217391
 40
0.8260869565217391
 40
0.8260869565217391
 40
0.8695652173913043
 40
0.8695652173913043
 40
0.8695652173913043
 40
0.8695652173913043
 40
0.9130434782608695
 40
0.9130434782608695
 40
0.9130434782608695
 40
0.9130434782608695
 40
1.0
 40
1.0
 40
1.0
 40
1.0
 10
-0.7325
 20
6.66447
 30
0.0
 10
-0.7325
 20
6.66447
 30
0.0
 10
-0.70877
 20
6.66648
 30
0.0
 10
-0.70877
 20
6.66648
 30
0.0
 10
-0.70877
 20
6.66648
 30
0.0
 10
-0.70701
 20
6.65491
 30
0.0
 10
-0.70294
 20
6.64626
 30
0.0
 10
-0.69656
 20
6.64044
 30
0.0
 10
-0.69656
 20
6.64044
 30
0.0
 10
-0.69013
 20
6.63461
 30
0.0
 10
-0.68242
 20
6.6317
 30
0.0
 10
-0.67338
 20
6.6317
 30
0.0
 10
-0.67338
 20
6.6317
 30
0.0
 10
-0.6625
 20
6.6317
 30
0.0
 10
-0.65329
 20
6.63581
 30
0.0
 10
-0.64579
 20
6.64399
 30
0.0
 10
-0.64579
 20
6.64399
 30
0.0
 10
-0.63824
 20
6.65222
 30
0.0
 10
-0.63448
 20
6.6631
 30
0.0
 10
-0.63448
 20
6.67664
 30
0.0
 10
-0.63448
 20
6.67664
 30
0.0
 10
-0.63448
 20
6.68953
 30
0.0
 10
-0.63807
 20
6.69969
 30
0.0
 10
-0.64531
 20
6.70714
 30
0.0
 10
-0.64531
 20
6.70714
 30
0.0
 10
-0.65255
 20
6.71459
 30
0.0
 10
-0.66202
 20
6.71832
 30
0.0
 10
-0.67376
 20
6.71832
 30
0.0
 10
-0.67376
 20
6.71832
 30
0.0
 10
-0.68105
 20
6.71832
 30
0.0
 10
-0.6876
 20
6.71666
 30
0.0
 10
-0.69347
 20
6.71336
 30
0.0
 10
-0.69347
 20
6.71336
 30
0.0
 10
-0.69934
 20
6.71006
 30
0.0
 10
-0.70392
 20
6.70578
 30
0.0
 10
-0.70726
 20
6.70051
 30
0.0
 10
-0.70726
 20
6.70051
 30
0.0
 10
-0.70726
 20
6.70051
 30
0.0
 10
-0.72847
 20
6.70325
 30
0.0
 10
-0.72847
 20
6.70325
 30
0.0
 10
-0.72847
 20
6.70325
 30
0.0
 10
-0.72847
 20
6.70325
 30
0.0
 10
-0.71065
 20
6.79776
 30
0.0
 10
-0.71065
 20
6.79776
 30
0.0
 10
-0.71065
 20
6.79776
 30
0.0
 10
-0.71065
 20
6.79776
 30
0.0
 10
-0.61913
 20
6.79776
 30
0.0
 10
-0.61913
 20
6.79776
 30
0.0
 10
-0.61913
 20
6.79776
 30
0.0
 10
-0.61913
 20
6.79776
 30
0.0
 10
-0.61913
 20
6.77616
 30
0.0
 10
-0.61913
 20
6.77616
 30
0.0
 10
-0.61913
 20
6.77616
 30
0.0
 10
-0.61913
 20
6.77616
 30
0.0
 10
-0.69257
 20
6.77616
 30
0.0
 10
-0.69257
 20
6.77616
 30
0.0
 10
-0.69257
 20
6.77616
 30
0.0
 10
-0.69257
 20
6.77616
 30
0.0
 10
-0.70251
 20
6.72672
 30
0.0
 10
-0.70251
 20
6.72672
 30
0.0
 10
-0.70251
 20
6.72672
 30
0.0
 10
-0.69145
 20
6.73444
 30
0.0
 10
-0.67985
 20
6.73829
 30
0.0
 10
-0.66772
 20
6.73829
 30
0.0
 10
-0.66772
 20
6.73829
 30
0.0
 10
-0.65166
 20
6.73829
 30
0.0
 10
-0.63812
 20
6.73272
 30
0.0
 10
-0.62706
 20
6.72158
 30
0.0
 10
-0.62706
 20
6.72158
 30
0.0
 10
-0.61601
 20
6.71044
 30
0.0
 10
-0.61048
 20
6.69613
 30
0.0
 10
-0.61048
 20
6.67865
 30
0.0
 10
-0.61048
 20
6.67865
 30
0.0
 10
-0.61048
 20
6.66199
 30
0.0
 10
-0.61537
 20
6.64759
 30
0.0
 10
-0.62505
 20
6.63546
 30
0.0
 10
-0.62505
 20
6.63546
 30
0.0
 10
-0.63687
 20
6.6206
 30
0.0
 10
-0.65299
 20
6.61314
 30
0.0
 10
-0.67338
 20
6.61314
 30
0.0
 10
-0.67338
 20
6.61314
 30
0.0
 10
-0.69013
 20
6.61314
 30
0.0
 10
-0.70379
 20
6.61782
 30
0.0
 10
-0.71438
 20
6.6272
 30
0.0
 10
-0.71438
 20
6.6272
 30
0.0
 10
-0.72496
 20
6.63658
 30
0.0
 10
-0.731
 20
6.649
 30
0.0
 10
-0.7325
 20
6.66447
 30
0.0
  0
SPLINE
  5
8A
330
1F
100
AcDbEntity
  8
layer 3
 62
     3
370
     9
100
AcDbSpline
210
0.0
220
0.0
230
1.0
 70
    11
 71
     3
 72
    52
 73
    48
 74
     0
 42
0.0000000001
 43
0.0000000001
 12
1.0
 22
0.0
 32
0.0
 13
1.0
 23
0.0
 33
0.0
 40
0.0
 40
0.0
 40
0.0
 40
0.0
 40
0.0769230769230769
 40
0.0769230769230769
 40
0.0769230769230769
 40
0.0769230769230769
 40
0.1538461538461539
 40
0.1538461538461539
 40
0.1538461538461539
 40
0.1538461538461539
 40
0.2307692307692308
 40
0.2307692307692308
 40
0.2307692307692308
 40
0.2307692307692308
 40
0.3076923076923077
 40
0.3076923076923077
 40
0.3076923076923077
 40
0.3076923076923077
 40
0.3846153846153846
 40
0.3846153846153846
 40
0.3846153846153846
 40
0.3846153846153846
 40
0.4615384615384616
 40
0.4615384615384616
 40
0.4615384615384616
 40
0.4615384615384616
 40
0.5384615384615384
 40
0.5384615384615384
 40
0.5384615384615384
 40
0.5384615384615384
 40
0.6153846153846154
 40
0.6153846153846154
 40
0.6153846153846154
 40
0.6153846153846154
 40
0.6923076923076923
 40
0.6923076923076923
 40
0.6923076923076923
 40
0.6923076923076923
 40
0.7692307692307693
 40
0.7692307692307693
 40
0.7692307692307693
 40
0.7692307692307693
 40
0.8461538461538461
 40
0.8461538461538461
 40
0.8461538461538461
 40
0.8461538461538461
 40
1.0
 40
1.0
 40
1.0
 40
1.0
 10
-0.58954
 20
6.70701
 30
0.0
 10
-0.58954
 20
6.72878
 30
0.0
 10
-0.58731
 20
6.7463
 30
0.0
 10
-0.58281
 20
6.75954
 30
0.0
 10
-0.58281
 20
6.75954
 30
0.0
 10
-0.57835
 20
6.77282
 30
0.0
 10
-0.57167
 20
6.78306
 30
0.0
 10
-0.56285
 20
6.79026
 30
0.0
 10
-0.56285
 20
6.79026
 30
0.0
 10
-0.55402
 20
6.79745
 30
0.0
 10
-0.54292
 20
6.80106
 30
0.0
 10
-0.52956
 20
6.80106
 30
0.0
 10
-0.52956
 20
6.80106
 30
0.0
 10
-0.51966
 20
6.80106
 30
0.0
 10
-0.511
 20
6.79904
 30
0.0
 10
-0.50355
 20
6.79505
 30
0.0
 10
-0.50355
 20
6.79505
 30
0.0
 10
-0.49609
 20
6.79111
 30
0.0
 10
-0.48997
 20
6.78537
 30
0.0
 10
-0.48508
 20
6.77788
 30
0.0
 10
-0.48508
 20
6.77788
 30
0.0
 10
-0.48024
 20
6.77038
 30
0.0
 10
-0.47643
 20
6.76126
 30
0.0
 10
-0.47369
 20
6.7505
 30
0.0
 10
-0.47369
 20
6.7505
 30
0.0
 10
-0.4709
 20
6.73974
 30
0.0
 10
-0.46953
 20
6.72526
 30
0.0
 10
-0.46953
 20
6.70701
 30
0.0
 10
-0.46953
 20
6.70701
 30
0.0
 10
-0.46953
 20
6.68542
 30
0.0
 10
-0.47176
 20
6.66803
 30
0.0
 10
-0.47617
 20
6.65475
 30
0.0
 10
-0.47617
 20
6.65475
 30
0.0
 10
-0.48063
 20
6.64147
 30
0.0
 10
-0.48727
 20
6.63123
 30
0.0
 10
-0.49609
 20
6.62399
 30
0.0
 10
-0.49609
 20
6.62399
 30
0.0
 10
-0.50492
 20
6.61675
 30
0.0
 10
-0.51606
 20
6.61314
 30
0.0
 10
-0.52956
 20
6.61314
 30
0.0
 10
-0.52956
 20
6.61314
 30
0.0
 10
-0.54729
 20
6.61314
 30
0.0
 10
-0.56121
 20
6.61949
 30
0.0
 10
-0.57132
 20
6.63221
 30
0.0
 10
-0.57132
 20
6.63221
 30
0.0
 10
-0.58345
 20
6.64751
 30
0.0
 10
-0.58954
 20
6.67249
 30
0.0
 10
-0.58954
 20
6.70701
 30
0.0
  0
SPLINE
  5
8B
330
1F
100
AcDbEntity
  8
layer 3
 62
     3
370
     9
100
AcDbSpline
210
0.0
220
0.0
230
1.0
 70
    11
 71
     3
 72
    36
 73
    32
 74
     0
 42
0.0000000001
 43
0.0000000001
 12
1.0
 22
0.0
 32
0.0
 13
1.0
 23
0.0
 33
0.0
 40
0.0
 40
0.0
 40
0.0
 40
0.0
 40
0.1111111111111111
 40
0.1111111111111111
 40
0.1111111111111111
 40
0.1111111111111111
 40
0.2222222222222222
 40
0.2222222222222222
 40
0.2222222222222222
 40
0.2222222222222222
 40
0.3333333333333333
 40
0.3333333333333333
 40
0.3333333333333333
 40
0.3333333333333333
 40
0.4444444444444444
 40
0.4444444444444444
 40
0.4444444444444444
 40
0.4444444444444444
 40
0.5555555555555556
 40
0.5555555555555556
 40
0.5555555555555556
 40
0.5555555555555556
 40
0.6666666666666666
 40
0.6666666666666666
 40
0.6666666666666666
 40
0.6666666666666666
 40
0.7777777777777778
 40
0.7777777777777778
 40
0.7777777777777778
 40
0.7777777777777778
 40
1.0
 40
1.0
 40
1.0
 40
1.0
 10
-0.56631
 20
6.70701
 30
0.0
 10
-0.56631
 20
6.67681
 30
0.0
 10
-0.56275
 20
6.65672
 30
0.0
 10
-0.55569
 20
6.64669
 30
0.0
 10
-0.55569
 20
6.64669
 30
0.0
 10
-0.54862
 20
6.63671
 30
0.0
 10
-0.53992
 20
6.6317
 30
0.0
 10
-0.52956
 20
6.6317
 30
0.0
 10
-0.52956
 20
6.6317
 30
0.0
 10
-0.51914
 20
6.6317
 30
0.0
 10
-0.51044
 20
6.63676
 30
0.0
 10
-0.50338
 20
6.64677
 30
0.0
 10
-0.50338
 20
6.64677
 30
0.0
 10
-0.49631
 20
6.6568
 30
0.0
 10
-0.49275
 20
6.67689
 30
0.0
 10
-0.49275
 20
6.70701
 30
0.0
 10
-0.49275
 20
6.70701
 30
0.0
 10
-0.49275
 20
6.73731
 30
0.0
 10
-0.49631
 20
6.75744
 30
0.0
 10
-0.50338
 20
6.76738
 30
0.0
 10
-0.50338
 20
6.76738
 30
0.0
 10
-0.51044
 20
6.77736
 30
0.0
 10
-0.51922
 20
6.78233
 30
0.0
 10
-0.52977
 20
6.78233
 30
0.0
 10
-0.52977
 20
6.78233
 30
0.0
 10
-0.54018
 20
6.78233
 30
0.0
 10
-0.54845
 20
6.77792
 30
0.0
 10
-0.55466
 20
6.76914
 30
0.0
 10
-0.55466
 20
6.76914
 30
0.0
 10
-0.56241
 20
6.75796
 30
0.0
 10
-0.56631
 20
6.73721
 30
0.0
 10
-0.56631
 20
6.70701
 30
0.0
  0
SPLINE
  5
8C
330
1F
100
AcDbEntity
  8
layer 3
 62
     3
370
     9
100
AcDbSpline
210
0.0
220
0.0
230
1.0
 70
    11
 71
     3
 72
    20
 73
    16
 74
     0
 42
0.0000000001
 43
0.0000000001
 12
1.0
 22
0.0
 32
0.0
 13
1.0
 23
0.0
 33
0.0
 40
0.0
 40
0.0
 40
0.0
 40
0.0
 40
0.2
 40
0.2
 40
0.2
 40
0.2
 40
0.4
 40
0.4
 40
0.4
 40
0.4
 40
0.6
 40
0.6
 40
0.6
 40
0.6
 40
1.0
 40
1.0
 40
1.0
 40
1.0
 10
-0.43389
 20
6.61627
 30
0.0
 10
-0.43389
 20
6.61627
 30
0.0
 10
-0.43389
 20
6.64202
 30
0.0
 10
-0.43389
 20
6.64202
 30
0.0
 10
-0.43389
 20
6.64202
 30
0.0
 10
-0.43389
 20
6.64202
 30
0.0
 10
-0.40813
 20
6.64202
 30
0.0
 10
-0.40813
 20
6.64202
 30
0.0
 10
-0.40813
 20
6.64202
 30
0.0
 10
-0.40813
 20
6.64202
 30
0.0
 10
-0.40813
 20
6.61627
 30
0.0
 10
-0.40813
 20
6.61627
 30
0.0
 10
-0.40813
 20
6.61627
 30
0.0
 10
-0.40813
 20
6.61627
 30
0.0
 10
-0.43389
 20
6.61627
 30
0.0
 10
-0.43389
 20
6.61627
 30
0.0
  0
SPLINE
  5
8D
330
1F
100
AcDbEntity
  8
layer 3
 62
     3
370
     9
100
AcDbSpline
210
0.0
220
0.0
230
1.0
 70
    11
 71
     3
 72
    68
 73
    64
 74
     0
 42
0.0000000001
 43
0.0000000001
 12
1.0
 22
0.0
 32
0.0
 13
1.0
 23
0.0
 33
0.0
 40
0.0
 40
0.0
 40
0.0
 40
0.0
 40
0.0588235294117647
 40
0.0588235294117647
 40
0.0588235294117647
 40
0.0588235294117647
 40
0.1176470588235294
 40
0.1176470588235294
 40
0.1176470588235294
 40
0.1176470588235294
 40
0.1764705882352941
 40
0.1764705882352941
 40
0.1764705882352941
 40
0.1764705882352941
 40
0.2352941176470588
 40
0.2352941176470588
 40
0.2352941176470588
 40
0.2352941176470588
 40
0.2941176470588235
 40
0.2941176470588235
 40
0.2941176470588235
 40
0.2941176470588235
 40
0.3529411764705883
 40
0.3529411764705883
 40
0.3529411764705883
 40
0.3529411764705883
 40
0.4117647058823529
 40
0.4117647058823529
 40
0.4117647058823529
 40
0.4117647058823529
 40
0.4705882352941176
 40
0.4705882352941176
 40
0.4705882352941176
 40
0.4705882352941176
 40
0.5294117647058824
 40
0.5294117647058824
 40
0.5294117647058824
 40
0.5294117647058824
 40
0.5882352941176471
 40
0.5882352941176471
 40
0.5882352941176471
 40
0.5882352941176471
 40
0.6470588235294118
 40
0.6470588235294118
 40
0.6470588235294118
 40
0.6470588235294118
 40
0.7058823529411765
 40
0.7058823529411765
 40
0.7058823529411765
 40
0.7058823529411765
 40
0.7647058823529411
 40
0.7647058823529411
 40
0.7647058823529411
 40
0.7647058823529411
 40
0.8235294117647058
 40
0.8235294117647058
 40
0.8235294117647058
 40
0.8235294117647058
 40
0.8823529411764706
 40
0.8823529411764706
 40
0.8823529411764706
 40
0.8823529411764706
 40
1.0
 40
1.0
 40
1.0
 40
1.0
 10
-0.34036
 20
6.71605
 30
0.0
 10
-0.34975
 20
6.71948
 30
0.0
 10
-0.35669
 20
6.72436
 30
0.0
 10
-0.36122
 20
6.73075
 30
0.0
 10
-0.36122
 20
6.73075
 30
0.0
 10
-0.36572
 20
6.73709
 30
0.0
 10
-0.368
 20
6.74471
 30
0.0
 10
-0.368
 20
6.75359
 30
0.0
 10
-0.368
 20
6.75359
 30
0.0
 10
-0.368
 20
6.76699
 30
0.0
 10
-0.36319
 20
6.77821
 30
0.0
 10
-0.35356
 20
6.78734
 30
0.0
 10
-0.35356
 20
6.78734
 30
0.0
 10
-0.34392
 20
6.79647
 30
0.0
 10
-0.33115
 20
6.80106
 30
0.0
 10
-0.31517
 20
6.80106
 30
0.0
 10
-0.31517
 20
6.80106
 30
0.0
 10
-0.29911
 20
6.80106
 30
0.0
 10
-0.28616
 20
6.79638
 30
0.0
 10
-0.27636
 20
6.78704
 30
0.0
 10
-0.27636
 20
6.78704
 30
0.0
 10
-0.26658
 20
6.7777
 30
0.0
 10
-0.2617
 20
6.76635
 30
0.0
 10
-0.2617
 20
6.75294
 30
0.0
 10
-0.2617
 20
6.75294
 30
0.0
 10
-0.2617
 20
6.74442
 30
0.0
 10
-0.26392
 20
6.737
 30
0.0
 10
-0.26838
 20
6.73066
 30
0.0
 10
-0.26838
 20
6.73066
 30
0.0
 10
-0.27288
 20
6.72436
 30
0.0
 10
-0.27965
 20
6.71948
 30
0.0
 10
-0.28877
 20
6.71605
 30
0.0
 10
-0.28877
 20
6.71605
 30
0.0
 10
-0.27751
 20
6.71236
 30
0.0
 10
-0.2689
 20
6.70645
 30
0.0
 10
-0.26299
 20
6.69823
 30
0.0
 10
-0.26299
 20
6.69823
 30
0.0
 10
-0.25711
 20
6.69005
 30
0.0
 10
-0.25416
 20
6.68024
 30
0.0
 10
-0.25416
 20
6.66888
 30
0.0
 10
-0.25416
 20
6.66888
 30
0.0
 10
-0.25416
 20
6.65312
 30
0.0
 10
-0.25973
 20
6.63992
 30
0.0
 10
-0.27083
 20
6.62921
 30
0.0
 10
-0.27083
 20
6.62921
 30
0.0
 10
-0.28196
 20
6.6185
 30
0.0
 10
-0.29662
 20
6.61314
 30
0.0
 10
-0.31479
 20
6.61314
 30
0.0
 10
-0.31479
 20
6.61314
 30
0.0
 10
-0.33294
 20
6.61314
 30
0.0
 10
-0.34756
 20
6.6185
 30
0.0
 10
-0.3587
 20
6.62926
 30
0.0
 10
-0.3587
 20
6.62926
 30
0.0
 10
-0.36984
 20
6.64001
 30
0.0
 10
-0.3754
 20
6.65342
 30
0.0
 10
-0.3754
 20
6.66949
 30
0.0
 10
-0.3754
 20
6.66949
 30
0.0
 10
-0.3754
 20
6.68144
 30
0.0
 10
-0.37237
 20
6.69146
 30
0.0
 10
-0.36628
 20
6.69956
 30
0.0
 10
-0.36628
 20
6.69956
 30
0.0
 10
-0.36024
 20
6.70762
 30
0.0
 10
-0.35159
 20
6.71314
 30
0.0
 10
-0.34036
 20
6.71605
 30
0.0
  0
SPLINE
  5
8E
330
1F
100
AcDbEntity
  8
layer 3
 62
     3
370
     9
100
AcDbSpline
210
0.0
220
0.0
230
1.0
 70
    11
 71
     3
 72
    36
 73
    32
 74
     0
 42
0.0000000001
 43
0.0000000001
 12
1.0
 22
0.0
 32
0.0
 13
1.0
 23
0.0
 33
0.0
 40
0.0
 40
0.0
 40
0.0
 40
0.0
 40
0.1111111111111111
 40
0.1111111111111111
 40
0.1111111111111111
 40
0.1111111111111111
 40
0.2222222222222222
 40
0.2222222222222222
 40
0.2222222222222222
 40
0.2222222222222222
 40
0.3333333333333333
 40
0.3333333333333333
 40
0.3333333333333333
 40
0.3333333333333333
 40
0.4444444444444444
 40
0.4444444444444444
 40
0.4444444444444444
 40
0.4444444444444444
 40
0.5555555555555556
 40
0.5555555555555556
 40
0.5555555555555556
 40
0.5555555555555556
 40
0.6666666666666666
 40
0.6666666666666666
 40
0.6666666666666666
 40
0.6666666666666666
 40
0.7777777777777778
 40
0.7777777777777778
 40
0.7777777777777778
 40
0.7777777777777778
 40
1.0
 40
1.0
 40
1.0
 40
1.0
 10
-0.3449
 20
6.75436
 30
0.0
 10
-0.3449
 20
6.74566
 30
0.0
 10
-0.34207
 20
6.73854
 30
0.0
 10
-0.3365
 20
6.73302
 30
0.0
 10
-0.3365
 20
6.73302
 30
0.0
 10
-0.33089
 20
6.72749
 30
0.0
 10
-0.3236
 20
6.72471
 30
0.0
 10
-0.31466
 20
6.72471
 30
0.0
 10
-0.31466
 20
6.72471
 30
0.0
 10
-0.30596
 20
6.72471
 30
0.0
 10
-0.2988
 20
6.72745
 30
0.0
 10
-0.29323
 20
6.73293
 30
0.0
 10
-0.29323
 20
6.73293
 30
0.0
 10
-0.28767
 20
6.73842
 30
0.0
 10
-0.28492
 20
6.74514
 30
0.0
 10
-0.28492
 20
6.75307
 30
0.0
 10
-0.28492
 20
6.75307
 30
0.0
 10
-0.28492
 20
6.76139
 30
0.0
 10
-0.28775
 20
6.76832
 30
0.0
 10
-0.29349
 20
6.77398
 30
0.0
 10
-0.29349
 20
6.77398
 30
0.0
 10
-0.29923
 20
6.77964
 30
0.0
 10
-0.30634
 20
6.78246
 30
0.0
 10
-0.31492
 20
6.78246
 30
0.0
 10
-0.31492
 20
6.78246
 30
0.0
 10
-0.32352
 20
6.78246
 30
0.0
 10
-0.33068
 20
6.77967
 30
0.0
 10
-0.33637
 20
6.77419
 30
0.0
 10
-0.33637
 20
6.77419
 30
0.0
 10
-0.34207
 20
6.76866
 30
0.0
 10
-0.3449
 20
6.76203
 30
0.0
 10
-0.3449
 20
6.75436
 30
0.0
  0
SPLINE
  5
8F
330
1F
100
AcDbEntity
  8
layer 3
 62
     3
370
     9
100
AcDbSpline
210
0.0
220
0.0
230
1.0
 70
    11
 71
     3
 72
    40
 73
    36
 74
     0
 42
0.0000000001
 43
0.0000000001
 12
1.0
 22
0.0
 32
0.0
 13
1.0
 23
0.0
 33
0.0
 40
0.0
 40
0.0
 40
0.0
 40
0.0
 40
0.1
 40
0.1
 40
0.1
 40
0.1
 40
0.2
 40
0.2
 40
0.2
 40
0.2
 40
0.3
 40
0.3
 40
0.3
 40
0.3
 40
0.4
 40
0.4
 40
0.4
 40
0.4
 40
0.5
 40
0.5
 40
0.5
 40
0.5
 40
0.6
 40
0.6
 40
0.6
 40
0.6
 40
0.7
 40
0.7
 40
0.7
 40
0.7
 40
0.8
 40
0.8
 40
0.8
 40
0.8
 40
1.0
 40
1.0
 40
1.0
 40
1.0
 10
-0.35218
 20
6.66936
 30
0.0
 10
-0.35218
 20
6.66292
 30
0.0
 10
-0.35065
 20
6.65667
 30
0.0
 10
-0.3476
 20
6.65068
 30
0.0
 10
-0.3476
 20
6.65068
 30
0.0
 10
-0.34456
 20
6.64464
 30
0.0
 10
-0.34002
 20
6.63996
 30
0.0
 10
-0.33398
 20
6.63666
 30
0.0
 10
-0.33398
 20
6.63666
 30
0.0
 10
-0.32794
 20
6.63336
 30
0.0
 10
-0.32147
 20
6.6317
 30
0.0
 10
-0.31453
 20
6.6317
 30
0.0
 10
-0.31453
 20
6.6317
 30
0.0
 10
-0.30373
 20
6.6317
 30
0.0
 10
-0.29481
 20
6.63517
 30
0.0
 10
-0.28779
 20
6.64215
 30
0.0
 10
-0.28779
 20
6.64215
 30
0.0
 10
-0.28076
 20
6.64909
 30
0.0
 10
-0.27725
 20
6.65792
 30
0.0
 10
-0.27725
 20
6.66863
 30
0.0
 10
-0.27725
 20
6.66863
 30
0.0
 10
-0.27725
 20
6.67951
 30
0.0
 10
-0.28086
 20
6.68851
 30
0.0
 10
-0.2881
 20
6.69562
 30
0.0
 10
-0.2881
 20
6.69562
 30
0.0
 10
-0.29533
 20
6.70273
 30
0.0
 10
-0.30441
 20
6.70629
 30
0.0
 10
-0.3153
 20
6.70629
 30
0.0
 10
-0.3153
 20
6.70629
 30
0.0
 10
-0.32592
 20
6.70629
 30
0.0
 10
-0.33471
 20
6.70277
 30
0.0
 10
-0.34169
 20
6.69575
 30
0.0
 10
-0.34169
 20
6.69575
 30
0.0
 10
-0.34867
 20
6.68868
 30
0.0
 10
-0.35218
 20
6.67989
 30
0.0
 10
-0.35218
 20
6.66936
 30
0.0
  0
SPLINE
  5
90
330
1F
100
AcDbEntity
  8
layer 3
 62
     3
370
     5
100
AcDbSpline
210
0.0
220
0.0
230
1.0
 70
    27
 71
     3
 72
     8
 73
     4
 74
     0
 42
0.0000000001
 43
0.0000000001
 12
1.0
 22
0.0
 32
0.0
 13
1.0
 23
0.0
 33
0.0
 40
0.0
 40
0.0
 40
0.0
 40
0.0
 40
1.0
 40
1.0
 40
1.0
 40
1.0
 10
0.15992
 20
6.50619
 30
0.0
 10
0.15992
 20
6.50619
 30
0.0
 10
0.15992
 20
6.50619
 30
0.0
 10
0.15992
 20
6.50619
 30
0.0
  0
SPLINE
  5
91
330
1F
100
AcDbEntity
  8
layer 3
 62
     3
370
     5
100
AcDbSpline
210
0.0
220
0.0
230
1.0
 70
    24
 71
     3
 72
     8
 73
     4
 74
     0
 42
0.0000000001
 43
0.0000000001
 12
1.0
 22
0.0
 32
0.0
 13
1.0
 23
0.0
 33
0.0
 40
0.0
 40
0.0
 40
0.0
 40
0.0
 40
1.0
 40
1.0
 40
1.0
 40
1.0
 10
0.15992
 20
5.55246
 30
0.0
 10
0.15992
 20
5.55246
 30
0.0
 10
0.15992
 20
6.50619
 30
0.0
 10
0.15992
 20
6.50619
 30
0.0
  0
SPLINE
  5
92
330
1F
100
AcDbEntity
  8
layer 3
 62
     3
370
     5
100
AcDbSpline
210
0.0
220
0.0
230
1.0
 70
    27
 71
     3
 72
     8
 73
     4
 74
     0
 42
0.0000000001
 43
0.0000000001
 12
1.0
 22
0.0
 32
0.0
 13
1.0
 23
0.0
 33
0.0
 40
0.0
 40
0.0
 40
0.0
 40
0.0
 40
1.0
 40
1.0
 40
1.0
 40
1.0
 10
1.46575
 20
6.50619
 30
0.0
 10
1.46575
 20
6.50619
 30
0.0
 10
1.46575
 20
6.50619
 30
0.0
 10
1.46575
 20
6.50619
 30
0.0
  0
SPLINE
  5
93
330
1F
100
AcDbEntity
  8
layer 3
 62
     3
370
     5
100
AcDbSpline
210
0.0
220
0.0
230
1.0
 70
    24
 71
     3
 72
     8
 73
     4
 74
     0
 42
0.0000000001
 43
0.0000000001
 12
1.0
 22
0.0
 32
0.0
 13
1.0
 23
0.0
 33
0.0
 40
0.0
 40
0.0
 40
0.0
 40
0.0
 40
1.0
 40
1.0
 40
1.0
 40
1.0
 10
1.46575
 20
5.55246
 30
0.0
 10
1.46575
 20
5.55246
 30
0.0
 10
1.46575
 20
6.50619
 30
0.0
 10
1.46575
 20
6.50619
 30
0.0
  0
SPLINE
  5
94
330
1F
100
AcDbEntity
  8
layer 3
 62
     3
370
     5
100
AcDbSpline
210
0.0
220
0.0
230
1.0
 70
    27
 71
     3
 72
     8
 73
     4
 74
     0
 42
0.0000000001
 43
0.0000000001
 12
1.0
 22
0.0
 32
0.0
 13
1.0
 23
0.0
 33
0.0
 40
0.0
 40
0.0
 40
0.0
 40
0.0
 40
1.0
 40
1.0
 40
1.0
 40
1.0
 10
1.26012
 20
6.47406
 30
0.0
 10
1.26012
 20
6.47406
 30
0.0
 10
1.26012
 20
6.47406
 30
0.0
 10
1.26012
 20
6.47406
 30
0.0
  0
SPLINE
  5
95
330
1F
100
AcDbEntity
  8
layer 3
 62
     3
370
     5
100
AcDbSpline
210
0.0
220
0.0
230
1.0
 70
    24
 71
     3
 72
     8
 73
     4
 74
     0
 42
0.0000000001
 43
0.0000000001
 12
1.0
 22
0.0
 32
0.0
 13
1.0
 23
0.0
 33
0.0
 40
0.0
 40
0.0
 40
0.0
 40
0.0
 40
1.0
 40
1.0
 40
1.0
 40
1.0
 10
0.36555
 20
6.47406
 30
0.0
 10
0.36555
 20
6.47406
 30
0.0
 10
1.26012
 20
6.47406
 30
0.0
 10
1.26012
 20
6.47406
 30
0.0
  0
SPLINE
  5
96
330
1F
100
AcDbEntity
  8
layer 3
 62
     3
370
     9
100
AcDbSpline
210
0.0
220
0.0
230
1.0
 70
    27
 71
     3
 72
    12
 73
     8
 74
     0
 42
0.0000000001
 43
0.0000000001
 12
1.0
 22
0.0
 32
0.0
 13
1.0
 23
0.0
 33
0.0
 40
0.0
 40
0.0
 40
0.0
 40
0.0
 40
0.3333333333333333
 40
0.3333333333333333
 40
0.3333333333333333
 40
0.3333333333333333
 40
1.0
 40
1.0
 40
1.0
 40
1.0
 10
0.36555
 20
6.50833
 30
0.0
 10
0.36555
 20
6.50833
 30
0.0
 10
0.15992
 20
6.47406
 30
0.0
 10
0.15992
 20
6.47406
 30
0.0
 10
0.15992
 20
6.47406
 30
0.0
 10
0.15992
 20
6.47406
 30
0.0
 10
0.36555
 20
6.50833
 30
0.0
 10
0.36555
 20
6.50833
 30
0.0
  0
SPLINE
  5
97
330
1F
100
AcDbEntity
  8
layer 3
 62
     3
370
     9
100
AcDbSpline
210
0.0
220
0.0
230
1.0
 70
    11
 71
     3
 72
    16
 73
    12
 74
     0
 42
0.0000000001
 43
0.0000000001
 12
1.0
 22
0.0
 32
0.0
 13
1.0
 23
0.0
 33
0.0
 40
0.0
 40
0.0
 40
0.0
 40
0.0
 40
0.25
 40
0.25
 40
0.25
 40
0.25
 40
0.5
 40
0.5
 40
0.5
 40
0.5
 40
1.0
 40
1.0
 40
1.0
 40
1.0
 10
0.15992
 20
6.47406
 30
0.0
 10
0.15992
 20
6.47406
 30
0.0
 10
0.36555
 20
6.43978
 30
0.0
 10
0.36555
 20
6.43978
 30
0.0
 10
0.36555
 20
6.43978
 30
0.0
 10
0.36555
 20
6.43978
 30
0.0
 10
0.36555
 20
6.50833
 30
0.0
 10
0.36555
 20
6.50833
 30
0.0
 10
0.36555
 20
6.50833
 30
0.0
 10
0.36555
 20
6.50833
 30
0.0
 10
0.15992
 20
6.47406
 30
0.0
 10
0.15992
 20
6.47406
 30
0.0
  0
SPLINE
  5
98
330
1F
100
AcDbEntity
  8
layer 3
 62
     3
370
    18
100
AcDbSpline
210
0.0
220
0.0
230
1.0
 70
    24
 71
     3
 72
     8
 73
     4
 74
     0
 42
0.0000000001
 43
0.0000000001
 12
1.0
 22
0.0
 32
0.0
 13
1.0
 23
0.0
 33
0.0
 40
0.0
 40
0.0
 40
0.0
 40
0.0
 40
1.0
 40
1.0
 40
1.0
 40
1.0
 10
0.36555
 20
6.50833
 30
0.0
 10
0.36555
 20
6.50833
 30
0.0
 10
0.15992
 20
6.47406
 30
0.0
 10
0.15992
 20
6.47406
 30
0.0
  0
SPLINE
  5
99
330
1F
100
AcDbEntity
  8
layer 3
 62
     3
370
    18
100
AcDbSpline
210
0.0
220
0.0
230
1.0
 70
     8
 71
     3
 72
    12
 73
     8
 74
     0
 42
0.0000000001
 43
0.0000000001
 12
1.0
 22
0.0
 32
0.0
 13
1.0
 23
0.0
 33
0.0
 40
0.0
 40
0.0
 40
0.0
 40
0.0
 40
0.3333333333333333
 40
0.3333333333333333
 40
0.3333333333333333
 40
0.3333333333333333
 40
1.0
 40
1.0
 40
1.0
 40
1.0
 10
0.15992
 20
6.47406
 30
0.0
 10
0.15992
 20
6.47406
 30
0.0
 10
0.36555
 20
6.43978
 30
0.0
 10
0.36555
 20
6.43978
 30
0.0
 10
0.36555
 20
6.43978
 30
0.0
 10
0.36555
 20
6.43978
 30
0.0
 10
0.36555
 20
6.50833
 30
0.0
 10
0.36555
 20
6.50833
 30
0.0
  0
SPLINE
  5
9A
330
1F
100
AcDbEntity
  8
layer 3
 62
     3
370
     9
100
AcDbSpline
210
0.0
220
0.0
230
1.0
 70
    27
 71
     3
 72
    12
 73
     8
 74
     0
 42
0.0000000001
 43
0.0000000001
 12
1.0
 22
0.0
 32
0.0
 13
1.0
 23
0.0
 33
0.0
 40
0.0
 40
0.0
 40
0.0
 40
0.0
 40
0.3333333333333333
 40
0.3333333333333333
 40
0.3333333333333333
 40
0.3333333333333333
 40
1.0
 40
1.0
 40
1.0
 40
1.0
 10
1.26012
 20
6.50833
 30
0.0
 10
1.26012
 20
6.50833
 30
0.0
 10
1.46575
 20
6.47406
 30
0.0
 10
1.46575
 20
6.47406
 30
0.0
 10
1.46575
 20
6.47406
 30
0.0
 10
1.46575
 20
6.47406
 30
0.0
 10
1.26012
 20
6.50833
 30
0.0
 10
1.26012
 20
6.50833
 30
0.0
  0
SPLINE
  5
9B
330
1F
100
AcDbEntity
  8
layer 3
 62
     3
370
     9
100
AcDbSpline
210
0.0
220
0.0
230
1.0
 70
    11
 71
     3
 72
    16
 73
    12
 74
     0
 42
0.0000000001
 43
0.0000000001
 12
1.0
 22
0.0
 32
0.0
 13
1.0
 23
0.0
 33
0.0
 40
0.0
 40
0.0
 40
0.0
 40
0.0
 40
0.25
 40
0.25
 40
0.25
 40
0.25
 40
0.5
 40
0.5
 40
0.5
 40
0.5
 40
1.0
 40
1.0
 40
1.0
 40
1.0
 10
1.46575
 20
6.47406
 30
0.0
 10
1.46575
 20
6.47406
 30
0.0
 10
1.26012
 20
6.43978
 30
0.0
 10
1.26012
 20
6.43978
 30
0.0
 10
1.26012
 20
6.43978
 30
0.0
 10
1.26012
 20
6.43978
 30
0.0
 10
1.26012
 20
6.50833
 30
0.0
 10
1.26012
 20
6.50833
 30
0.0
 10
1.26012
 20
6.50833
 30
0.0
 10
1.26012
 20
6.50833
 30
0.0
 10
1.46575
 20
6.47406
 30
0.0
 10
1.46575
 20
6.47406
 30
0.0
  0
SPLINE
  5
9C
330
1F
100
AcDbEntity
  8
layer 3
 62
     3
370
    18
100
AcDbSpline
210
0.0
220
0.0
230
1.0
 70
    24
 71
     3
 72
     8
 73
     4
 74
     0
 42
0.0000000001
 43
0.0000000001
 12
1.0
 22
0.0
 32
0.0
 13
1.0
 23
0.0
 33
0.0
 40
0.0
 40
0.0
 40
0.0
 40
0.0
 40
1.0
 40
1.0
 40
1.0
 40
1.0
 10
1.26012
 20
6.50833
 30
0.0
 10
1.26012
 20
6.50833
 30
0.0
 10
1.46575
 20
6.47406
 30
0.0
 10
1.46575
 20
6.47406
 30
0.0
  0
SPLINE
  5
9D
330
1F
100
AcDbEntity
  8
layer 3
 62
     3
370
    18
100
AcDbSpline
210
0.0
220
0.0
230
1.0
 70
     8
 71
     3
 72
    12
 73
     8
 74
     0
 42
0.0000000001
 43
0.0000000001
 12
1.0
 22
0.0
 32
0.0
 13
1.0
 23
0.0
 33
0.0
 40
0.0
 40
0.0
 40
0.0
 40
0.0
 40
0.3333333333333333
 40
0.3333333333333333
 40
0.3333333333333333
 40
0.3333333333333333
 40
1.0
 40
1.0
 40
1.0
 40
1.0
 10
1.46575
 20
6.47406
 30
0.0
 10
1.46575
 20
6.47406
 30
0.0
 10
1.26012
 20
6.43978
 30
0.0
 10
1.26012
 20
6.43978
 30
0.0
 10
1.26012
 20
6.43978
 30
0.0
 10
1.26012
 20
6.43978
 30
0.0
 10
1.26012
 20
6.50833
 30
0.0
 10
1.26012
 20
6.50833
 30
0.0
  0
SPLINE
  5
9E
330
1F
100
AcDbEntity
  8
layer 3
 62
     3
370
     9
100
AcDbSpline
210
0.0
220
0.0
230
1.0
 70
    11
 71
     3
 72
    92
 73
    88
 74
     0
 42
0.0000000001
 43
0.0000000001
 12
1.0
 22
0.0
 32
0.0
 13
1.0
 23
0.0
 33
0.0
 40
0.0
 40
0.0
 40
0.0
 40
0.0
 40
0.0434782608695652
 40
0.0434782608695652
 40
0.0434782608695652
 40
0.0434782608695652
 40
0.0869565217391304
 40
0.0869565217391304
 40
0.0869565217391304
 40
0.0869565217391304
 40
0.1304347826086956
 40
0.1304347826086956
 40
0.1304347826086956
 40
0.1304347826086956
 40
0.1739130434782609
 40
0.1739130434782609
 40
0.1739130434782609
 40
0.1739130434782609
 40
0.2173913043478261
 40
0.2173913043478261
 40
0.2173913043478261
 40
0.2173913043478261
 40
0.2608695652173913
 40
0.2608695652173913
 40
0.2608695652173913
 40
0.2608695652173913
 40
0.3043478260869565
 40
0.3043478260869565
 40
0.3043478260869565
 40
0.3043478260869565
 40
0.3478260869565217
 40
0.3478260869565217
 40
0.3478260869565217
 40
0.3478260869565217
 40
0.391304347826087
 40
0.391304347826087
 40
0.391304347826087
 40
0.391304347826087
 40
0.4347826086956522
 40
0.4347826086956522
 40
0.4347826086956522
 40
0.4347826086956522
 40
0.4782608695652174
 40
0.4782608695652174
 40
0.4782608695652174
 40
0.4782608695652174
 40
0.5217391304347826
 40
0.5217391304347826
 40
0.5217391304347826
 40
0.5217391304347826
 40
0.5652173913043478
 40
0.5652173913043478
 40
0.5652173913043478
 40
0.5652173913043478
 40
0.6086956521739131
 40
0.6086956521739131
 40
0.6086956521739131
 40
0.6086956521739131
 40
0.6521739130434783
 40
0.6521739130434783
 40
0.6521739130434783
 40
0.6521739130434783
 40
0.6956521739130435
 40
0.6956521739130435
 40
0.6956521739130435
 40
0.6956521739130435
 40
0.7391304347826086
 40
0.7391304347826086
 40
0.7391304347826086
 40
0.7391304347826086
 40
0.782608695652174
 40
0.782608695652174
 40
0.782608695652174
 40
0.782608695652174
 40
0.8260869565217391
 40
0.8260869565217391
 40
0.8260869565217391
 40
0.8260869565217391
 40
0.8695652173913043
 40
0.8695652173913043
 40
0.8695652173913043
 40
0.8695652173913043
 40
0.9130434782608695
 40
0.9130434782608695
 40
0.9130434782608695
 40
0.9130434782608695
 40
1.0
 40
1.0
 40
1.0
 40
1.0
 10
0.57335
 20
6.66447
 30
0.0
 10
0.57335
 20
6.66447
 30
0.0
 10
0.59708
 20
6.66648
 30
0.0
 10
0.59708
 20
6.66648
 30
0.0
 10
0.59708
 20
6.66648
 30
0.0
 10
0.59884
 20
6.65491
 30
0.0
 10
0.60291
 20
6.64626
 30
0.0
 10
0.60928
 20
6.64044
 30
0.0
 10
0.60928
 20
6.64044
 30
0.0
 10
0.61571
 20
6.63461
 30
0.0
 10
0.62343
 20
6.6317
 30
0.0
 10
0.63247
 20
6.6317
 30
0.0
 10
0.63247
 20
6.6317
 30
0.0
 10
0.64335
 20
6.6317
 30
0.0
 10
0.65256
 20
6.63581
 30
0.0
 10
0.66005
 20
6.64399
 30
0.0
 10
0.66005
 20
6.64399
 30
0.0
 10
0.6676
 20
6.65222
 30
0.0
 10
0.67137
 20
6.6631
 30
0.0
 10
0.67137
 20
6.67664
 30
0.0
 10
0.67137
 20
6.67664
 30
0.0
 10
0.67137
 20
6.68953
 30
0.0
 10
0.66777
 20
6.69969
 30
0.0
 10
0.66053
 20
6.70714
 30
0.0
 10
0.66053
 20
6.70714
 30
0.0
 10
0.65329
 20
6.71459
 30
0.0
 10
0.64382
 20
6.71832
 30
0.0
 10
0.63208
 20
6.71832
 30
0.0
 10
0.63208
 20
6.71832
 30
0.0
 10
0.62479
 20
6.71832
 30
0.0
 10
0.61824
 20
6.71666
 30
0.0
 10
0.61237
 20
6.71336
 30
0.0
 10
0.61237
 20
6.71336
 30
0.0
 10
0.60651
 20
6.71006
 30
0.0
 10
0.60192
 20
6.70578
 30
0.0
 10
0.59858
 20
6.70051
 30
0.0
 10
0.59858
 20
6.70051
 30
0.0
 10
0.59858
 20
6.70051
 30
0.0
 10
0.57737
 20
6.70325
 30
0.0
 10
0.57737
 20
6.70325
 30
0.0
 10
0.57737
 20
6.70325
 30
0.0
 10
0.57737
 20
6.70325
 30
0.0
 10
0.5952
 20
6.79776
 30
0.0
 10
0.5952
 20
6.79776
 30
0.0
 10
0.5952
 20
6.79776
 30
0.0
 10
0.5952
 20
6.79776
 30
0.0
 10
0.6867
 20
6.79776
 30
0.0
 10
0.6867
 20
6.79776
 30
0.0
 10
0.6867
 20
6.79776
 30
0.0
 10
0.6867
 20
6.79776
 30
0.0
 10
0.6867
 20
6.77616
 30
0.0
 10
0.6867
 20
6.77616
 30
0.0
 10
0.6867
 20
6.77616
 30
0.0
 10
0.6867
 20
6.77616
 30
0.0
 10
0.61327
 20
6.77616
 30
0.0
 10
0.61327
 20
6.77616
 30
0.0
 10
0.61327
 20
6.77616
 30
0.0
 10
0.61327
 20
6.77616
 30
0.0
 10
0.60334
 20
6.72672
 30
0.0
 10
0.60334
 20
6.72672
 30
0.0
 10
0.60334
 20
6.72672
 30
0.0
 10
0.61439
 20
6.73444
 30
0.0
 10
0.62599
 20
6.73829
 30
0.0
 10
0.63812
 20
6.73829
 30
0.0
 10
0.63812
 20
6.73829
 30
0.0
 10
0.65419
 20
6.73829
 30
0.0
 10
0.66773
 20
6.73272
 30
0.0
 10
0.67878
 20
6.72158
 30
0.0
 10
0.67878
 20
6.72158
 30
0.0
 10
0.68984
 20
6.71044
 30
0.0
 10
0.69536
 20
6.69613
 30
0.0
 10
0.69536
 20
6.67865
 30
0.0
 10
0.69536
 20
6.67865
 30
0.0
 10
0.69536
 20
6.66199
 30
0.0
 10
0.69048
 20
6.64759
 30
0.0
 10
0.68079
 20
6.63546
 30
0.0
 10
0.68079
 20
6.63546
 30
0.0
 10
0.66896
 20
6.6206
 30
0.0
 10
0.65286
 20
6.61314
 30
0.0
 10
0.63247
 20
6.61314
 30
0.0
 10
0.63247
 20
6.61314
 30
0.0
 10
0.61571
 20
6.61314
 30
0.0
 10
0.60204
 20
6.61782
 30
0.0
 10
0.59147
 20
6.6272
 30
0.0
 10
0.59147
 20
6.6272
 30
0.0
 10
0.58088
 20
6.63658
 30
0.0
 10
0.57484
 20
6.649
 30
0.0
 10
0.57335
 20
6.66447
 30
0.0
  0
SPLINE
  5
9F
330
1F
100
AcDbEntity
  8
layer 3
 62
     3
370
     9
100
AcDbSpline
210
0.0
220
0.0
230
1.0
 70
    11
 71
     3
 72
    52
 73
    48
 74
     0
 42
0.0000000001
 43
0.0000000001
 12
1.0
 22
0.0
 32
0.0
 13
1.0
 23
0.0
 33
0.0
 40
0.0
 40
0.0
 40
0.0
 40
0.0
 40
0.0769230769230769
 40
0.0769230769230769
 40
0.0769230769230769
 40
0.0769230769230769
 40
0.1538461538461539
 40
0.1538461538461539
 40
0.1538461538461539
 40
0.1538461538461539
 40
0.2307692307692308
 40
0.2307692307692308
 40
0.2307692307692308
 40
0.2307692307692308
 40
0.3076923076923077
 40
0.3076923076923077
 40
0.3076923076923077
 40
0.3076923076923077
 40
0.3846153846153846
 40
0.3846153846153846
 40
0.3846153846153846
 40
0.3846153846153846
 40
0.4615384615384616
 40
0.4615384615384616
 40
0.4615384615384616
 40
0.4615384615384616
 40
0.5384615384615384
 40
0.5384615384615384
 40
0.5384615384615384
 40
0.5384615384615384
 40
0.6153846153846154
 40
0.6153846153846154
 40
0.6153846153846154
 40
0.6153846153846154
 40
0.6923076923076923
 40
0.6923076923076923
 40
0.6923076923076923
 40
0.6923076923076923
 40
0.7692307692307693
 40
0.7692307692307693
 40
0.7692307692307693
 40
0.7692307692307693
 40
0.8461538461538461
 40
0.8461538461538461
 40
0.8461538461538461
 40
0.8461538461538461
 40
1.0
 40
1.0
 40
1.0
 40
1.0
 10
0.71631
 20
6.70701
 30
0.0
 10
0.71631
 20
6.72878
 30
0.0
 10
0.71854
 20
6.7463
 30
0.0
 10
0.72304
 20
6.75954
 30
0.0
 10
0.72304
 20
6.75954
 30
0.0
 10
0.72749
 20
6.77282
 30
0.0
 10
0.73417
 20
6.78306
 30
0.0
 10
0.743
 20
6.79026
 30
0.0
 10
0.743
 20
6.79026
 30
0.0
 10
0.75183
 20
6.79745
 30
0.0
 10
0.76293
 20
6.80106
 30
0.0
 10
0.77629
 20
6.80106
 30
0.0
 10
0.77629
 20
6.80106
 30
0.0
 10
0.78619
 20
6.80106
 30
0.0
 10
0.79484
 20
6.79904
 30
0.0
 10
0.80229
 20
6.79505
 30
0.0
 10
0.80229
 20
6.79505
 30
0.0
 10
0.80975
 20
6.79111
 30
0.0
 10
0.81588
 20
6.78537
 30
0.0
 10
0.82076
 20
6.77788
 30
0.0
 10
0.82076
 20
6.77788
 30
0.0
 10
0.8256
 20
6.77038
 30
0.0
 10
0.82942
 20
6.76126
 30
0.0
 10
0.83216
 20
6.7505
 30
0.0
 10
0.83216
 20
6.7505
 30
0.0
 10
0.83494
 20
6.73974
 30
0.0
 10
0.83631
 20
6.72526
 30
0.0
 10
0.83631
 20
6.70701
 30
0.0
 10
0.83631
 20
6.70701
 30
0.0
 10
0.83631
 20
6.68542
 30
0.0
 10
0.83408
 20
6.66803
 30
0.0
 10
0.82967
 20
6.65475
 30
0.0
 10
0.82967
 20
6.65475
 30
0.0
 10
0.82522
 20
6.64147
 30
0.0
 10
0.81857
 20
6.63123
 30
0.0
 10
0.80975
 20
6.62399
 30
0.0
 10
0.80975
 20
6.62399
 30
0.0
 10
0.80093
 20
6.61675
 30
0.0
 10
0.78978
 20
6.61314
 30
0.0
 10
0.77629
 20
6.61314
 30
0.0
 10
0.77629
 20
6.61314
 30
0.0
 10
0.75855
 20
6.61314
 30
0.0
 10
0.74463
 20
6.61949
 30
0.0
 10
0.73452
 20
6.63221
 30
0.0
 10
0.73452
 20
6.63221
 30
0.0
 10
0.7224
 20
6.64751
 30
0.0
 10
0.71631
 20
6.67249
 30
0.0
 10
0.71631
 20
6.70701
 30
0.0
  0
SPLINE
  5
A0
330
1F
100
AcDbEntity
  8
layer 3
 62
     3
370
     9
100
AcDbSpline
210
0.0
220
0.0
230
1.0
 70
    11
 71
     3
 72
    36
 73
    32
 74
     0
 42
0.0000000001
 43
0.0000000001
 12
1.0
 22
0.0
 32
0.0
 13
1.0
 23
0.0
 33
0.0
 40
0.0
 40
0.0
 40
0.0
 40
0.0
 40
0.1111111111111111
 40
0.1111111111111111
 40
0.1111111111111111
 40
0.1111111111111111
 40
0.2222222222222222
 40
0.2222222222222222
 40
0.2222222222222222
 40
0.2222222222222222
 40
0.3333333333333333
 40
0.3333333333333333
 40
0.3333333333333333
 40
0.3333333333333333
 40
0.4444444444444444
 40
0.4444444444444444
 40
0.4444444444444444
 40
0.4444444444444444
 40
0.5555555555555556
 40
0.5555555555555556
 40
0.5555555555555556
 40
0.5555555555555556
 40
0.6666666666666666
 40
0.6666666666666666
 40
0.6666666666666666
 40
0.6666666666666666
 40
0.7777777777777778
 40
0.7777777777777778
 40
0.7777777777777778
 40
0.7777777777777778
 40
1.0
 40
1.0
 40
1.0
 40
1.0
 10
0.73953
 20
6.70701
 30
0.0
 10
0.73953
 20
6.67681
 30
0.0
 10
0.74309
 20
6.65672
 30
0.0
 10
0.75016
 20
6.64669
 30
0.0
 10
0.75016
 20
6.64669
 30
0.0
 10
0.75723
 20
6.63671
 30
0.0
 10
0.76592
 20
6.6317
 30
0.0
 10
0.77629
 20
6.6317
 30
0.0
 10
0.77629
 20
6.6317
 30
0.0
 10
0.7867
 20
6.6317
 30
0.0
 10
0.7954
 20
6.63676
 30
0.0
 10
0.80247
 20
6.64677
 30
0.0
 10
0.80247
 20
6.64677
 30
0.0
 10
0.80954
 20
6.6568
 30
0.0
 10
0.81309
 20
6.67689
 30
0.0
 10
0.81309
 20
6.70701
 30
0.0
 10
0.81309
 20
6.70701
 30
0.0
 10
0.81309
 20
6.73731
 30
0.0
 10
0.80954
 20
6.75744
 30
0.0
 10
0.80247
 20
6.76738
 30
0.0
 10
0.80247
 20
6.76738
 30
0.0
 10
0.7954
 20
6.77736
 30
0.0
 10
0.78661
 20
6.78233
 30
0.0
 10
0.77608
 20
6.78233
 30
0.0
 10
0.77608
 20
6.78233
 30
0.0
 10
0.76567
 20
6.78233
 30
0.0
 10
0.7574
 20
6.77792
 30
0.0
 10
0.75119
 20
6.76914
 30
0.0
 10
0.75119
 20
6.76914
 30
0.0
 10
0.74343
 20
6.75796
 30
0.0
 10
0.73953
 20
6.73721
 30
0.0
 10
0.73953
 20
6.70701
 30
0.0
  0
SPLINE
  5
A1
330
1F
100
AcDbEntity
  8
layer 3
 62
     3
370
     9
100
AcDbSpline
210
0.0
220
0.0
230
1.0
 70
    11
 71
     3
 72
    20
 73
    16
 74
     0
 42
0.0000000001
 43
0.0000000001
 12
1.0
 22
0.0
 32
0.0
 13
1.0
 23
0.0
 33
0.0
 40
0.0
 40
0.0
 40
0.0
 40
0.0
 40
0.2
 40
0.2
 40
0.2
 40
0.2
 40
0.4
 40
0.4
 40
0.4
 40
0.4
 40
0.6
 40
0.6
 40
0.6
 40
0.6
 40
1.0
 40
1.0
 40
1.0
 40
1.0
 10
0.87196
 20
6.61627
 30
0.0
 10
0.87196
 20
6.61627
 30
0.0
 10
0.87196
 20
6.64202
 30
0.0
 10
0.87196
 20
6.64202
 30
0.0
 10
0.87196
 20
6.64202
 30
0.0
 10
0.87196
 20
6.64202
 30
0.0
 10
0.8977
 20
6.64202
 30
0.0
 10
0.8977
 20
6.64202
 30
0.0
 10
0.8977
 20
6.64202
 30
0.0
 10
0.8977
 20
6.64202
 30
0.0
 10
0.8977
 20
6.61627
 30
0.0
 10
0.8977
 20
6.61627
 30
0.0
 10
0.8977
 20
6.61627
 30
0.0
 10
0.8977
 20
6.61627
 30
0.0
 10
0.87196
 20
6.61627
 30
0.0
 10
0.87196
 20
6.61627
 30
0.0
  0
SPLINE
  5
A2
330
1F
100
AcDbEntity
  8
layer 3
 62
     3
370
     9
100
AcDbSpline
210
0.0
220
0.0
230
1.0
 70
    11
 71
     3
 72
    68
 73
    64
 74
     0
 42
0.0000000001
 43
0.0000000001
 12
1.0
 22
0.0
 32
0.0
 13
1.0
 23
0.0
 33
0.0
 40
0.0
 40
0.0
 40
0.0
 40
0.0
 40
0.0588235294117647
 40
0.0588235294117647
 40
0.0588235294117647
 40
0.0588235294117647
 40
0.1176470588235294
 40
0.1176470588235294
 40
0.1176470588235294
 40
0.1176470588235294
 40
0.1764705882352941
 40
0.1764705882352941
 40
0.1764705882352941
 40
0.1764705882352941
 40
0.2352941176470588
 40
0.2352941176470588
 40
0.2352941176470588
 40
0.2352941176470588
 40
0.2941176470588235
 40
0.2941176470588235
 40
0.2941176470588235
 40
0.2941176470588235
 40
0.3529411764705883
 40
0.3529411764705883
 40
0.3529411764705883
 40
0.3529411764705883
 40
0.4117647058823529
 40
0.4117647058823529
 40
0.4117647058823529
 40
0.4117647058823529
 40
0.4705882352941176
 40
0.4705882352941176
 40
0.4705882352941176
 40
0.4705882352941176
 40
0.5294117647058824
 40
0.5294117647058824
 40
0.5294117647058824
 40
0.5294117647058824
 40
0.5882352941176471
 40
0.5882352941176471
 40
0.5882352941176471
 40
0.5882352941176471
 40
0.6470588235294118
 40
0.6470588235294118
 40
0.6470588235294118
 40
0.6470588235294118
 40
0.7058823529411765
 40
0.7058823529411765
 40
0.7058823529411765
 40
0.7058823529411765
 40
0.7647058823529411
 40
0.7647058823529411
 40
0.7647058823529411
 40
0.7647058823529411
 40
0.8235294117647058
 40
0.8235294117647058
 40
0.8235294117647058
 40
0.8235294117647058
 40
0.8823529411764706
 40
0.8823529411764706
 40
0.8823529411764706
 40
0.8823529411764706
 40
1.0
 40
1.0
 40
1.0
 40
1.0
 10
0.96548
 20
6.71605
 30
0.0
 10
0.9561
 20
6.71948
 30
0.0
 10
0.94916
 20
6.72436
 30
0.0
 10
0.94462
 20
6.73075
 30
0.0
 10
0.94462
 20
6.73075
 30
0.0
 10
0.94012
 20
6.73709
 30
0.0
 10
0.93785
 20
6.74471
 30
0.0
 10
0.93785
 20
6.75359
 30
0.0
 10
0.93785
 20
6.75359
 30
0.0
 10
0.93785
 20
6.76699
 30
0.0
 10
0.94265
 20
6.77821
 30
0.0
 10
0.95229
 20
6.78734
 30
0.0
 10
0.95229
 20
6.78734
 30
0.0
 10
0.96193
 20
6.79647
 30
0.0
 10
0.9747
 20
6.80106
 30
0.0
 10
0.99067
 20
6.80106
 30
0.0
 10
0.99067
 20
6.80106
 30
0.0
 10
1.00674
 20
6.80106
 30
0.0
 10
1.01968
 20
6.79638
 30
0.0
 10
1.02949
 20
6.78704
 30
0.0
 10
1.02949
 20
6.78704
 30
0.0
 10
1.03926
 20
6.7777
 30
0.0
 10
1.04415
 20
6.76635
 30
0.0
 10
1.04415
 20
6.75294
 30
0.0
 10
1.04415
 20
6.75294
 30
0.0
 10
1.04415
 20
6.74442
 30
0.0
 10
1.04191
 20
6.737
 30
0.0
 10
1.03745
 20
6.73066
 30
0.0
 10
1.03745
 20
6.73066
 30
0.0
 10
1.03296
 20
6.72436
 30
0.0
 10
1.02619
 20
6.71948
 30
0.0
 10
1.01707
 20
6.71605
 30
0.0
 10
1.01707
 20
6.71605
 30
0.0
 10
1.02834
 20
6.71236
 30
0.0
 10
1.03694
 20
6.70645
 30
0.0
 10
1.04285
 20
6.69823
 30
0.0
 10
1.04285
 20
6.69823
 30
0.0
 10
1.04873
 20
6.69005
 30
0.0
 10
1.05168
 20
6.68024
 30
0.0
 10
1.05168
 20
6.66888
 30
0.0
 10
1.05168
 20
6.66888
 30
0.0
 10
1.05168
 20
6.65312
 30
0.0
 10
1.04612
 20
6.63992
 30
0.0
 10
1.03502
 20
6.62921
 30
0.0
 10
1.03502
 20
6.62921
 30
0.0
 10
1.02388
 20
6.6185
 30
0.0
 10
1.00922
 20
6.61314
 30
0.0
 10
0.99106
 20
6.61314
 30
0.0
 10
0.99106
 20
6.61314
 30
0.0
 10
0.97289
 20
6.61314
 30
0.0
 10
0.95829
 20
6.6185
 30
0.0
 10
0.94714
 20
6.62926
 30
0.0
 10
0.94714
 20
6.62926
 30
0.0
 10
0.93601
 20
6.64001
 30
0.0
 10
0.93043
 20
6.65342
 30
0.0
 10
0.93043
 20
6.66949
 30
0.0
 10
0.93043
 20
6.66949
 30
0.0
 10
0.93043
 20
6.68144
 30
0.0
 10
0.93348
 20
6.69146
 30
0.0
 10
0.93956
 20
6.69956
 30
0.0
 10
0.93956
 20
6.69956
 30
0.0
 10
0.9456
 20
6.70762
 30
0.0
 10
0.95426
 20
6.71314
 30
0.0
 10
0.96548
 20
6.71605
 30
0.0
  0
SPLINE
  5
A3
330
1F
100
AcDbEntity
  8
layer 3
 62
     3
370
     9
100
AcDbSpline
210
0.0
220
0.0
230
1.0
 70
    11
 71
     3
 72
    36
 73
    32
 74
     0
 42
0.0000000001
 43
0.0000000001
 12
1.0
 22
0.0
 32
0.0
 13
1.0
 23
0.0
 33
0.0
 40
0.0
 40
0.0
 40
0.0
 40
0.0
 40
0.1111111111111111
 40
0.1111111111111111
 40
0.1111111111111111
 40
0.1111111111111111
 40
0.2222222222222222
 40
0.2222222222222222
 40
0.2222222222222222
 40
0.2222222222222222
 40
0.3333333333333333
 40
0.3333333333333333
 40
0.3333333333333333
 40
0.3333333333333333
 40
0.4444444444444444
 40
0.4444444444444444
 40
0.4444444444444444
 40
0.4444444444444444
 40
0.5555555555555556
 40
0.5555555555555556
 40
0.5555555555555556
 40
0.5555555555555556
 40
0.6666666666666666
 40
0.6666666666666666
 40
0.6666666666666666
 40
0.6666666666666666
 40
0.7777777777777778
 40
0.7777777777777778
 40
0.7777777777777778
 40
0.7777777777777778
 40
1.0
 40
1.0
 40
1.0
 40
1.0
 10
0.96094
 20
6.75436
 30
0.0
 10
0.96094
 20
6.74566
 30
0.0
 10
0.96377
 20
6.73854
 30
0.0
 10
0.96934
 20
6.73302
 30
0.0
 10
0.96934
 20
6.73302
 30
0.0
 10
0.97495
 20
6.72749
 30
0.0
 10
0.98223
 20
6.72471
 30
0.0
 10
0.99119
 20
6.72471
 30
0.0
 10
0.99119
 20
6.72471
 30
0.0
 10
0.99989
 20
6.72471
 30
0.0
 10
1.00704
 20
6.72745
 30
0.0
 10
1.01261
 20
6.73293
 30
0.0
 10
1.01261
 20
6.73293
 30
0.0
 10
1.01818
 20
6.73842
 30
0.0
 10
1.02092
 20
6.74514
 30
0.0
 10
1.02092
 20
6.75307
 30
0.0
 10
1.02092
 20
6.75307
 30
0.0
 10
1.02092
 20
6.76139
 30
0.0
 10
1.0181
 20
6.76832
 30
0.0
 10
1.01235
 20
6.77398
 30
0.0
 10
1.01235
 20
6.77398
 30
0.0
 10
1.00661
 20
6.77964
 30
0.0
 10
0.9995
 20
6.78246
 30
0.0
 10
0.99093
 20
6.78246
 30
0.0
 10
0.99093
 20
6.78246
 30
0.0
 10
0.98232
 20
6.78246
 30
0.0
 10
0.97516
 20
6.77967
 30
0.0
 10
0.96947
 20
6.77419
 30
0.0
 10
0.96947
 20
6.77419
 30
0.0
 10
0.96377
 20
6.76866
 30
0.0
 10
0.96094
 20
6.76203
 30
0.0
 10
0.96094
 20
6.75436
 30
0.0
  0
SPLINE
  5
A4
330
1F
100
AcDbEntity
  8
layer 3
 62
     3
370
     9
100
AcDbSpline
210
0.0
220
0.0
230
1.0
 70
    11
 71
     3
 72
    40
 73
    36
 74
     0
 42
0.0000000001
 43
0.0000000001
 12
1.0
 22
0.0
 32
0.0
 13
1.0
 23
0.0
 33
0.0
 40
0.0
 40
0.0
 40
0.0
 40
0.0
 40
0.1
 40
0.1
 40
0.1
 40
0.1
 40
0.2
 40
0.2
 40
0.2
 40
0.2
 40
0.3
 40
0.3
 40
0.3
 40
0.3
 40
0.4
 40
0.4
 40
0.4
 40
0.4
 40
0.5
 40
0.5
 40
0.5
 40
0.5
 40
0.6
 40
0.6
 40
0.6
 40
0.6
 40
0.7
 40
0.7
 40
0.7
 40
0.7
 40
0.8
 40
0.8
 40
0.8
 40
0.8
 40
1.0
 40
1.0
 40
1.0
 40
1.0
 10
0.95366
 20
6.66936
 30
0.0
 10
0.95366
 20
6.66292
 30
0.0
 10
0.9552
 20
6.65667
 30
0.0
 10
0.95824
 20
6.65068
 30
0.0
 10
0.95824
 20
6.65068
 30
0.0
 10
0.96129
 20
6.64464
 30
0.0
 10
0.96582
 20
6.63996
 30
0.0
 10
0.97187
 20
6.63666
 30
0.0
 10
0.97187
 20
6.63666
 30
0.0
 10
0.97791
 20
6.63336
 30
0.0
 10
0.98437
 20
6.6317
 30
0.0
 10
0.99131
 20
6.6317
 30
0.0
 10
0.99131
 20
6.6317
 30
0.0
 10
1.00211
 20
6.6317
 30
0.0
 10
1.01102
 20
6.63517
 30
0.0
 10
1.01805
 20
6.64215
 30
0.0
 10
1.01805
 20
6.64215
 30
0.0
 10
1.02508
 20
6.64909
 30
0.0
 10
1.02859
 20
6.65792
 30
0.0
 10
1.02859
 20
6.66863
 30
0.0
 10
1.02859
 20
6.66863
 30
0.0
 10
1.02859
 20
6.67951
 30
0.0
 10
1.02499
 20
6.68851
 30
0.0
 10
1.01775
 20
6.69562
 30
0.0
 10
1.01775
 20
6.69562
 30
0.0
 10
1.01051
 20
6.70273
 30
0.0
 10
1.00143
 20
6.70629
 30
0.0
 10
0.99054
 20
6.70629
 30
0.0
 10
0.99054
 20
6.70629
 30
0.0
 10
0.97992
 20
6.70629
 30
0.0
 10
0.97114
 20
6.70277
 30
0.0
 10
0.96416
 20
6.69575
 30
0.0
 10
0.96416
 20
6.69575
 30
0.0
 10
0.95717
 20
6.68868
 30
0.0
 10
0.95366
 20
6.67989
 30
0.0
 10
0.95366
 20
6.66936
 30
0.0
  0
SPLINE
  5
A5
330
1F
100
AcDbEntity
  8
layer 3
 62
     3
370
     5
100
AcDbSpline
210
0.0
220
0.0
230
1.0
 70
    24
 71
     3
 72
     8
 73
     4
 74
     0
 42
0.0000000001
 43
0.0000000001
 12
1.0
 22
0.0
 32
0.0
 13
1.0
 23
0.0
 33
0.0
 40
0.0
 40
0.0
 40
0.0
 40
0.0
 40
1.0
 40
1.0
 40
1.0
 40
1.0
 10
-6.15497
 20
0.93403
 30
0.0
 10
-6.15497
 20
0.93403
 30
0.0
 10
-6.15497
 20
8.10331
 30
0.0
 10
-6.15497
 20
8.10331
 30
0.0
  0
SPLINE
  5
A6
330
1F
100
AcDbEntity
  8
layer 3
 62
     3
370
     5
100
AcDbSpline
210
0.0
220
0.0
230
1.0
 70
    27
 71
     3
 72
     8
 73
     4
 74
     0
 42
0.0000000001
 43
0.0000000001
 12
1.0
 22
0.0
 32
0.0
 13
1.0
 23
0.0
 33
0.0
 40
0.0
 40
0.0
 40
0.0
 40
0.0
 40
1.0
 40
1.0
 40
1.0
 40
1.0
 10
6.47479
 20
8.10331
 30
0.0
 10
6.47479
 20
8.10331
 30
0.0
 10
6.47479
 20
8.10331
 30
0.0
 10
6.47479
 20
8.10331
 30
0.0
  0
SPLINE
  5
A7
330
1F
100
AcDbEntity
  8
layer 3
 62
     3
370
     5
100
AcDbSpline
210
0.0
220
0.0
230
1.0
 70
    24
 71
     3
 72
     8
 73
     4
 74
     0
 42
0.0000000001
 43
0.0000000001
 12
1.0
 22
0.0
 32
0.0
 13
1.0
 23
0.0
 33
0.0
 40
0.0
 40
0.0
 40
0.0
 40
0.0
 40
1.0
 40
1.0
 40
1.0
 40
1.0
 10
6.47479
 20
0.93403
 30
0.0
 10
6.47479
 20
0.93403
 30
0.0
 10
6.47479
 20
8.10331
 30
0.0
 10
6.47479
 20
8.10331
 30
0.0
  0
SPLINE
  5
A8
330
1F
100
AcDbEntity
  8
layer 3
 62
     3
370
     5
100
AcDbSpline
210
0.0
220
0.0
230
1.0
 70
    24
 71
     3
 72
     8
 73
     4
 74
     0
 42
0.0000000001
 43
0.0000000001
 12
1.0
 22
0.0
 32
0.0
 13
1.0
 23
0.0
 33
0.0
 40
0.0
 40
0.0
 40
0.0
 40
0.0
 40
1.0
 40
1.0
 40
1.0
 40
1.0
 10
-5.94932
 20
8.07117
 30
0.0
 10
-5.94932
 20
8.07117
 30
0.0
 10
6.26915
 20
8.07117
 30
0.0
 10
6.26915
 20
8.07117
 30
0.0
  0
SPLINE
  5
A9
330
1F
100
AcDbEntity
  8
layer 3
 62
     3
370
     9
100
AcDbSpline
210
0.0
220
0.0
230
1.0
 70
    27
 71
     3
 72
    12
 73
     8
 74
     0
 42
0.0000000001
 43
0.0000000001
 12
1.0
 22
0.0
 32
0.0
 13
1.0
 23
0.0
 33
0.0
 40
0.0
 40
0.0
 40
0.0
 40
0.0
 40
0.3333333333333333
 40
0.3333333333333333
 40
0.3333333333333333
 40
0.3333333333333333
 40
1.0
 40
1.0
 40
1.0
 40
1.0
 10
-5.94932
 20
8.10545
 30
0.0
 10
-5.94932
 20
8.10545
 30
0.0
 10
-6.15497
 20
8.07117
 30
0.0
 10
-6.15497
 20
8.07117
 30
0.0
 10
-6.15497
 20
8.07117
 30
0.0
 10
-6.15497
 20
8.07117
 30
0.0
 10
-5.94932
 20
8.10545
 30
0.0
 10
-5.94932
 20
8.10545
 30
0.0
  0
SPLINE
  5
AA
330
1F
100
AcDbEntity
  8
layer 3
 62
     3
370
     9
100
AcDbSpline
210
0.0
220
0.0
230
1.0
 70
    11
 71
     3
 72
    16
 73
    12
 74
     0
 42
0.0000000001
 43
0.0000000001
 12
1.0
 22
0.0
 32
0.0
 13
1.0
 23
0.0
 33
0.0
 40
0.0
 40
0.0
 40
0.0
 40
0.0
 40
0.25
 40
0.25
 40
0.25
 40
0.25
 40
0.5
 40
0.5
 40
0.5
 40
0.5
 40
1.0
 40
1.0
 40
1.0
 40
1.0
 10
-6.15497
 20
8.07117
 30
0.0
 10
-6.15497
 20
8.07117
 30
0.0
 10
-5.94932
 20
8.0369
 30
0.0
 10
-5.94932
 20
8.0369
 30
0.0
 10
-5.94932
 20
8.0369
 30
0.0
 10
-5.94932
 20
8.0369
 30
0.0
 10
-5.94932
 20
8.10545
 30
0.0
 10
-5.94932
 20
8.10545
 30
0.0
 10
-5.94932
 20
8.10545
 30
0.0
 10
-5.94932
 20
8.10545
 30
0.0
 10
-6.15497
 20
8.07117
 30
0.0
 10
-6.15497
 20
8.07117
 30
0.0
  0
SPLINE
  5
AB
330
1F
100
AcDbEntity
  8
layer 3
 62
     3
370
    18
100
AcDbSpline
210
0.0
220
0.0
230
1.0
 70
    24
 71
     3
 72
     8
 73
     4
 74
     0
 42
0.0000000001
 43
0.0000000001
 12
1.0
 22
0.0
 32
0.0
 13
1.0
 23
0.0
 33
0.0
 40
0.0
 40
0.0
 40
0.0
 40
0.0
 40
1.0
 40
1.0
 40
1.0
 40
1.0
 10
-5.94932
 20
8.10545
 30
0.0
 10
-5.94932
 20
8.10545
 30
0.0
 10
-6.15497
 20
8.07117
 30
0.0
 10
-6.15497
 20
8.07117
 30
0.0
  0
SPLINE
  5
AC
330
1F
100
AcDbEntity
  8
layer 3
 62
     3
370
    18
100
AcDbSpline
210
0.0
220
0.0
230
1.0
 70
     8
 71
     3
 72
    12
 73
     8
 74
     0
 42
0.0000000001
 43
0.0000000001
 12
1.0
 22
0.0
 32
0.0
 13
1.0
 23
0.0
 33
0.0
 40
0.0
 40
0.0
 40
0.0
 40
0.0
 40
0.3333333333333333
 40
0.3333333333333333
 40
0.3333333333333333
 40
0.3333333333333333
 40
1.0
 40
1.0
 40
1.0
 40
1.0
 10
-6.15497
 20
8.07117
 30
0.0
 10
-6.15497
 20
8.07117
 30
0.0
 10
-5.94932
 20
8.0369
 30
0.0
 10
-5.94932
 20
8.0369
 30
0.0
 10
-5.94932
 20
8.0369
 30
0.0
 10
-5.94932
 20
8.0369
 30
0.0
 10
-5.94932
 20
8.10545
 30
0.0
 10
-5.94932
 20
8.10545
 30
0.0
  0
SPLINE
  5
AD
330
1F
100
AcDbEntity
  8
layer 3
 62
     3
370
     9
100
AcDbSpline
210
0.0
220
0.0
230
1.0
 70
    27
 71
     3
 72
    12
 73
     8
 74
     0
 42
0.0000000001
 43
0.0000000001
 12
1.0
 22
0.0
 32
0.0
 13
1.0
 23
0.0
 33
0.0
 40
0.0
 40
0.0
 40
0.0
 40
0.0
 40
0.3333333333333333
 40
0.3333333333333333
 40
0.3333333333333333
 40
0.3333333333333333
 40
1.0
 40
1.0
 40
1.0
 40
1.0
 10
6.26915
 20
8.10545
 30
0.0
 10
6.26915
 20
8.10545
 30
0.0
 10
6.47479
 20
8.07117
 30
0.0
 10
6.47479
 20
8.07117
 30
0.0
 10
6.47479
 20
8.07117
 30
0.0
 10
6.47479
 20
8.07117
 30
0.0
 10
6.26915
 20
8.10545
 30
0.0
 10
6.26915
 20
8.10545
 30
0.0
  0
SPLINE
  5
AE
330
1F
100
AcDbEntity
  8
layer 3
 62
     3
370
     9
100
AcDbSpline
210
0.0
220
0.0
230
1.0
 70
    11
 71
     3
 72
    16
 73
    12
 74
     0
 42
0.0000000001
 43
0.0000000001
 12
1.0
 22
0.0
 32
0.0
 13
1.0
 23
0.0
 33
0.0
 40
0.0
 40
0.0
 40
0.0
 40
0.0
 40
0.25
 40
0.25
 40
0.25
 40
0.25
 40
0.5
 40
0.5
 40
0.5
 40
0.5
 40
1.0
 40
1.0
 40
1.0
 40
1.0
 10
6.47479
 20
8.07117
 30
0.0
 10
6.47479
 20
8.07117
 30
0.0
 10
6.26915
 20
8.0369
 30
0.0
 10
6.26915
 20
8.0369
 30
0.0
 10
6.26915
 20
8.0369
 30
0.0
 10
6.26915
 20
8.0369
 30
0.0
 10
6.26915
 20
8.10545
 30
0.0
 10
6.26915
 20
8.10545
 30
0.0
 10
6.26915
 20
8.10545
 30
0.0
 10
6.26915
 20
8.10545
 30
0.0
 10
6.47479
 20
8.07117
 30
0.0
 10
6.47479
 20
8.07117
 30
0.0
  0
SPLINE
  5
AF
330
1F
100
AcDbEntity
  8
layer 3
 62
     3
370
    18
100
AcDbSpline
210
0.0
220
0.0
230
1.0
 70
    24
 71
     3
 72
     8
 73
     4
 74
     0
 42
0.0000000001
 43
0.0000000001
 12
1.0
 22
0.0
 32
0.0
 13
1.0
 23
0.0
 33
0.0
 40
0.0
 40
0.0
 40
0.0
 40
0.0
 40
1.0
 40
1.0
 40
1.0
 40
1.0
 10
6.26915
 20
8.10545
 30
0.0
 10
6.26915
 20
8.10545
 30
0.0
 10
6.47479
 20
8.07117
 30
0.0
 10
6.47479
 20
8.07117
 30
0.0
  0
SPLINE
  5
B0
330
1F
100
AcDbEntity
  8
layer 3
 62
     3
370
    18
100
AcDbSpline
210
0.0
220
0.0
230
1.0
 70
     8
 71
     3
 72
    12
 73
     8
 74
     0
 42
0.0000000001
 43
0.0000000001
 12
1.0
 22
0.0
 32
0.0
 13
1.0
 23
0.0
 33
0.0
 40
0.0
 40
0.0
 40
0.0
 40
0.0
 40
0.3333333333333333
 40
0.3333333333333333
 40
0.3333333333333333
 40
0.3333333333333333
 40
1.0
 40
1.0
 40
1.0
 40
1.0
 10
6.47479
 20
8.07117
 30
0.0
 10
6.47479
 20
8.07117
 30
0.0
 10
6.26915
 20
8.0369
 30
0.0
 10
6.26915
 20
8.0369
 30
0.0
 10
6.26915
 20
8.0369
 30
0.0
 10
6.26915
 20
8.0369
 30
0.0
 10
6.26915
 20
8.10545
 30
0.0
 10
6.26915
 20
8.10545
 30
0.0
  0
SPLINE
  5
B1
330
1F
100
AcDbEntity
  8
layer 3
 62
     3
370
     9
100
AcDbSpline
210
0.0
220
0.0
230
1.0
 70
    11
 71
     3
 72
    48
 73
    44
 74
     0
 42
0.0000000001
 43
0.0000000001
 12
1.0
 22
0.0
 32
0.0
 13
1.0
 23
0.0
 33
0.0
 40
0.0
 40
0.0
 40
0.0
 40
0.0
 40
0.0833333333333333
 40
0.0833333333333333
 40
0.0833333333333333
 40
0.0833333333333333
 40
0.1666666666666667
 40
0.1666666666666667
 40
0.1666666666666667
 40
0.1666666666666667
 40
0.25
 40
0.25
 40
0.25
 40
0.25
 40
0.3333333333333333
 40
0.3333333333333333
 40
0.3333333333333333
 40
0.3333333333333333
 40
0.4166666666666667
 40
0.4166666666666667
 40
0.4166666666666667
 40
0.4166666666666667
 40
0.5
 40
0.5
 40
0.5
 40
0.5
 40
0.5833333333333334
 40
0.5833333333333334
 40
0.5833333333333334
 40
0.5833333333333334
 40
0.6666666666666666
 40
0.6666666666666666
 40
0.6666666666666666
 40
0.6666666666666666
 40
0.75
 40
0.75
 40
0.75
 40
0.75
 40
0.8333333333333334
 40
0.8333333333333334
 40
0.8333333333333334
 40
0.8333333333333334
 40
1.0
 40
1.0
 40
1.0
 40
1.0
 10
-0.15014
 20
8.21339
 30
0.0
 10
-0.15014
 20
8.21339
 30
0.0
 10
-0.15014
 20
8.25744
 30
0.0
 10
-0.15014
 20
8.25744
 30
0.0
 10
-0.15014
 20
8.25744
 30
0.0
 10
-0.15014
 20
8.25744
 30
0.0
 10
-0.22996
 20
8.25744
 30
0.0
 10
-0.22996
 20
8.25744
 30
0.0
 10
-0.22996
 20
8.25744
 30
0.0
 10
-0.22996
 20
8.25744
 30
0.0
 10
-0.22996
 20
8.27817
 30
0.0
 10
-0.22996
 20
8.27817
 30
0.0
 10
-0.22996
 20
8.27817
 30
0.0
 10
-0.22996
 20
8.27817
 30
0.0
 10
-0.14599
 20
8.3974
 30
0.0
 10
-0.14599
 20
8.3974
 30
0.0
 10
-0.14599
 20
8.3974
 30
0.0
 10
-0.14599
 20
8.3974
 30
0.0
 10
-0.12752
 20
8.3974
 30
0.0
 10
-0.12752
 20
8.3974
 30
0.0
 10
-0.12752
 20
8.3974
 30
0.0
 10
-0.12752
 20
8.3974
 30
0.0
 10
-0.12752
 20
8.27817
 30
0.0
 10
-0.12752
 20
8.27817
 30
0.0
 10
-0.12752
 20
8.27817
 30
0.0
 10
-0.12752
 20
8.27817
 30
0.0
 10
-0.10267
 20
8.27817
 30
0.0
 10
-0.10267
 20
8.27817
 30
0.0
 10
-0.10267
 20
8.27817
 30
0.0
 10
-0.10267
 20
8.27817
 30
0.0
 10
-0.10267
 20
8.25744
 30
0.0
 10
-0.10267
 20
8.25744
 30
0.0
 10
-0.10267
 20
8.25744
 30
0.0
 10
-0.10267
 20
8.25744
 30
0.0
 10
-0.12752
 20
8.25744
 30
0.0
 10
-0.12752
 20
8.25744
 30
0.0
 10
-0.12752
 20
8.25744
 30
0.0
 10
-0.12752
 20
8.25744
 30
0.0
 10
-0.12752
 20
8.21339
 30
0.0
 10
-0.12752
 20
8.21339
 30
0.0
 10
-0.12752
 20
8.21339
 30
0.0
 10
-0.12752
 20
8.21339
 30
0.0
 10
-0.15014
 20
8.21339
 30
0.0
 10
-0.15014
 20
8.21339
 30
0.0
  0
SPLINE
  5
B2
330
1F
100
AcDbEntity
  8
layer 3
 62
     3
370
     9
100
AcDbSpline
210
0.0
220
0.0
230
1.0
 70
    11
 71
     3
 72
    16
 73
    12
 74
     0
 42
0.0000000001
 43
0.0000000001
 12
1.0
 22
0.0
 32
0.0
 13
1.0
 23
0.0
 33
0.0
 40
0.0
 40
0.0
 40
0.0
 40
0.0
 40
0.25
 40
0.25
 40
0.25
 40
0.25
 40
0.5
 40
0.5
 40
0.5
 40
0.5
 40
1.0
 40
1.0
 40
1.0
 40
1.0
 10
-0.15014
 20
8.27817
 30
0.0
 10
-0.15014
 20
8.27817
 30
0.0
 10
-0.15014
 20
8.36111
 30
0.0
 10
-0.15014
 20
8.36111
 30
0.0
 10
-0.15014
 20
8.36111
 30
0.0
 10
-0.15014
 20
8.36111
 30
0.0
 10
-0.20772
 20
8.27817
 30
0.0
 10
-0.20772
 20
8.27817
 30
0.0
 10
-0.20772
 20
8.27817
 30
0.0
 10
-0.20772
 20
8.27817
 30
0.0
 10
-0.15014
 20
8.27817
 30
0.0
 10
-0.15014
 20
8.27817
 30
0.0
  0
SPLINE
  5
B3
330
1F
100
AcDbEntity
  8
layer 3
 62
     3
370
     9
100
AcDbSpline
210
0.0
220
0.0
230
1.0
 70
    11
 71
     3
 72
    92
 73
    88
 74
     0
 42
0.0000000001
 43
0.0000000001
 12
1.0
 22
0.0
 32
0.0
 13
1.0
 23
0.0
 33
0.0
 40
0.0
 40
0.0
 40
0.0
 40
0.0
 40
0.0434782608695652
 40
0.0434782608695652
 40
0.0434782608695652
 40
0.0434782608695652
 40
0.0869565217391304
 40
0.0869565217391304
 40
0.0869565217391304
 40
0.0869565217391304
 40
0.1304347826086956
 40
0.1304347826086956
 40
0.1304347826086956
 40
0.1304347826086956
 40
0.1739130434782609
 40
0.1739130434782609
 40
0.1739130434782609
 40
0.1739130434782609
 40
0.2173913043478261
 40
0.2173913043478261
 40
0.2173913043478261
 40
0.2173913043478261
 40
0.2608695652173913
 40
0.2608695652173913
 40
0.2608695652173913
 40
0.2608695652173913
 40
0.3043478260869565
 40
0.3043478260869565
 40
0.3043478260869565
 40
0.3043478260869565
 40
0.3478260869565217
 40
0.3478260869565217
 40
0.3478260869565217
 40
0.3478260869565217
 40
0.391304347826087
 40
0.391304347826087
 40
0.391304347826087
 40
0.391304347826087
 40
0.4347826086956522
 40
0.4347826086956522
 40
0.4347826086956522
 40
0.4347826086956522
 40
0.4782608695652174
 40
0.4782608695652174
 40
0.4782608695652174
 40
0.4782608695652174
 40
0.5217391304347826
 40
0.5217391304347826
 40
0.5217391304347826
 40
0.5217391304347826
 40
0.5652173913043478
 40
0.5652173913043478
 40
0.5652173913043478
 40
0.5652173913043478
 40
0.6086956521739131
 40
0.6086956521739131
 40
0.6086956521739131
 40
0.6086956521739131
 40
0.6521739130434783
 40
0.6521739130434783
 40
0.6521739130434783
 40
0.6521739130434783
 40
0.6956521739130435
 40
0.6956521739130435
 40
0.6956521739130435
 40
0.6956521739130435
 40
0.7391304347826086
 40
0.7391304347826086
 40
0.7391304347826086
 40
0.7391304347826086
 40
0.782608695652174
 40
0.782608695652174
 40
0.782608695652174
 40
0.782608695652174
 40
0.8260869565217391
 40
0.8260869565217391
 40
0.8260869565217391
 40
0.8260869565217391
 40
0.8695652173913043
 40
0.8695652173913043
 40
0.8695652173913043
 40
0.8695652173913043
 40
0.9130434782608695
 40
0.9130434782608695
 40
0.9130434782608695
 40
0.9130434782608695
 40
1.0
 40
1.0
 40
1.0
 40
1.0
 10
-0.07619
 20
8.25593
 30
0.0
 10
-0.07619
 20
8.25593
 30
0.0
 10
-0.05448
 20
8.25795
 30
0.0
 10
-0.05448
 20
8.25795
 30
0.0
 10
-0.05448
 20
8.25795
 30
0.0
 10
-0.05264
 20
8.24775
 30
0.0
 10
-0.04911
 20
8.24034
 30
0.0
 10
-0.04394
 20
8.23571
 30
0.0
 10
-0.04394
 20
8.23571
 30
0.0
 10
-0.03875
 20
8.23113
 30
0.0
 10
-0.03211
 20
8.22881
 30
0.0
 10
-0.02397
 20
8.22881
 30
0.0
 10
-0.02397
 20
8.22881
 30
0.0
 10
-0.01703
 20
8.22881
 30
0.0
 10
-0.01095
 20
8.2304
 30
0.0
 10
-0.00572
 20
8.23361
 30
0.0
 10
-0.00572
 20
8.23361
 30
0.0
 10
-0.00049
 20
8.23679
 30
0.0
 10
0.00379
 20
8.24102
 30
0.0
 10
0.00714
 20
8.24634
 30
0.0
 10
0.00714
 20
8.24634
 30
0.0
 10
0.01052
 20
8.25165
 30
0.0
 10
0.0133
 20
8.25885
 30
0.0
 10
0.01558
 20
8.26784
 30
0.0
 10
0.01558
 20
8.26784
 30
0.0
 10
0.01781
 20
8.27689
 30
0.0
 10
0.01896
 20
8.2861
 30
0.0
 10
0.01896
 20
8.29547
 30
0.0
 10
0.01896
 20
8.29547
 30
0.0
 10
0.01896
 20
8.29647
 30
0.0
 10
0.01892
 20
8.29801
 30
0.0
 10
0.01883
 20
8.29997
 30
0.0
 10
0.01883
 20
8.29997
 30
0.0
 10
0.01429
 20
8.29282
 30
0.0
 10
0.00812
 20
8.28695
 30
0.0
 10
0.00033
 20
8.2825
 30
0.0
 10
0.00033
 20
8.2825
 30
0.0
 10
-0.00752
 20
8.27799
 30
0.0
 10
-0.016
 20
8.27577
 30
0.0
 10
-0.02508
 20
8.27577
 30
0.0
 10
-0.02508
 20
8.27577
 30
0.0
 10
-0.04033
 20
8.27577
 30
0.0
 10
-0.05323
 20
8.2813
 30
0.0
 10
-0.06377
 20
8.29235
 30
0.0
 10
-0.06377
 20
8.29235
 30
0.0
 10
-0.07431
 20
8.3034
 30
0.0
 10
-0.07958
 20
8.31792
 30
0.0
 10
-0.07958
 20
8.33601
 30
0.0
 10
-0.07958
 20
8.33601
 30
0.0
 10
-0.07958
 20
8.35469
 30
0.0
 10
-0.07409
 20
8.36968
 30
0.0
 10
-0.06308
 20
8.38107
 30
0.0
 10
-0.06308
 20
8.38107
 30
0.0
 10
-0.05208
 20
8.39247
 30
0.0
 10
-0.03828
 20
8.39817
 30
0.0
 10
-0.0217
 20
8.39817
 30
0.0
 10
-0.0217
 20
8.39817
 30
0.0
 10
-0.00975
 20
8.39817
 30
0.0
 10
0.00118
 20
8.39492
 30
0.0
 10
0.01111
 20
8.38849
 30
0.0
 10
0.01111
 20
8.38849
 30
0.0
 10
0.02101
 20
8.38207
 30
0.0
 10
0.02856
 20
8.37285
 30
0.0
 10
0.0337
 20
8.36094
 30
0.0
 10
0.0337
 20
8.36094
 30
0.0
 10
0.03884
 20
8.34903
 30
0.0
 10
0.04141
 20
8.33176
 30
0.0
 10
0.04141
 20
8.30914
 30
0.0
 10
0.04141
 20
8.30914
 30
0.0
 10
0.04141
 20
8.28567
 30
0.0
 10
0.03888
 20
8.26694
 30
0.0
 10
0.03378
 20
8.25297
 30
0.0
 10
0.03378
 20
8.25297
 30
0.0
 10
0.02864
 20
8.23905
 30
0.0
 10
0.02106
 20
8.22847
 30
0.0
 10
0.01098
 20
8.22118
 30
0.0
 10
0.01098
 20
8.22118
 30
0.0
 10
0.00088
 20
8.21391
 30
0.0
 10
-0.0109
 20
8.21026
 30
0.0
 10
-0.02449
 20
8.21026
 30
0.0
 10
-0.02449
 20
8.21026
 30
0.0
 10
-0.03888
 20
8.21026
 30
0.0
 10
-0.05062
 20
8.21425
 30
0.0
 10
-0.05975
 20
8.22226
 30
0.0
 10
-0.05975
 20
8.22226
 30
0.0
 10
-0.06887
 20
8.23023
 30
0.0
 10
-0.07435
 20
8.24145
 30
0.0
 10
-0.07619
 20
8.25593
 30
0.0
  0
SPLINE
  5
B4
330
1F
100
AcDbEntity
  8
layer 3
 62
     3
370
     9
100
AcDbSpline
210
0.0
220
0.0
230
1.0
 70
    11
 71
     3
 72
    36
 73
    32
 74
     0
 42
0.0000000001
 43
0.0000000001
 12
1.0
 22
0.0
 32
0.0
 13
1.0
 23
0.0
 33
0.0
 40
0.0
 40
0.0
 40
0.0
 40
0.0
 40
0.1111111111111111
 40
0.1111111111111111
 40
0.1111111111111111
 40
0.1111111111111111
 40
0.2222222222222222
 40
0.2222222222222222
 40
0.2222222222222222
 40
0.2222222222222222
 40
0.3333333333333333
 40
0.3333333333333333
 40
0.3333333333333333
 40
0.3333333333333333
 40
0.4444444444444444
 40
0.4444444444444444
 40
0.4444444444444444
 40
0.4444444444444444
 40
0.5555555555555556
 40
0.5555555555555556
 40
0.5555555555555556
 40
0.5555555555555556
 40
0.6666666666666666
 40
0.6666666666666666
 40
0.6666666666666666
 40
0.6666666666666666
 40
0.7777777777777778
 40
0.7777777777777778
 40
0.7777777777777778
 40
0.7777777777777778
 40
1.0
 40
1.0
 40
1.0
 40
1.0
 10
0.0163
 20
8.33716
 30
0.0
 10
0.0163
 20
8.3501
 30
0.0
 10
0.01288
 20
8.36042
 30
0.0
 10
0.00598
 20
8.368
 30
0.0
 10
0.00598
 20
8.368
 30
0.0
 10
-0.00097
 20
8.37563
 30
0.0
 10
-0.00923
 20
8.37944
 30
0.0
 10
-0.01896
 20
8.37944
 30
0.0
 10
-0.01896
 20
8.37944
 30
0.0
 10
-0.02899
 20
8.37944
 30
0.0
 10
-0.03772
 20
8.37534
 30
0.0
 10
-0.04517
 20
8.36715
 30
0.0
 10
-0.04517
 20
8.36715
 30
0.0
 10
-0.05264
 20
8.35893
 30
0.0
 10
-0.05636
 20
8.3483
 30
0.0
 10
-0.05636
 20
8.33527
 30
0.0
 10
-0.05636
 20
8.33527
 30
0.0
 10
-0.05636
 20
8.32354
 30
0.0
 10
-0.0528
 20
8.31403
 30
0.0
 10
-0.04573
 20
8.3067
 30
0.0
 10
-0.04573
 20
8.3067
 30
0.0
 10
-0.03867
 20
8.29938
 30
0.0
 10
-0.02997
 20
8.29573
 30
0.0
 10
-0.0196
 20
8.29573
 30
0.0
 10
-0.0196
 20
8.29573
 30
0.0
 10
-0.0091
 20
8.29573
 30
0.0
 10
-0.00054
 20
8.29938
 30
0.0
 10
0.00619
 20
8.3067
 30
0.0
 10
0.00619
 20
8.3067
 30
0.0
 10
0.01296
 20
8.31403
 30
0.0
 10
0.0163
 20
8.32418
 30
0.0
 10
0.0163
 20
8.33716
 30
0.0
  0
SPLINE
  5
B5
330
1F
100
AcDbEntity
  8
layer 3
 62
     3
370
     9
100
AcDbSpline
210
0.0
220
0.0
230
1.0
 70
    11
 71
     3
 72
    40
 73
    36
 74
     0
 42
0.0000000001
 43
0.0000000001
 12
1.0
 22
0.0
 32
0.0
 13
1.0
 23
0.0
 33
0.0
 40
0.0
 40
0.0
 40
0.0
 40
0.0
 40
0.1
 40
0.1
 40
0.1
 40
0.1
 40
0.2
 40
0.2
 40
0.2
 40
0.2
 40
0.3
 40
0.3
 40
0.3
 40
0.3
 40
0.4
 40
0.4
 40
0.4
 40
0.4
 40
0.5
 40
0.5
 40
0.5
 40
0.5
 40
0.6
 40
0.6
 40
0.6
 40
0.6
 40
0.7
 40
0.7
 40
0.7
 40
0.7
 40
0.8
 40
0.8
 40
0.8
 40
0.8
 40
1.0
 40
1.0
 40
1.0
 40
1.0
 10
0.14848
 20
8.21339
 30
0.0
 10
0.14848
 20
8.21339
 30
0.0
 10
0.12589
 20
8.21339
 30
0.0
 10
0.12589
 20
8.21339
 30
0.0
 10
0.12589
 20
8.21339
 30
0.0
 10
0.12589
 20
8.21339
 30
0.0
 10
0.12589
 20
8.35735
 30
0.0
 10
0.12589
 20
8.35735
 30
0.0
 10
0.12589
 20
8.35735
 30
0.0
 10
0.12046
 20
8.35216
 30
0.0
 10
0.11334
 20
8.34697
 30
0.0
 10
0.10452
 20
8.34179
 30
0.0
 10
0.10452
 20
8.34179
 30
0.0
 10
0.09564
 20
8.3366
 30
0.0
 10
0.08773
 20
8.33271
 30
0.0
 10
0.08069
 20
8.33014
 30
0.0
 10
0.08069
 20
8.33014
 30
0.0
 10
0.08069
 20
8.33014
 30
0.0
 10
0.08069
 20
8.35195
 30
0.0
 10
0.08069
 20
8.35195
 30
0.0
 10
0.08069
 20
8.35195
 30
0.0
 10
0.09333
 20
8.3579
 30
0.0
 10
0.10439
 20
8.3651
 30
0.0
 10
0.11386
 20
8.37353
 30
0.0
 10
0.11386
 20
8.37353
 30
0.0
 10
0.12328
 20
8.38202
 30
0.0
 10
0.13001
 20
8.3902
 30
0.0
 10
0.13395
 20
8.39817
 30
0.0
 10
0.13395
 20
8.39817
 30
0.0
 10
0.13395
 20
8.39817
 30
0.0
 10
0.14848
 20
8.39817
 30
0.0
 10
0.14848
 20
8.39817
 30
0.0
 10
0.14848
 20
8.39817
 30
0.0
 10
0.14848
 20
8.39817
 30
0.0
 10
0.14848
 20
8.21339
 30
0.0
 10
0.14848
 20
8.21339
 30
0.0
  0
SPLINE
  5
B6
330
1F
100
AcDbEntity
  8
layer 3
 62
     3
370
     9
100
AcDbSpline
210
0.0
220
0.0
230
1.0
 70
    11
 71
     3
 72
    20
 73
    16
 74
     0
 42
0.0000000001
 43
0.0000000001
 12
1.0
 22
0.0
 32
0.0
 13
1.0
 23
0.0
 33
0.0
 40
0.0
 40
0.0
 40
0.0
 40
0.0
 40
0.2
 40
0.2
 40
0.2
 40
0.2
 40
0.4
 40
0.4
 40
0.4
 40
0.4
 40
0.6
 40
0.6
 40
0.6
 40
0.6
 40
1.0
 40
1.0
 40
1.0
 40
1.0
 10
0.21904
 20
8.21339
 30
0.0
 10
0.21904
 20
8.21339
 30
0.0
 10
0.21904
 20
8.23914
 30
0.0
 10
0.21904
 20
8.23914
 30
0.0
 10
0.21904
 20
8.23914
 30
0.0
 10
0.21904
 20
8.23914
 30
0.0
 10
0.24478
 20
8.23914
 30
0.0
 10
0.24478
 20
8.23914
 30
0.0
 10
0.24478
 20
8.23914
 30
0.0
 10
0.24478
 20
8.23914
 30
0.0
 10
0.24478
 20
8.21339
 30
0.0
 10
0.24478
 20
8.21339
 30
0.0
 10
0.24478
 20
8.21339
 30
0.0
 10
0.24478
 20
8.21339
 30
0.0
 10
0.21904
 20
8.21339
 30
0.0
 10
0.21904
 20
8.21339
 30
0.0
  0
SPLINE
  5
B7
330
1F
100
AcDbEntity
  8
layer 3
 62
     3
370
     9
100
AcDbSpline
210
0.0
220
0.0
230
1.0
 70
    11
 71
     3
 72
   124
 73
   120
 74
     0
 42
0.0000000001
 43
0.0000000001
 12
1.0
 22
0.0
 32
0.0
 13
1.0
 23
0.0
 33
0.0
 40
0.0
 40
0.0
 40
0.0
 40
0.0
 40
0.032258064516129
 40
0.032258064516129
 40
0.032258064516129
 40
0.032258064516129
 40
0.0645161290322581
 40
0.0645161290322581
 40
0.0645161290322581
 40
0.0645161290322581
 40
0.0967741935483871
 40
0.0967741935483871
 40
0.0967741935483871
 40
0.0967741935483871
 40
0.1290322580645161
 40
0.1290322580645161
 40
0.1290322580645161
 40
0.1290322580645161
 40
0.1612903225806452
 40
0.1612903225806452
 40
0.1612903225806452
 40
0.1612903225806452
 40
0.1935483870967742
 40
0.1935483870967742
 40
0.1935483870967742
 40
0.1935483870967742
 40
0.2258064516129032
 40
0.2258064516129032
 40
0.2258064516129032
 40
0.2258064516129032
 40
0.2580645161290323
 40
0.2580645161290323
 40
0.2580645161290323
 40
0.2580645161290323
 40
0.2903225806451613
 40
0.2903225806451613
 40
0.2903225806451613
 40
0.2903225806451613
 40
0.3225806451612903
 40
0.3225806451612903
 40
0.3225806451612903
 40
0.3225806451612903
 40
0.3548387096774194
 40
0.3548387096774194
 40
0.3548387096774194
 40
0.3548387096774194
 40
0.3870967741935484
 40
0.3870967741935484
 40
0.3870967741935484
 40
0.3870967741935484
 40
0.4193548387096774
 40
0.4193548387096774
 40
0.4193548387096774
 40
0.4193548387096774
 40
0.4516129032258064
 40
0.4516129032258064
 40
0.4516129032258064
 40
0.4516129032258064
 40
0.4838709677419355
 40
0.4838709677419355
 40
0.4838709677419355
 40
0.4838709677419355
 40
0.5161290322580645
 40
0.5161290322580645
 40
0.5161290322580645
 40
0.5161290322580645
 40
0.5483870967741935
 40
0.5483870967741935
 40
0.5483870967741935
 40
0.5483870967741935
 40
0.5806451612903226
 40
0.5806451612903226
 40
0.5806451612903226
 40
0.5806451612903226
 40
0.6129032258064516
 40
0.6129032258064516
 40
0.6129032258064516
 40
0.6129032258064516
 40
0.6451612903225806
 40
0.6451612903225806
 40
0.6451612903225806
 40
0.6451612903225806
 40
0.6774193548387096
 40
0.6774193548387096
 40
0.6774193548387096
 40
0.6774193548387096
 40
0.7096774193548387
 40
0.7096774193548387
 40
0.7096774193548387
 40
0.7096774193548387
 40
0.7419354838709677
 40
0.7419354838709677
 40
0.7419354838709677
 40
0.7419354838709677
 40
0.7741935483870968
 40
0.7741935483870968
 40
0.7741935483870968
 40
0.7741935483870968
 40
0.8064516129032258
 40
0.8064516129032258
 40
0.8064516129032258
 40
0.8064516129032258
 40
0.8387096774193549
 40
0.8387096774193549
 40
0.8387096774193549
 40
0.8387096774193549
 40
0.8709677419354839
 40
0.8709677419354839
 40
0.8709677419354839
 40
0.8709677419354839
 40
0.9032258064516129
 40
0.9032258064516129
 40
0.9032258064516129
 40
0.9032258064516129
 40
0.9354838709677419
 40
0.9354838709677419
 40
0.9354838709677419
 40
0.9354838709677419
 40
1.0
 40
1.0
 40
1.0
 40
1.0
 10
0.2779
 20
8.26197
 30
0.0
 10
0.2779
 20
8.26197
 30
0.0
 10
0.30047
 20
8.26497
 30
0.0
 10
0.30047
 20
8.26497
 30
0.0
 10
0.30047
 20
8.26497
 30
0.0
 10
0.30309
 20
8.25217
 30
0.0
 10
0.30751
 20
8.24295
 30
0.0
 10
0.31372
 20
8.2373
 30
0.0
 10
0.31372
 20
8.2373
 30
0.0
 10
0.31997
 20
8.23164
 30
0.0
 10
0.32755
 20
8.22881
 30
0.0
 10
0.33651
 20
8.22881
 30
0.0
 10
0.33651
 20
8.22881
 30
0.0
 10
0.34713
 20
8.22881
 30
0.0
 10
0.35613
 20
8.23249
 30
0.0
 10
0.36345
 20
8.23986
 30
0.0
 10
0.36345
 20
8.23986
 30
0.0
 10
0.37074
 20
8.24724
 30
0.0
 10
0.37443
 20
8.25636
 30
0.0
 10
0.37443
 20
8.26724
 30
0.0
 10
0.37443
 20
8.26724
 30
0.0
 10
0.37443
 20
8.27761
 30
0.0
 10
0.37104
 20
8.28618
 30
0.0
 10
0.36427
 20
8.29291
 30
0.0
 10
0.36427
 20
8.29291
 30
0.0
 10
0.35746
 20
8.29964
 30
0.0
 10
0.34884
 20
8.30302
 30
0.0
 10
0.33839
 20
8.30302
 30
0.0
 10
0.33839
 20
8.30302
 30
0.0
 10
0.33411
 20
8.30302
 30
0.0
 10
0.3288
 20
8.30216
 30
0.0
 10
0.32245
 20
8.30049
 30
0.0
 10
0.32245
 20
8.30049
 30
0.0
 10
0.32245
 20
8.30049
 30
0.0
 10
0.32499
 20
8.32032
 30
0.0
 10
0.32499
 20
8.32032
 30
0.0
 10
0.32499
 20
8.32032
 30
0.0
 10
0.32649
 20
8.32015
 30
0.0
 10
0.32768
 20
8.32007
 30
0.0
 10
0.32862
 20
8.32007
 30
0.0
 10
0.32862
 20
8.32007
 30
0.0
 10
0.33822
 20
8.32007
 30
0.0
 10
0.34687
 20
8.3226
 30
0.0
 10
0.35459
 20
8.32761
 30
0.0
 10
0.35459
 20
8.32761
 30
0.0
 10
0.3623
 20
8.33262
 30
0.0
 10
0.36616
 20
8.34038
 30
0.0
 10
0.36616
 20
8.35083
 30
0.0
 10
0.36616
 20
8.35083
 30
0.0
 10
0.36616
 20
8.35909
 30
0.0
 10
0.36333
 20
8.366
 30
0.0
 10
0.35772
 20
8.3714
 30
0.0
 10
0.35772
 20
8.3714
 30
0.0
 10
0.35211
 20
8.37683
 30
0.0
 10
0.34487
 20
8.37957
 30
0.0
 10
0.33599
 20
8.37957
 30
0.0
 10
0.33599
 20
8.37957
 30
0.0
 10
0.32721
 20
8.37957
 30
0.0
 10
0.31989
 20
8.3768
 30
0.0
 10
0.31406
 20
8.3713
 30
0.0
 10
0.31406
 20
8.3713
 30
0.0
 10
0.30819
 20
8.36578
 30
0.0
 10
0.30442
 20
8.35747
 30
0.0
 10
0.30275
 20
8.34642
 30
0.0
 10
0.30275
 20
8.34642
 30
0.0
 10
0.30275
 20
8.34642
 30
0.0
 10
0.28017
 20
8.35044
 30
0.0
 10
0.28017
 20
8.35044
 30
0.0
 10
0.28017
 20
8.35044
 30
0.0
 10
0.28291
 20
8.36561
 30
0.0
 10
0.28921
 20
8.37734
 30
0.0
 10
0.29898
 20
8.38566
 30
0.0
 10
0.29898
 20
8.38566
 30
0.0
 10
0.30879
 20
8.39397
 30
0.0
 10
0.32096
 20
8.39817
 30
0.0
 10
0.33553
 20
8.39817
 30
0.0
 10
0.33553
 20
8.39817
 30
0.0
 10
0.34555
 20
8.39817
 30
0.0
 10
0.3548
 20
8.39599
 30
0.0
 10
0.36324
 20
8.3917
 30
0.0
 10
0.36324
 20
8.3917
 30
0.0
 10
0.37169
 20
8.38737
 30
0.0
 10
0.37815
 20
8.38151
 30
0.0
 10
0.38265
 20
8.37405
 30
0.0
 10
0.38265
 20
8.37405
 30
0.0
 10
0.3871
 20
8.36659
 30
0.0
 10
0.38938
 20
8.35871
 30
0.0
 10
0.38938
 20
8.35032
 30
0.0
 10
0.38938
 20
8.35032
 30
0.0
 10
0.38938
 20
8.34239
 30
0.0
 10
0.38723
 20
8.33515
 30
0.0
 10
0.38295
 20
8.32859
 30
0.0
 10
0.38295
 20
8.32859
 30
0.0
 10
0.37867
 20
8.32208
 30
0.0
 10
0.37237
 20
8.3169
 30
0.0
 10
0.36401
 20
8.31305
 30
0.0
 10
0.36401
 20
8.31305
 30
0.0
 10
0.37489
 20
8.31055
 30
0.0
 10
0.38334
 20
8.30533
 30
0.0
 10
0.38938
 20
8.29741
 30
0.0
 10
0.38938
 20
8.29741
 30
0.0
 10
0.39538
 20
8.28952
 30
0.0
 10
0.39838
 20
8.27963
 30
0.0
 10
0.39838
 20
8.26776
 30
0.0
 10
0.39838
 20
8.26776
 30
0.0
 10
0.39838
 20
8.25169
 30
0.0
 10
0.39255
 20
8.23807
 30
0.0
 10
0.38081
 20
8.22689
 30
0.0
 10
0.38081
 20
8.22689
 30
0.0
 10
0.36911
 20
8.2157
 30
0.0
 10
0.35429
 20
8.21013
 30
0.0
 10
0.33638
 20
8.21013
 30
0.0
 10
0.33638
 20
8.21013
 30
0.0
 10
0.32023
 20
8.21013
 30
0.0
 10
0.30682
 20
8.21493
 30
0.0
 10
0.29615
 20
8.22457
 30
0.0
 10
0.29615
 20
8.22457
 30
0.0
 10
0.28548
 20
8.23417
 30
0.0
 10
0.2794
 20
8.24664
 30
0.0
 10
0.2779
 20
8.26197
 30
0.0
  0
SPLINE
  5
B8
330
1F
100
AcDbEntity
  8
layer 3
 62
     3
370
     9
100
AcDbSpline
210
0.0
220
0.0
230
1.0
 70
    11
 71
     3
 72
    92
 73
    88
 74
     0
 42
0.0000000001
 43
0.0000000001
 12
1.0
 22
0.0
 32
0.0
 13
1.0
 23
0.0
 33
0.0
 40
0.0
 40
0.0
 40
0.0
 40
0.0
 40
0.0434782608695652
 40
0.0434782608695652
 40
0.0434782608695652
 40
0.0434782608695652
 40
0.0869565217391304
 40
0.0869565217391304
 40
0.0869565217391304
 40
0.0869565217391304
 40
0.1304347826086956
 40
0.1304347826086956
 40
0.1304347826086956
 40
0.1304347826086956
 40
0.1739130434782609
 40
0.1739130434782609
 40
0.1739130434782609
 40
0.1739130434782609
 40
0.2173913043478261
 40
0.2173913043478261
 40
0.2173913043478261
 40
0.2173913043478261
 40
0.2608695652173913
 40
0.2608695652173913
 40
0.2608695652173913
 40
0.2608695652173913
 40
0.3043478260869565
 40
0.3043478260869565
 40
0.3043478260869565
 40
0.3043478260869565
 40
0.3478260869565217
 40
0.3478260869565217
 40
0.3478260869565217
 40
0.3478260869565217
 40
0.391304347826087
 40
0.391304347826087
 40
0.391304347826087
 40
0.391304347826087
 40
0.4347826086956522
 40
0.4347826086956522
 40
0.4347826086956522
 40
0.4347826086956522
 40
0.4782608695652174
 40
0.4782608695652174
 40
0.4782608695652174
 40
0.4782608695652174
 40
0.5217391304347826
 40
0.5217391304347826
 40
0.5217391304347826
 40
0.5217391304347826
 40
0.5652173913043478
 40
0.5652173913043478
 40
0.5652173913043478
 40
0.5652173913043478
 40
0.6086956521739131
 40
0.6086956521739131
 40
0.6086956521739131
 40
0.6086956521739131
 40
0.6521739130434783
 40
0.6521739130434783
 40
0.6521739130434783
 40
0.6521739130434783
 40
0.6956521739130435
 40
0.6956521739130435
 40
0.6956521739130435
 40
0.6956521739130435
 40
0.7391304347826086
 40
0.7391304347826086
 40
0.7391304347826086
 40
0.7391304347826086
 40
0.782608695652174
 40
0.782608695652174
 40
0.782608695652174
 40
0.782608695652174
 40
0.8260869565217391
 40
0.8260869565217391
 40
0.8260869565217391
 40
0.8260869565217391
 40
0.8695652173913043
 40
0.8695652173913043
 40
0.8695652173913043
 40
0.8695652173913043
 40
0.9130434782608695
 40
0.9130434782608695
 40
0.9130434782608695
 40
0.9130434782608695
 40
1.0
 40
1.0
 40
1.0
 40
1.0
 10
0.5395
 20
8.23511
 30
0.0
 10
0.5395
 20
8.23511
 30
0.0
 10
0.5395
 20
8.21339
 30
0.0
 10
0.5395
 20
8.21339
 30
0.0
 10
0.5395
 20
8.21339
 30
0.0
 10
0.5395
 20
8.21339
 30
0.0
 10
0.41786
 20
8.21339
 30
0.0
 10
0.41786
 20
8.21339
 30
0.0
 10
0.41786
 20
8.21339
 30
0.0
 10
0.4177
 20
8.21883
 30
0.0
 10
0.41855
 20
8.22405
 30
0.0
 10
0.42049
 20
8.22907
 30
0.0
 10
0.42049
 20
8.22907
 30
0.0
 10
0.42357
 20
8.23738
 30
0.0
 10
0.42853
 20
8.24552
 30
0.0
 10
0.43534
 20
8.25358
 30
0.0
 10
0.43534
 20
8.25358
 30
0.0
 10
0.4422
 20
8.26159
 30
0.0
 10
0.45205
 20
8.27088
 30
0.0
 10
0.46491
 20
8.28142
 30
0.0
 10
0.46491
 20
8.28142
 30
0.0
 10
0.48491
 20
8.29783
 30
0.0
 10
0.49845
 20
8.31081
 30
0.0
 10
0.50548
 20
8.32041
 30
0.0
 10
0.50548
 20
8.32041
 30
0.0
 10
0.51251
 20
8.32997
 30
0.0
 10
0.51602
 20
8.33905
 30
0.0
 10
0.51602
 20
8.34757
 30
0.0
 10
0.51602
 20
8.34757
 30
0.0
 10
0.51602
 20
8.35653
 30
0.0
 10
0.51281
 20
8.36406
 30
0.0
 10
0.50643
 20
8.37024
 30
0.0
 10
0.50643
 20
8.37024
 30
0.0
 10
0.5
 20
8.37636
 30
0.0
 10
0.49164
 20
8.37944
 30
0.0
 10
0.48136
 20
8.37944
 30
0.0
 10
0.48136
 20
8.37944
 30
0.0
 10
0.47048
 20
8.37944
 30
0.0
 10
0.46178
 20
8.37619
 30
0.0
 10
0.45527
 20
8.36964
 30
0.0
 10
0.45527
 20
8.36964
 30
0.0
 10
0.44872
 20
8.36313
 30
0.0
 10
0.44542
 20
8.35408
 30
0.0
 10
0.44533
 20
8.34256
 30
0.0
 10
0.44533
 20
8.34256
 30
0.0
 10
0.44533
 20
8.34256
 30
0.0
 10
0.42211
 20
8.34492
 30
0.0
 10
0.42211
 20
8.34492
 30
0.0
 10
0.42211
 20
8.34492
 30
0.0
 10
0.42369
 20
8.36227
 30
0.0
 10
0.42969
 20
8.37547
 30
0.0
 10
0.44007
 20
8.38455
 30
0.0
 10
0.44007
 20
8.38455
 30
0.0
 10
0.45043
 20
8.39363
 30
0.0
 10
0.46439
 20
8.39817
 30
0.0
 10
0.48188
 20
8.39817
 30
0.0
 10
0.48188
 20
8.39817
 30
0.0
 10
0.49952
 20
8.39817
 30
0.0
 10
0.51349
 20
8.39324
 30
0.0
 10
0.52378
 20
8.38348
 30
0.0
 10
0.52378
 20
8.38348
 30
0.0
 10
0.5341
 20
8.37366
 30
0.0
 10
0.53924
 20
8.36154
 30
0.0
 10
0.53924
 20
8.34706
 30
0.0
 10
0.53924
 20
8.34706
 30
0.0
 10
0.53924
 20
8.33969
 30
0.0
 10
0.53775
 20
8.33245
 30
0.0
 10
0.5347
 20
8.32534
 30
0.0
 10
0.5347
 20
8.32534
 30
0.0
 10
0.5317
 20
8.31822
 30
0.0
 10
0.52669
 20
8.31073
 30
0.0
 10
0.51971
 20
8.30289
 30
0.0
 10
0.51971
 20
8.30289
 30
0.0
 10
0.51272
 20
8.29501
 30
0.0
 10
0.50111
 20
8.28421
 30
0.0
 10
0.48488
 20
8.2705
 30
0.0
 10
0.48488
 20
8.2705
 30
0.0
 10
0.47134
 20
8.2591
 30
0.0
 10
0.46264
 20
8.25139
 30
0.0
 10
0.45878
 20
8.24732
 30
0.0
 10
0.45878
 20
8.24732
 30
0.0
 10
0.45493
 20
8.24329
 30
0.0
 10
0.45176
 20
8.23922
 30
0.0
 10
0.44923
 20
8.23511
 30
0.0
 10
0.44923
 20
8.23511
 30
0.0
 10
0.44923
 20
8.23511
 30
0.0
 10
0.5395
 20
8.23511
 30
0.0
 10
0.5395
 20
8.23511
 30
0.0
  0
SPLINE
  5
B9
330
1F
100
AcDbEntity
  8
layer 3
 62
     3
370
     5
100
AcDbSpline
210
0.0
220
0.0
230
1.0
 70
    27
 71
     3
 72
     8
 73
     4
 74
     0
 42
0.0000000001
 43
0.0000000001
 12
1.0
 22
0.0
 32
0.0
 13
1.0
 23
0.0
 33
0.0
 40
0.0
 40
0.0
 40
0.0
 40
0.0
 40
1.0
 40
1.0
 40
1.0
 40
1.0
 10
0.05709
 20
-4.36991
 30
0.0
 10
0.05709
 20
-4.36991
 30
0.0
 10
0.05709
 20
-4.36991
 30
0.0
 10
0.05709
 20
-4.36991
 30
0.0
  0
SPLINE
  5
BA
330
1F
100
AcDbEntity
  8
layer 3
 62
     3
370
     5
100
AcDbSpline
210
0.0
220
0.0
230
1.0
 70
    24
 71
     3
 72
     8
 73
     4
 74
     0
 42
0.0000000001
 43
0.0000000001
 12
1.0
 22
0.0
 32
0.0
 13
1.0
 23
0.0
 33
0.0
 40
0.0
 40
0.0
 40
0.0
 40
0.0
 40
1.0
 40
1.0
 40
1.0
 40
1.0
 10
0.05709
 20
-4.36991
 30
0.0
 10
0.05709
 20
-4.36991
 30
0.0
 10
-9.22212
 20
-4.36991
 30
0.0
 10
-9.22212
 20
-4.36991
 30
0.0
  0
SPLINE
  5
BB
330
1F
100
AcDbEntity
  8
layer 3
 62
     3
370
     5
100
AcDbSpline
210
0.0
220
0.0
230
1.0
 70
    27
 71
     3
 72
     8
 73
     4
 74
     0
 42
0.0000000001
 43
0.0000000001
 12
1.0
 22
0.0
 32
0.0
 13
1.0
 23
0.0
 33
0.0
 40
0.0
 40
0.0
 40
0.0
 40
0.0
 40
1.0
 40
1.0
 40
1.0
 40
1.0
 10
0.05709
 20
4.03583
 30
0.0
 10
0.05709
 20
4.03583
 30
0.0
 10
0.05709
 20
4.03583
 30
0.0
 10
0.05709
 20
4.03583
 30
0.0
  0
SPLINE
  5
BC
330
1F
100
AcDbEntity
  8
layer 3
 62
     3
370
     5
100
AcDbSpline
210
0.0
220
0.0
230
1.0
 70
    24
 71
     3
 72
     8
 73
     4
 74
     0
 42
0.0000000001
 43
0.0000000001
 12
1.0
 22
0.0
 32
0.0
 13
1.0
 23
0.0
 33
0.0
 40
0.0
 40
0.0
 40
0.0
 40
0.0
 40
1.0
 40
1.0
 40
1.0
 40
1.0
 10
0.05709
 20
4.03583
 30
0.0
 10
0.05709
 20
4.03583
 30
0.0
 10
-9.22212
 20
4.03583
 30
0.0
 10
-9.22212
 20
4.03583
 30
0.0
  0
SPLINE
  5
BD
330
1F
100
AcDbEntity
  8
layer 3
 62
     3
370
     5
100
AcDbSpline
210
0.0
220
0.0
230
1.0
 70
    24
 71
     3
 72
     8
 73
     4
 74
     0
 42
0.0000000001
 43
0.0000000001
 12
1.0
 22
0.0
 32
0.0
 13
1.0
 23
0.0
 33
0.0
 40
0.0
 40
0.0
 40
0.0
 40
0.0
 40
1.0
 40
1.0
 40
1.0
 40
1.0
 10
-9.18999
 20
-4.16427
 30
0.0
 10
-9.18999
 20
-4.16427
 30
0.0
 10
-9.18999
 20
3.83018
 30
0.0
 10
-9.18999
 20
3.83018
 30
0.0
  0
SPLINE
  5
BE
330
1F
100
AcDbEntity
  8
layer 3
 62
     3
370
     9
100
AcDbSpline
210
0.0
220
0.0
230
1.0
 70
    27
 71
     3
 72
    12
 73
     8
 74
     0
 42
0.0000000001
 43
0.0000000001
 12
1.0
 22
0.0
 32
0.0
 13
1.0
 23
0.0
 33
0.0
 40
0.0
 40
0.0
 40
0.0
 40
0.0
 40
0.3333333333333333
 40
0.3333333333333333
 40
0.3333333333333333
 40
0.3333333333333333
 40
1.0
 40
1.0
 40
1.0
 40
1.0
 10
-9.22426
 20
-4.16427
 30
0.0
 10
-9.22426
 20
-4.16427
 30
0.0
 10
-9.18999
 20
-4.36991
 30
0.0
 10
-9.18999
 20
-4.36991
 30
0.0
 10
-9.18999
 20
-4.36991
 30
0.0
 10
-9.18999
 20
-4.36991
 30
0.0
 10
-9.22426
 20
-4.16427
 30
0.0
 10
-9.22426
 20
-4.16427
 30
0.0
  0
SPLINE
  5
BF
330
1F
100
AcDbEntity
  8
layer 3
 62
     3
370
     9
100
AcDbSpline
210
0.0
220
0.0
230
1.0
 70
    11
 71
     3
 72
    16
 73
    12
 74
     0
 42
0.0000000001
 43
0.0000000001
 12
1.0
 22
0.0
 32
0.0
 13
1.0
 23
0.0
 33
0.0
 40
0.0
 40
0.0
 40
0.0
 40
0.0
 40
0.25
 40
0.25
 40
0.25
 40
0.25
 40
0.5
 40
0.5
 40
0.5
 40
0.5
 40
1.0
 40
1.0
 40
1.0
 40
1.0
 10
-9.18999
 20
-4.36991
 30
0.0
 10
-9.18999
 20
-4.36991
 30
0.0
 10
-9.15571
 20
-4.16427
 30
0.0
 10
-9.15571
 20
-4.16427
 30
0.0
 10
-9.15571
 20
-4.16427
 30
0.0
 10
-9.15571
 20
-4.16427
 30
0.0
 10
-9.22426
 20
-4.16427
 30
0.0
 10
-9.22426
 20
-4.16427
 30
0.0
 10
-9.22426
 20
-4.16427
 30
0.0
 10
-9.22426
 20
-4.16427
 30
0.0
 10
-9.18999
 20
-4.36991
 30
0.0
 10
-9.18999
 20
-4.36991
 30
0.0
  0
SPLINE
  5
C0
330
1F
100
AcDbEntity
  8
layer 3
 62
     3
370
    18
100
AcDbSpline
210
0.0
220
0.0
230
1.0
 70
    24
 71
     3
 72
     8
 73
     4
 74
     0
 42
0.0000000001
 43
0.0000000001
 12
1.0
 22
0.0
 32
0.0
 13
1.0
 23
0.0
 33
0.0
 40
0.0
 40
0.0
 40
0.0
 40
0.0
 40
1.0
 40
1.0
 40
1.0
 40
1.0
 10
-9.22426
 20
-4.16427
 30
0.0
 10
-9.22426
 20
-4.16427
 30
0.0
 10
-9.18999
 20
-4.36991
 30
0.0
 10
-9.18999
 20
-4.36991
 30
0.0
  0
SPLINE
  5
C1
330
1F
100
AcDbEntity
  8
layer 3
 62
     3
370
    18
100
AcDbSpline
210
0.0
220
0.0
230
1.0
 70
     8
 71
     3
 72
    12
 73
     8
 74
     0
 42
0.0000000001
 43
0.0000000001
 12
1.0
 22
0.0
 32
0.0
 13
1.0
 23
0.0
 33
0.0
 40
0.0
 40
0.0
 40
0.0
 40
0.0
 40
0.3333333333333333
 40
0.3333333333333333
 40
0.3333333333333333
 40
0.3333333333333333
 40
1.0
 40
1.0
 40
1.0
 40
1.0
 10
-9.18999
 20
-4.36991
 30
0.0
 10
-9.18999
 20
-4.36991
 30
0.0
 10
-9.15571
 20
-4.16427
 30
0.0
 10
-9.15571
 20
-4.16427
 30
0.0
 10
-9.15571
 20
-4.16427
 30
0.0
 10
-9.15571
 20
-4.16427
 30
0.0
 10
-9.22426
 20
-4.16427
 30
0.0
 10
-9.22426
 20
-4.16427
 30
0.0
  0
SPLINE
  5
C2
330
1F
100
AcDbEntity
  8
layer 3
 62
     3
370
     9
100
AcDbSpline
210
0.0
220
0.0
230
1.0
 70
    27
 71
     3
 72
    12
 73
     8
 74
     0
 42
0.0000000001
 43
0.0000000001
 12
1.0
 22
0.0
 32
0.0
 13
1.0
 23
0.0
 33
0.0
 40
0.0
 40
0.0
 40
0.0
 40
0.0
 40
0.3333333333333333
 40
0.3333333333333333
 40
0.3333333333333333
 40
0.3333333333333333
 40
1.0
 40
1.0
 40
1.0
 40
1.0
 10
-9.22426
 20
3.83018
 30
0.0
 10
-9.22426
 20
3.83018
 30
0.0
 10
-9.18999
 20
4.03583
 30
0.0
 10
-9.18999
 20
4.03583
 30
0.0
 10
-9.18999
 20
4.03583
 30
0.0
 10
-9.18999
 20
4.03583
 30
0.0
 10
-9.22426
 20
3.83018
 30
0.0
 10
-9.22426
 20
3.83018
 30
0.0
  0
SPLINE
  5
C3
330
1F
100
AcDbEntity
  8
layer 3
 62
     3
370
     9
100
AcDbSpline
210
0.0
220
0.0
230
1.0
 70
    11
 71
     3
 72
    16
 73
    12
 74
     0
 42
0.0000000001
 43
0.0000000001
 12
1.0
 22
0.0
 32
0.0
 13
1.0
 23
0.0
 33
0.0
 40
0.0
 40
0.0
 40
0.0
 40
0.0
 40
0.25
 40
0.25
 40
0.25
 40
0.25
 40
0.5
 40
0.5
 40
0.5
 40
0.5
 40
1.0
 40
1.0
 40
1.0
 40
1.0
 10
-9.18999
 20
4.03583
 30
0.0
 10
-9.18999
 20
4.03583
 30
0.0
 10
-9.15571
 20
3.83018
 30
0.0
 10
-9.15571
 20
3.83018
 30
0.0
 10
-9.15571
 20
3.83018
 30
0.0
 10
-9.15571
 20
3.83018
 30
0.0
 10
-9.22426
 20
3.83018
 30
0.0
 10
-9.22426
 20
3.83018
 30
0.0
 10
-9.22426
 20
3.83018
 30
0.0
 10
-9.22426
 20
3.83018
 30
0.0
 10
-9.18999
 20
4.03583
 30
0.0
 10
-9.18999
 20
4.03583
 30
0.0
  0
SPLINE
  5
C4
330
1F
100
AcDbEntity
  8
layer 3
 62
     3
370
    18
100
AcDbSpline
210
0.0
220
0.0
230
1.0
 70
    24
 71
     3
 72
     8
 73
     4
 74
     0
 42
0.0000000001
 43
0.0000000001
 12
1.0
 22
0.0
 32
0.0
 13
1.0
 23
0.0
 33
0.0
 40
0.0
 40
0.0
 40
0.0
 40
0.0
 40
1.0
 40
1.0
 40
1.0
 40
1.0
 10
-9.22426
 20
3.83018
 30
0.0
 10
-9.22426
 20
3.83018
 30
0.0
 10
-9.18999
 20
4.03583
 30
0.0
 10
-9.18999
 20
4.03583
 30
0.0
  0
SPLINE
  5
C5
330
1F
100
AcDbEntity
  8
layer 3
 62
     3
370
    18
100
AcDbSpline
210
0.0
220
0.0
230
1.0
 70
     8
 71
     3
 72
    12
 73
     8
 74
     0
 42
0.0000000001
 43
0.0000000001
 12
1.0
 22
0.0
 32
0.0
 13
1.0
 23
0.0
 33
0.0
 40
0.0
 40
0.0
 40
0.0
 40
0.0
 40
0.3333333333333333
 40
0.3333333333333333
 40
0.3333333333333333
 40
0.3333333333333333
 40
1.0
 40
1.0
 40
1.0
 40
1.0
 10
-9.18999
 20
4.03583
 30
0.0
 10
-9.18999
 20
4.03583
 30
0.0
 10
-9.15571
 20
3.83018
 30
0.0
 10
-9.15571
 20
3.83018
 30
0.0
 10
-9.15571
 20
3.83018
 30
0.0
 10
-9.15571
 20
3.83018
 30
0.0
 10
-9.22426
 20
3.83018
 30
0.0
 10
-9.22426
 20
3.83018
 30
0.0
  0
SPLINE
  5
C6
330
1F
100
AcDbEntity
  8
layer 3
 62
     3
370
     9
100
AcDbSpline
210
0.0
220
0.0
230
1.0
 70
    11
 71
     3
 72
   124
 73
   120
 74
     0
 42
0.0000000001
 43
0.0000000001
 12
1.0
 22
0.0
 32
0.0
 13
1.0
 23
0.0
 33
0.0
 40
0.0
 40
0.0
 40
0.0
 40
0.0
 40
0.032258064516129
 40
0.032258064516129
 40
0.032258064516129
 40
0.032258064516129
 40
0.0645161290322581
 40
0.0645161290322581
 40
0.0645161290322581
 40
0.0645161290322581
 40
0.0967741935483871
 40
0.0967741935483871
 40
0.0967741935483871
 40
0.0967741935483871
 40
0.1290322580645161
 40
0.1290322580645161
 40
0.1290322580645161
 40
0.1290322580645161
 40
0.1612903225806452
 40
0.1612903225806452
 40
0.1612903225806452
 40
0.1612903225806452
 40
0.1935483870967742
 40
0.1935483870967742
 40
0.1935483870967742
 40
0.1935483870967742
 40
0.2258064516129032
 40
0.2258064516129032
 40
0.2258064516129032
 40
0.2258064516129032
 40
0.2580645161290323
 40
0.2580645161290323
 40
0.2580645161290323
 40
0.2580645161290323
 40
0.2903225806451613
 40
0.2903225806451613
 40
0.2903225806451613
 40
0.2903225806451613
 40
0.3225806451612903
 40
0.3225806451612903
 40
0.3225806451612903
 40
0.3225806451612903
 40
0.3548387096774194
 40
0.3548387096774194
 40
0.3548387096774194
 40
0.3548387096774194
 40
0.3870967741935484
 40
0.3870967741935484
 40
0.3870967741935484
 40
0.3870967741935484
 40
0.4193548387096774
 40
0.4193548387096774
 40
0.4193548387096774
 40
0.4193548387096774
 40
0.4516129032258064
 40
0.4516129032258064
 40
0.4516129032258064
 40
0.4516129032258064
 40
0.4838709677419355
 40
0.4838709677419355
 40
0.4838709677419355
 40
0.4838709677419355
 40
0.5161290322580645
 40
0.5161290322580645
 40
0.5161290322580645
 40
0.5161290322580645
 40
0.5483870967741935
 40
0.5483870967741935
 40
0.5483870967741935
 40
0.5483870967741935
 40
0.5806451612903226
 40
0.5806451612903226
 40
0.5806451612903226
 40
0.5806451612903226
 40
0.6129032258064516
 40
0.6129032258064516
 40
0.6129032258064516
 40
0.6129032258064516
 40
0.6451612903225806
 40
0.6451612903225806
 40
0.6451612903225806
 40
0.6451612903225806
 40
0.6774193548387096
 40
0.6774193548387096
 40
0.6774193548387096
 40
0.6774193548387096
 40
0.7096774193548387
 40
0.7096774193548387
 40
0.7096774193548387
 40
0.7096774193548387
 40
0.7419354838709677
 40
0.7419354838709677
 40
0.7419354838709677
 40
0.7419354838709677
 40
0.7741935483870968
 40
0.7741935483870968
 40
0.7741935483870968
 40
0.7741935483870968
 40
0.8064516129032258
 40
0.8064516129032258
 40
0.8064516129032258
 40
0.8064516129032258
 40
0.8387096774193549
 40
0.8387096774193549
 40
0.8387096774193549
 40
0.8387096774193549
 40
0.8709677419354839
 40
0.8709677419354839
 40
0.8709677419354839
 40
0.8709677419354839
 40
0.9032258064516129
 40
0.9032258064516129
 40
0.9032258064516129
 40
0.9032258064516129
 40
0.9354838709677419
 40
0.9354838709677419
 40
0.9354838709677419
 40
0.9354838709677419
 40
1.0
 40
1.0
 40
1.0
 40
1.0
 10
-9.38079
 20
-0.3707
 30
0.0
 10
-9.38079
 20
-0.3707
 30
0.0
 10
-9.38379
 20
-0.34812
 30
0.0
 10
-9.38379
 20
-0.34812
 30
0.0
 10
-9.38379
 20
-0.34812
 30
0.0
 10
-9.37098
 20
-0.34551
 30
0.0
 10
-9.36177
 20
-0.34109
 30
0.0
 10
-9.35611
 20
-0.33488
 30
0.0
 10
-9.35611
 20
-0.33488
 30
0.0
 10
-9.35046
 20
-0.32863
 30
0.0
 10
-9.34764
 20
-0.32105
 30
0.0
 10
-9.34764
 20
-0.31209
 30
0.0
 10
-9.34764
 20
-0.31209
 30
0.0
 10
-9.34764
 20
-0.30147
 30
0.0
 10
-9.35132
 20
-0.29247
 30
0.0
 10
-9.35868
 20
-0.28514
 30
0.0
 10
-9.35868
 20
-0.28514
 30
0.0
 10
-9.36605
 20
-0.27786
 30
0.0
 10
-9.37518
 20
-0.27417
 30
0.0
 10
-9.38606
 20
-0.27417
 30
0.0
 10
-9.38606
 20
-0.27417
 30
0.0
 10
-9.39642
 20
-0.27417
 30
0.0
 10
-9.405
 20
-0.27756
 30
0.0
 10
-9.41172
 20
-0.28433
 30
0.0
 10
-9.41172
 20
-0.28433
 30
0.0
 10
-9.41845
 20
-0.29114
 30
0.0
 10
-9.42183
 20
-0.29975
 30
0.0
 10
-9.42183
 20
-0.3102
 30
0.0
 10
-9.42183
 20
-0.3102
 30
0.0
 10
-9.42183
 20
-0.31449
 30
0.0
 10
-9.42098
 20
-0.3198
 30
0.0
 10
-9.4193
 20
-0.32614
 30
0.0
 10
-9.4193
 20
-0.32614
 30
0.0
 10
-9.4193
 20
-0.32614
 30
0.0
 10
-9.43914
 20
-0.32361
 30
0.0
 10
-9.43914
 20
-0.32361
 30
0.0
 10
-9.43914
 20
-0.32361
 30
0.0
 10
-9.43897
 20
-0.32212
 30
0.0
 10
-9.43888
 20
-0.32092
 30
0.0
 10
-9.43888
 20
-0.31998
 30
0.0
 10
-9.43888
 20
-0.31998
 30
0.0
 10
-9.43888
 20
-0.31038
 30
0.0
 10
-9.44141
 20
-0.30173
 30
0.0
 10
-9.44642
 20
-0.29401
 30
0.0
 10
-9.44642
 20
-0.29401
 30
0.0
 10
-9.45144
 20
-0.2863
 30
0.0
 10
-9.45919
 20
-0.28244
 30
0.0
 10
-9.46964
 20
-0.28244
 30
0.0
 10
-9.46964
 20
-0.28244
 30
0.0
 10
-9.47792
 20
-0.28244
 30
0.0
 10
-9.48481
 20
-0.28527
 30
0.0
 10
-9.49021
 20
-0.29088
 30
0.0
 10
-9.49021
 20
-0.29088
 30
0.0
 10
-9.49566
 20
-0.29649
 30
0.0
 10
-9.4984
 20
-0.30373
 30
0.0
 10
-9.4984
 20
-0.3126
 30
0.0
 10
-9.4984
 20
-0.3126
 30
0.0
 10
-9.4984
 20
-0.32139
 30
0.0
 10
-9.49561
 20
-0.32871
 30
0.0
 10
-9.49013
 20
-0.33454
 30
0.0
 10
-9.49013
 20
-0.33454
 30
0.0
 10
-9.4846
 20
-0.34041
 30
0.0
 10
-9.47629
 20
-0.34418
 30
0.0
 10
-9.46523
 20
-0.34585
 30
0.0
 10
-9.46523
 20
-0.34585
 30
0.0
 10
-9.46523
 20
-0.34585
 30
0.0
 10
-9.46926
 20
-0.36843
 30
0.0
 10
-9.46926
 20
-0.36843
 30
0.0
 10
-9.46926
 20
-0.36843
 30
0.0
 10
-9.48443
 20
-0.36568
 30
0.0
 10
-9.49617
 20
-0.35939
 30
0.0
 10
-9.50447
 20
-0.34962
 30
0.0
 10
-9.50447
 20
-0.34962
 30
0.0
 10
-9.51279
 20
-0.33981
 30
0.0
 10
-9.51698
 20
-0.32764
 30
0.0
 10
-9.51698
 20
-0.31307
 30
0.0
 10
-9.51698
 20
-0.31307
 30
0.0
 10
-9.51698
 20
-0.30305
 30
0.0
 10
-9.5148
 20
-0.2938
 30
0.0
 10
-9.51052
 20
-0.28535
 30
0.0
 10
-9.51052
 20
-0.28535
 30
0.0
 10
-9.50619
 20
-0.27691
 30
0.0
 10
-9.50032
 20
-0.27045
 30
0.0
 10
-9.49287
 20
-0.26595
 30
0.0
 10
-9.49287
 20
-0.26595
 30
0.0
 10
-9.48541
 20
-0.2615
 30
0.0
 10
-9.47752
 20
-0.25922
 30
0.0
 10
-9.46913
 20
-0.25922
 30
0.0
 10
-9.46913
 20
-0.25922
 30
0.0
 10
-9.46121
 20
-0.25922
 30
0.0
 10
-9.45397
 20
-0.26137
 30
0.0
 10
-9.44742
 20
-0.26565
 30
0.0
 10
-9.44742
 20
-0.26565
 30
0.0
 10
-9.4409
 20
-0.26993
 30
0.0
 10
-9.43572
 20
-0.27623
 30
0.0
 10
-9.43186
 20
-0.28458
 30
0.0
 10
-9.43186
 20
-0.28458
 30
0.0
 10
-9.42938
 20
-0.27371
 30
0.0
 10
-9.42415
 20
-0.26526
 30
0.0
 10
-9.41622
 20
-0.25922
 30
0.0
 10
-9.41622
 20
-0.25922
 30
0.0
 10
-9.40834
 20
-0.25323
 30
0.0
 10
-9.39844
 20
-0.25022
 30
0.0
 10
-9.38657
 20
-0.25022
 30
0.0
 10
-9.38657
 20
-0.25022
 30
0.0
 10
-9.37051
 20
-0.25022
 30
0.0
 10
-9.35688
 20
-0.25605
 30
0.0
 10
-9.3457
 20
-0.26779
 30
0.0
 10
-9.3457
 20
-0.26779
 30
0.0
 10
-9.33452
 20
-0.27949
 30
0.0
 10
-9.32895
 20
-0.29431
 30
0.0
 10
-9.32895
 20
-0.31222
 30
0.0
 10
-9.32895
 20
-0.31222
 30
0.0
 10
-9.32895
 20
-0.32837
 30
0.0
 10
-9.33375
 20
-0.34178
 30
0.0
 10
-9.34339
 20
-0.35245
 30
0.0
 10
-9.34339
 20
-0.35245
 30
0.0
 10
-9.35299
 20
-0.36312
 30
0.0
 10
-9.36545
 20
-0.3692
 30
0.0
 10
-9.38079
 20
-0.3707
 30
0.0
  0
SPLINE
  5
C7
330
1F
100
AcDbEntity
  8
layer 3
 62
     3
370
     9
100
AcDbSpline
210
0.0
220
0.0
230
1.0
 70
    11
 71
     3
 72
    92
 73
    88
 74
     0
 42
0.0000000001
 43
0.0000000001
 12
1.0
 22
0.0
 32
0.0
 13
1.0
 23
0.0
 33
0.0
 40
0.0
 40
0.0
 40
0.0
 40
0.0
 40
0.0434782608695652
 40
0.0434782608695652
 40
0.0434782608695652
 40
0.0434782608695652
 40
0.0869565217391304
 40
0.0869565217391304
 40
0.0869565217391304
 40
0.0869565217391304
 40
0.1304347826086956
 40
0.1304347826086956
 40
0.1304347826086956
 40
0.1304347826086956
 40
0.1739130434782609
 40
0.1739130434782609
 40
0.1739130434782609
 40
0.1739130434782609
 40
0.2173913043478261
 40
0.2173913043478261
 40
0.2173913043478261
 40
0.2173913043478261
 40
0.2608695652173913
 40
0.2608695652173913
 40
0.2608695652173913
 40
0.2608695652173913
 40
0.3043478260869565
 40
0.3043478260869565
 40
0.3043478260869565
 40
0.3043478260869565
 40
0.3478260869565217
 40
0.3478260869565217
 40
0.3478260869565217
 40
0.3478260869565217
 40
0.391304347826087
 40
0.391304347826087
 40
0.391304347826087
 40
0.391304347826087
 40
0.4347826086956522
 40
0.4347826086956522
 40
0.4347826086956522
 40
0.4347826086956522
 40
0.4782608695652174
 40
0.4782608695652174
 40
0.4782608695652174
 40
0.4782608695652174
 40
0.5217391304347826
 40
0.5217391304347826
 40
0.5217391304347826
 40
0.5217391304347826
 40
0.5652173913043478
 40
0.5652173913043478
 40
0.5652173913043478
 40
0.5652173913043478
 40
0.6086956521739131
 40
0.6086956521739131
 40
0.6086956521739131
 40
0.6086956521739131
 40
0.6521739130434783
 40
0.6521739130434783
 40
0.6521739130434783
 40
0.6521739130434783
 40
0.6956521739130435
 40
0.6956521739130435
 40
0.6956521739130435
 40
0.6956521739130435
 40
0.7391304347826086
 40
0.7391304347826086
 40
0.7391304347826086
 40
0.7391304347826086
 40
0.782608695652174
 40
0.782608695652174
 40
0.782608695652174
 40
0.782608695652174
 40
0.8260869565217391
 40
0.8260869565217391
 40
0.8260869565217391
 40
0.8260869565217391
 40
0.8695652173913043
 40
0.8695652173913043
 40
0.8695652173913043
 40
0.8695652173913043
 40
0.9130434782608695
 40
0.9130434782608695
 40
0.9130434782608695
 40
0.9130434782608695
 40
1.0
 40
1.0
 40
1.0
 40
1.0
 10
-9.35393
 20
-0.1091
 30
0.0
 10
-9.35393
 20
-0.1091
 30
0.0
 10
-9.33221
 20
-0.1091
 30
0.0
 10
-9.33221
 20
-0.1091
 30
0.0
 10
-9.33221
 20
-0.1091
 30
0.0
 10
-9.33221
 20
-0.1091
 30
0.0
 10
-9.33221
 20
-0.23073
 30
0.0
 10
-9.33221
 20
-0.23073
 30
0.0
 10
-9.33221
 20
-0.23073
 30
0.0
 10
-9.33765
 20
-0.2309
 30
0.0
 10
-9.34288
 20
-0.23005
 30
0.0
 10
-9.34789
 20
-0.22812
 30
0.0
 10
-9.34789
 20
-0.22812
 30
0.0
 10
-9.35619
 20
-0.22503
 30
0.0
 10
-9.36433
 20
-0.22007
 30
0.0
 10
-9.37239
 20
-0.21325
 30
0.0
 10
-9.37239
 20
-0.21325
 30
0.0
 10
-9.3804
 20
-0.2064
 30
0.0
 10
-9.38971
 20
-0.19655
 30
0.0
 10
-9.40024
 20
-0.18369
 30
0.0
 10
-9.40024
 20
-0.18369
 30
0.0
 10
-9.41665
 20
-0.16368
 30
0.0
 10
-9.42963
 20
-0.15015
 30
0.0
 10
-9.43923
 20
-0.14311
 30
0.0
 10
-9.43923
 20
-0.14311
 30
0.0
 10
-9.44878
 20
-0.1361
 30
0.0
 10
-9.45786
 20
-0.13257
 30
0.0
 10
-9.46639
 20
-0.13257
 30
0.0
 10
-9.46639
 20
-0.13257
 30
0.0
 10
-9.47534
 20
-0.13257
 30
0.0
 10
-9.48289
 20
-0.13579
 30
0.0
 10
-9.48906
 20
-0.14217
 30
0.0
 10
-9.48906
 20
-0.14217
 30
0.0
 10
-9.49518
 20
-0.1486
 30
0.0
 10
-9.49827
 20
-0.15696
 30
0.0
 10
-9.49827
 20
-0.16724
 30
0.0
 10
-9.49827
 20
-0.16724
 30
0.0
 10
-9.49827
 20
-0.17812
 30
0.0
 10
-9.49501
 20
-0.18682
 30
0.0
 10
-9.48845
 20
-0.19333
 30
0.0
 10
-9.48845
 20
-0.19333
 30
0.0
 10
-9.48194
 20
-0.19988
 30
0.0
 10
-9.47291
 20
-0.20318
 30
0.0
 10
-9.46137
 20
-0.20327
 30
0.0
 10
-9.46137
 20
-0.20327
 30
0.0
 10
-9.46137
 20
-0.20327
 30
0.0
 10
-9.46373
 20
-0.22649
 30
0.0
 10
-9.46373
 20
-0.22649
 30
0.0
 10
-9.46373
 20
-0.22649
 30
0.0
 10
-9.48108
 20
-0.2249
 30
0.0
 10
-9.49428
 20
-0.21891
 30
0.0
 10
-9.50336
 20
-0.20854
 30
0.0
 10
-9.50336
 20
-0.20854
 30
0.0
 10
-9.51245
 20
-0.19817
 30
0.0
 10
-9.51698
 20
-0.18421
 30
0.0
 10
-9.51698
 20
-0.16673
 30
0.0
 10
-9.51698
 20
-0.16673
 30
0.0
 10
-9.51698
 20
-0.14907
 30
0.0
 10
-9.51206
 20
-0.13511
 30
0.0
 10
-9.50229
 20
-0.12482
 30
0.0
 10
-9.50229
 20
-0.12482
 30
0.0
 10
-9.49248
 20
-0.1145
 30
0.0
 10
-9.48036
 20
-0.10936
 30
0.0
 10
-9.46588
 20
-0.10936
 30
0.0
 10
-9.46588
 20
-0.10936
 30
0.0
 10
-9.45851
 20
-0.10936
 30
0.0
 10
-9.45127
 20
-0.11086
 30
0.0
 10
-9.44415
 20
-0.1139
 30
0.0
 10
-9.44415
 20
-0.1139
 30
0.0
 10
-9.43704
 20
-0.1169
 30
0.0
 10
-9.42954
 20
-0.1219
 30
0.0
 10
-9.42171
 20
-0.12889
 30
0.0
 10
-9.42171
 20
-0.12889
 30
0.0
 10
-9.41382
 20
-0.13588
 30
0.0
 10
-9.40302
 20
-0.14749
 30
0.0
 10
-9.38931
 20
-0.16372
 30
0.0
 10
-9.38931
 20
-0.16372
 30
0.0
 10
-9.37792
 20
-0.17726
 30
0.0
 10
-9.37021
 20
-0.18596
 30
0.0
 10
-9.36614
 20
-0.18982
 30
0.0
 10
-9.36614
 20
-0.18982
 30
0.0
 10
-9.36211
 20
-0.19368
 30
0.0
 10
-9.35804
 20
-0.19684
 30
0.0
 10
-9.35393
 20
-0.19937
 30
0.0
 10
-9.35393
 20
-0.19937
 30
0.0
 10
-9.35393
 20
-0.19937
 30
0.0
 10
-9.35393
 20
-0.1091
 30
0.0
 10
-9.35393
 20
-0.1091
 30
0.0
  0
SPLINE
  5
C8
330
1F
100
AcDbEntity
  8
layer 3
 62
     3
370
     9
100
AcDbSpline
210
0.0
220
0.0
230
1.0
 70
    11
 71
     3
 72
    48
 73
    44
 74
     0
 42
0.0000000001
 43
0.0000000001
 12
1.0
 22
0.0
 32
0.0
 13
1.0
 23
0.0
 33
0.0
 40
0.0
 40
0.0
 40
0.0
 40
0.0
 40
0.0833333333333333
 40
0.0833333333333333
 40
0.0833333333333333
 40
0.0833333333333333
 40
0.1666666666666667
 40
0.1666666666666667
 40
0.1666666666666667
 40
0.1666666666666667
 40
0.25
 40
0.25
 40
0.25
 40
0.25
 40
0.3333333333333333
 40
0.3333333333333333
 40
0.3333333333333333
 40
0.3333333333333333
 40
0.4166666666666667
 40
0.4166666666666667
 40
0.4166666666666667
 40
0.4166666666666667
 40
0.5
 40
0.5
 40
0.5
 40
0.5
 40
0.5833333333333334
 40
0.5833333333333334
 40
0.5833333333333334
 40
0.5833333333333334
 40
0.6666666666666666
 40
0.6666666666666666
 40
0.6666666666666666
 40
0.6666666666666666
 40
0.75
 40
0.75
 40
0.75
 40
0.75
 40
0.8333333333333334
 40
0.8333333333333334
 40
0.8333333333333334
 40
0.8333333333333334
 40
1.0
 40
1.0
 40
1.0
 40
1.0
 10
-9.4921
 20
-0.08339
 30
0.0
 10
-9.4921
 20
-0.08339
 30
0.0
 10
-9.51381
 20
-0.08339
 30
0.0
 10
-9.51381
 20
-0.08339
 30
0.0
 10
-9.51381
 20
-0.08339
 30
0.0
 10
-9.51381
 20
-0.08339
 30
0.0
 10
-9.51381
 20
0.03571
 30
0.0
 10
-9.51381
 20
0.03571
 30
0.0
 10
-9.51381
 20
0.03571
 30
0.0
 10
-9.51381
 20
0.03571
 30
0.0
 10
-9.49625
 20
0.03571
 30
0.0
 10
-9.49625
 20
0.03571
 30
0.0
 10
-9.49625
 20
0.03571
 30
0.0
 10
-9.48379
 20
0.02402
 30
0.0
 10
-9.46721
 20
0.0124
 30
0.0
 10
-9.44655
 20
0.00088
 30
0.0
 10
-9.44655
 20
0.00088
 30
0.0
 10
-9.4259
 20
-0.0106
 30
0.0
 10
-9.40461
 20
-0.01951
 30
0.0
 10
-9.3828
 20
-0.02577
 30
0.0
 10
-9.3828
 20
-0.02577
 30
0.0
 10
-9.36738
 20
-0.03031
 30
0.0
 10
-9.35054
 20
-0.03318
 30
0.0
 10
-9.33221
 20
-0.03443
 30
0.0
 10
-9.33221
 20
-0.03443
 30
0.0
 10
-9.33221
 20
-0.03443
 30
0.0
 10
-9.33221
 20
-0.05764
 30
0.0
 10
-9.33221
 20
-0.05764
 30
0.0
 10
-9.33221
 20
-0.05764
 30
0.0
 10
-9.34669
 20
-0.05739
 30
0.0
 10
-9.36417
 20
-0.05456
 30
0.0
 10
-9.38469
 20
-0.04912
 30
0.0
 10
-9.38469
 20
-0.04912
 30
0.0
 10
-9.40517
 20
-0.04368
 30
0.0
 10
-9.42496
 20
-0.03588
 30
0.0
 10
-9.44399
 20
-0.02573
 30
0.0
 10
-9.44399
 20
-0.02573
 30
0.0
 10
-9.46301
 20
-0.01554
 30
0.0
 10
-9.47907
 20
-0.00474
 30
0.0
 10
-9.4921
 20
0.00675
 30
0.0
 10
-9.4921
 20
0.00675
 30
0.0
 10
-9.4921
 20
0.00675
 30
0.0
 10
-9.4921
 20
-0.08339
 30
0.0
 10
-9.4921
 20
-0.08339
 30
0.0
  0
SPLINE
  5
C9
330
1F
100
AcDbEntity
  8
layer 3
 62
     3
370
     5
100
AcDbSpline
210
0.0
220
0.0
230
1.0
 70
    27
 71
     3
 72
     8
 73
     4
 74
     0
 42
0.0000000001
 43
0.0000000001
 12
1.0
 22
0.0
 32
0.0
 13
1.0
 23
0.0
 33
0.0
 40
0.0
 40
0.0
 40
0.0
 40
0.0
 40
1.0
 40
1.0
 40
1.0
 40
1.0
 10
0.05709
 20
4.03583
 30
0.0
 10
0.05709
 20
4.03583
 30
0.0
 10
0.05709
 20
4.03583
 30
0.0
 10
0.05709
 20
4.03583
 30
0.0
  0
SPLINE
  5
CA
330
1F
100
AcDbEntity
  8
layer 3
 62
     3
370
     5
100
AcDbSpline
210
0.0
220
0.0
230
1.0
 70
    24
 71
     3
 72
     8
 73
     4
 74
     0
 42
0.0000000001
 43
0.0000000001
 12
1.0
 22
0.0
 32
0.0
 13
1.0
 23
0.0
 33
0.0
 40
0.0
 40
0.0
 40
0.0
 40
0.0
 40
1.0
 40
1.0
 40
1.0
 40
1.0
 10
0.05709
 20
4.03583
 30
0.0
 10
0.05709
 20
4.03583
 30
0.0
 10
-9.22212
 20
4.03583
 30
0.0
 10
-9.22212
 20
4.03583
 30
0.0
  0
SPLINE
  5
CB
330
1F
100
AcDbEntity
  8
layer 3
 62
     3
370
     5
100
AcDbSpline
210
0.0
220
0.0
230
1.0
 70
    24
 71
     3
 72
     8
 73
     4
 74
     0
 42
0.0000000001
 43
0.0000000001
 12
1.0
 22
0.0
 32
0.0
 13
1.0
 23
0.0
 33
0.0
 40
0.0
 40
0.0
 40
0.0
 40
0.0
 40
1.0
 40
1.0
 40
1.0
 40
1.0
 10
-1.76286
 20
4.93552
 30
0.0
 10
-1.76286
 20
4.93552
 30
0.0
 10
-9.22212
 20
4.93552
 30
0.0
 10
-9.22212
 20
4.93552
 30
0.0
  0
SPLINE
  5
CC
330
1F
100
AcDbEntity
  8
layer 3
 62
     3
370
     5
100
AcDbSpline
210
0.0
220
0.0
230
1.0
 70
    24
 71
     3
 72
     8
 73
     4
 74
     0
 42
0.0000000001
 43
0.0000000001
 12
1.0
 22
0.0
 32
0.0
 13
1.0
 23
0.0
 33
0.0
 40
0.0
 40
0.0
 40
0.0
 40
0.0
 40
1.0
 40
1.0
 40
1.0
 40
1.0
 10
-9.18999
 20
4.24148
 30
0.0
 10
-9.18999
 20
4.24148
 30
0.0
 10
-9.18999
 20
4.72988
 30
0.0
 10
-9.18999
 20
4.72988
 30
0.0
  0
SPLINE
  5
CD
330
1F
100
AcDbEntity
  8
layer 3
 62
     3
370
     9
100
AcDbSpline
210
0.0
220
0.0
230
1.0
 70
    27
 71
     3
 72
    12
 73
     8
 74
     0
 42
0.0000000001
 43
0.0000000001
 12
1.0
 22
0.0
 32
0.0
 13
1.0
 23
0.0
 33
0.0
 40
0.0
 40
0.0
 40
0.0
 40
0.0
 40
0.3333333333333333
 40
0.3333333333333333
 40
0.3333333333333333
 40
0.3333333333333333
 40
1.0
 40
1.0
 40
1.0
 40
1.0
 10
-9.22426
 20
4.24148
 30
0.0
 10
-9.22426
 20
4.24148
 30
0.0
 10
-9.18999
 20
4.03583
 30
0.0
 10
-9.18999
 20
4.03583
 30
0.0
 10
-9.18999
 20
4.03583
 30
0.0
 10
-9.18999
 20
4.03583
 30
0.0
 10
-9.22426
 20
4.24148
 30
0.0
 10
-9.22426
 20
4.24148
 30
0.0
  0
SPLINE
  5
CE
330
1F
100
AcDbEntity
  8
layer 3
 62
     3
370
     9
100
AcDbSpline
210
0.0
220
0.0
230
1.0
 70
    11
 71
     3
 72
    16
 73
    12
 74
     0
 42
0.0000000001
 43
0.0000000001
 12
1.0
 22
0.0
 32
0.0
 13
1.0
 23
0.0
 33
0.0
 40
0.0
 40
0.0
 40
0.0
 40
0.0
 40
0.25
 40
0.25
 40
0.25
 40
0.25
 40
0.5
 40
0.5
 40
0.5
 40
0.5
 40
1.0
 40
1.0
 40
1.0
 40
1.0
 10
-9.18999
 20
4.03583
 30
0.0
 10
-9.18999
 20
4.03583
 30
0.0
 10
-9.15571
 20
4.24148
 30
0.0
 10
-9.15571
 20
4.24148
 30
0.0
 10
-9.15571
 20
4.24148
 30
0.0
 10
-9.15571
 20
4.24148
 30
0.0
 10
-9.22426
 20
4.24148
 30
0.0
 10
-9.22426
 20
4.24148
 30
0.0
 10
-9.22426
 20
4.24148
 30
0.0
 10
-9.22426
 20
4.24148
 30
0.0
 10
-9.18999
 20
4.03583
 30
0.0
 10
-9.18999
 20
4.03583
 30
0.0
  0
SPLINE
  5
CF
330
1F
100
AcDbEntity
  8
layer 3
 62
     3
370
    18
100
AcDbSpline
210
0.0
220
0.0
230
1.0
 70
    24
 71
     3
 72
     8
 73
     4
 74
     0
 42
0.0000000001
 43
0.0000000001
 12
1.0
 22
0.0
 32
0.0
 13
1.0
 23
0.0
 33
0.0
 40
0.0
 40
0.0
 40
0.0
 40
0.0
 40
1.0
 40
1.0
 40
1.0
 40
1.0
 10
-9.22426
 20
4.24148
 30
0.0
 10
-9.22426
 20
4.24148
 30
0.0
 10
-9.18999
 20
4.03583
 30
0.0
 10
-9.18999
 20
4.03583
 30
0.0
  0
SPLINE
  5
D0
330
1F
100
AcDbEntity
  8
layer 3
 62
     3
370
    18
100
AcDbSpline
210
0.0
220
0.0
230
1.0
 70
     8
 71
     3
 72
    12
 73
     8
 74
     0
 42
0.0000000001
 43
0.0000000001
 12
1.0
 22
0.0
 32
0.0
 13
1.0
 23
0.0
 33
0.0
 40
0.0
 40
0.0
 40
0.0
 40
0.0
 40
0.3333333333333333
 40
0.3333333333333333
 40
0.3333333333333333
 40
0.3333333333333333
 40
1.0
 40
1.0
 40
1.0
 40
1.0
 10
-9.18999
 20
4.03583
 30
0.0
 10
-9.18999
 20
4.03583
 30
0.0
 10
-9.15571
 20
4.24148
 30
0.0
 10
-9.15571
 20
4.24148
 30
0.0
 10
-9.15571
 20
4.24148
 30
0.0
 10
-9.15571
 20
4.24148
 30
0.0
 10
-9.22426
 20
4.24148
 30
0.0
 10
-9.22426
 20
4.24148
 30
0.0
  0
SPLINE
  5
D1
330
1F
100
AcDbEntity
  8
layer 3
 62
     3
370
     9
100
AcDbSpline
210
0.0
220
0.0
230
1.0
 70
    27
 71
     3
 72
    12
 73
     8
 74
     0
 42
0.0000000001
 43
0.0000000001
 12
1.0
 22
0.0
 32
0.0
 13
1.0
 23
0.0
 33
0.0
 40
0.0
 40
0.0
 40
0.0
 40
0.0
 40
0.3333333333333333
 40
0.3333333333333333
 40
0.3333333333333333
 40
0.3333333333333333
 40
1.0
 40
1.0
 40
1.0
 40
1.0
 10
-9.22426
 20
4.72988
 30
0.0
 10
-9.22426
 20
4.72988
 30
0.0
 10
-9.18999
 20
4.93552
 30
0.0
 10
-9.18999
 20
4.93552
 30
0.0
 10
-9.18999
 20
4.93552
 30
0.0
 10
-9.18999
 20
4.93552
 30
0.0
 10
-9.22426
 20
4.72988
 30
0.0
 10
-9.22426
 20
4.72988
 30
0.0
  0
SPLINE
  5
D2
330
1F
100
AcDbEntity
  8
layer 3
 62
     3
370
     9
100
AcDbSpline
210
0.0
220
0.0
230
1.0
 70
    11
 71
     3
 72
    16
 73
    12
 74
     0
 42
0.0000000001
 43
0.0000000001
 12
1.0
 22
0.0
 32
0.0
 13
1.0
 23
0.0
 33
0.0
 40
0.0
 40
0.0
 40
0.0
 40
0.0
 40
0.25
 40
0.25
 40
0.25
 40
0.25
 40
0.5
 40
0.5
 40
0.5
 40
0.5
 40
1.0
 40
1.0
 40
1.0
 40
1.0
 10
-9.18999
 20
4.93552
 30
0.0
 10
-9.18999
 20
4.93552
 30
0.0
 10
-9.15571
 20
4.72988
 30
0.0
 10
-9.15571
 20
4.72988
 30
0.0
 10
-9.15571
 20
4.72988
 30
0.0
 10
-9.15571
 20
4.72988
 30
0.0
 10
-9.22426
 20
4.72988
 30
0.0
 10
-9.22426
 20
4.72988
 30
0.0
 10
-9.22426
 20
4.72988
 30
0.0
 10
-9.22426
 20
4.72988
 30
0.0
 10
-9.18999
 20
4.93552
 30
0.0
 10
-9.18999
 20
4.93552
 30
0.0
  0
SPLINE
  5
D3
330
1F
100
AcDbEntity
  8
layer 3
 62
     3
370
    18
100
AcDbSpline
210
0.0
220
0.0
230
1.0
 70
    24
 71
     3
 72
     8
 73
     4
 74
     0
 42
0.0000000001
 43
0.0000000001
 12
1.0
 22
0.0
 32
0.0
 13
1.0
 23
0.0
 33
0.0
 40
0.0
 40
0.0
 40
0.0
 40
0.0
 40
1.0
 40
1.0
 40
1.0
 40
1.0
 10
-9.22426
 20
4.72988
 30
0.0
 10
-9.22426
 20
4.72988
 30
0.0
 10
-9.18999
 20
4.93552
 30
0.0
 10
-9.18999
 20
4.93552
 30
0.0
  0
SPLINE
  5
D4
330
1F
100
AcDbEntity
  8
layer 3
 62
     3
370
    18
100
AcDbSpline
210
0.0
220
0.0
230
1.0
 70
     8
 71
     3
 72
    12
 73
     8
 74
     0
 42
0.0000000001
 43
0.0000000001
 12
1.0
 22
0.0
 32
0.0
 13
1.0
 23
0.0
 33
0.0
 40
0.0
 40
0.0
 40
0.0
 40
0.0
 40
0.3333333333333333
 40
0.3333333333333333
 40
0.3333333333333333
 40
0.3333333333333333
 40
1.0
 40
1.0
 40
1.0
 40
1.0
 10
-9.18999
 20
4.93552
 30
0.0
 10
-9.18999
 20
4.93552
 30
0.0
 10
-9.15571
 20
4.72988
 30
0.0
 10
-9.15571
 20
4.72988
 30
0.0
 10
-9.15571
 20
4.72988
 30
0.0
 10
-9.15571
 20
4.72988
 30
0.0
 10
-9.22426
 20
4.72988
 30
0.0
 10
-9.22426
 20
4.72988
 30
0.0
  0
SPLINE
  5
D5
330
1F
100
AcDbEntity
  8
layer 3
 62
     3
370
     9
100
AcDbSpline
210
0.0
220
0.0
230
1.0
 70
    11
 71
     3
 72
   124
 73
   120
 74
     0
 42
0.0000000001
 43
0.0000000001
 12
1.0
 22
0.0
 32
0.0
 13
1.0
 23
0.0
 33
0.0
 40
0.0
 40
0.0
 40
0.0
 40
0.0
 40
0.032258064516129
 40
0.032258064516129
 40
0.032258064516129
 40
0.032258064516129
 40
0.0645161290322581
 40
0.0645161290322581
 40
0.0645161290322581
 40
0.0645161290322581
 40
0.0967741935483871
 40
0.0967741935483871
 40
0.0967741935483871
 40
0.0967741935483871
 40
0.1290322580645161
 40
0.1290322580645161
 40
0.1290322580645161
 40
0.1290322580645161
 40
0.1612903225806452
 40
0.1612903225806452
 40
0.1612903225806452
 40
0.1612903225806452
 40
0.1935483870967742
 40
0.1935483870967742
 40
0.1935483870967742
 40
0.1935483870967742
 40
0.2258064516129032
 40
0.2258064516129032
 40
0.2258064516129032
 40
0.2258064516129032
 40
0.2580645161290323
 40
0.2580645161290323
 40
0.2580645161290323
 40
0.2580645161290323
 40
0.2903225806451613
 40
0.2903225806451613
 40
0.2903225806451613
 40
0.2903225806451613
 40
0.3225806451612903
 40
0.3225806451612903
 40
0.3225806451612903
 40
0.3225806451612903
 40
0.3548387096774194
 40
0.3548387096774194
 40
0.3548387096774194
 40
0.3548387096774194
 40
0.3870967741935484
 40
0.3870967741935484
 40
0.3870967741935484
 40
0.3870967741935484
 40
0.4193548387096774
 40
0.4193548387096774
 40
0.4193548387096774
 40
0.4193548387096774
 40
0.4516129032258064
 40
0.4516129032258064
 40
0.4516129032258064
 40
0.4516129032258064
 40
0.4838709677419355
 40
0.4838709677419355
 40
0.4838709677419355
 40
0.4838709677419355
 40
0.5161290322580645
 40
0.5161290322580645
 40
0.5161290322580645
 40
0.5161290322580645
 40
0.5483870967741935
 40
0.5483870967741935
 40
0.5483870967741935
 40
0.5483870967741935
 40
0.5806451612903226
 40
0.5806451612903226
 40
0.5806451612903226
 40
0.5806451612903226
 40
0.6129032258064516
 40
0.6129032258064516
 40
0.6129032258064516
 40
0.6129032258064516
 40
0.6451612903225806
 40
0.6451612903225806
 40
0.6451612903225806
 40
0.6451612903225806
 40
0.6774193548387096
 40
0.6774193548387096
 40
0.6774193548387096
 40
0.6774193548387096
 40
0.7096774193548387
 40
0.7096774193548387
 40
0.7096774193548387
 40
0.7096774193548387
 40
0.7419354838709677
 40
0.7419354838709677
 40
0.7419354838709677
 40
0.7419354838709677
 40
0.7741935483870968
 40
0.7741935483870968
 40
0.7741935483870968
 40
0.7741935483870968
 40
0.8064516129032258
 40
0.8064516129032258
 40
0.8064516129032258
 40
0.8064516129032258
 40
0.8387096774193549
 40
0.8387096774193549
 40
0.8387096774193549
 40
0.8387096774193549
 40
0.8709677419354839
 40
0.8709677419354839
 40
0.8709677419354839
 40
0.8709677419354839
 40
0.9032258064516129
 40
0.9032258064516129
 40
0.9032258064516129
 40
0.9032258064516129
 40
0.9354838709677419
 40
0.9354838709677419
 40
0.9354838709677419
 40
0.9354838709677419
 40
1.0
 40
1.0
 40
1.0
 40
1.0
 10
-9.38079
 20
4.3535
 30
0.0
 10
-9.38079
 20
4.3535
 30
0.0
 10
-9.38379
 20
4.37609
 30
0.0
 10
-9.38379
 20
4.37609
 30
0.0
 10
-9.38379
 20
4.37609
 30
0.0
 10
-9.37098
 20
4.3787
 30
0.0
 10
-9.36177
 20
4.38311
 30
0.0
 10
-9.35611
 20
4.38932
 30
0.0
 10
-9.35611
 20
4.38932
 30
0.0
 10
-9.35046
 20
4.39557
 30
0.0
 10
-9.34764
 20
4.40316
 30
0.0
 10
-9.34764
 20
4.41212
 30
0.0
 10
-9.34764
 20
4.41212
 30
0.0
 10
-9.34764
 20
4.42274
 30
0.0
 10
-9.35132
 20
4.43173
 30
0.0
 10
-9.35868
 20
4.43907
 30
0.0
 10
-9.35868
 20
4.43907
 30
0.0
 10
-9.36605
 20
4.44634
 30
0.0
 10
-9.37518
 20
4.45003
 30
0.0
 10
-9.38606
 20
4.45003
 30
0.0
 10
-9.38606
 20
4.45003
 30
0.0
 10
-9.39642
 20
4.45003
 30
0.0
 10
-9.405
 20
4.44665
 30
0.0
 10
-9.41172
 20
4.43988
 30
0.0
 10
-9.41172
 20
4.43988
 30
0.0
 10
-9.41845
 20
4.43306
 30
0.0
 10
-9.42183
 20
4.42446
 30
0.0
 10
-9.42183
 20
4.414
 30
0.0
 10
-9.42183
 20
4.414
 30
0.0
 10
-9.42183
 20
4.40972
 30
0.0
 10
-9.42098
 20
4.4044
 30
0.0
 10
-9.4193
 20
4.39807
 30
0.0
 10
-9.4193
 20
4.39807
 30
0.0
 10
-9.4193
 20
4.39807
 30
0.0
 10
-9.43914
 20
4.40059
 30
0.0
 10
-9.43914
 20
4.40059
 30
0.0
 10
-9.43914
 20
4.40059
 30
0.0
 10
-9.43897
 20
4.40209
 30
0.0
 10
-9.43888
 20
4.40329
 30
0.0
 10
-9.43888
 20
4.40423
 30
0.0
 10
-9.43888
 20
4.40423
 30
0.0
 10
-9.43888
 20
4.41383
 30
0.0
 10
-9.44141
 20
4.42248
 30
0.0
 10
-9.44642
 20
4.43019
 30
0.0
 10
-9.44642
 20
4.43019
 30
0.0
 10
-9.45144
 20
4.4379
 30
0.0
 10
-9.45919
 20
4.44176
 30
0.0
 10
-9.46964
 20
4.44176
 30
0.0
 10
-9.46964
 20
4.44176
 30
0.0
 10
-9.47792
 20
4.44176
 30
0.0
 10
-9.48481
 20
4.43894
 30
0.0
 10
-9.49021
 20
4.43332
 30
0.0
 10
-9.49021
 20
4.43332
 30
0.0
 10
-9.49566
 20
4.42771
 30
0.0
 10
-9.4984
 20
4.42047
 30
0.0
 10
-9.4984
 20
4.41161
 30
0.0
 10
-9.4984
 20
4.41161
 30
0.0
 10
-9.4984
 20
4.40281
 30
0.0
 10
-9.49561
 20
4.39549
 30
0.0
 10
-9.49013
 20
4.38966
 30
0.0
 10
-9.49013
 20
4.38966
 30
0.0
 10
-9.4846
 20
4.38379
 30
0.0
 10
-9.47629
 20
4.38003
 30
0.0
 10
-9.46523
 20
4.37835
 30
0.0
 10
-9.46523
 20
4.37835
 30
0.0
 10
-9.46523
 20
4.37835
 30
0.0
 10
-9.46926
 20
4.35577
 30
0.0
 10
-9.46926
 20
4.35577
 30
0.0
 10
-9.46926
 20
4.35577
 30
0.0
 10
-9.48443
 20
4.35852
 30
0.0
 10
-9.49617
 20
4.36481
 30
0.0
 10
-9.50447
 20
4.37458
 30
0.0
 10
-9.50447
 20
4.37458
 30
0.0
 10
-9.51279
 20
4.3844
 30
0.0
 10
-9.51698
 20
4.39656
 30
0.0
 10
-9.51698
 20
4.41113
 30
0.0
 10
-9.51698
 20
4.41113
 30
0.0
 10
-9.51698
 20
4.42116
 30
0.0
 10
-9.5148
 20
4.43041
 30
0.0
 10
-9.51052
 20
4.43885
 30
0.0
 10
-9.51052
 20
4.43885
 30
0.0
 10
-9.50619
 20
4.44729
 30
0.0
 10
-9.50032
 20
4.45376
 30
0.0
 10
-9.49287
 20
4.45826
 30
0.0
 10
-9.49287
 20
4.45826
 30
0.0
 10
-9.48541
 20
4.46271
 30
0.0
 10
-9.47752
 20
4.46499
 30
0.0
 10
-9.46913
 20
4.46499
 30
0.0
 10
-9.46913
 20
4.46499
 30
0.0
 10
-9.46121
 20
4.46499
 30
0.0
 10
-9.45397
 20
4.46284
 30
0.0
 10
-9.44742
 20
4.45855
 30
0.0
 10
-9.44742
 20
4.45855
 30
0.0
 10
-9.4409
 20
4.45427
 30
0.0
 10
-9.43572
 20
4.44798
 30
0.0
 10
-9.43186
 20
4.43962
 30
0.0
 10
-9.43186
 20
4.43962
 30
0.0
 10
-9.42938
 20
4.4505
 30
0.0
 10
-9.42415
 20
4.45894
 30
0.0
 10
-9.41622
 20
4.46499
 30
0.0
 10
-9.41622
 20
4.46499
 30
0.0
 10
-9.40834
 20
4.47098
 30
0.0
 10
-9.39844
 20
4.47398
 30
0.0
 10
-9.38657
 20
4.47398
 30
0.0
 10
-9.38657
 20
4.47398
 30
0.0
 10
-9.37051
 20
4.47398
 30
0.0
 10
-9.35688
 20
4.46815
 30
0.0
 10
-9.3457
 20
4.45642
 30
0.0
 10
-9.3457
 20
4.45642
 30
0.0
 10
-9.33452
 20
4.44472
 30
0.0
 10
-9.32895
 20
4.42989
 30
0.0
 10
-9.32895
 20
4.41199
 30
0.0
 10
-9.32895
 20
4.41199
 30
0.0
 10
-9.32895
 20
4.39584
 30
0.0
 10
-9.33375
 20
4.38243
 30
0.0
 10
-9.34339
 20
4.37176
 30
0.0
 10
-9.34339
 20
4.37176
 30
0.0
 10
-9.35299
 20
4.36109
 30
0.0
 10
-9.36545
 20
4.355
 30
0.0
 10
-9.38079
 20
4.3535
 30
0.0
  0
SPLINE
  5
D6
330
1F
100
AcDbEntity
  8
layer 3
 62
     3
370
     9
100
AcDbSpline
210
0.0
220
0.0
230
1.0
 70
    11
 71
     3
 72
    92
 73
    88
 74
     0
 42
0.0000000001
 43
0.0000000001
 12
1.0
 22
0.0
 32
0.0
 13
1.0
 23
0.0
 33
0.0
 40
0.0
 40
0.0
 40
0.0
 40
0.0
 40
0.0434782608695652
 40
0.0434782608695652
 40
0.0434782608695652
 40
0.0434782608695652
 40
0.0869565217391304
 40
0.0869565217391304
 40
0.0869565217391304
 40
0.0869565217391304
 40
0.1304347826086956
 40
0.1304347826086956
 40
0.1304347826086956
 40
0.1304347826086956
 40
0.1739130434782609
 40
0.1739130434782609
 40
0.1739130434782609
 40
0.1739130434782609
 40
0.2173913043478261
 40
0.2173913043478261
 40
0.2173913043478261
 40
0.2173913043478261
 40
0.2608695652173913
 40
0.2608695652173913
 40
0.2608695652173913
 40
0.2608695652173913
 40
0.3043478260869565
 40
0.3043478260869565
 40
0.3043478260869565
 40
0.3043478260869565
 40
0.3478260869565217
 40
0.3478260869565217
 40
0.3478260869565217
 40
0.3478260869565217
 40
0.391304347826087
 40
0.391304347826087
 40
0.391304347826087
 40
0.391304347826087
 40
0.4347826086956522
 40
0.4347826086956522
 40
0.4347826086956522
 40
0.4347826086956522
 40
0.4782608695652174
 40
0.4782608695652174
 40
0.4782608695652174
 40
0.4782608695652174
 40
0.5217391304347826
 40
0.5217391304347826
 40
0.5217391304347826
 40
0.5217391304347826
 40
0.5652173913043478
 40
0.5652173913043478
 40
0.5652173913043478
 40
0.5652173913043478
 40
0.6086956521739131
 40
0.6086956521739131
 40
0.6086956521739131
 40
0.6086956521739131
 40
0.6521739130434783
 40
0.6521739130434783
 40
0.6521739130434783
 40
0.6521739130434783
 40
0.6956521739130435
 40
0.6956521739130435
 40
0.6956521739130435
 40
0.6956521739130435
 40
0.7391304347826086
 40
0.7391304347826086
 40
0.7391304347826086
 40
0.7391304347826086
 40
0.782608695652174
 40
0.782608695652174
 40
0.782608695652174
 40
0.782608695652174
 40
0.8260869565217391
 40
0.8260869565217391
 40
0.8260869565217391
 40
0.8260869565217391
 40
0.8695652173913043
 40
0.8695652173913043
 40
0.8695652173913043
 40
0.8695652173913043
 40
0.9130434782608695
 40
0.9130434782608695
 40
0.9130434782608695
 40
0.9130434782608695
 40
1.0
 40
1.0
 40
1.0
 40
1.0
 10
-9.3804
 20
4.49635
 30
0.0
 10
-9.3804
 20
4.49635
 30
0.0
 10
-9.38242
 20
4.52007
 30
0.0
 10
-9.38242
 20
4.52007
 30
0.0
 10
-9.38242
 20
4.52007
 30
0.0
 10
-9.37085
 20
4.52184
 30
0.0
 10
-9.3622
 20
4.52591
 30
0.0
 10
-9.35637
 20
4.53229
 30
0.0
 10
-9.35637
 20
4.53229
 30
0.0
 10
-9.35054
 20
4.53872
 30
0.0
 10
-9.34764
 20
4.54643
 30
0.0
 10
-9.34764
 20
4.55547
 30
0.0
 10
-9.34764
 20
4.55547
 30
0.0
 10
-9.34764
 20
4.56634
 30
0.0
 10
-9.35174
 20
4.57556
 30
0.0
 10
-9.35993
 20
4.58305
 30
0.0
 10
-9.35993
 20
4.58305
 30
0.0
 10
-9.36815
 20
4.5906
 30
0.0
 10
-9.37904
 20
4.59436
 30
0.0
 10
-9.39257
 20
4.59436
 30
0.0
 10
-9.39257
 20
4.59436
 30
0.0
 10
-9.40547
 20
4.59436
 30
0.0
 10
-9.41562
 20
4.59077
 30
0.0
 10
-9.42308
 20
4.58353
 30
0.0
 10
-9.42308
 20
4.58353
 30
0.0
 10
-9.43053
 20
4.57629
 30
0.0
 10
-9.43426
 20
4.56682
 30
0.0
 10
-9.43426
 20
4.55508
 30
0.0
 10
-9.43426
 20
4.55508
 30
0.0
 10
-9.43426
 20
4.5478
 30
0.0
 10
-9.43258
 20
4.54124
 30
0.0
 10
-9.42929
 20
4.53537
 30
0.0
 10
-9.42929
 20
4.53537
 30
0.0
 10
-9.42599
 20
4.52951
 30
0.0
 10
-9.42171
 20
4.52493
 30
0.0
 10
-9.41644
 20
4.52158
 30
0.0
 10
-9.41644
 20
4.52158
 30
0.0
 10
-9.41644
 20
4.52158
 30
0.0
 10
-9.41917
 20
4.50037
 30
0.0
 10
-9.41917
 20
4.50037
 30
0.0
 10
-9.41917
 20
4.50037
 30
0.0
 10
-9.41917
 20
4.50037
 30
0.0
 10
-9.51369
 20
4.5182
 30
0.0
 10
-9.51369
 20
4.5182
 30
0.0
 10
-9.51369
 20
4.5182
 30
0.0
 10
-9.51369
 20
4.5182
 30
0.0
 10
-9.51369
 20
4.60971
 30
0.0
 10
-9.51369
 20
4.60971
 30
0.0
 10
-9.51369
 20
4.60971
 30
0.0
 10
-9.51369
 20
4.60971
 30
0.0
 10
-9.4921
 20
4.60971
 30
0.0
 10
-9.4921
 20
4.60971
 30
0.0
 10
-9.4921
 20
4.60971
 30
0.0
 10
-9.4921
 20
4.60971
 30
0.0
 10
-9.4921
 20
4.53627
 30
0.0
 10
-9.4921
 20
4.53627
 30
0.0
 10
-9.4921
 20
4.53627
 30
0.0
 10
-9.4921
 20
4.53627
 30
0.0
 10
-9.44266
 20
4.52634
 30
0.0
 10
-9.44266
 20
4.52634
 30
0.0
 10
-9.44266
 20
4.52634
 30
0.0
 10
-9.45037
 20
4.53739
 30
0.0
 10
-9.45423
 20
4.54899
 30
0.0
 10
-9.45423
 20
4.56112
 30
0.0
 10
-9.45423
 20
4.56112
 30
0.0
 10
-9.45423
 20
4.57719
 30
0.0
 10
-9.44865
 20
4.59073
 30
0.0
 10
-9.43752
 20
4.60178
 30
0.0
 10
-9.43752
 20
4.60178
 30
0.0
 10
-9.42638
 20
4.61284
 30
0.0
 10
-9.41206
 20
4.61836
 30
0.0
 10
-9.39458
 20
4.61836
 30
0.0
 10
-9.39458
 20
4.61836
 30
0.0
 10
-9.37792
 20
4.61836
 30
0.0
 10
-9.36353
 20
4.61348
 30
0.0
 10
-9.3514
 20
4.6038
 30
0.0
 10
-9.3514
 20
4.6038
 30
0.0
 10
-9.33653
 20
4.59197
 30
0.0
 10
-9.32908
 20
4.57586
 30
0.0
 10
-9.32908
 20
4.55547
 30
0.0
 10
-9.32908
 20
4.55547
 30
0.0
 10
-9.32908
 20
4.53872
 30
0.0
 10
-9.33375
 20
4.52505
 30
0.0
 10
-9.34313
 20
4.51447
 30
0.0
 10
-9.34313
 20
4.51447
 30
0.0
 10
-9.35251
 20
4.50389
 30
0.0
 10
-9.36494
 20
4.49785
 30
0.0
 10
-9.3804
 20
4.49635
 30
0.0
  0
SPLINE
  5
D7
330
1F
100
AcDbEntity
  8
layer 3
 62
     3
370
     5
100
AcDbSpline
210
0.0
220
0.0
230
1.0
 70
    27
 71
     3
 72
     8
 73
     4
 74
     0
 42
0.0000000001
 43
0.0000000001
 12
1.0
 22
0.0
 32
0.0
 13
1.0
 23
0.0
 33
0.0
 40
0.0
 40
0.0
 40
0.0
 40
0.0
 40
1.0
 40
1.0
 40
1.0
 40
1.0
 10
3.50889
 20
4.20395
 30
0.0
 10
3.50889
 20
4.20395
 30
0.0
 10
3.50889
 20
4.20395
 30
0.0
 10
3.50889
 20
4.20395
 30
0.0
  0
SPLINE
  5
D8
330
1F
100
AcDbEntity
  8
layer 3
 62
     3
370
     5
100
AcDbSpline
210
0.0
220
0.0
230
1.0
 70
    24
 71
     3
 72
     8
 73
     4
 74
     0
 42
0.0000000001
 43
0.0000000001
 12
1.0
 22
0.0
 32
0.0
 13
1.0
 23
0.0
 33
0.0
 40
0.0
 40
0.0
 40
0.0
 40
0.0
 40
1.0
 40
1.0
 40
1.0
 40
1.0
 10
3.50889
 20
4.20395
 30
0.0
 10
3.50889
 20
4.20395
 30
0.0
 10
2.20647
 20
4.20395
 30
0.0
 10
2.20647
 20
4.20395
 30
0.0
  0
SPLINE
  5
D9
330
1F
100
AcDbEntity
  8
layer 3
 62
     3
370
     5
100
AcDbSpline
210
0.0
220
0.0
230
1.0
 70
    24
 71
     3
 72
     8
 73
     4
 74
     0
 42
0.0000000001
 43
0.0000000001
 12
1.0
 22
0.0
 32
0.0
 13
1.0
 23
0.0
 33
0.0
 40
0.0
 40
0.0
 40
0.0
 40
0.0
 40
1.0
 40
1.0
 40
1.0
 40
1.0
 10
2.20647
 20
4.20395
 30
0.0
 10
2.20647
 20
4.20395
 30
0.0
 10
1.87726
 20
4.5291
 30
0.0
 10
1.87726
 20
4.5291
 30
0.0
  0
SPLINE
  5
DA
330
1F
100
AcDbEntity
  8
layer 3
 62
     3
370
     5
100
AcDbSpline
210
0.0
220
0.0
230
1.0
 70
    24
 71
     3
 72
     8
 73
     4
 74
     0
 42
0.0000000001
 43
0.0000000001
 12
1.0
 22
0.0
 32
0.0
 13
1.0
 23
0.0
 33
0.0
 40
0.0
 40
0.0
 40
0.0
 40
0.0
 40
1.0
 40
1.0
 40
1.0
 40
1.0
 10
1.05426
 20
5.34196
 30
0.0
 10
1.05426
 20
5.34196
 30
0.0
 10
0.90795
 20
5.48646
 30
0.0
 10
0.90795
 20
5.48646
 30
0.0
  0
SPLINE
  5
DB
330
1F
100
AcDbEntity
  8
layer 3
 62
     3
370
     9
100
AcDbSpline
210
0.0
220
0.0
230
1.0
 70
    11
 71
     3
 72
   124
 73
   120
 74
     0
 42
0.0000000001
 43
0.0000000001
 12
1.0
 22
0.0
 32
0.0
 13
1.0
 23
0.0
 33
0.0
 40
0.0
 40
0.0
 40
0.0
 40
0.0
 40
0.032258064516129
 40
0.032258064516129
 40
0.032258064516129
 40
0.032258064516129
 40
0.0645161290322581
 40
0.0645161290322581
 40
0.0645161290322581
 40
0.0645161290322581
 40
0.0967741935483871
 40
0.0967741935483871
 40
0.0967741935483871
 40
0.0967741935483871
 40
0.1290322580645161
 40
0.1290322580645161
 40
0.1290322580645161
 40
0.1290322580645161
 40
0.1612903225806452
 40
0.1612903225806452
 40
0.1612903225806452
 40
0.1612903225806452
 40
0.1935483870967742
 40
0.1935483870967742
 40
0.1935483870967742
 40
0.1935483870967742
 40
0.2258064516129032
 40
0.2258064516129032
 40
0.2258064516129032
 40
0.2258064516129032
 40
0.2580645161290323
 40
0.2580645161290323
 40
0.2580645161290323
 40
0.2580645161290323
 40
0.2903225806451613
 40
0.2903225806451613
 40
0.2903225806451613
 40
0.2903225806451613
 40
0.3225806451612903
 40
0.3225806451612903
 40
0.3225806451612903
 40
0.3225806451612903
 40
0.3548387096774194
 40
0.3548387096774194
 40
0.3548387096774194
 40
0.3548387096774194
 40
0.3870967741935484
 40
0.3870967741935484
 40
0.3870967741935484
 40
0.3870967741935484
 40
0.4193548387096774
 40
0.4193548387096774
 40
0.4193548387096774
 40
0.4193548387096774
 40
0.4516129032258064
 40
0.4516129032258064
 40
0.4516129032258064
 40
0.4516129032258064
 40
0.4838709677419355
 40
0.4838709677419355
 40
0.4838709677419355
 40
0.4838709677419355
 40
0.5161290322580645
 40
0.5161290322580645
 40
0.5161290322580645
 40
0.5161290322580645
 40
0.5483870967741935
 40
0.5483870967741935
 40
0.5483870967741935
 40
0.5483870967741935
 40
0.5806451612903226
 40
0.5806451612903226
 40
0.5806451612903226
 40
0.5806451612903226
 40
0.6129032258064516
 40
0.6129032258064516
 40
0.6129032258064516
 40
0.6129032258064516
 40
0.6451612903225806
 40
0.6451612903225806
 40
0.6451612903225806
 40
0.6451612903225806
 40
0.6774193548387096
 40
0.6774193548387096
 40
0.6774193548387096
 40
0.6774193548387096
 40
0.7096774193548387
 40
0.7096774193548387
 40
0.7096774193548387
 40
0.7096774193548387
 40
0.7419354838709677
 40
0.7419354838709677
 40
0.7419354838709677
 40
0.7419354838709677
 40
0.7741935483870968
 40
0.7741935483870968
 40
0.7741935483870968
 40
0.7741935483870968
 40
0.8064516129032258
 40
0.8064516129032258
 40
0.8064516129032258
 40
0.8064516129032258
 40
0.8387096774193549
 40
0.8387096774193549
 40
0.8387096774193549
 40
0.8387096774193549
 40
0.8709677419354839
 40
0.8709677419354839
 40
0.8709677419354839
 40
0.8709677419354839
 40
0.9032258064516129
 40
0.9032258064516129
 40
0.9032258064516129
 40
0.9032258064516129
 40
0.9354838709677419
 40
0.9354838709677419
 40
0.9354838709677419
 40
0.9354838709677419
 40
1.0
 40
1.0
 40
1.0
 40
1.0
 10
2.59837
 20
4.39476
 30
0.0
 10
2.59837
 20
4.39476
 30
0.0
 10
2.62094
 20
4.39775
 30
0.0
 10
2.62094
 20
4.39775
 30
0.0
 10
2.62094
 20
4.39775
 30
0.0
 10
2.62355
 20
4.38494
 30
0.0
 10
2.62797
 20
4.37573
 30
0.0
 10
2.63419
 20
4.37007
 30
0.0
 10
2.63419
 20
4.37007
 30
0.0
 10
2.64044
 20
4.36442
 30
0.0
 10
2.64802
 20
4.36159
 30
0.0
 10
2.65697
 20
4.36159
 30
0.0
 10
2.65697
 20
4.36159
 30
0.0
 10
2.6676
 20
4.36159
 30
0.0
 10
2.6766
 20
4.36528
 30
0.0
 10
2.68392
 20
4.37265
 30
0.0
 10
2.68392
 20
4.37265
 30
0.0
 10
2.69121
 20
4.38002
 30
0.0
 10
2.69489
 20
4.38914
 30
0.0
 10
2.69489
 20
4.40003
 30
0.0
 10
2.69489
 20
4.40003
 30
0.0
 10
2.69489
 20
4.41039
 30
0.0
 10
2.69151
 20
4.41896
 30
0.0
 10
2.68474
 20
4.42568
 30
0.0
 10
2.68474
 20
4.42568
 30
0.0
 10
2.67793
 20
4.43241
 30
0.0
 10
2.66931
 20
4.4358
 30
0.0
 10
2.65886
 20
4.4358
 30
0.0
 10
2.65886
 20
4.4358
 30
0.0
 10
2.65457
 20
4.4358
 30
0.0
 10
2.64926
 20
4.43494
 30
0.0
 10
2.64292
 20
4.43327
 30
0.0
 10
2.64292
 20
4.43327
 30
0.0
 10
2.64292
 20
4.43327
 30
0.0
 10
2.64545
 20
4.45311
 30
0.0
 10
2.64545
 20
4.45311
 30
0.0
 10
2.64545
 20
4.45311
 30
0.0
 10
2.64695
 20
4.45293
 30
0.0
 10
2.64815
 20
4.45285
 30
0.0
 10
2.64909
 20
4.45285
 30
0.0
 10
2.64909
 20
4.45285
 30
0.0
 10
2.65869
 20
4.45285
 30
0.0
 10
2.66734
 20
4.45538
 30
0.0
 10
2.67506
 20
4.46038
 30
0.0
 10
2.67506
 20
4.46038
 30
0.0
 10
2.68277
 20
4.4654
 30
0.0
 10
2.68662
 20
4.47315
 30
0.0
 10
2.68662
 20
4.48361
 30
0.0
 10
2.68662
 20
4.48361
 30
0.0
 10
2.68662
 20
4.49188
 30
0.0
 10
2.68379
 20
4.49877
 30
0.0
 10
2.67818
 20
4.50417
 30
0.0
 10
2.67818
 20
4.50417
 30
0.0
 10
2.67257
 20
4.50961
 30
0.0
 10
2.66533
 20
4.51236
 30
0.0
 10
2.65646
 20
4.51236
 30
0.0
 10
2.65646
 20
4.51236
 30
0.0
 10
2.64768
 20
4.51236
 30
0.0
 10
2.64035
 20
4.50957
 30
0.0
 10
2.63453
 20
4.50409
 30
0.0
 10
2.63453
 20
4.50409
 30
0.0
 10
2.62866
 20
4.49856
 30
0.0
 10
2.62488
 20
4.49025
 30
0.0
 10
2.62322
 20
4.47919
 30
0.0
 10
2.62322
 20
4.47919
 30
0.0
 10
2.62322
 20
4.47919
 30
0.0
 10
2.60064
 20
4.48323
 30
0.0
 10
2.60064
 20
4.48323
 30
0.0
 10
2.60064
 20
4.48323
 30
0.0
 10
2.60338
 20
4.49839
 30
0.0
 10
2.60968
 20
4.51013
 30
0.0
 10
2.61945
 20
4.51844
 30
0.0
 10
2.61945
 20
4.51844
 30
0.0
 10
2.62926
 20
4.52676
 30
0.0
 10
2.64143
 20
4.53095
 30
0.0
 10
2.65599
 20
4.53095
 30
0.0
 10
2.65599
 20
4.53095
 30
0.0
 10
2.66601
 20
4.53095
 30
0.0
 10
2.67527
 20
4.52876
 30
0.0
 10
2.68371
 20
4.52448
 30
0.0
 10
2.68371
 20
4.52448
 30
0.0
 10
2.69215
 20
4.52015
 30
0.0
 10
2.69861
 20
4.51428
 30
0.0
 10
2.70311
 20
4.50683
 30
0.0
 10
2.70311
 20
4.50683
 30
0.0
 10
2.70757
 20
4.49938
 30
0.0
 10
2.70984
 20
4.49149
 30
0.0
 10
2.70984
 20
4.4831
 30
0.0
 10
2.70984
 20
4.4831
 30
0.0
 10
2.70984
 20
4.47517
 30
0.0
 10
2.7077
 20
4.46793
 30
0.0
 10
2.70342
 20
4.46138
 30
0.0
 10
2.70342
 20
4.46138
 30
0.0
 10
2.69914
 20
4.45486
 30
0.0
 10
2.69283
 20
4.44968
 30
0.0
 10
2.68448
 20
4.44582
 30
0.0
 10
2.68448
 20
4.44582
 30
0.0
 10
2.69536
 20
4.44334
 30
0.0
 10
2.7038
 20
4.43811
 30
0.0
 10
2.70984
 20
4.43018
 30
0.0
 10
2.70984
 20
4.43018
 30
0.0
 10
2.71584
 20
4.4223
 30
0.0
 10
2.71884
 20
4.4124
 30
0.0
 10
2.71884
 20
4.40054
 30
0.0
 10
2.71884
 20
4.40054
 30
0.0
 10
2.71884
 20
4.38447
 30
0.0
 10
2.71301
 20
4.37085
 30
0.0
 10
2.70127
 20
4.35967
 30
0.0
 10
2.70127
 20
4.35967
 30
0.0
 10
2.68958
 20
4.34849
 30
0.0
 10
2.67476
 20
4.34291
 30
0.0
 10
2.65684
 20
4.34291
 30
0.0
 10
2.65684
 20
4.34291
 30
0.0
 10
2.6407
 20
4.34291
 30
0.0
 10
2.62728
 20
4.34772
 30
0.0
 10
2.61662
 20
4.35735
 30
0.0
 10
2.61662
 20
4.35735
 30
0.0
 10
2.60595
 20
4.36695
 30
0.0
 10
2.59987
 20
4.37941
 30
0.0
 10
2.59837
 20
4.39476
 30
0.0
  0
SPLINE
  5
DC
330
1F
100
AcDbEntity
  8
layer 3
 62
     3
370
     9
100
AcDbSpline
210
0.0
220
0.0
230
1.0
 70
    11
 71
     3
 72
    20
 73
    16
 74
     0
 42
0.0000000001
 43
0.0000000001
 12
1.0
 22
0.0
 32
0.0
 13
1.0
 23
0.0
 33
0.0
 40
0.0
 40
0.0
 40
0.0
 40
0.0
 40
0.2
 40
0.2
 40
0.2
 40
0.2
 40
0.4
 40
0.4
 40
0.4
 40
0.4
 40
0.6
 40
0.6
 40
0.6
 40
0.6
 40
1.0
 40
1.0
 40
1.0
 40
1.0
 10
2.73868
 20
4.40139
 30
0.0
 10
2.73868
 20
4.40139
 30
0.0
 10
2.73868
 20
4.4241
 30
0.0
 10
2.73868
 20
4.4241
 30
0.0
 10
2.73868
 20
4.4241
 30
0.0
 10
2.73868
 20
4.4241
 30
0.0
 10
2.80812
 20
4.4241
 30
0.0
 10
2.80812
 20
4.4241
 30
0.0
 10
2.80812
 20
4.4241
 30
0.0
 10
2.80812
 20
4.4241
 30
0.0
 10
2.80812
 20
4.40139
 30
0.0
 10
2.80812
 20
4.40139
 30
0.0
 10
2.80812
 20
4.40139
 30
0.0
 10
2.80812
 20
4.40139
 30
0.0
 10
2.73868
 20
4.40139
 30
0.0
 10
2.73868
 20
4.40139
 30
0.0
  0
SPLINE
  5
DD
330
1F
100
AcDbEntity
  8
layer 3
 62
     3
370
     9
100
AcDbSpline
210
0.0
220
0.0
230
1.0
 70
    11
 71
     3
 72
    24
 73
    20
 74
     0
 42
0.0000000001
 43
0.0000000001
 12
1.0
 22
0.0
 32
0.0
 13
1.0
 23
0.0
 33
0.0
 40
0.0
 40
0.0
 40
0.0
 40
0.0
 40
0.1666666666666667
 40
0.1666666666666667
 40
0.1666666666666667
 40
0.1666666666666667
 40
0.3333333333333333
 40
0.3333333333333333
 40
0.3333333333333333
 40
0.3333333333333333
 40
0.5
 40
0.5
 40
0.5
 40
0.5
 40
0.6666666666666666
 40
0.6666666666666666
 40
0.6666666666666666
 40
0.6666666666666666
 40
1.0
 40
1.0
 40
1.0
 40
1.0
 10
2.91352
 20
4.47371
 30
0.0
 10
2.90551
 20
4.48305
 30
0.0
 10
2.89446
 20
4.48776
 30
0.0
 10
2.8804
 20
4.48776
 30
0.0
 10
2.8804
 20
4.48776
 30
0.0
 10
2.86635
 20
4.48776
 30
0.0
 10
2.85461
 20
4.48305
 30
0.0
 10
2.84527
 20
4.47371
 30
0.0
 10
2.84527
 20
4.47371
 30
0.0
 10
2.83588
 20
4.46433
 30
0.0
 10
2.83122
 20
4.45259
 30
0.0
 10
2.83122
 20
4.43854
 30
0.0
 10
2.83122
 20
4.43854
 30
0.0
 10
2.83122
 20
4.42851
 30
0.0
 10
2.8349
 20
4.41849
 30
0.0
 10
2.84223
 20
4.40842
 30
0.0
 10
2.84223
 20
4.40842
 30
0.0
 10
2.84223
 20
4.40842
 30
0.0
 10
2.91352
 20
4.47371
 30
0.0
 10
2.91352
 20
4.47371
 30
0.0
  0
SPLINE
  5
DE
330
1F
100
AcDbEntity
  8
layer 3
 62
     3
370
     9
100
AcDbSpline
210
0.0
220
0.0
230
1.0
 70
    11
 71
     3
 72
    24
 73
    20
 74
     0
 42
0.0000000001
 43
0.0000000001
 12
1.0
 22
0.0
 32
0.0
 13
1.0
 23
0.0
 33
0.0
 40
0.0
 40
0.0
 40
0.0
 40
0.0
 40
0.1666666666666667
 40
0.1666666666666667
 40
0.1666666666666667
 40
0.1666666666666667
 40
0.3333333333333333
 40
0.3333333333333333
 40
0.3333333333333333
 40
0.3333333333333333
 40
0.5
 40
0.5
 40
0.5
 40
0.5
 40
0.6666666666666666
 40
0.6666666666666666
 40
0.6666666666666666
 40
0.6666666666666666
 40
1.0
 40
1.0
 40
1.0
 40
1.0
 10
2.8804
 20
4.38936
 30
0.0
 10
2.89446
 20
4.38936
 30
0.0
 10
2.90619
 20
4.39402
 30
0.0
 10
2.91553
 20
4.40341
 30
0.0
 10
2.91553
 20
4.40341
 30
0.0
 10
2.92491
 20
4.41279
 30
0.0
 10
2.92959
 20
4.42449
 30
0.0
 10
2.92959
 20
4.43854
 30
0.0
 10
2.92959
 20
4.43854
 30
0.0
 10
2.92959
 20
4.44994
 30
0.0
 10
2.92624
 20
4.45996
 30
0.0
 10
2.91956
 20
4.46866
 30
0.0
 10
2.91956
 20
4.46866
 30
0.0
 10
2.91956
 20
4.46866
 30
0.0
 10
2.84729
 20
4.40242
 30
0.0
 10
2.84729
 20
4.40242
 30
0.0
 10
2.84729
 20
4.40242
 30
0.0
 10
2.85663
 20
4.39368
 30
0.0
 10
2.86768
 20
4.38936
 30
0.0
 10
2.8804
 20
4.38936
 30
0.0
  0
SPLINE
  5
DF
330
1F
100
AcDbEntity
  8
layer 3
 62
     3
370
     9
100
AcDbSpline
210
0.0
220
0.0
230
1.0
 70
    11
 71
     3
 72
    60
 73
    56
 74
     0
 42
0.0000000001
 43
0.0000000001
 12
1.0
 22
0.0
 32
0.0
 13
1.0
 23
0.0
 33
0.0
 40
0.0
 40
0.0
 40
0.0
 40
0.0
 40
0.0666666666666667
 40
0.0666666666666667
 40
0.0666666666666667
 40
0.0666666666666667
 40
0.1333333333333333
 40
0.1333333333333333
 40
0.1333333333333333
 40
0.1333333333333333
 40
0.2
 40
0.2
 40
0.2
 40
0.2
 40
0.2666666666666667
 40
0.2666666666666667
 40
0.2666666666666667
 40
0.2666666666666667
 40
0.3333333333333333
 40
0.3333333333333333
 40
0.3333333333333333
 40
0.3333333333333333
 40
0.4
 40
0.4
 40
0.4
 40
0.4
 40
0.4666666666666667
 40
0.4666666666666667
 40
0.4666666666666667
 40
0.4666666666666667
 40
0.5333333333333333
 40
0.5333333333333333
 40
0.5333333333333333
 40
0.5333333333333333
 40
0.6
 40
0.6
 40
0.6
 40
0.6
 40
0.6666666666666666
 40
0.6666666666666666
 40
0.6666666666666666
 40
0.6666666666666666
 40
0.7333333333333333
 40
0.7333333333333333
 40
0.7333333333333333
 40
0.7333333333333333
 40
0.8
 40
0.8
 40
0.8
 40
0.8
 40
0.8666666666666667
 40
0.8666666666666667
 40
0.8666666666666667
 40
0.8666666666666667
 40
1.0
 40
1.0
 40
1.0
 40
1.0
 10
2.8804
 20
4.38233
 30
0.0
 10
2.86635
 20
4.38233
 30
0.0
 10
2.85362
 20
4.38734
 30
0.0
 10
2.84223
 20
4.39737
 30
0.0
 10
2.84223
 20
4.39737
 30
0.0
 10
2.84223
 20
4.39737
 30
0.0
 10
2.82719
 20
4.38434
 30
0.0
 10
2.82719
 20
4.38434
 30
0.0
 10
2.82719
 20
4.38434
 30
0.0
 10
2.82719
 20
4.38434
 30
0.0
 10
2.82115
 20
4.39034
 30
0.0
 10
2.82115
 20
4.39034
 30
0.0
 10
2.82115
 20
4.39034
 30
0.0
 10
2.82115
 20
4.39034
 30
0.0
 10
2.83623
 20
4.40341
 30
0.0
 10
2.83623
 20
4.40341
 30
0.0
 10
2.83623
 20
4.40341
 30
0.0
 10
2.82818
 20
4.41279
 30
0.0
 10
2.82419
 20
4.42449
 30
0.0
 10
2.82419
 20
4.43854
 30
0.0
 10
2.82419
 20
4.43854
 30
0.0
 10
2.82419
 20
4.4546
 30
0.0
 10
2.8292
 20
4.46767
 30
0.0
 10
2.83923
 20
4.4777
 30
0.0
 10
2.83923
 20
4.4777
 30
0.0
 10
2.85062
 20
4.48909
 30
0.0
 10
2.86434
 20
4.49479
 30
0.0
 10
2.8804
 20
4.49479
 30
0.0
 10
2.8804
 20
4.49479
 30
0.0
 10
2.89578
 20
4.49479
 30
0.0
 10
2.90851
 20
4.48978
 30
0.0
 10
2.91857
 20
4.47971
 30
0.0
 10
2.91857
 20
4.47971
 30
0.0
 10
2.91857
 20
4.47971
 30
0.0
 10
2.93464
 20
4.49377
 30
0.0
 10
2.93464
 20
4.49377
 30
0.0
 10
2.93464
 20
4.49377
 30
0.0
 10
2.93464
 20
4.49377
 30
0.0
 10
2.94064
 20
4.48776
 30
0.0
 10
2.94064
 20
4.48776
 30
0.0
 10
2.94064
 20
4.48776
 30
0.0
 10
2.94064
 20
4.48776
 30
0.0
 10
2.92457
 20
4.47371
 30
0.0
 10
2.92457
 20
4.47371
 30
0.0
 10
2.92457
 20
4.47371
 30
0.0
 10
2.93262
 20
4.46365
 30
0.0
 10
2.93665
 20
4.45195
 30
0.0
 10
2.93665
 20
4.43854
 30
0.0
 10
2.93665
 20
4.43854
 30
0.0
 10
2.93665
 20
4.42247
 30
0.0
 10
2.93194
 20
4.40975
 30
0.0
 10
2.92256
 20
4.40041
 30
0.0
 10
2.92256
 20
4.40041
 30
0.0
 10
2.91052
 20
4.38833
 30
0.0
 10
2.89647
 20
4.38233
 30
0.0
 10
2.8804
 20
4.38233
 30
0.0
  0
SPLINE
  5
E0
330
1F
100
AcDbEntity
  8
layer 3
 62
     3
370
     9
100
AcDbSpline
210
0.0
220
0.0
230
1.0
 70
    11
 71
     3
 72
    92
 73
    88
 74
     0
 42
0.0000000001
 43
0.0000000001
 12
1.0
 22
0.0
 32
0.0
 13
1.0
 23
0.0
 33
0.0
 40
0.0
 40
0.0
 40
0.0
 40
0.0
 40
0.0434782608695652
 40
0.0434782608695652
 40
0.0434782608695652
 40
0.0434782608695652
 40
0.0869565217391304
 40
0.0869565217391304
 40
0.0869565217391304
 40
0.0869565217391304
 40
0.1304347826086956
 40
0.1304347826086956
 40
0.1304347826086956
 40
0.1304347826086956
 40
0.1739130434782609
 40
0.1739130434782609
 40
0.1739130434782609
 40
0.1739130434782609
 40
0.2173913043478261
 40
0.2173913043478261
 40
0.2173913043478261
 40
0.2173913043478261
 40
0.2608695652173913
 40
0.2608695652173913
 40
0.2608695652173913
 40
0.2608695652173913
 40
0.3043478260869565
 40
0.3043478260869565
 40
0.3043478260869565
 40
0.3043478260869565
 40
0.3478260869565217
 40
0.3478260869565217
 40
0.3478260869565217
 40
0.3478260869565217
 40
0.391304347826087
 40
0.391304347826087
 40
0.391304347826087
 40
0.391304347826087
 40
0.4347826086956522
 40
0.4347826086956522
 40
0.4347826086956522
 40
0.4347826086956522
 40
0.4782608695652174
 40
0.4782608695652174
 40
0.4782608695652174
 40
0.4782608695652174
 40
0.5217391304347826
 40
0.5217391304347826
 40
0.5217391304347826
 40
0.5217391304347826
 40
0.5652173913043478
 40
0.5652173913043478
 40
0.5652173913043478
 40
0.5652173913043478
 40
0.6086956521739131
 40
0.6086956521739131
 40
0.6086956521739131
 40
0.6086956521739131
 40
0.6521739130434783
 40
0.6521739130434783
 40
0.6521739130434783
 40
0.6521739130434783
 40
0.6956521739130435
 40
0.6956521739130435
 40
0.6956521739130435
 40
0.6956521739130435
 40
0.7391304347826086
 40
0.7391304347826086
 40
0.7391304347826086
 40
0.7391304347826086
 40
0.782608695652174
 40
0.782608695652174
 40
0.782608695652174
 40
0.782608695652174
 40
0.8260869565217391
 40
0.8260869565217391
 40
0.8260869565217391
 40
0.8260869565217391
 40
0.8695652173913043
 40
0.8695652173913043
 40
0.8695652173913043
 40
0.8695652173913043
 40
0.9130434782608695
 40
0.9130434782608695
 40
0.9130434782608695
 40
0.9130434782608695
 40
1.0
 40
1.0
 40
1.0
 40
1.0
 10
3.07409
 20
4.36789
 30
0.0
 10
3.07409
 20
4.36789
 30
0.0
 10
3.07409
 20
4.34617
 30
0.0
 10
3.07409
 20
4.34617
 30
0.0
 10
3.07409
 20
4.34617
 30
0.0
 10
3.07409
 20
4.34617
 30
0.0
 10
2.95247
 20
4.34617
 30
0.0
 10
2.95247
 20
4.34617
 30
0.0
 10
2.95247
 20
4.34617
 30
0.0
 10
2.95229
 20
4.35161
 30
0.0
 10
2.95314
 20
4.35684
 30
0.0
 10
2.95508
 20
4.36185
 30
0.0
 10
2.95508
 20
4.36185
 30
0.0
 10
2.95816
 20
4.37016
 30
0.0
 10
2.96313
 20
4.3783
 30
0.0
 10
2.96995
 20
4.38636
 30
0.0
 10
2.96995
 20
4.38636
 30
0.0
 10
2.97679
 20
4.39437
 30
0.0
 10
2.98665
 20
4.40367
 30
0.0
 10
2.99951
 20
4.41421
 30
0.0
 10
2.99951
 20
4.41421
 30
0.0
 10
3.01952
 20
4.43061
 30
0.0
 10
3.03305
 20
4.44359
 30
0.0
 10
3.04008
 20
4.45319
 30
0.0
 10
3.04008
 20
4.45319
 30
0.0
 10
3.04711
 20
4.46275
 30
0.0
 10
3.05062
 20
4.47182
 30
0.0
 10
3.05062
 20
4.48036
 30
0.0
 10
3.05062
 20
4.48036
 30
0.0
 10
3.05062
 20
4.48931
 30
0.0
 10
3.0474
 20
4.49685
 30
0.0
 10
3.04102
 20
4.50302
 30
0.0
 10
3.04102
 20
4.50302
 30
0.0
 10
3.03459
 20
4.50915
 30
0.0
 10
3.02623
 20
4.51223
 30
0.0
 10
3.01596
 20
4.51223
 30
0.0
 10
3.01596
 20
4.51223
 30
0.0
 10
3.00507
 20
4.51223
 30
0.0
 10
2.99638
 20
4.50897
 30
0.0
 10
2.98986
 20
4.50242
 30
0.0
 10
2.98986
 20
4.50242
 30
0.0
 10
2.98331
 20
4.4959
 30
0.0
 10
2.98001
 20
4.48686
 30
0.0
 10
2.97993
 20
4.47534
 30
0.0
 10
2.97993
 20
4.47534
 30
0.0
 10
2.97993
 20
4.47534
 30
0.0
 10
2.9567
 20
4.4777
 30
0.0
 10
2.9567
 20
4.4777
 30
0.0
 10
2.9567
 20
4.4777
 30
0.0
 10
2.95829
 20
4.49505
 30
0.0
 10
2.96429
 20
4.50824
 30
0.0
 10
2.97466
 20
4.51732
 30
0.0
 10
2.97466
 20
4.51732
 30
0.0
 10
2.98502
 20
4.52641
 30
0.0
 10
2.99899
 20
4.53095
 30
0.0
 10
3.01647
 20
4.53095
 30
0.0
 10
3.01647
 20
4.53095
 30
0.0
 10
3.03412
 20
4.53095
 30
0.0
 10
3.04808
 20
4.52602
 30
0.0
 10
3.05837
 20
4.51626
 30
0.0
 10
3.05837
 20
4.51626
 30
0.0
 10
3.06869
 20
4.50644
 30
0.0
 10
3.07383
 20
4.49432
 30
0.0
 10
3.07383
 20
4.47984
 30
0.0
 10
3.07383
 20
4.47984
 30
0.0
 10
3.07383
 20
4.47247
 30
0.0
 10
3.07234
 20
4.46523
 30
0.0
 10
3.0693
 20
4.45812
 30
0.0
 10
3.0693
 20
4.45812
 30
0.0
 10
3.0663
 20
4.45101
 30
0.0
 10
3.06129
 20
4.44351
 30
0.0
 10
3.0543
 20
4.43567
 30
0.0
 10
3.0543
 20
4.43567
 30
0.0
 10
3.04732
 20
4.42778
 30
0.0
 10
3.0357
 20
4.41699
 30
0.0
 10
3.01947
 20
4.40328
 30
0.0
 10
3.01947
 20
4.40328
 30
0.0
 10
3.00593
 20
4.39189
 30
0.0
 10
2.99723
 20
4.38417
 30
0.0
 10
2.99337
 20
4.3801
 30
0.0
 10
2.99337
 20
4.3801
 30
0.0
 10
2.98952
 20
4.37607
 30
0.0
 10
2.98635
 20
4.37201
 30
0.0
 10
2.98382
 20
4.36789
 30
0.0
 10
2.98382
 20
4.36789
 30
0.0
 10
2.98382
 20
4.36789
 30
0.0
 10
3.07409
 20
4.36789
 30
0.0
 10
3.07409
 20
4.36789
 30
0.0
  0
SPLINE
  5
E1
330
1F
100
AcDbEntity
  8
layer 3
 62
     3
370
     9
100
AcDbSpline
210
0.0
220
0.0
230
1.0
 70
    11
 71
     3
 72
    92
 73
    88
 74
     0
 42
0.0000000001
 43
0.0000000001
 12
1.0
 22
0.0
 32
0.0
 13
1.0
 23
0.0
 33
0.0
 40
0.0
 40
0.0
 40
0.0
 40
0.0
 40
0.0434782608695652
 40
0.0434782608695652
 40
0.0434782608695652
 40
0.0434782608695652
 40
0.0869565217391304
 40
0.0869565217391304
 40
0.0869565217391304
 40
0.0869565217391304
 40
0.1304347826086956
 40
0.1304347826086956
 40
0.1304347826086956
 40
0.1304347826086956
 40
0.1739130434782609
 40
0.1739130434782609
 40
0.1739130434782609
 40
0.1739130434782609
 40
0.2173913043478261
 40
0.2173913043478261
 40
0.2173913043478261
 40
0.2173913043478261
 40
0.2608695652173913
 40
0.2608695652173913
 40
0.2608695652173913
 40
0.2608695652173913
 40
0.3043478260869565
 40
0.3043478260869565
 40
0.3043478260869565
 40
0.3043478260869565
 40
0.3478260869565217
 40
0.3478260869565217
 40
0.3478260869565217
 40
0.3478260869565217
 40
0.391304347826087
 40
0.391304347826087
 40
0.391304347826087
 40
0.391304347826087
 40
0.4347826086956522
 40
0.4347826086956522
 40
0.4347826086956522
 40
0.4347826086956522
 40
0.4782608695652174
 40
0.4782608695652174
 40
0.4782608695652174
 40
0.4782608695652174
 40
0.5217391304347826
 40
0.5217391304347826
 40
0.5217391304347826
 40
0.5217391304347826
 40
0.5652173913043478
 40
0.5652173913043478
 40
0.5652173913043478
 40
0.5652173913043478
 40
0.6086956521739131
 40
0.6086956521739131
 40
0.6086956521739131
 40
0.6086956521739131
 40
0.6521739130434783
 40
0.6521739130434783
 40
0.6521739130434783
 40
0.6521739130434783
 40
0.6956521739130435
 40
0.6956521739130435
 40
0.6956521739130435
 40
0.6956521739130435
 40
0.7391304347826086
 40
0.7391304347826086
 40
0.7391304347826086
 40
0.7391304347826086
 40
0.782608695652174
 40
0.782608695652174
 40
0.782608695652174
 40
0.782608695652174
 40
0.8260869565217391
 40
0.8260869565217391
 40
0.8260869565217391
 40
0.8260869565217391
 40
0.8695652173913043
 40
0.8695652173913043
 40
0.8695652173913043
 40
0.8695652173913043
 40
0.9130434782608695
 40
0.9130434782608695
 40
0.9130434782608695
 40
0.9130434782608695
 40
1.0
 40
1.0
 40
1.0
 40
1.0
 10
3.10168
 20
4.38872
 30
0.0
 10
3.10168
 20
4.38872
 30
0.0
 10
3.1234
 20
4.39072
 30
0.0
 10
3.1234
 20
4.39072
 30
0.0
 10
3.1234
 20
4.39072
 30
0.0
 10
3.12524
 20
4.38053
 30
0.0
 10
3.12876
 20
4.37311
 30
0.0
 10
3.13395
 20
4.36849
 30
0.0
 10
3.13395
 20
4.36849
 30
0.0
 10
3.13913
 20
4.3639
 30
0.0
 10
3.14577
 20
4.36159
 30
0.0
 10
3.15391
 20
4.36159
 30
0.0
 10
3.15391
 20
4.36159
 30
0.0
 10
3.16085
 20
4.36159
 30
0.0
 10
3.16693
 20
4.36318
 30
0.0
 10
3.17216
 20
4.36639
 30
0.0
 10
3.17216
 20
4.36639
 30
0.0
 10
3.17739
 20
4.36956
 30
0.0
 10
3.18167
 20
4.3738
 30
0.0
 10
3.18502
 20
4.37912
 30
0.0
 10
3.18502
 20
4.37912
 30
0.0
 10
3.1884
 20
4.38442
 30
0.0
 10
3.19119
 20
4.39163
 30
0.0
 10
3.19345
 20
4.40062
 30
0.0
 10
3.19345
 20
4.40062
 30
0.0
 10
3.19568
 20
4.40966
 30
0.0
 10
3.19684
 20
4.41887
 30
0.0
 10
3.19684
 20
4.42826
 30
0.0
 10
3.19684
 20
4.42826
 30
0.0
 10
3.19684
 20
4.42924
 30
0.0
 10
3.1968
 20
4.43079
 30
0.0
 10
3.19671
 20
4.43276
 30
0.0
 10
3.19671
 20
4.43276
 30
0.0
 10
3.19217
 20
4.4256
 30
0.0
 10
3.186
 20
4.41973
 30
0.0
 10
3.1782
 20
4.41528
 30
0.0
 10
3.1782
 20
4.41528
 30
0.0
 10
3.17036
 20
4.41078
 30
0.0
 10
3.16188
 20
4.40855
 30
0.0
 10
3.1528
 20
4.40855
 30
0.0
 10
3.1528
 20
4.40855
 30
0.0
 10
3.13755
 20
4.40855
 30
0.0
 10
3.12465
 20
4.41408
 30
0.0
 10
3.11411
 20
4.42513
 30
0.0
 10
3.11411
 20
4.42513
 30
0.0
 10
3.10357
 20
4.43619
 30
0.0
 10
3.0983
 20
4.45071
 30
0.0
 10
3.0983
 20
4.46879
 30
0.0
 10
3.0983
 20
4.46879
 30
0.0
 10
3.0983
 20
4.48747
 30
0.0
 10
3.10378
 20
4.50246
 30
0.0
 10
3.1148
 20
4.51386
 30
0.0
 10
3.1148
 20
4.51386
 30
0.0
 10
3.12581
 20
4.52525
 30
0.0
 10
3.1396
 20
4.53095
 30
0.0
 10
3.15618
 20
4.53095
 30
0.0
 10
3.15618
 20
4.53095
 30
0.0
 10
3.16813
 20
4.53095
 30
0.0
 10
3.17906
 20
4.52769
 30
0.0
 10
3.18899
 20
4.52127
 30
0.0
 10
3.18899
 20
4.52127
 30
0.0
 10
3.19889
 20
4.51484
 30
0.0
 10
3.20644
 20
4.50563
 30
0.0
 10
3.21158
 20
4.49372
 30
0.0
 10
3.21158
 20
4.49372
 30
0.0
 10
3.21671
 20
4.48181
 30
0.0
 10
3.21929
 20
4.46455
 30
0.0
 10
3.21929
 20
4.44192
 30
0.0
 10
3.21929
 20
4.44192
 30
0.0
 10
3.21929
 20
4.41845
 30
0.0
 10
3.21676
 20
4.39972
 30
0.0
 10
3.21166
 20
4.38575
 30
0.0
 10
3.21166
 20
4.38575
 30
0.0
 10
3.20652
 20
4.37183
 30
0.0
 10
3.19894
 20
4.36126
 30
0.0
 10
3.18887
 20
4.35397
 30
0.0
 10
3.18887
 20
4.35397
 30
0.0
 10
3.17876
 20
4.34668
 30
0.0
 10
3.16698
 20
4.34304
 30
0.0
 10
3.15339
 20
4.34304
 30
0.0
 10
3.15339
 20
4.34304
 30
0.0
 10
3.139
 20
4.34304
 30
0.0
 10
3.12726
 20
4.34703
 30
0.0
 10
3.11813
 20
4.35504
 30
0.0
 10
3.11813
 20
4.35504
 30
0.0
 10
3.10901
 20
4.363
 30
0.0
 10
3.10352
 20
4.37423
 30
0.0
 10
3.10168
 20
4.38872
 30
0.0
  0
SPLINE
  5
E2
330
1F
100
AcDbEntity
  8
layer 3
 62
     3
370
     9
100
AcDbSpline
210
0.0
220
0.0
230
1.0
 70
    11
 71
     3
 72
    36
 73
    32
 74
     0
 42
0.0000000001
 43
0.0000000001
 12
1.0
 22
0.0
 32
0.0
 13
1.0
 23
0.0
 33
0.0
 40
0.0
 40
0.0
 40
0.0
 40
0.0
 40
0.1111111111111111
 40
0.1111111111111111
 40
0.1111111111111111
 40
0.1111111111111111
 40
0.2222222222222222
 40
0.2222222222222222
 40
0.2222222222222222
 40
0.2222222222222222
 40
0.3333333333333333
 40
0.3333333333333333
 40
0.3333333333333333
 40
0.3333333333333333
 40
0.4444444444444444
 40
0.4444444444444444
 40
0.4444444444444444
 40
0.4444444444444444
 40
0.5555555555555556
 40
0.5555555555555556
 40
0.5555555555555556
 40
0.5555555555555556
 40
0.6666666666666666
 40
0.6666666666666666
 40
0.6666666666666666
 40
0.6666666666666666
 40
0.7777777777777778
 40
0.7777777777777778
 40
0.7777777777777778
 40
0.7777777777777778
 40
1.0
 40
1.0
 40
1.0
 40
1.0
 10
3.19418
 20
4.46994
 30
0.0
 10
3.19418
 20
4.48288
 30
0.0
 10
3.19076
 20
4.49321
 30
0.0
 10
3.18385
 20
4.50079
 30
0.0
 10
3.18385
 20
4.50079
 30
0.0
 10
3.17691
 20
4.50841
 30
0.0
 10
3.16865
 20
4.51223
 30
0.0
 10
3.15892
 20
4.51223
 30
0.0
 10
3.15892
 20
4.51223
 30
0.0
 10
3.14889
 20
4.51223
 30
0.0
 10
3.14016
 20
4.50811
 30
0.0
 10
3.13271
 20
4.49994
 30
0.0
 10
3.13271
 20
4.49994
 30
0.0
 10
3.12524
 20
4.49171
 30
0.0
 10
3.12152
 20
4.48108
 30
0.0
 10
3.12152
 20
4.46806
 30
0.0
 10
3.12152
 20
4.46806
 30
0.0
 10
3.12152
 20
4.45631
 30
0.0
 10
3.12508
 20
4.44681
 30
0.0
 10
3.13215
 20
4.43948
 30
0.0
 10
3.13215
 20
4.43948
 30
0.0
 10
3.13922
 20
4.43215
 30
0.0
 10
3.14791
 20
4.42851
 30
0.0
 10
3.15828
 20
4.42851
 30
0.0
 10
3.15828
 20
4.42851
 30
0.0
 10
3.16878
 20
4.42851
 30
0.0
 10
3.17735
 20
4.43215
 30
0.0
 10
3.18407
 20
4.43948
 30
0.0
 10
3.18407
 20
4.43948
 30
0.0
 10
3.19084
 20
4.44681
 30
0.0
 10
3.19418
 20
4.45697
 30
0.0
 10
3.19418
 20
4.46994
 30
0.0
  0
SPLINE
  5
E3
330
1F
100
AcDbEntity
  8
layer 3
 62
     3
370
     5
100
AcDbSpline
210
0.0
220
0.0
230
1.0
 70
    24
 71
     3
 72
     8
 73
     4
 74
     0
 42
0.0000000001
 43
0.0000000001
 12
1.0
 22
0.0
 32
0.0
 13
1.0
 23
0.0
 33
0.0
 40
0.0
 40
0.0
 40
0.0
 40
0.0
 40
1.0
 40
1.0
 40
1.0
 40
1.0
 10
1.20057
 20
5.19745
 30
0.0
 10
1.20057
 20
5.19745
 30
0.0
 10
1.73095
 20
4.67361
 30
0.0
 10
1.73095
 20
4.67361
 30
0.0
  0
SPLINE
  5
E4
330
1F
100
AcDbEntity
  8
layer 3
 62
     3
370
     9
100
AcDbSpline
210
0.0
220
0.0
230
1.0
 70
    27
 71
     3
 72
    12
 73
     8
 74
     0
 42
0.0000000001
 43
0.0000000001
 12
1.0
 22
0.0
 32
0.0
 13
1.0
 23
0.0
 33
0.0
 40
0.0
 40
0.0
 40
0.0
 40
0.0
 40
0.3333333333333333
 40
0.3333333333333333
 40
0.3333333333333333
 40
0.3333333333333333
 40
1.0
 40
1.0
 40
1.0
 40
1.0
 10
1.07833
 20
5.36634
 30
0.0
 10
1.07833
 20
5.36634
 30
0.0
 10
1.20057
 20
5.19745
 30
0.0
 10
1.20057
 20
5.19745
 30
0.0
 10
1.20057
 20
5.19745
 30
0.0
 10
1.20057
 20
5.19745
 30
0.0
 10
1.07833
 20
5.36634
 30
0.0
 10
1.07833
 20
5.36634
 30
0.0
  0
SPLINE
  5
E5
330
1F
100
AcDbEntity
  8
layer 3
 62
     3
370
     9
100
AcDbSpline
210
0.0
220
0.0
230
1.0
 70
    11
 71
     3
 72
    16
 73
    12
 74
     0
 42
0.0000000001
 43
0.0000000001
 12
1.0
 22
0.0
 32
0.0
 13
1.0
 23
0.0
 33
0.0
 40
0.0
 40
0.0
 40
0.0
 40
0.0
 40
0.25
 40
0.25
 40
0.25
 40
0.25
 40
0.5
 40
0.5
 40
0.5
 40
0.5
 40
1.0
 40
1.0
 40
1.0
 40
1.0
 10
1.20057
 20
5.19745
 30
0.0
 10
1.20057
 20
5.19745
 30
0.0
 10
1.03017
 20
5.31757
 30
0.0
 10
1.03017
 20
5.31757
 30
0.0
 10
1.03017
 20
5.31757
 30
0.0
 10
1.03017
 20
5.31757
 30
0.0
 10
1.07833
 20
5.36634
 30
0.0
 10
1.07833
 20
5.36634
 30
0.0
 10
1.07833
 20
5.36634
 30
0.0
 10
1.07833
 20
5.36634
 30
0.0
 10
1.20057
 20
5.19745
 30
0.0
 10
1.20057
 20
5.19745
 30
0.0
  0
SPLINE
  5
E6
330
1F
100
AcDbEntity
  8
layer 3
 62
     3
370
    18
100
AcDbSpline
210
0.0
220
0.0
230
1.0
 70
    24
 71
     3
 72
     8
 73
     4
 74
     0
 42
0.0000000001
 43
0.0000000001
 12
1.0
 22
0.0
 32
0.0
 13
1.0
 23
0.0
 33
0.0
 40
0.0
 40
0.0
 40
0.0
 40
0.0
 40
1.0
 40
1.0
 40
1.0
 40
1.0
 10
1.07833
 20
5.36634
 30
0.0
 10
1.07833
 20
5.36634
 30
0.0
 10
1.20057
 20
5.19745
 30
0.0
 10
1.20057
 20
5.19745
 30
0.0
  0
SPLINE
  5
E7
330
1F
100
AcDbEntity
  8
layer 3
 62
     3
370
    18
100
AcDbSpline
210
0.0
220
0.0
230
1.0
 70
     8
 71
     3
 72
    12
 73
     8
 74
     0
 42
0.0000000001
 43
0.0000000001
 12
1.0
 22
0.0
 32
0.0
 13
1.0
 23
0.0
 33
0.0
 40
0.0
 40
0.0
 40
0.0
 40
0.0
 40
0.3333333333333333
 40
0.3333333333333333
 40
0.3333333333333333
 40
0.3333333333333333
 40
1.0
 40
1.0
 40
1.0
 40
1.0
 10
1.20057
 20
5.19745
 30
0.0
 10
1.20057
 20
5.19745
 30
0.0
 10
1.03017
 20
5.31757
 30
0.0
 10
1.03017
 20
5.31757
 30
0.0
 10
1.03017
 20
5.31757
 30
0.0
 10
1.03017
 20
5.31757
 30
0.0
 10
1.07833
 20
5.36634
 30
0.0
 10
1.07833
 20
5.36634
 30
0.0
  0
SPLINE
  5
E8
330
1F
100
AcDbEntity
  8
layer 3
 62
     3
370
     9
100
AcDbSpline
210
0.0
220
0.0
230
1.0
 70
    27
 71
     3
 72
    12
 73
     8
 74
     0
 42
0.0000000001
 43
0.0000000001
 12
1.0
 22
0.0
 32
0.0
 13
1.0
 23
0.0
 33
0.0
 40
0.0
 40
0.0
 40
0.0
 40
0.0
 40
0.3333333333333333
 40
0.3333333333333333
 40
0.3333333333333333
 40
0.3333333333333333
 40
1.0
 40
1.0
 40
1.0
 40
1.0
 10
1.90135
 20
4.55348
 30
0.0
 10
1.90135
 20
4.55348
 30
0.0
 10
1.73095
 20
4.67361
 30
0.0
 10
1.73095
 20
4.67361
 30
0.0
 10
1.73095
 20
4.67361
 30
0.0
 10
1.73095
 20
4.67361
 30
0.0
 10
1.90135
 20
4.55348
 30
0.0
 10
1.90135
 20
4.55348
 30
0.0
  0
SPLINE
  5
E9
330
1F
100
AcDbEntity
  8
layer 3
 62
     3
370
     9
100
AcDbSpline
210
0.0
220
0.0
230
1.0
 70
    11
 71
     3
 72
    16
 73
    12
 74
     0
 42
0.0000000001
 43
0.0000000001
 12
1.0
 22
0.0
 32
0.0
 13
1.0
 23
0.0
 33
0.0
 40
0.0
 40
0.0
 40
0.0
 40
0.0
 40
0.25
 40
0.25
 40
0.25
 40
0.25
 40
0.5
 40
0.5
 40
0.5
 40
0.5
 40
1.0
 40
1.0
 40
1.0
 40
1.0
 10
1.73095
 20
4.67361
 30
0.0
 10
1.73095
 20
4.67361
 30
0.0
 10
1.85317
 20
4.50471
 30
0.0
 10
1.85317
 20
4.50471
 30
0.0
 10
1.85317
 20
4.50471
 30
0.0
 10
1.85317
 20
4.50471
 30
0.0
 10
1.90135
 20
4.55348
 30
0.0
 10
1.90135
 20
4.55348
 30
0.0
 10
1.90135
 20
4.55348
 30
0.0
 10
1.90135
 20
4.55348
 30
0.0
 10
1.73095
 20
4.67361
 30
0.0
 10
1.73095
 20
4.67361
 30
0.0
  0
SPLINE
  5
EA
330
1F
100
AcDbEntity
  8
layer 3
 62
     3
370
    18
100
AcDbSpline
210
0.0
220
0.0
230
1.0
 70
    24
 71
     3
 72
     8
 73
     4
 74
     0
 42
0.0000000001
 43
0.0000000001
 12
1.0
 22
0.0
 32
0.0
 13
1.0
 23
0.0
 33
0.0
 40
0.0
 40
0.0
 40
0.0
 40
0.0
 40
1.0
 40
1.0
 40
1.0
 40
1.0
 10
1.90135
 20
4.55348
 30
0.0
 10
1.90135
 20
4.55348
 30
0.0
 10
1.73095
 20
4.67361
 30
0.0
 10
1.73095
 20
4.67361
 30
0.0
  0
SPLINE
  5
EB
330
1F
100
AcDbEntity
  8
layer 3
 62
     3
370
    18
100
AcDbSpline
210
0.0
220
0.0
230
1.0
 70
     8
 71
     3
 72
    12
 73
     8
 74
     0
 42
0.0000000001
 43
0.0000000001
 12
1.0
 22
0.0
 32
0.0
 13
1.0
 23
0.0
 33
0.0
 40
0.0
 40
0.0
 40
0.0
 40
0.0
 40
0.3333333333333333
 40
0.3333333333333333
 40
0.3333333333333333
 40
0.3333333333333333
 40
1.0
 40
1.0
 40
1.0
 40
1.0
 10
1.73095
 20
4.67361
 30
0.0
 10
1.73095
 20
4.67361
 30
0.0
 10
1.85317
 20
4.50471
 30
0.0
 10
1.85317
 20
4.50471
 30
0.0
 10
1.85317
 20
4.50471
 30
0.0
 10
1.85317
 20
4.50471
 30
0.0
 10
1.90135
 20
4.55348
 30
0.0
 10
1.90135
 20
4.55348
 30
0.0
  0
ENDSEC
  0
SECTION
  2
OBJECTS
  0
DICTIONARY
  5
C
330
0
100
AcDbDictionary
281
     1
  3
ACAD_GROUP
350
D
  3
ACAD_LAYOUT
350
1A
  3
ACAD_MATERIAL
350
3B
  3
ACAD_MLEADERSTYLE
350
10D
  3
ACAD_MLINESTYLE
350
17
  3
ACAD_PLOTSETTINGS
350
19
  3
ACAD_PLOTSTYLENAME
350
E
  3
ACAD_TABLESTYLE
350
10C
  3
ACAD_VISUALSTYLE
350
2A
  0
DICTIONARY
  5
D
102
{ACAD_REACTORS
330
C
102
}
330
C
100
AcDbDictionary
281
     1
  0
DICTIONARY
  5
1A
102
{ACAD_REACTORS
330
C
102
}
330
C
100
AcDbDictionary
281
     1
  3
Layout1
350
1E
  3
Layout2
350
26
  3
Model
350
22
  0
DICTIONARY
  5
3B
102
{ACAD_REACTORS
330
C
102
}
330
C
100
AcDbDictionary
281
     1
  3
ByBlock
350
3D
  3
ByLayer
350
3C
  3
Global
350
3E
  0
DICTIONARY
  5
10D
102
{ACAD_REACTORS
330
C
102
}
330
C
100
AcDbDictionary
281
     1
  0
DICTIONARY
  5
17
102
{ACAD_REACTORS
330
C
102
}
330
C
100
AcDbDictionary
281
     1
  3
Standard
350
18
  0
DICTIONARY
  5
19
102
{ACAD_REACTORS
330
C
102
}
330
C
100
AcDbDictionary
281
     1
  0
ACDBDICTIONARYWDFLT
  5
E
102
{ACAD_REACTORS
330
C
102
}
330
C
100
AcDbDictionary
281
     1
  3
Normal
350
F
100
AcDbDictionaryWithDefault
340
F
  0
DICTIONARY
  5
10C
102
{ACAD_REACTORS
330
C
102
}
330
C
100
AcDbDictionary
281
     1
  0
DICTIONARY
  5
2A
102
{ACAD_REACTORS
330
C
102
}
330
C
100
AcDbDictionary
281
     1
  3
2dWireframe
350
2F
  3
3D Hidden
350
31
  3
3dWireframe
350
30
  3
Basic
350
32
  3
Brighten
350
36
  3
ColorChange
350
3A
  3
Conceptual
350
34
  3
Dim
350
35
  3
Facepattern
350
39
  3
Flat
350
2B
  3
FlatWithEdges
350
2C
  3
Gouraud
350
2D
  3
GouraudWithEdges
350
2E
  3
Linepattern
350
38
  3
Realistic
350
33
  3
Thicken
350
37
  0
LAYOUT
  5
1E
102
{ACAD_REACTORS
330
1A
102
}
330
1A
100
AcDbPlotSettings
  1

  2
none_device
  4

  6

 40
0.0
 41
0.0
 42
0.0
 43
0.0
 44
0.0
 45
0.0
 46
0.0
 47
0.0
 48
0.0
 49
0.0
140
0.0
141
0.0
142
1.0
143
1.0
 70
   688
 72
     0
 73
     0
 74
     5
  7

 75
    16
 76
     0
 77
     2
 78
   300
147
1.0
148
0.0
149
0.0
100
AcDbLayout
  1
Layout1
 70
     1
 71
     1
 10
0.0
 20
0.0
 11
12.0
 21
9.0
 12
0.0
 22
0.0
 32
0.0
 14
1.000000000000000E+20
 24
1.000000000000000E+20
 34
1.000000000000000E+20
 15
-1.000000000000000E+20
 25
-1.000000000000000E+20
 35
-1.000000000000000E+20
146
0.0
 13
0.0
 23
0.0
 33
0.0
 16
1.0
 26
0.0
 36
0.0
 17
0.0
 27
1.0
 37
0.0
 76
     0
330
1B
  0
LAYOUT
  5
26
102
{ACAD_REACTORS
330
1A
102
}
330
1A
100
AcDbPlotSettings
  1

  2
none_device
  4

  6

 40
0.0
 41
0.0
 42
0.0
 43
0.0
 44
0.0
 45
0.0
 46
0.0
 47
0.0
 48
0.0
 49
0.0
140
0.0
141
0.0
142
1.0
143
1.0
 70
   688
 72
     0
 73
     0
 74
     5
  7

 75
    16
 76
     0
 77
     2
 78
   300
147
1.0
148
0.0
149
0.0
100
AcDbLayout
  1
Layout2
 70
     1
 71
     2
 10
0.0
 20
0.0
 11
0.0
 21
0.0
 12
0.0
 22
0.0
 32
0.0
 14
0.0
 24
0.0
 34
0.0
 15
0.0
 25
0.0
 35
0.0
146
0.0
 13
0.0
 23
0.0
 33
0.0
 16
1.0
 26
0.0
 36
0.0
 17
0.0
 27
1.0
 37
0.0
 76
     0
330
23
  0
LAYOUT
  5
22
102
{ACAD_REACTORS
330
1A
102
}
330
1A
100
AcDbPlotSettings
  1

  2
none_device
  4

  6

 40
0.0
 41
0.0
 42
0.0
 43
0.0
 44
0.0
 45
0.0
 46
0.0
 47
0.0
 48
0.0
 49
0.0
140
0.0
141
0.0
142
1.0
143
1.0
 70
  1712
 72
     0
 73
     0
 74
     0
  7

 75
     0
 76
     0
 77
     2
 78
   300
147
1.0
148
0.0
149
0.0
100
AcDbLayout
  1
Model
 70
     1
 71
     0
 10
0.0
 20
0.0
 11
12.0
 21
9.0
 12
0.0
 22
0.0
 32
0.0
 14
-9.52148
 24
-7.64935
 34
0.0
 15
7.52052
 25
8.40267
 35
0.0
146
0.0
 13
0.0
 23
0.0
 33
0.0
 16
1.0
 26
0.0
 36
0.0
 17
0.0
 27
1.0
 37
0.0
 76
     0
330
1F
331
29
  0
MATERIAL
  5
3D
102
{ACAD_REACTORS
330
3B
102
}
330
3B
100
AcDbMaterial
  1
ByBlock
 72
     1
 94
      127
  0
MATERIAL
  5
3C
102
{ACAD_REACTORS
330
3B
102
}
330
3B
100
AcDbMaterial
  1
ByLayer
 72
     1
 94
      127
  0
MATERIAL
  5
3E
102
{ACAD_REACTORS
330
3B
102
}
330
3B
100
AcDbMaterial
  1
Global
 72
     1
 94
      127
  0
MLINESTYLE
  5
18
102
{ACAD_REACTORS
330
17
102
}
330
17
100
AcDbMlineStyle
  2
Standard
 70
     0
  3

 62
   256
 51
90.0
 52
90.0
 71
     2
 49
0.5
 62
   256
  6
BYLAYER
 49
-0.5
 62
   256
  6
BYLAYER
  0
ACDBPLACEHOLDER
  5
F
102
{ACAD_REACTORS
330
E
102
}
330
E
  0
VISUALSTYLE
  5
2F
102
{ACAD_REACTORS
330
2A
102
}
102
{ACAD_XDICTIONARY
360
F4
102
}
330
2A
100
AcDbVisualStyle
  2
2dWireframe
 70
     4
 71
     0
 72
     2
 73
     0
 90
        0
 40
-0.6
 41
-30.0
 62
     5
 63
     7
421
 16777215
 74
     1
 91
        4
 64
     7
 65
   257
 75
     1
175
     1
 42
1.0
 92
        0
 66
   257
 43
1.0
 76
     1
 77
     6
 78
     2
 67
     7
 79
     5
170
     0
171
     0
290
     0
174
     0
 93
        1
 44
0.0
173
     0
291
     0
 45
0.0
  0
VISUALSTYLE
  5
31
102
{ACAD_REACTORS
330
2A
102
}
102
{ACAD_XDICTIONARY
360
F8
102
}
330
2A
100
AcDbVisualStyle
  2
3D Hidden
 70
     6
 71
     1
 72
     2
 73
     2
 90
        0
 40
-0.6
 41
-30.0
 62
     5
 63
     7
421
 16777215
 74
     2
 91
        2
 64
     7
 65
   257
 75
     2
175
     1
 42
40.0
 92
        0
 66
   257
 43
1.0
 76
     1
 77
     6
 78
     2
 67
     7
 79
     3
170
     0
171
     0
290
     0
174
     0
 93
        1
 44
0.0
173
     0
291
     0
 45
0.0
  0
VISUALSTYLE
  5
30
102
{ACAD_REACTORS
330
2A
102
}
102
{ACAD_XDICTIONARY
360
F6
102
}
330
2A
100
AcDbVisualStyle
  2
3dWireframe
 70
     5
 71
     0
 72
     2
 73
     0
 90
        0
 40
-0.6
 41
-30.0
 62
     5
 63
     7
421
 16777215
 74
     1
 91
        4
 64
     7
 65
   257
 75
     1
175
     1
 42
1.0
 92
        0
 66
   257
 43
1.0
 76
     1
 77
     6
 78
     2
 67
     7
 79
     5
170
     0
171
     0
290
     0
174
     0
 93
        1
 44
0.0
173
     0
291
     0
 45
0.0
  0
VISUALSTYLE
  5
32
102
{ACAD_REACTORS
330
2A
102
}
102
{ACAD_XDICTIONARY
360
FA
102
}
330
2A
100
AcDbVisualStyle
  2
Basic
 70
     7
 71
     1
 72
     0
 73
     1
 90
        0
 40
-0.6
 41
-30.0
 62
     5
 63
     7
421
 16777215
 74
     0
 91
        4
 64
     7
 65
   257
 75
     1
175
     1
 42
1.0
 92
        8
 66
     7
 43
1.0
 76
     1
 77
     6
 78
     2
 67
     7
 79
     5
170
     0
171
     0
290
     0
174
     0
 93
        1
 44
0.0
173
     0
291
     1
 45
0.0
  0
VISUALSTYLE
  5
36
102
{ACAD_REACTORS
330
2A
102
}
102
{ACAD_XDICTIONARY
360
102
102
}
330
2A
100
AcDbVisualStyle
  2
Brighten
 70
    12
 71
     2
 72
     2
 73
     0
 90
        0
 40
-0.6
 41
-30.0
 62
     5
 63
     7
421
 16777215
 74
     1
 91
        4
 64
     7
 65
   257
 75
     1
175
     1
 42
1.0
 92
        8
 66
     7
 43
1.0
 76
     1
 77
     6
 78
     2
 67
     7
 79
     5
170
     0
171
     0
290
     0
174
     0
 93
        1
 44
50.0
173
     0
291
     1
 45
0.0
  0
VISUALSTYLE
  5
3A
102
{ACAD_REACTORS
330
2A
102
}
102
{ACAD_XDICTIONARY
360
10A
102
}
330
2A
100
AcDbVisualStyle
  2
ColorChange
 70
    16
 71
     2
 72
     2
 73
     3
 90
        0
 40
-0.6
 41
-30.0
 62
     5
 63
     8
421
  8421504
 74
     1
 91
        4
 64
     7
 65
   257
 75
     1
175
     1
 42
1.0
 92
        8
 66
     8
424
  8421504
 43
1.0
 76
     1
 77
     6
 78
     2
 67
     7
 79
     5
170
     0
171
     0
290
     0
174
     0
 93
        1
 44
0.0
173
     0
291
     1
 45
0.0
  0
VISUALSTYLE
  5
34
102
{ACAD_REACTORS
330
2A
102
}
102
{ACAD_XDICTIONARY
360
FE
102
}
330
2A
100
AcDbVisualStyle
  2
Conceptual
 70
     9
 71
     3
 72
     2
 73
     0
 90
        0
 40
-0.6
 41
-30.0
 62
     5
 63
     7
421
 16777215
 74
     2
 91
        2
 64
     7
 65
   257
 75
     1
175
     1
 42
40.0
 92
        8
 66
     7
 43
1.0
 76
     1
 77
     6
 78
     2
 67
     7
 79
     3
170
     0
171
     0
290
     0
174
     0
 93
        1
 44
0.0
173
     0
291
     0
 45
0.0
  0
VISUALSTYLE
  5
35
102
{ACAD_REACTORS
330
2A
102
}
102
{ACAD_XDICTIONARY
360
100
102
}
330
2A
100
AcDbVisualStyle
  2
Dim
 70
    11
 71
     2
 72
     2
 73
     0
 90
        0
 40
-0.6
 41
-30.0
 62
     5
 63
     7
421
 16777215
 74
     1
 91
        4
 64
     7
 65
   257
 75
     1
175
     1
 42
1.0
 92
        8
 66
     7
 43
1.0
 76
     1
 77
     6
 78
     2
 67
     7
 79
     5
170
     0
171
     0
290
     0
174
     0
 93
        1
 44
-50.0
173
     0
291
     1
 45
0.0
  0
VISUALSTYLE
  5
39
102
{ACAD_REACTORS
330
2A
102
}
102
{ACAD_XDICTIONARY
360
108
102
}
330
2A
100
AcDbVisualStyle
  2
Facepattern
 70
    15
 71
     2
 72
     2
 73
     0
 90
        0
 40
-0.6
 41
-30.0
 62
     5
 63
     7
421
 16777215
 74
     1
 91
        4
 64
     7
 65
   257
 75
     1
175
     1
 42
1.0
 92
        8
 66
     7
 43
1.0
 76
     1
 77
     6
 78
     2
 67
     7
 79
     5
170
     0
171
     0
290
     0
174
     0
 93
        1
 44
0.0
173
     0
291
     1
 45
0.0
  0
VISUALSTYLE
  5
2B
102
{ACAD_REACTORS
330
2A
102
}
102
{ACAD_XDICTIONARY
360
EC
102
}
330
2A
100
AcDbVisualStyle
  2
Flat
 70
     0
 71
     2
 72
     1
 73
     1
 90
        2
 40
-0.6
 41
30.0
 62
     5
 63
     7
421
 16777215
 74
     0
 91
        4
 64
     7
 65
   257
 75
     1
175
     1
 42
1.0
 92
        8
 66
     7
 43
1.0
 76
     1
 77
     6
 78
     2
 67
     7
 79
     5
170
     0
171
     0
290
     0
174
     0
 93
       13
 44
0.0
173
     0
291
     1
 45
0.0
  0
VISUALSTYLE
  5
2C
102
{ACAD_REACTORS
330
2A
102
}
102
{ACAD_XDICTIONARY
360
EE
102
}
330
2A
100
AcDbVisualStyle
  2
FlatWithEdges
 70
     1
 71
     2
 72
     1
 73
     1
 90
        2
 40
-0.6
 41
30.0
 62
     5
 63
     7
421
 16777215
 74
     1
 91
        4
 64
     7
 65
   257
 75
     1
175
     1
 42
1.0
 92
        0
 66
   257
 43
1.0
 76
     1
 77
     6
 78
     2
 67
     7
 79
     5
170
     0
171
     0
290
     0
174
     0
 93
       13
 44
0.0
173
     0
291
     1
 45
0.0
  0
VISUALSTYLE
  5
2D
102
{ACAD_REACTORS
330
2A
102
}
102
{ACAD_XDICTIONARY
360
F0
102
}
330
2A
100
AcDbVisualStyle
  2
Gouraud
 70
     2
 71
     2
 72
     2
 73
     1
 90
        2
 40
-0.6
 41
30.0
 62
     5
 63
     7
421
 16777215
 74
     0
 91
        4
 64
     7
 65
   257
 75
     1
175
     1
 42
1.0
 92
        0
 66
     7
 43
1.0
 76
     1
 77
     6
 78
     2
 67
     7
 79
     5
170
     0
171
     0
290
     0
174
     0
 93
       13
 44
0.0
173
     0
291
     1
 45
0.0
  0
VISUALSTYLE
  5
2E
102
{ACAD_REACTORS
330
2A
102
}
102
{ACAD_XDICTIONARY
360
F2
102
}
330
2A
100
AcDbVisualStyle
  2
GouraudWithEdges
 70
     3
 71
     2
 72
     2
 73
     1
 90
        2
 40
-0.6
 41
30.0
 62
     5
 63
     7
421
 16777215
 74
     1
 91
        4
 64
     7
 65
   257
 75
     1
175
     1
 42
1.0
 92
        0
 66
   257
 43
1.0
 76
     1
 77
     6
 78
     2
 67
     7
 79
     5
170
     0
171
     0
290
     0
174
     0
 93
       13
 44
0.0
173
     0
291
     1
 45
0.0
  0
VISUALSTYLE
  5
38
102
{ACAD_REACTORS
330
2A
102
}
102
{ACAD_XDICTIONARY
360
106
102
}
330
2A
100
AcDbVisualStyle
  2
Linepattern
 70
    14
 71
     2
 72
     2
 73
     0
 90
        0
 40
-0.6
 41
-30.0
 62
     5
 63
     7
421
 16777215
 74
     1
 91
        4
 64
     7
 65
   257
 75
     7
175
     7
 42
1.0
 92
        8
 66
     7
 43
1.0
 76
     1
 77
     6
 78
     2
 67
     7
 79
     5
170
     0
171
     0
290
     0
174
     0
 93
        1
 44
0.0
173
     0
291
     1
 45
0.0
  0
VISUALSTYLE
  5
33
102
{ACAD_REACTORS
330
2A
102
}
102
{ACAD_XDICTIONARY
360
FC
102
}
330
2A
100
AcDbVisualStyle
  2
Realistic
 70
     8
 71
     2
 72
     2
 73
     0
 90
        0
 40
-0.6
 41
-30.0
 62
     5
 63
     7
421
 16777215
 74
     1
 91
        0
 64
     7
 65
   257
 75
     1
175
     1
 42
1.0
 92
        8
 66
     8
424
  7895160
 43
1.0
 76
     1
 77
     6
 78
     2
 67
     7
 79
     5
170
     0
171
     0
290
     0
174
     0
 93
       13
 44
0.0
173
     0
291
     0
 45
0.0
  0
VISUALSTYLE
  5
37
102
{ACAD_REACTORS
330
2A
102
}
102
{ACAD_XDICTIONARY
360
104
102
}
330
2A
100
AcDbVisualStyle
  2
Thicken
 70
    13
 71
     2
 72
     2
 73
     0
 90
        0
 40
-0.6
 41
-30.0
 62
     5
 63
     7
421
 16777215
 74
     1
 91
        4
 64
     7
 65
   257
 75
     1
175
     1
 42
1.0
 92
       12
 66
     7
 43
1.0
 76
     1
 77
     6
 78
     2
 67
     7
 79
     5
170
     0
171
     0
290
     0
174
     0
 93
        1
 44
0.0
173
     0
291
     1
 45
0.0
  0
DICTIONARY
  5
F4
330
2F
100
AcDbDictionary
280
     1
281
     1
  3
ACAD_XREC_ROUNDTRIP
360
F5
  0
DICTIONARY
  5
F8
330
31
100
AcDbDictionary
280
     1
281
     1
  3
ACAD_XREC_ROUNDTRIP
360
F9
  0
DICTIONARY
  5
F6
330
30
100
AcDbDictionary
280
     1
281
     1
  3
ACAD_XREC_ROUNDTRIP
360
F7
  0
DICTIONARY
  5
FA
330
32
100
AcDbDictionary
280
     1
281
     1
  3
ACAD_XREC_ROUNDTRIP
360
FB
  0
DICTIONARY
  5
102
330
36
100
AcDbDictionary
280
     1
281
     1
  3
ACAD_XREC_ROUNDTRIP
360
103
  0
DICTIONARY
  5
10A
330
3A
100
AcDbDictionary
280
     1
281
     1
  3
ACAD_XREC_ROUNDTRIP
360
10B
  0
DICTIONARY
  5
FE
330
34
100
AcDbDictionary
280
     1
281
     1
  3
ACAD_XREC_ROUNDTRIP
360
FF
  0
DICTIONARY
  5
100
330
35
100
AcDbDictionary
280
     1
281
     1
  3
ACAD_XREC_ROUNDTRIP
360
101
  0
DICTIONARY
  5
108
330
39
100
AcDbDictionary
280
     1
281
     1
  3
ACAD_XREC_ROUNDTRIP
360
109
  0
DICTIONARY
  5
EC
330
2B
100
AcDbDictionary
280
     1
281
     1
  3
ACAD_XREC_ROUNDTRIP
360
ED
  0
DICTIONARY
  5
EE
330
2C
100
AcDbDictionary
280
     1
281
     1
  3
ACAD_XREC_ROUNDTRIP
360
EF
  0
DICTIONARY
  5
F0
330
2D
100
AcDbDictionary
280
     1
281
     1
  3
ACAD_XREC_ROUNDTRIP
360
F1
  0
DICTIONARY
  5
F2
330
2E
100
AcDbDictionary
280
     1
281
     1
  3
ACAD_XREC_ROUNDTRIP
360
F3
  0
DICTIONARY
  5
106
330
38
100
AcDbDictionary
280
     1
281
     1
  3
ACAD_XREC_ROUNDTRIP
360
107
  0
DICTIONARY
  5
FC
330
33
100
AcDbDictionary
280
     1
281
     1
  3
ACAD_XREC_ROUNDTRIP
360
FD
  0
DICTIONARY
  5
104
330
37
100
AcDbDictionary
280
     1
281
     1
  3
ACAD_XREC_ROUNDTRIP
360
105
  0
XRECORD
  5
F5
102
{ACAD_REACTORS
330
F4
102
}
330
F4
100
AcDbXrecord
280
     1
102
RTVSPropertyOp0
 70
     1
102
RTVSPropertyOp1
 70
     1
102
RTVSPropertyOp2
 70
     1
102
RTVSPropertyOp3
 70
     1
102
RTVSPropertyOp4
 70
     1
102
RTVSPropertyOp5
 70
     1
102
RTVSPropertyOp6
 70
     1
102
RTVSPropertyOp7
 70
     1
102
RTVSPropertyOp8
 70
     1
102
RTVSPropertyOp9
 70
     1
102
RTVSPropertyOp10
 70
     1
102
RTVSPropertyOp11
 70
     1
102
RTVSPropertyOp12
 70
     1
102
RTVSPropertyOp13
 70
     1
102
RTVSPropertyOp14
 70
     1
102
RTVSPropertyOp15
 70
     1
102
RTVSPropertyOp16
 70
     1
102
RTVSPropertyOp17
 70
     1
102
RTVSPropertyOp18
 70
     1
102
RTVSPropertyOp19
 70
     1
102
RTVSPropertyOp20
 70
     1
102
RTVSPropertyOp21
 70
     1
102
RTVSPropertyOp22
 70
     1
102
RTVSPropertyOp23
 70
     1
102
RTVSPropertyOp24
 70
     1
102
RTVSPropertyOp25
 70
     1
102
RTVSPropertyOp26
 70
     1
102
RTVSPropertyOp27
 70
     1
102
RTVSPropertyOp28
 70
     1
102
RTVSPropertyOp29
 70
     1
102
RTVSPropertyOp30
 70
     1
102
RTVSPropertyOp31
 70
     1
102
RTVSPropertyOp32
 70
     1
  0
XRECORD
  5
F9
102
{ACAD_REACTORS
330
F8
102
}
330
F8
100
AcDbXrecord
280
     1
102
RTVSPropertyOp0
 70
     1
102
RTVSPropertyOp1
 70
     1
102
RTVSPropertyOp2
 70
     1
102
RTVSPropertyOp3
 70
     1
102
RTVSPropertyOp4
 70
     1
102
RTVSPropertyOp5
 70
     1
102
RTVSPropertyOp6
 70
     1
102
RTVSPropertyOp7
 70
     1
102
RTVSPropertyOp8
 70
     1
102
RTVSPropertyOp9
 70
     1
102
RTVSPropertyOp10
 70
     1
102
RTVSPropertyOp11
 70
     1
102
RTVSPropertyOp12
 70
     1
102
RTVSPropertyOp13
 70
     1
102
RTVSPropertyOp14
 70
     1
102
RTVSPropertyOp15
 70
     1
102
RTVSPropertyOp16
 70
     1
102
RTVSPropertyOp17
 70
     1
102
RTVSPropertyOp18
 70
     1
102
RTVSPropertyOp19
 70
     1
102
RTVSPropertyOp20
 70
     1
102
RTVSPropertyOp21
 70
     1
102
RTVSPropertyOp22
 70
     1
102
RTVSPropertyOp23
 70
     1
102
RTVSPropertyOp24
 70
     1
102
RTVSPropertyOp25
 70
     1
102
RTVSPropertyOp26
 70
     1
102
RTVSPropertyOp27
 70
     1
102
RTVSPropertyOp28
 70
     1
102
RTVSPropertyOp29
 70
     1
102
RTVSPropertyOp30
 70
     1
102
RTVSPropertyOp31
 70
     1
102
RTVSPropertyOp32
 70
     1
  0
XRECORD
  5
F7
102
{ACAD_REACTORS
330
F6
102
}
330
F6
100
AcDbXrecord
280
     1
102
RTVSPropertyOp0
 70
     1
102
RTVSPropertyOp1
 70
     1
102
RTVSPropertyOp2
 70
     1
102
RTVSPropertyOp3
 70
     1
102
RTVSPropertyOp4
 70
     1
102
RTVSPropertyOp5
 70
     1
102
RTVSPropertyOp6
 70
     1
102
RTVSPropertyOp7
 70
     1
102
RTVSPropertyOp8
 70
     1
102
RTVSPropertyOp9
 70
     1
102
RTVSPropertyOp10
 70
     1
102
RTVSPropertyOp11
 70
     1
102
RTVSPropertyOp12
 70
     1
102
RTVSPropertyOp13
 70
     1
102
RTVSPropertyOp14
 70
     1
102
RTVSPropertyOp15
 70
     1
102
RTVSPropertyOp16
 70
     1
102
RTVSPropertyOp17
 70
     1
102
RTVSPropertyOp18
 70
     1
102
RTVSPropertyOp19
 70
     1
102
RTVSPropertyOp20
 70
     1
102
RTVSPropertyOp21
 70
     1
102
RTVSPropertyOp22
 70
     1
102
RTVSPropertyOp23
 70
     1
102
RTVSPropertyOp24
 70
     1
102
RTVSPropertyOp25
 70
     1
102
RTVSPropertyOp26
 70
     1
102
RTVSPropertyOp27
 70
     1
102
RTVSPropertyOp28
 70
     1
102
RTVSPropertyOp29
 70
     1
102
RTVSPropertyOp30
 70
     1
102
RTVSPropertyOp31
 70
     1
102
RTVSPropertyOp32
 70
     1
  0
XRECORD
  5
FB
102
{ACAD_REACTORS
330
FA
102
}
330
FA
100
AcDbXrecord
280
     1
102
RTVSPropertyOp0
 70
     1
102
RTVSPropertyOp1
 70
     1
102
RTVSPropertyOp2
 70
     1
102
RTVSPropertyOp3
 70
     1
102
RTVSPropertyOp4
 70
     1
102
RTVSPropertyOp5
 70
     1
102
RTVSPropertyOp6
 70
     1
102
RTVSPropertyOp7
 70
     1
102
RTVSPropertyOp8
 70
     1
102
RTVSPropertyOp9
 70
     1
102
RTVSPropertyOp10
 70
     1
102
RTVSPropertyOp11
 70
     1
102
RTVSPropertyOp12
 70
     1
102
RTVSPropertyOp13
 70
     1
102
RTVSPropertyOp14
 70
     1
102
RTVSPropertyOp15
 70
     1
102
RTVSPropertyOp16
 70
     1
102
RTVSPropertyOp17
 70
     1
102
RTVSPropertyOp18
 70
     1
102
RTVSPropertyOp19
 70
     1
102
RTVSPropertyOp20
 70
     1
102
RTVSPropertyOp21
 70
     1
102
RTVSPropertyOp22
 70
     1
102
RTVSPropertyOp23
 70
     1
102
RTVSPropertyOp24
 70
     1
102
RTVSPropertyOp25
 70
     1
102
RTVSPropertyOp26
 70
     1
102
RTVSPropertyOp27
 70
     1
102
RTVSPropertyOp28
 70
     1
102
RTVSPropertyOp29
 70
     1
102
RTVSPropertyOp30
 70
     1
102
RTVSPropertyOp31
 70
     1
102
RTVSPropertyOp32
 70
     1
  0
XRECORD
  5
103
102
{ACAD_REACTORS
330
102
102
}
330
102
100
AcDbXrecord
280
     1
102
RTVSPropertyOp0
 70
     1
102
RTVSPropertyOp1
 70
     1
102
RTVSPropertyOp2
 70
     1
102
RTVSPropertyOp3
 70
     1
102
RTVSPropertyOp4
 70
     1
102
RTVSPropertyOp5
 70
     1
102
RTVSPropertyOp6
 70
     1
102
RTVSPropertyOp7
 70
     1
102
RTVSPropertyOp8
 70
     1
102
RTVSPropertyOp9
 70
     1
102
RTVSPropertyOp10
 70
     1
102
RTVSPropertyOp11
 70
     1
102
RTVSPropertyOp12
 70
     1
102
RTVSPropertyOp13
 70
     1
102
RTVSPropertyOp14
 70
     1
102
RTVSPropertyOp15
 70
     1
102
RTVSPropertyOp16
 70
     1
102
RTVSPropertyOp17
 70
     1
102
RTVSPropertyOp18
 70
     1
102
RTVSPropertyOp19
 70
     1
102
RTVSPropertyOp20
 70
     1
102
RTVSPropertyOp21
 70
     1
102
RTVSPropertyOp22
 70
     1
102
RTVSPropertyOp23
 70
     1
102
RTVSPropertyOp24
 70
     1
102
RTVSPropertyOp25
 70
     1
102
RTVSPropertyOp26
 70
     1
102
RTVSPropertyOp27
 70
     1
102
RTVSPropertyOp28
 70
     1
102
RTVSPropertyOp29
 70
     1
102
RTVSPropertyOp30
 70
     1
102
RTVSPropertyOp31
 70
     1
102
RTVSPropertyOp32
 70
     1
  0
XRECORD
  5
10B
102
{ACAD_REACTORS
330
10A
102
}
330
10A
100
AcDbXrecord
280
     1
102
RTVSPropertyOp0
 70
     1
102
RTVSPropertyOp1
 70
     1
102
RTVSPropertyOp2
 70
     1
102
RTVSPropertyOp3
 70
     1
102
RTVSPropertyOp4
 70
     1
102
RTVSPropertyOp5
 70
     1
102
RTVSPropertyOp6
 70
     1
102
RTVSPropertyOp7
 70
     1
102
RTVSPropertyOp8
 70
     1
102
RTVSPropertyOp9
 70
     1
102
RTVSPropertyOp10
 70
     1
102
RTVSPropertyOp11
 70
     1
102
RTVSPropertyOp12
 70
     1
102
RTVSPropertyOp13
 70
     1
102
RTVSPropertyOp14
 70
     1
102
RTVSPropertyOp15
 70
     1
102
RTVSPropertyOp16
 70
     1
102
RTVSPropertyOp17
 70
     1
102
RTVSPropertyOp18
 70
     1
102
RTVSPropertyOp19
 70
     1
102
RTVSPropertyOp20
 70
     1
102
RTVSPropertyOp21
 70
     1
102
RTVSPropertyOp22
 70
     1
102
RTVSPropertyOp23
 70
     1
102
RTVSPropertyOp24
 70
     1
102
RTVSPropertyOp25
 70
     1
102
RTVSPropertyOp26
 70
     1
102
RTVSPropertyOp27
 70
     1
102
RTVSPropertyOp28
 70
     1
102
RTVSPropertyOp29
 70
     1
102
RTVSPropertyOp30
 70
     1
102
RTVSPropertyOp31
 70
     1
102
RTVSPropertyOp32
 70
     1
  0
XRECORD
  5
FF
102
{ACAD_REACTORS
330
FE
102
}
330
FE
100
AcDbXrecord
280
     1
102
RTVSPropertyOp0
 70
     1
102
RTVSPropertyOp1
 70
     1
102
RTVSPropertyOp2
 70
     1
102
RTVSPropertyOp3
 70
     1
102
RTVSPropertyOp4
 70
     1
102
RTVSPropertyOp5
 70
     1
102
RTVSPropertyOp6
 70
     1
102
RTVSPropertyOp7
 70
     1
102
RTVSPropertyOp8
 70
     1
102
RTVSPropertyOp9
 70
     1
102
RTVSPropertyOp10
 70
     1
102
RTVSPropertyOp11
 70
     1
102
RTVSPropertyOp12
 70
     1
102
RTVSPropertyOp13
 70
     1
102
RTVSPropertyOp14
 70
     1
102
RTVSPropertyOp15
 70
     1
102
RTVSPropertyOp16
 70
     1
102
RTVSPropertyOp17
 70
     1
102
RTVSPropertyOp18
 70
     1
102
RTVSPropertyOp19
 70
     1
102
RTVSPropertyOp20
 70
     1
102
RTVSPropertyOp21
 70
     1
102
RTVSPropertyOp22
 70
     1
102
RTVSPropertyOp23
 70
     1
102
RTVSPropertyOp24
 70
     1
102
RTVSPropertyOp25
 70
     1
102
RTVSPropertyOp26
 70
     1
102
RTVSPropertyOp27
 70
     1
102
RTVSPropertyOp28
 70
     1
102
RTVSPropertyOp29
 70
     1
102
RTVSPropertyOp30
 70
     1
102
RTVSPropertyOp31
 70
     1
102
RTVSPropertyOp32
 70
     1
  0
XRECORD
  5
101
102
{ACAD_REACTORS
330
100
102
}
330
100
100
AcDbXrecord
280
     1
102
RTVSPropertyOp0
 70
     1
102
RTVSPropertyOp1
 70
     1
102
RTVSPropertyOp2
 70
     1
102
RTVSPropertyOp3
 70
     1
102
RTVSPropertyOp4
 70
     1
102
RTVSPropertyOp5
 70
     1
102
RTVSPropertyOp6
 70
     1
102
RTVSPropertyOp7
 70
     1
102
RTVSPropertyOp8
 70
     1
102
RTVSPropertyOp9
 70
     1
102
RTVSPropertyOp10
 70
     1
102
RTVSPropertyOp11
 70
     1
102
RTVSPropertyOp12
 70
     1
102
RTVSPropertyOp13
 70
     1
102
RTVSPropertyOp14
 70
     1
102
RTVSPropertyOp15
 70
     1
102
RTVSPropertyOp16
 70
     1
102
RTVSPropertyOp17
 70
     1
102
RTVSPropertyOp18
 70
     1
102
RTVSPropertyOp19
 70
     1
102
RTVSPropertyOp20
 70
     1
102
RTVSPropertyOp21
 70
     1
102
RTVSPropertyOp22
 70
     1
102
RTVSPropertyOp23
 70
     1
102
RTVSPropertyOp24
 70
     1
102
RTVSPropertyOp25
 70
     1
102
RTVSPropertyOp26
 70
     1
102
RTVSPropertyOp27
 70
     1
102
RTVSPropertyOp28
 70
     1
102
RTVSPropertyOp29
 70
     1
102
RTVSPropertyOp30
 70
     1
102
RTVSPropertyOp31
 70
     1
102
RTVSPropertyOp32
 70
     1
  0
XRECORD
  5
109
102
{ACAD_REACTORS
330
108
102
}
330
108
100
AcDbXrecord
280
     1
102
RTVSPropertyOp0
 70
     1
102
RTVSPropertyOp1
 70
     1
102
RTVSPropertyOp2
 70
     1
102
RTVSPropertyOp3
 70
     1
102
RTVSPropertyOp4
 70
     1
102
RTVSPropertyOp5
 70
     1
102
RTVSPropertyOp6
 70
     1
102
RTVSPropertyOp7
 70
     1
102
RTVSPropertyOp8
 70
     1
102
RTVSPropertyOp9
 70
     1
102
RTVSPropertyOp10
 70
     1
102
RTVSPropertyOp11
 70
     1
102
RTVSPropertyOp12
 70
     1
102
RTVSPropertyOp13
 70
     1
102
RTVSPropertyOp14
 70
     1
102
RTVSPropertyOp15
 70
     1
102
RTVSPropertyOp16
 70
     1
102
RTVSPropertyOp17
 70
     1
102
RTVSPropertyOp18
 70
     1
102
RTVSPropertyOp19
 70
     1
102
RTVSPropertyOp20
 70
     1
102
RTVSPropertyOp21
 70
     1
102
RTVSPropertyOp22
 70
     1
102
RTVSPropertyOp23
 70
     1
102
RTVSPropertyOp24
 70
     1
102
RTVSPropertyOp25
 70
     1
102
RTVSPropertyOp26
 70
     1
102
RTVSPropertyOp27
 70
     1
102
RTVSPropertyOp28
 70
     1
102
RTVSPropertyOp29
 70
     1
102
RTVSPropertyOp30
 70
     1
102
RTVSPropertyOp31
 70
     1
102
RTVSPropertyOp32
 70
     1
  0
XRECORD
  5
ED
102
{ACAD_REACTORS
330
EC
102
}
330
EC
100
AcDbXrecord
280
     1
102
RTVSPropertyOp0
 70
     1
102
RTVSPropertyOp1
 70
     1
102
RTVSPropertyOp2
 70
     1
102
RTVSPropertyOp3
 70
     1
102
RTVSPropertyOp4
 70
     1
102
RTVSPropertyOp5
 70
     1
102
RTVSPropertyOp6
 70
     1
102
RTVSPropertyOp7
 70
     1
102
RTVSPropertyOp8
 70
     1
102
RTVSPropertyOp9
 70
     1
102
RTVSPropertyOp10
 70
     1
102
RTVSPropertyOp11
 70
     1
102
RTVSPropertyOp12
 70
     1
102
RTVSPropertyOp13
 70
     1
102
RTVSPropertyOp14
 70
     1
102
RTVSPropertyOp15
 70
     1
102
RTVSPropertyOp16
 70
     1
102
RTVSPropertyOp17
 70
     1
102
RTVSPropertyOp18
 70
     1
102
RTVSPropertyOp19
 70
     1
102
RTVSPropertyOp20
 70
     1
102
RTVSPropertyOp21
 70
     1
102
RTVSPropertyOp22
 70
     1
102
RTVSPropertyOp23
 70
     1
102
RTVSPropertyOp24
 70
     1
102
RTVSPropertyOp25
 70
     1
102
RTVSPropertyOp26
 70
     1
102
RTVSPropertyOp27
 70
     1
102
RTVSPropertyOp28
 70
     1
102
RTVSPropertyOp29
 70
     1
102
RTVSPropertyOp30
 70
     1
102
RTVSPropertyOp31
 70
     1
102
RTVSPropertyOp32
 70
     1
  0
XRECORD
  5
EF
102
{ACAD_REACTORS
330
EE
102
}
330
EE
100
AcDbXrecord
280
     1
102
RTVSPropertyOp0
 70
     1
102
RTVSPropertyOp1
 70
     1
102
RTVSPropertyOp2
 70
     1
102
RTVSPropertyOp3
 70
     1
102
RTVSPropertyOp4
 70
     1
102
RTVSPropertyOp5
 70
     1
102
RTVSPropertyOp6
 70
     1
102
RTVSPropertyOp7
 70
     1
102
RTVSPropertyOp8
 70
     1
102
RTVSPropertyOp9
 70
     1
102
RTVSPropertyOp10
 70
     1
102
RTVSPropertyOp11
 70
     1
102
RTVSPropertyOp12
 70
     1
102
RTVSPropertyOp13
 70
     1
102
RTVSPropertyOp14
 70
     1
102
RTVSPropertyOp15
 70
     1
102
RTVSPropertyOp16
 70
     1
102
RTVSPropertyOp17
 70
     1
102
RTVSPropertyOp18
 70
     1
102
RTVSPropertyOp19
 70
     1
102
RTVSPropertyOp20
 70
     1
102
RTVSPropertyOp21
 70
     1
102
RTVSPropertyOp22
 70
     1
102
RTVSPropertyOp23
 70
     1
102
RTVSPropertyOp24
 70
     1
102
RTVSPropertyOp25
 70
     1
102
RTVSPropertyOp26
 70
     1
102
RTVSPropertyOp27
 70
     1
102
RTVSPropertyOp28
 70
     1
102
RTVSPropertyOp29
 70
     1
102
RTVSPropertyOp30
 70
     1
102
RTVSPropertyOp31
 70
     1
102
RTVSPropertyOp32
 70
     1
  0
XRECORD
  5
F1
102
{ACAD_REACTORS
330
F0
102
}
330
F0
100
AcDbXrecord
280
     1
102
RTVSPropertyOp0
 70
     1
102
RTVSPropertyOp1
 70
     1
102
RTVSPropertyOp2
 70
     1
102
RTVSPropertyOp3
 70
     1
102
RTVSPropertyOp4
 70
     1
102
RTVSPropertyOp5
 70
     1
102
RTVSPropertyOp6
 70
     1
102
RTVSPropertyOp7
 70
     1
102
RTVSPropertyOp8
 70
     1
102
RTVSPropertyOp9
 70
     1
102
RTVSPropertyOp10
 70
     1
102
RTVSPropertyOp11
 70
     1
102
RTVSPropertyOp12
 70
     1
102
RTVSPropertyOp13
 70
     1
102
RTVSPropertyOp14
 70
     1
102
RTVSPropertyOp15
 70
     1
102
RTVSPropertyOp16
 70
     1
102
RTVSPropertyOp17
 70
     1
102
RTVSPropertyOp18
 70
     1
102
RTVSPropertyOp19
 70
     1
102
RTVSPropertyOp20
 70
     1
102
RTVSPropertyOp21
 70
     1
102
RTVSPropertyOp22
 70
     1
102
RTVSPropertyOp23
 70
     1
102
RTVSPropertyOp24
 70
     1
102
RTVSPropertyOp25
 70
     1
102
RTVSPropertyOp26
 70
     1
102
RTVSPropertyOp27
 70
     1
102
RTVSPropertyOp28
 70
     1
102
RTVSPropertyOp29
 70
     1
102
RTVSPropertyOp30
 70
     1
102
RTVSPropertyOp31
 70
     1
102
RTVSPropertyOp32
 70
     1
  0
XRECORD
  5
F3
102
{ACAD_REACTORS
330
F2
102
}
330
F2
100
AcDbXrecord
280
     1
102
RTVSPropertyOp0
 70
     1
102
RTVSPropertyOp1
 70
     1
102
RTVSPropertyOp2
 70
     1
102
RTVSPropertyOp3
 70
     1
102
RTVSPropertyOp4
 70
     1
102
RTVSPropertyOp5
 70
     1
102
RTVSPropertyOp6
 70
     1
102
RTVSPropertyOp7
 70
     1
102
RTVSPropertyOp8
 70
     1
102
RTVSPropertyOp9
 70
     1
102
RTVSPropertyOp10
 70
     1
102
RTVSPropertyOp11
 70
     1
102
RTVSPropertyOp12
 70
     1
102
RTVSPropertyOp13
 70
     1
102
RTVSPropertyOp14
 70
     1
102
RTVSPropertyOp15
 70
     1
102
RTVSPropertyOp16
 70
     1
102
RTVSPropertyOp17
 70
     1
102
RTVSPropertyOp18
 70
     1
102
RTVSPropertyOp19
 70
     1
102
RTVSPropertyOp20
 70
     1
102
RTVSPropertyOp21
 70
     1
102
RTVSPropertyOp22
 70
     1
102
RTVSPropertyOp23
 70
     1
102
RTVSPropertyOp24
 70
     1
102
RTVSPropertyOp25
 70
     1
102
RTVSPropertyOp26
 70
     1
102
RTVSPropertyOp27
 70
     1
102
RTVSPropertyOp28
 70
     1
102
RTVSPropertyOp29
 70
     1
102
RTVSPropertyOp30
 70
     1
102
RTVSPropertyOp31
 70
     1
102
RTVSPropertyOp32
 70
     1
  0
XRECORD
  5
107
102
{ACAD_REACTORS
330
106
102
}
330
106
100
AcDbXrecord
280
     1
102
RTVSPropertyOp0
 70
     1
102
RTVSPropertyOp1
 70
     1
102
RTVSPropertyOp2
 70
     1
102
RTVSPropertyOp3
 70
     1
102
RTVSPropertyOp4
 70
     1
102
RTVSPropertyOp5
 70
     1
102
RTVSPropertyOp6
 70
     1
102
RTVSPropertyOp7
 70
     1
102
RTVSPropertyOp8
 70
     1
102
RTVSPropertyOp9
 70
     1
102
RTVSPropertyOp10
 70
     1
102
RTVSPropertyOp11
 70
     1
102
RTVSPropertyOp12
 70
     1
102
RTVSPropertyOp13
 70
     1
102
RTVSPropertyOp14
 70
     1
102
RTVSPropertyOp15
 70
     1
102
RTVSPropertyOp16
 70
     1
102
RTVSPropertyOp17
 70
     1
102
RTVSPropertyOp18
 70
     1
102
RTVSPropertyOp19
 70
     1
102
RTVSPropertyOp20
 70
     1
102
RTVSPropertyOp21
 70
     1
102
RTVSPropertyOp22
 70
     1
102
RTVSPropertyOp23
 70
     1
102
RTVSPropertyOp24
 70
     1
102
RTVSPropertyOp25
 70
     1
102
RTVSPropertyOp26
 70
     1
102
RTVSPropertyOp27
 70
     1
102
RTVSPropertyOp28
 70
     1
102
RTVSPropertyOp29
 70
     1
102
RTVSPropertyOp30
 70
     1
102
RTVSPropertyOp31
 70
     1
102
RTVSPropertyOp32
 70
     1
  0
XRECORD
  5
FD
102
{ACAD_REACTORS
330
FC
102
}
330
FC
100
AcDbXrecord
280
     1
102
RTVSPropertyOp0
 70
     1
102
RTVSPropertyOp1
 70
     1
102
RTVSPropertyOp2
 70
     1
102
RTVSPropertyOp3
 70
     1
102
RTVSPropertyOp4
 70
     1
102
RTVSPropertyOp5
 70
     1
102
RTVSPropertyOp6
 70
     1
102
RTVSPropertyOp7
 70
     1
102
RTVSPropertyOp8
 70
     1
102
RTVSPropertyOp9
 70
     1
102
RTVSPropertyOp10
 70
     1
102
RTVSPropertyOp11
 70
     1
102
RTVSPropertyOp12
 70
     1
102
RTVSPropertyOp13
 70
     1
102
RTVSPropertyOp14
 70
     1
102
RTVSPropertyOp15
 70
     1
102
RTVSPropertyOp16
 70
     1
102
RTVSPropertyOp17
 70
     1
102
RTVSPropertyOp18
 70
     1
102
RTVSPropertyOp19
 70
     1
102
RTVSPropertyOp20
 70
     1
102
RTVSPropertyOp21
 70
     1
102
RTVSPropertyOp22
 70
     1
102
RTVSPropertyOp23
 70
     1
102
RTVSPropertyOp24
 70
     1
102
RTVSPropertyOp25
 70
     1
102
RTVSPropertyOp26
 70
     1
102
RTVSPropertyOp27
 70
     1
102
RTVSPropertyOp28
 70
     1
102
RTVSPropertyOp29
 70
     1
102
RTVSPropertyOp30
 70
     1
102
RTVSPropertyOp31
 70
     1
102
RTVSPropertyOp32
 70
     1
  0
XRECORD
  5
105
102
{ACAD_REACTORS
330
104
102
}
330
104
100
AcDbXrecord
280
     1
102
RTVSPropertyOp0
 70
     1
102
RTVSPropertyOp1
 70
     1
102
RTVSPropertyOp2
 70
     1
102
RTVSPropertyOp3
 70
     1
102
RTVSPropertyOp4
 70
     1
102
RTVSPropertyOp5
 70
     1
102
RTVSPropertyOp6
 70
     1
102
RTVSPropertyOp7
 70
     1
102
RTVSPropertyOp8
 70
     1
102
RTVSPropertyOp9
 70
     1
102
RTVSPropertyOp10
 70
     1
102
RTVSPropertyOp11
 70
     1
102
RTVSPropertyOp12
 70
     1
102
RTVSPropertyOp13
 70
     1
102
RTVSPropertyOp14
 70
     1
102
RTVSPropertyOp15
 70
     1
102
RTVSPropertyOp16
 70
     1
102
RTVSPropertyOp17
 70
     1
102
RTVSPropertyOp18
 70
     1
102
RTVSPropertyOp19
 70
     1
102
RTVSPropertyOp20
 70
     1
102
RTVSPropertyOp21
 70
     1
102
RTVSPropertyOp22
 70
     1
102
RTVSPropertyOp23
 70
     1
102
RTVSPropertyOp24
 70
     1
102
RTVSPropertyOp25
 70
     1
102
RTVSPropertyOp26
 70
     1
102
RTVSPropertyOp27
 70
     1
102
RTVSPropertyOp28
 70
     1
102
RTVSPropertyOp29
 70
     1
102
RTVSPropertyOp30
 70
     1
102
RTVSPropertyOp31
 70
     1
102
RTVSPropertyOp32
 70
     1
  0
ENDSEC
  0
EOF
