  0
SECTION
  2
HEADER
  9
$ACADVER
  1
AC1021
  9
$ACADMAINTVER
 70
    25
  9
$DWGCODEPAGE
  3
ANSI_1252
  9
$INSBASE
 10
0.0
 20
0.0
 30
0.0
  9
$EXTMIN
 10
-8.25437
 20
-8.01197
 30
0.0
  9
$EXTMAX
 10
9.07368
 20
8.87178
 30
0.0
  9
$LIMMIN
 10
0.0
 20
0.0
  9
$LIMMAX
 10
12.0
 20
9.0
  9
$ORTHOMODE
 70
     0
  9
$REGENMODE
 70
     1
  9
$FILLMODE
 70
     1
  9
$QTEXTMODE
 70
     0
  9
$MIRRTEXT
 70
     1
  9
$LTSCALE
 40
1.0
  9
$ATTMODE
 70
     1
  9
$TEXTSIZE
 40
0.2
  9
$TRACEWID
 40
0.05
  9
$TEXTSTYLE
  7
Standard
  9
$CLAYER
  8
0
  9
$CELTYPE
  6
ByLayer
  9
$CECOLOR
 62
   256
  9
$CELTSCALE
 40
1.0
  9
$DISPSILH
 70
     0
  9
$DIMSCALE
 40
1.0
  9
$DIMASZ
 40
0.18
  9
$DIMEXO
 40
0.0625
  9
$DIMDLI
 40
0.38
  9
$DIMRND
 40
0.0
  9
$DIMDLE
 40
0.0
  9
$DIMEXE
 40
0.18
  9
$DIMTP
 40
0.0
  9
$DIMTM
 40
0.0
  9
$DIMTXT
 40
0.18
  9
$DIMCEN
 40
0.09
  9
$DIMTSZ
 40
0.0
  9
$DIMTOL
 70
     0
  9
$DIMLIM
 70
     0
  9
$DIMTIH
 70
     1
  9
$DIMTOH
 70
     1
  9
$DIMSE1
 70
     0
  9
$DIMSE2
 70
     0
  9
$DIMTAD
 70
     0
  9
$DIMZIN
 70
     0
  9
$DIMBLK
  1

  9
$DIMASO
 70
     1
  9
$DIMSHO
 70
     1
  9
$DIMPOST
  1

  9
$DIMAPOST
  1

  9
$DIMALT
 70
     0
  9
$DIMALTD
 70
     2
  9
$DIMALTF
 40
25.4
  9
$DIMLFAC
 40
1.0
  9
$DIMTOFL
 70
     0
  9
$DIMTVP
 40
0.0
  9
$DIMTIX
 70
     0
  9
$DIMSOXD
 70
     0
  9
$DIMSAH
 70
     0
  9
$DIMBLK1
  1

  9
$DIMBLK2
  1

  9
$DIMSTYLE
  2
Standard
  9
$DIMCLRD
 70
     0
  9
$DIMCLRE
 70
     0
  9
$DIMCLRT
 70
     0
  9
$DIMTFAC
 40
1.0
  9
$DIMGAP
 40
0.09
  9
$DIMJUST
 70
     0
  9
$DIMSD1
 70
     0
  9
$DIMSD2
 70
     0
  9
$DIMTOLJ
 70
     1
  9
$DIMTZIN
 70
     0
  9
$DIMALTZ
 70
     0
  9
$DIMALTTZ
 70
     0
  9
$DIMUPT
 70
     0
  9
$DIMDEC
 70
     4
  9
$DIMTDEC
 70
     4
  9
$DIMALTU
 70
     2
  9
$DIMALTTD
 70
     2
  9
$DIMTXSTY
  7
Standard
  9
$DIMAUNIT
 70
     0
  9
$DIMADEC
 70
     0
  9
$DIMALTRND
 40
0.0
  9
$DIMAZIN
 70
     0
  9
$DIMDSEP
 70
    46
  9
$DIMATFIT
 70
     3
  9
$DIMFRAC
 70
     0
  9
$DIMLDRBLK
  1

  9
$DIMLUNIT
 70
     2
  9
$DIMLWD
 70
    -2
  9
$DIMLWE
 70
    -2
  9
$DIMTMOVE
 70
     0
  9
$DIMFXL
 40
1.0
  9
$DIMFXLON
 70
     0
  9
$DIMJOGANG
 40
0.7853981633974483
  9
$DIMTFILL
 70
     0
  9
$DIMTFILLCLR
 70
     0
  9
$DIMARCSYM
 70
     0
  9
$DIMLTYPE
  6

  9
$DIMLTEX1
  6

  9
$DIMLTEX2
  6

  9
$LUNITS
 70
     2
  9
$LUPREC
 70
     4
  9
$SKETCHINC
 40
0.1
  9
$FILLETRAD
 40
0.5
  9
$AUNITS
 70
     0
  9
$AUPREC
 70
     0
  9
$MENU
  1
.
  9
$ELEVATION
 40
0.0
  9
$PELEVATION
 40
0.0
  9
$THICKNESS
 40
0.0
  9
$LIMCHECK
 70
     0
  9
$CHAMFERA
 40
0.5
  9
$CHAMFERB
 40
0.5
  9
$CHAMFERC
 40
1.0
  9
$CHAMFERD
 40
0.0
  9
$SKPOLY
 70
     0
  9
$TDCREATE
 40
2456231.933460104
  9
$TDUCREATE
 40
2456232.100126771
  9
$TDUPDATE
 40
2456231.933460683
  9
$TDUUPDATE
 40
2456232.10012735
  9
$TDINDWG
 40
0.0000000116
  9
$TDUSRTIMER
 40
0.0000000116
  9
$USRTIMER
 70
     1
  9
$ANGBASE
 50
0.0
  9
$ANGDIR
 70
     0
  9
$PDMODE
 70
     0
  9
$PDSIZE
 40
0.0
  9
$PLINEWID
 40
0.0
  9
$SPLFRAME
 70
     0
  9
$SPLINETYPE
 70
     6
  9
$SPLINESEGS
 70
     8
  9
$HANDSEED
  5
12D
  9
$SURFTAB1
 70
     6
  9
$SURFTAB2
 70
     6
  9
$SURFTYPE
 70
     6
  9
$SURFU
 70
     6
  9
$SURFV
 70
     6
  9
$UCSBASE
  2

  9
$UCSNAME
  2

  9
$UCSORG
 10
0.0
 20
0.0
 30
0.0
  9
$UCSXDIR
 10
1.0
 20
0.0
 30
0.0
  9
$UCSYDIR
 10
0.0
 20
1.0
 30
0.0
  9
$UCSORTHOREF
  2

  9
$UCSORTHOVIEW
 70
     0
  9
$UCSORGTOP
 10
0.0
 20
0.0
 30
0.0
  9
$UCSORGBOTTOM
 10
0.0
 20
0.0
 30
0.0
  9
$UCSORGLEFT
 10
0.0
 20
0.0
 30
0.0
  9
$UCSORGRIGHT
 10
0.0
 20
0.0
 30
0.0
  9
$UCSORGFRONT
 10
0.0
 20
0.0
 30
0.0
  9
$UCSORGBACK
 10
0.0
 20
0.0
 30
0.0
  9
$PUCSBASE
  2

  9
$PUCSNAME
  2

  9
$PUCSORG
 10
0.0
 20
0.0
 30
0.0
  9
$PUCSXDIR
 10
1.0
 20
0.0
 30
0.0
  9
$PUCSYDIR
 10
0.0
 20
1.0
 30
0.0
  9
$PUCSORTHOREF
  2

  9
$PUCSORTHOVIEW
 70
     0
  9
$PUCSORGTOP
 10
0.0
 20
0.0
 30
0.0
  9
$PUCSORGBOTTOM
 10
0.0
 20
0.0
 30
0.0
  9
$PUCSORGLEFT
 10
0.0
 20
0.0
 30
0.0
  9
$PUCSORGRIGHT
 10
0.0
 20
0.0
 30
0.0
  9
$PUCSORGFRONT
 10
0.0
 20
0.0
 30
0.0
  9
$PUCSORGBACK
 10
0.0
 20
0.0
 30
0.0
  9
$USERI1
 70
     0
  9
$USERI2
 70
     0
  9
$USERI3
 70
     0
  9
$USERI4
 70
     0
  9
$USERI5
 70
     0
  9
$USERR1
 40
0.0
  9
$USERR2
 40
0.0
  9
$USERR3
 40
0.0
  9
$USERR4
 40
0.0
  9
$USERR5
 40
0.0
  9
$WORLDVIEW
 70
     1
  9
$SHADEDGE
 70
     3
  9
$SHADEDIF
 70
    70
  9
$TILEMODE
 70
     1
  9
$MAXACTVP
 70
    64
  9
$PINSBASE
 10
0.0
 20
0.0
 30
0.0
  9
$PLIMCHECK
 70
     0
  9
$PEXTMIN
 10
1.000000000000000E+20
 20
1.000000000000000E+20
 30
1.000000000000000E+20
  9
$PEXTMAX
 10
-1.000000000000000E+20
 20
-1.000000000000000E+20
 30
-1.000000000000000E+20
  9
$PLIMMIN
 10
0.0
 20
0.0
  9
$PLIMMAX
 10
12.0
 20
9.0
  9
$UNITMODE
 70
     0
  9
$VISRETAIN
 70
     1
  9
$PLINEGEN
 70
     0
  9
$PSLTSCALE
 70
     1
  9
$TREEDEPTH
 70
  3020
  9
$CMLSTYLE
  2
Standard
  9
$CMLJUST
 70
     0
  9
$CMLSCALE
 40
1.0
  9
$PROXYGRAPHICS
 70
     1
  9
$MEASUREMENT
 70
     0
  9
$CELWEIGHT
370
    -1
  9
$ENDCAPS
280
     0
  9
$JOINSTYLE
280
     0
  9
$LWDISPLAY
290
     0
  9
$INSUNITS
 70
     5
  9
$HYPERLINKBASE
  1

  9
$STYLESHEET
  1

  9
$XEDIT
290
     1
  9
$CEPSNTYPE
380
     0
  9
$PSTYLEMODE
290
     1
  9
$FINGERPRINTGUID
  2
{6CD4265B-ABE8-42EC-8D0E-6EB461DC30E2}
  9
$VERSIONGUID
  2
{FAEB1C32-E019-11D5-929B-00C0DF256EC4}
  9
$EXTNAMES
290
     1
  9
$PSVPSCALE
 40
0.0
  9
$OLESTARTUP
290
     0
  9
$SORTENTS
280
   127
  9
$INDEXCTL
280
     0
  9
$HIDETEXT
280
     1
  9
$XCLIPFRAME
290
     0
  9
$HALOGAP
280
     0
  9
$OBSCOLOR
 70
   257
  9
$OBSLTYPE
280
     0
  9
$INTERSECTIONDISPLAY
280
     0
  9
$INTERSECTIONCOLOR
 70
   257
  9
$DIMASSOC
280
     2
  9
$PROJECTNAME
  1

  9
$CAMERADISPLAY
290
     0
  9
$LENSLENGTH
 40
50.0
  9
$CAMERAHEIGHT
 40
0.0
  9
$STEPSPERSEC
 40
2.0
  9
$STEPSIZE
 40
6.0
  9
$3DDWFPREC
 40
2.0
  9
$PSOLWIDTH
 40
0.25
  9
$PSOLHEIGHT
 40
4.0
  9
$LOFTANG1
 40
1.570796326794897
  9
$LOFTANG2
 40
1.570796326794897
  9
$LOFTMAG1
 40
0.0
  9
$LOFTMAG2
 40
0.0
  9
$LOFTPARAM
 70
     7
  9
$LOFTNORMALS
280
     1
  9
$LATITUDE
 40
37.795
  9
$LONGITUDE
 40
-122.394
  9
$NORTHDIRECTION
 40
0.0
  9
$TIMEZONE
 70
 -8000
  9
$LIGHTGLYPHDISPLAY
280
     1
  9
$TILEMODELIGHTSYNCH
280
     1
  9
$SOLIDHIST
280
     1
  9
$SHOWHIST
280
     1
  9
$DWFFRAME
280
     2
  9
$DGNFRAME
280
     2
  9
$REALWORLDSCALE
290
     1
  9
$INTERFERECOLOR
 62
   256
  9
$CSHADOW
280
     0
  9
$SHADOWPLANELOCATION
 40
0.0
  0
ENDSEC
  0
SECTION
  2
CLASSES
  0
CLASS
  1
ACDBDICTIONARYWDFLT
  2
AcDbDictionaryWithDefault
  3
ObjectDBX Classes
 90
        0
 91
        4
280
     0
281
     0
  0
CLASS
  1
VISUALSTYLE
  2
AcDbVisualStyle
  3
ObjectDBX Classes
 90
     4095
 91
        4
280
     0
281
     0
  0
CLASS
  1
MATERIAL
  2
AcDbMaterial
  3
ObjectDBX Classes
 90
     1153
 91
        4
280
     0
281
     0
  0
ENDSEC
  0
SECTION
  2
TABLES
  0
TABLE
  2
VPORT
  5
8
330
0
100
AcDbSymbolTable
 70
     1
  0
VPORT
  5
29
330
8
100
AcDbSymbolTableRecord
100
AcDbViewportTableRecord
  2
*Active
 70
     0
 10
0.0
 20
0.0
 11
1.0
 21
1.0
 12
10.42990654205607
 22
4.5
 13
0.0
 23
0.0
 14
0.5
 24
0.5
 15
0.5
 25
0.5
 16
0.0
 26
0.0
 36
1.0
 17
0.0
 27
0.0
 37
0.0
 40
9.0
 41
1.972972972850329
 42
50.0
 43
0.0
 44
0.0
 50
0.0
 51
0.0
 71
     0
 72
   100
 73
     1
 74
     3
 75
     0
 76
     0
 77
     0
 78
     0
281
     0
 65
     1
110
0.0
120
0.0
130
0.0
111
1.0
121
0.0
131
0.0
112
0.0
122
1.0
132
0.0
 79
     0
146
0.0
 60
     3
 61
     5
292
     1
282
     1
141
0.0
142
0.0
 63
   250
  0
ENDTAB
  0
TABLE
  2
LTYPE
  5
5
330
0
100
AcDbSymbolTable
 70
     1
  0
LTYPE
  5
14
330
5
100
AcDbSymbolTableRecord
100
AcDbLinetypeTableRecord
  2
ByBlock
 70
     0
  3

 72
    65
 73
     0
 40
0.0
  0
LTYPE
  5
15
330
5
100
AcDbSymbolTableRecord
100
AcDbLinetypeTableRecord
  2
ByLayer
 70
     0
  3

 72
    65
 73
     0
 40
0.0
  0
LTYPE
  5
16
330
5
100
AcDbSymbolTableRecord
100
AcDbLinetypeTableRecord
  2
Continuous
 70
     0
  3
Solid line
 72
    65
 73
     0
 40
0.0
  0
ENDTAB
  0
TABLE
  2
LAYER
  5
2
330
0
100
AcDbSymbolTable
 70
     3
  0
LAYER
  5
10
330
2
100
AcDbSymbolTableRecord
100
AcDbLayerTableRecord
  2
0
 70
     0
 62
     7
  6
Continuous
370
    -3
390
F
347
3E
  0
LAYER
  5
40
330
2
100
AcDbSymbolTableRecord
100
AcDbLayerTableRecord
  2
Layer 1
 70
     0
 62
     7
  6
Continuous
370
    -3
390
F
347
3E
  0
LAYER
  5
6B
330
2
100
AcDbSymbolTableRecord
100
AcDbLayerTableRecord
  2
layer 2
 70
     0
 62
     7
  6
Continuous
370
    -3
390
F
347
3E
  0
ENDTAB
  0
TABLE
  2
STYLE
  5
3
330
0
100
AcDbSymbolTable
 70
     1
  0
STYLE
  5
11
330
3
100
AcDbSymbolTableRecord
100
AcDbTextStyleTableRecord
  2
Standard
 70
     0
 40
0.0
 41
1.0
 50
0.0
 71
     0
 42
0.2
  3
txt
  4

  0
ENDTAB
  0
TABLE
  2
VIEW
  5
6
330
0
100
AcDbSymbolTable
 70
     0
  0
ENDTAB
  0
TABLE
  2
UCS
  5
7
330
0
100
AcDbSymbolTable
 70
     0
  0
ENDTAB
  0
TABLE
  2
APPID
  5
9
330
0
100
AcDbSymbolTable
 70
     2
  0
APPID
  5
12
330
9
100
AcDbSymbolTableRecord
100
AcDbRegAppTableRecord
  2
ACAD
 70
     0
  0
APPID
  5
3F
330
9
100
AcDbSymbolTableRecord
100
AcDbRegAppTableRecord
  2
ODA
 70
     0
  0
ENDTAB
  0
TABLE
  2
DIMSTYLE
  5
A
330
0
100
AcDbSymbolTable
 70
     1
100
AcDbDimStyleTable
  0
DIMSTYLE
105
27
330
A
100
AcDbSymbolTableRecord
100
AcDbDimStyleTableRecord
  2
Standard
 70
     0
178
     0
340
11
  0
ENDTAB
  0
TABLE
  2
BLOCK_RECORD
  5
1
330
0
100
AcDbSymbolTable
 70
     1
  0
BLOCK_RECORD
  5
1F
330
1
100
AcDbSymbolTableRecord
100
AcDbBlockTableRecord
  2
*Model_Space
340
22
 70
     0
280
     1
281
     0
  0
BLOCK_RECORD
  5
1B
330
1
100
AcDbSymbolTableRecord
100
AcDbBlockTableRecord
  2
*Paper_Space
340
1E
 70
     0
280
     1
281
     0
  0
BLOCK_RECORD
  5
23
330
1
100
AcDbSymbolTableRecord
100
AcDbBlockTableRecord
  2
*Paper_Space0
340
26
 70
     0
280
     1
281
     0
  0
ENDTAB
  0
ENDSEC
  0
SECTION
  2
BLOCKS
  0
BLOCK
  5
20
330
1F
100
AcDbEntity
  8
0
100
AcDbBlockBegin
  2
*Model_Space
 70
     0
 10
0.0
 20
0.0
 30
0.0
  3
*Model_Space
  1

  0
ENDBLK
  5
21
330
1F
100
AcDbEntity
  8
0
100
AcDbBlockEnd
  0
BLOCK
  5
1C
330
1B
100
AcDbEntity
 67
     1
  8
0
100
AcDbBlockBegin
  2
*Paper_Space
 70
     0
 10
0.0
 20
0.0
 30
0.0
  3
*Paper_Space
  1

  0
ENDBLK
  5
1D
330
1B
100
AcDbEntity
 67
     1
  8
0
100
AcDbBlockEnd
  0
BLOCK
  5
24
330
23
100
AcDbEntity
  8
0
100
AcDbBlockBegin
  2
*Paper_Space0
 70
     0
 10
0.0
 20
0.0
 30
0.0
  3
*Paper_Space0
  1

  0
ENDBLK
  5
25
330
23
100
AcDbEntity
  8
0
100
AcDbBlockEnd
  0
ENDSEC
  0
SECTION
  2
ENTITIES
  0
SPLINE
  5
41
330
1F
100
AcDbEntity
  8
Layer 1
 62
   250
100
AcDbSpline
210
0.0
220
0.0
230
1.0
 70
    11
 71
     3
 72
    36
 73
    32
 74
     0
 42
0.0000000001
 43
0.0000000001
 12
1.0
 22
0.0
 32
0.0
 13
1.0
 23
0.0
 33
0.0
 40
0.0
 40
0.0
 40
0.0
 40
0.0
 40
0.1111111111111111
 40
0.1111111111111111
 40
0.1111111111111111
 40
0.1111111111111111
 40
0.2222222222222222
 40
0.2222222222222222
 40
0.2222222222222222
 40
0.2222222222222222
 40
0.3333333333333333
 40
0.3333333333333333
 40
0.3333333333333333
 40
0.3333333333333333
 40
0.4444444444444444
 40
0.4444444444444444
 40
0.4444444444444444
 40
0.4444444444444444
 40
0.5555555555555556
 40
0.5555555555555556
 40
0.5555555555555556
 40
0.5555555555555556
 40
0.6666666666666666
 40
0.6666666666666666
 40
0.6666666666666666
 40
0.6666666666666666
 40
0.7777777777777778
 40
0.7777777777777778
 40
0.7777777777777778
 40
0.7777777777777778
 40
1.0
 40
1.0
 40
1.0
 40
1.0
 10
-2.89587
 20
-7.84348
 30
0.0
 10
-2.89587
 20
-7.84348
 30
0.0
 10
-2.89587
 20
-7.30838
 30
0.0
 10
-2.89587
 20
-7.30838
 30
0.0
 10
-2.89587
 20
-7.30838
 30
0.0
 10
-2.89587
 20
-7.30838
 30
0.0
 10
-3.09569
 20
-7.30838
 30
0.0
 10
-3.09569
 20
-7.30838
 30
0.0
 10
-3.09569
 20
-7.30838
 30
0.0
 10
-3.09569
 20
-7.30838
 30
0.0
 10
-3.09569
 20
-7.23726
 30
0.0
 10
-3.09569
 20
-7.23726
 30
0.0
 10
-3.09569
 20
-7.23726
 30
0.0
 10
-3.09569
 20
-7.23726
 30
0.0
 10
-2.61562
 20
-7.23726
 30
0.0
 10
-2.61562
 20
-7.23726
 30
0.0
 10
-2.61562
 20
-7.23726
 30
0.0
 10
-2.61562
 20
-7.23726
 30
0.0
 10
-2.61562
 20
-7.30838
 30
0.0
 10
-2.61562
 20
-7.30838
 30
0.0
 10
-2.61562
 20
-7.30838
 30
0.0
 10
-2.61562
 20
-7.30838
 30
0.0
 10
-2.81544
 20
-7.30838
 30
0.0
 10
-2.81544
 20
-7.30838
 30
0.0
 10
-2.81544
 20
-7.30838
 30
0.0
 10
-2.81544
 20
-7.30838
 30
0.0
 10
-2.81544
 20
-7.84348
 30
0.0
 10
-2.81544
 20
-7.84348
 30
0.0
 10
-2.81544
 20
-7.84348
 30
0.0
 10
-2.81544
 20
-7.84348
 30
0.0
 10
-2.89587
 20
-7.84348
 30
0.0
 10
-2.89587
 20
-7.84348
 30
0.0
  0
SPLINE
  5
42
330
1F
100
AcDbEntity
  8
Layer 1
 62
   250
100
AcDbSpline
210
0.0
220
0.0
230
1.0
 70
    11
 71
     3
 72
    92
 73
    88
 74
     0
 42
0.0000000001
 43
0.0000000001
 12
1.0
 22
0.0
 32
0.0
 13
1.0
 23
0.0
 33
0.0
 40
0.0
 40
0.0
 40
0.0
 40
0.0
 40
0.0434782608695652
 40
0.0434782608695652
 40
0.0434782608695652
 40
0.0434782608695652
 40
0.0869565217391304
 40
0.0869565217391304
 40
0.0869565217391304
 40
0.0869565217391304
 40
0.1304347826086956
 40
0.1304347826086956
 40
0.1304347826086956
 40
0.1304347826086956
 40
0.1739130434782609
 40
0.1739130434782609
 40
0.1739130434782609
 40
0.1739130434782609
 40
0.2173913043478261
 40
0.2173913043478261
 40
0.2173913043478261
 40
0.2173913043478261
 40
0.2608695652173913
 40
0.2608695652173913
 40
0.2608695652173913
 40
0.2608695652173913
 40
0.3043478260869565
 40
0.3043478260869565
 40
0.3043478260869565
 40
0.3043478260869565
 40
0.3478260869565217
 40
0.3478260869565217
 40
0.3478260869565217
 40
0.3478260869565217
 40
0.391304347826087
 40
0.391304347826087
 40
0.391304347826087
 40
0.391304347826087
 40
0.4347826086956522
 40
0.4347826086956522
 40
0.4347826086956522
 40
0.4347826086956522
 40
0.4782608695652174
 40
0.4782608695652174
 40
0.4782608695652174
 40
0.4782608695652174
 40
0.5217391304347826
 40
0.5217391304347826
 40
0.5217391304347826
 40
0.5217391304347826
 40
0.5652173913043478
 40
0.5652173913043478
 40
0.5652173913043478
 40
0.5652173913043478
 40
0.6086956521739131
 40
0.6086956521739131
 40
0.6086956521739131
 40
0.6086956521739131
 40
0.6521739130434783
 40
0.6521739130434783
 40
0.6521739130434783
 40
0.6521739130434783
 40
0.6956521739130435
 40
0.6956521739130435
 40
0.6956521739130435
 40
0.6956521739130435
 40
0.7391304347826086
 40
0.7391304347826086
 40
0.7391304347826086
 40
0.7391304347826086
 40
0.782608695652174
 40
0.782608695652174
 40
0.782608695652174
 40
0.782608695652174
 40
0.8260869565217391
 40
0.8260869565217391
 40
0.8260869565217391
 40
0.8260869565217391
 40
0.8695652173913043
 40
0.8695652173913043
 40
0.8695652173913043
 40
0.8695652173913043
 40
0.9130434782608695
 40
0.9130434782608695
 40
0.9130434782608695
 40
0.9130434782608695
 40
1.0
 40
1.0
 40
1.0
 40
1.0
 10
-2.17211
 20
-7.77236
 30
0.0
 10
-2.17211
 20
-7.77236
 30
0.0
 10
-2.17211
 20
-7.84348
 30
0.0
 10
-2.17211
 20
-7.84348
 30
0.0
 10
-2.17211
 20
-7.84348
 30
0.0
 10
-2.17211
 20
-7.84348
 30
0.0
 10
-2.57344
 20
-7.84348
 30
0.0
 10
-2.57344
 20
-7.84348
 30
0.0
 10
-2.57344
 20
-7.84348
 30
0.0
 10
-2.574
 20
-7.82556
 30
0.0
 10
-2.57104
 20
-7.80834
 30
0.0
 10
-2.56469
 20
-7.79169
 30
0.0
 10
-2.56469
 20
-7.79169
 30
0.0
 10
-2.55439
 20
-7.76446
 30
0.0
 10
-2.53788
 20
-7.73751
 30
0.0
 10
-2.51516
 20
-7.71112
 30
0.0
 10
-2.51516
 20
-7.71112
 30
0.0
 10
-2.49244
 20
-7.68473
 30
0.0
 10
-2.45998
 20
-7.65425
 30
0.0
 10
-2.41779
 20
-7.61968
 30
0.0
 10
-2.41779
 20
-7.61968
 30
0.0
 10
-2.35217
 20
-7.56563
 30
0.0
 10
-2.30758
 20
-7.52287
 30
0.0
 10
-2.2843
 20
-7.49127
 30
0.0
 10
-2.2843
 20
-7.49127
 30
0.0
 10
-2.26087
 20
-7.45966
 30
0.0
 10
-2.24916
 20
-7.42974
 30
0.0
 10
-2.24916
 20
-7.40152
 30
0.0
 10
-2.24916
 20
-7.40152
 30
0.0
 10
-2.24916
 20
-7.37203
 30
0.0
 10
-2.25975
 20
-7.34719
 30
0.0
 10
-2.28091
 20
-7.32687
 30
0.0
 10
-2.28091
 20
-7.32687
 30
0.0
 10
-2.30208
 20
-7.30669
 30
0.0
 10
-2.32974
 20
-7.29653
 30
0.0
 10
-2.36374
 20
-7.29653
 30
0.0
 10
-2.36374
 20
-7.29653
 30
0.0
 10
-2.39973
 20
-7.29653
 30
0.0
 10
-2.42851
 20
-7.30726
 30
0.0
 10
-2.4501
 20
-7.3287
 30
0.0
 10
-2.4501
 20
-7.3287
 30
0.0
 10
-2.4717
 20
-7.35001
 30
0.0
 10
-2.48256
 20
-7.37965
 30
0.0
 10
-2.48284
 20
-7.4176
 30
0.0
 10
-2.48284
 20
-7.4176
 30
0.0
 10
-2.48284
 20
-7.4176
 30
0.0
 10
-2.55904
 20
-7.40998
 30
0.0
 10
-2.55904
 20
-7.40998
 30
0.0
 10
-2.55904
 20
-7.40998
 30
0.0
 10
-2.55382
 20
-7.35298
 30
0.0
 10
-2.53407
 20
-7.30951
 30
0.0
 10
-2.49992
 20
-7.2796
 30
0.0
 10
-2.49992
 20
-7.2796
 30
0.0
 10
-2.46563
 20
-7.24968
 30
0.0
 10
-2.41977
 20
-7.23472
 30
0.0
 10
-2.36205
 20
-7.23472
 30
0.0
 10
-2.36205
 20
-7.23472
 30
0.0
 10
-2.30391
 20
-7.23472
 30
0.0
 10
-2.25777
 20
-7.25081
 30
0.0
 10
-2.2239
 20
-7.28313
 30
0.0
 10
-2.2239
 20
-7.28313
 30
0.0
 10
-2.1899
 20
-7.31544
 30
0.0
 10
-2.17296
 20
-7.35552
 30
0.0
 10
-2.17296
 20
-7.40321
 30
0.0
 10
-2.17296
 20
-7.40321
 30
0.0
 10
-2.17296
 20
-7.42748
 30
0.0
 10
-2.1779
 20
-7.45133
 30
0.0
 10
-2.18792
 20
-7.47476
 30
0.0
 10
-2.18792
 20
-7.47476
 30
0.0
 10
-2.1978
 20
-7.49832
 30
0.0
 10
-2.21431
 20
-7.52302
 30
0.0
 10
-2.23731
 20
-7.54898
 30
0.0
 10
-2.23731
 20
-7.54898
 30
0.0
 10
-2.26045
 20
-7.5748
 30
0.0
 10
-2.29869
 20
-7.6105
 30
0.0
 10
-2.35203
 20
-7.65566
 30
0.0
 10
-2.35203
 20
-7.65566
 30
0.0
 10
-2.39676
 20
-7.6932
 30
0.0
 10
-2.42555
 20
-7.7186
 30
0.0
 10
-2.43825
 20
-7.732
 30
0.0
 10
-2.43825
 20
-7.732
 30
0.0
 10
-2.45095
 20
-7.74541
 30
0.0
 10
-2.46139
 20
-7.75881
 30
0.0
 10
-2.46972
 20
-7.77236
 30
0.0
 10
-2.46972
 20
-7.77236
 30
0.0
 10
-2.46972
 20
-7.77236
 30
0.0
 10
-2.17211
 20
-7.77236
 30
0.0
 10
-2.17211
 20
-7.77236
 30
0.0
  0
SPLINE
  5
43
330
1F
100
AcDbEntity
  8
Layer 1
 62
   250
100
AcDbSpline
210
0.0
220
0.0
230
1.0
 70
    11
 71
     3
 72
    52
 73
    48
 74
     0
 42
0.0000000001
 43
0.0000000001
 12
1.0
 22
0.0
 32
0.0
 13
1.0
 23
0.0
 33
0.0
 40
0.0
 40
0.0
 40
0.0
 40
0.0
 40
0.0769230769230769
 40
0.0769230769230769
 40
0.0769230769230769
 40
0.0769230769230769
 40
0.1538461538461539
 40
0.1538461538461539
 40
0.1538461538461539
 40
0.1538461538461539
 40
0.2307692307692308
 40
0.2307692307692308
 40
0.2307692307692308
 40
0.2307692307692308
 40
0.3076923076923077
 40
0.3076923076923077
 40
0.3076923076923077
 40
0.3076923076923077
 40
0.3846153846153846
 40
0.3846153846153846
 40
0.3846153846153846
 40
0.3846153846153846
 40
0.4615384615384616
 40
0.4615384615384616
 40
0.4615384615384616
 40
0.4615384615384616
 40
0.5384615384615384
 40
0.5384615384615384
 40
0.5384615384615384
 40
0.5384615384615384
 40
0.6153846153846154
 40
0.6153846153846154
 40
0.6153846153846154
 40
0.6153846153846154
 40
0.6923076923076923
 40
0.6923076923076923
 40
0.6923076923076923
 40
0.6923076923076923
 40
0.7692307692307693
 40
0.7692307692307693
 40
0.7692307692307693
 40
0.7692307692307693
 40
0.8461538461538461
 40
0.8461538461538461
 40
0.8461538461538461
 40
0.8461538461538461
 40
1.0
 40
1.0
 40
1.0
 40
1.0
 10
-2.09154
 20
-7.54432
 30
0.0
 10
-2.09154
 20
-7.47278
 30
0.0
 10
-2.0842
 20
-7.41492
 30
0.0
 10
-2.06953
 20
-7.37118
 30
0.0
 10
-2.06953
 20
-7.37118
 30
0.0
 10
-2.05471
 20
-7.32729
 30
0.0
 10
-2.03284
 20
-7.29357
 30
0.0
 10
-2.00377
 20
-7.27
 30
0.0
 10
-2.00377
 20
-7.27
 30
0.0
 10
-1.97484
 20
-7.24644
 30
0.0
 10
-1.93829
 20
-7.23472
 30
0.0
 10
-1.89427
 20
-7.23472
 30
0.0
 10
-1.89427
 20
-7.23472
 30
0.0
 10
-1.86181
 20
-7.23472
 30
0.0
 10
-1.83331
 20
-7.24122
 30
0.0
 10
-1.80861
 20
-7.25434
 30
0.0
 10
-1.80861
 20
-7.25434
 30
0.0
 10
-1.78406
 20
-7.26746
 30
0.0
 10
-1.76374
 20
-7.28637
 30
0.0
 10
-1.74793
 20
-7.31107
 30
0.0
 10
-1.74793
 20
-7.31107
 30
0.0
 10
-1.73213
 20
-7.33562
 30
0.0
 10
-1.71971
 20
-7.36568
 30
0.0
 10
-1.71068
 20
-7.40109
 30
0.0
 10
-1.71068
 20
-7.40109
 30
0.0
 10
-1.70151
 20
-7.43651
 30
0.0
 10
-1.69699
 20
-7.48435
 30
0.0
 10
-1.69699
 20
-7.54432
 30
0.0
 10
-1.69699
 20
-7.54432
 30
0.0
 10
-1.69699
 20
-7.61544
 30
0.0
 10
-1.70433
 20
-7.67302
 30
0.0
 10
-1.71886
 20
-7.71676
 30
0.0
 10
-1.71886
 20
-7.71676
 30
0.0
 10
-1.7334
 20
-7.76065
 30
0.0
 10
-1.75527
 20
-7.79437
 30
0.0
 10
-1.78434
 20
-7.81808
 30
0.0
 10
-1.78434
 20
-7.81808
 30
0.0
 10
-1.81327
 20
-7.84179
 30
0.0
 10
-1.84996
 20
-7.85364
 30
0.0
 10
-1.89427
 20
-7.85364
 30
0.0
 10
-1.89427
 20
-7.85364
 30
0.0
 10
-1.95254
 20
-7.85364
 30
0.0
 10
-1.99841
 20
-7.8329
 30
0.0
 10
-2.03171
 20
-7.79127
 30
0.0
 10
-2.03171
 20
-7.79127
 30
0.0
 10
-2.07164
 20
-7.74047
 30
0.0
 10
-2.09154
 20
-7.6582
 30
0.0
 10
-2.09154
 20
-7.54432
 30
0.0
  0
SPLINE
  5
44
330
1F
100
AcDbEntity
  8
Layer 1
 62
   250
100
AcDbSpline
210
0.0
220
0.0
230
1.0
 70
    11
 71
     3
 72
    36
 73
    32
 74
     0
 42
0.0000000001
 43
0.0000000001
 12
1.0
 22
0.0
 32
0.0
 13
1.0
 23
0.0
 33
0.0
 40
0.0
 40
0.0
 40
0.0
 40
0.0
 40
0.1111111111111111
 40
0.1111111111111111
 40
0.1111111111111111
 40
0.1111111111111111
 40
0.2222222222222222
 40
0.2222222222222222
 40
0.2222222222222222
 40
0.2222222222222222
 40
0.3333333333333333
 40
0.3333333333333333
 40
0.3333333333333333
 40
0.3333333333333333
 40
0.4444444444444444
 40
0.4444444444444444
 40
0.4444444444444444
 40
0.4444444444444444
 40
0.5555555555555556
 40
0.5555555555555556
 40
0.5555555555555556
 40
0.5555555555555556
 40
0.6666666666666666
 40
0.6666666666666666
 40
0.6666666666666666
 40
0.6666666666666666
 40
0.7777777777777778
 40
0.7777777777777778
 40
0.7777777777777778
 40
0.7777777777777778
 40
1.0
 40
1.0
 40
1.0
 40
1.0
 10
-2.01534
 20
-7.54461
 30
0.0
 10
-2.01534
 20
-7.64437
 30
0.0
 10
-2.00377
 20
-7.71069
 30
0.0
 10
-1.98048
 20
-7.74343
 30
0.0
 10
-1.98048
 20
-7.74343
 30
0.0
 10
-1.9572
 20
-7.77631
 30
0.0
 10
-1.92841
 20
-7.79268
 30
0.0
 10
-1.89427
 20
-7.79268
 30
0.0
 10
-1.89427
 20
-7.79268
 30
0.0
 10
-1.86012
 20
-7.79268
 30
0.0
 10
-1.83133
 20
-7.77617
 30
0.0
 10
-1.80805
 20
-7.74329
 30
0.0
 10
-1.80805
 20
-7.74329
 30
0.0
 10
-1.78476
 20
-7.71027
 30
0.0
 10
-1.77319
 20
-7.64409
 30
0.0
 10
-1.77319
 20
-7.54461
 30
0.0
 10
-1.77319
 20
-7.54461
 30
0.0
 10
-1.77319
 20
-7.44484
 30
0.0
 10
-1.78476
 20
-7.37852
 30
0.0
 10
-1.80805
 20
-7.34578
 30
0.0
 10
-1.80805
 20
-7.34578
 30
0.0
 10
-1.83119
 20
-7.3129
 30
0.0
 10
-1.86026
 20
-7.29653
 30
0.0
 10
-1.89511
 20
-7.29653
 30
0.0
 10
-1.89511
 20
-7.29653
 30
0.0
 10
-1.92926
 20
-7.29653
 30
0.0
 10
-1.95664
 20
-7.31107
 30
0.0
 10
-1.9771
 20
-7.33999
 30
0.0
 10
-1.9771
 20
-7.33999
 30
0.0
 10
-2.00264
 20
-7.37682
 30
0.0
 10
-2.01534
 20
-7.44512
 30
0.0
 10
-2.01534
 20
-7.54461
 30
0.0
  0
SPLINE
  5
45
330
1F
100
AcDbEntity
  8
Layer 1
 62
   250
100
AcDbSpline
210
0.0
220
0.0
230
1.0
 70
    11
 71
     3
 72
    48
 73
    44
 74
     0
 42
0.0000000001
 43
0.0000000001
 12
1.0
 22
0.0
 32
0.0
 13
1.0
 23
0.0
 33
0.0
 40
0.0
 40
0.0
 40
0.0
 40
0.0
 40
0.0833333333333333
 40
0.0833333333333333
 40
0.0833333333333333
 40
0.0833333333333333
 40
0.1666666666666667
 40
0.1666666666666667
 40
0.1666666666666667
 40
0.1666666666666667
 40
0.25
 40
0.25
 40
0.25
 40
0.25
 40
0.3333333333333333
 40
0.3333333333333333
 40
0.3333333333333333
 40
0.3333333333333333
 40
0.4166666666666667
 40
0.4166666666666667
 40
0.4166666666666667
 40
0.4166666666666667
 40
0.5
 40
0.5
 40
0.5
 40
0.5
 40
0.5833333333333334
 40
0.5833333333333334
 40
0.5833333333333334
 40
0.5833333333333334
 40
0.6666666666666666
 40
0.6666666666666666
 40
0.6666666666666666
 40
0.6666666666666666
 40
0.75
 40
0.75
 40
0.75
 40
0.75
 40
0.8333333333333334
 40
0.8333333333333334
 40
0.8333333333333334
 40
0.8333333333333334
 40
1.0
 40
1.0
 40
1.0
 40
1.0
 10
-1.61642
 20
-7.316
 30
0.0
 10
-1.61642
 20
-7.316
 30
0.0
 10
-1.61642
 20
-7.24488
 30
0.0
 10
-1.61642
 20
-7.24488
 30
0.0
 10
-1.61642
 20
-7.24488
 30
0.0
 10
-1.61642
 20
-7.24488
 30
0.0
 10
-1.22441
 20
-7.24488
 30
0.0
 10
-1.22441
 20
-7.24488
 30
0.0
 10
-1.22441
 20
-7.24488
 30
0.0
 10
-1.22441
 20
-7.24488
 30
0.0
 10
-1.22441
 20
-7.30246
 30
0.0
 10
-1.22441
 20
-7.30246
 30
0.0
 10
-1.22441
 20
-7.30246
 30
0.0
 10
-1.26293
 20
-7.34352
 30
0.0
 10
-1.30131
 20
-7.39813
 30
0.0
 10
-1.33913
 20
-7.46629
 30
0.0
 10
-1.33913
 20
-7.46629
 30
0.0
 10
-1.37709
 20
-7.53445
 30
0.0
 10
-1.4063
 20
-7.60458
 30
0.0
 10
-1.42704
 20
-7.67669
 30
0.0
 10
-1.42704
 20
-7.67669
 30
0.0
 10
-1.44186
 20
-7.72735
 30
0.0
 10
-1.45146
 20
-7.78308
 30
0.0
 10
-1.45555
 20
-7.84348
 30
0.0
 10
-1.45555
 20
-7.84348
 30
0.0
 10
-1.45555
 20
-7.84348
 30
0.0
 10
-1.53175
 20
-7.84348
 30
0.0
 10
-1.53175
 20
-7.84348
 30
0.0
 10
-1.53175
 20
-7.84348
 30
0.0
 10
-1.5309
 20
-7.79578
 30
0.0
 10
-1.52159
 20
-7.73807
 30
0.0
 10
-1.50367
 20
-7.67048
 30
0.0
 10
-1.50367
 20
-7.67048
 30
0.0
 10
-1.48575
 20
-7.60274
 30
0.0
 10
-1.46021
 20
-7.53755
 30
0.0
 10
-1.42676
 20
-7.47476
 30
0.0
 10
-1.42676
 20
-7.47476
 30
0.0
 10
-1.39332
 20
-7.41196
 30
0.0
 10
-1.35776
 20
-7.35904
 30
0.0
 10
-1.32008
 20
-7.316
 30
0.0
 10
-1.32008
 20
-7.316
 30
0.0
 10
-1.32008
 20
-7.316
 30
0.0
 10
-1.61642
 20
-7.316
 30
0.0
 10
-1.61642
 20
-7.316
 30
0.0
  0
SPLINE
  5
46
330
1F
100
AcDbEntity
  8
Layer 1
 62
   250
100
AcDbSpline
210
0.0
220
0.0
230
1.0
 70
    11
 71
     3
 72
    52
 73
    48
 74
     0
 42
0.0000000001
 43
0.0000000001
 12
1.0
 22
0.0
 32
0.0
 13
1.0
 23
0.0
 33
0.0
 40
0.0
 40
0.0
 40
0.0
 40
0.0
 40
0.0769230769230769
 40
0.0769230769230769
 40
0.0769230769230769
 40
0.0769230769230769
 40
0.1538461538461539
 40
0.1538461538461539
 40
0.1538461538461539
 40
0.1538461538461539
 40
0.2307692307692308
 40
0.2307692307692308
 40
0.2307692307692308
 40
0.2307692307692308
 40
0.3076923076923077
 40
0.3076923076923077
 40
0.3076923076923077
 40
0.3076923076923077
 40
0.3846153846153846
 40
0.3846153846153846
 40
0.3846153846153846
 40
0.3846153846153846
 40
0.4615384615384616
 40
0.4615384615384616
 40
0.4615384615384616
 40
0.4615384615384616
 40
0.5384615384615384
 40
0.5384615384615384
 40
0.5384615384615384
 40
0.5384615384615384
 40
0.6153846153846154
 40
0.6153846153846154
 40
0.6153846153846154
 40
0.6153846153846154
 40
0.6923076923076923
 40
0.6923076923076923
 40
0.6923076923076923
 40
0.6923076923076923
 40
0.7692307692307693
 40
0.7692307692307693
 40
0.7692307692307693
 40
0.7692307692307693
 40
0.8461538461538461
 40
0.8461538461538461
 40
0.8461538461538461
 40
0.8461538461538461
 40
1.0
 40
1.0
 40
1.0
 40
1.0
 10
-1.14976
 20
-7.54432
 30
0.0
 10
-1.14976
 20
-7.47278
 30
0.0
 10
-1.14242
 20
-7.41492
 30
0.0
 10
-1.12775
 20
-7.37118
 30
0.0
 10
-1.12775
 20
-7.37118
 30
0.0
 10
-1.11293
 20
-7.32729
 30
0.0
 10
-1.09106
 20
-7.29357
 30
0.0
 10
-1.06199
 20
-7.27
 30
0.0
 10
-1.06199
 20
-7.27
 30
0.0
 10
-1.03306
 20
-7.24644
 30
0.0
 10
-0.99651
 20
-7.23472
 30
0.0
 10
-0.95249
 20
-7.23472
 30
0.0
 10
-0.95249
 20
-7.23472
 30
0.0
 10
-0.92003
 20
-7.23472
 30
0.0
 10
-0.89153
 20
-7.24122
 30
0.0
 10
-0.86683
 20
-7.25434
 30
0.0
 10
-0.86683
 20
-7.25434
 30
0.0
 10
-0.84228
 20
-7.26746
 30
0.0
 10
-0.82196
 20
-7.28637
 30
0.0
 10
-0.80615
 20
-7.31107
 30
0.0
 10
-0.80615
 20
-7.31107
 30
0.0
 10
-0.79035
 20
-7.33562
 30
0.0
 10
-0.77793
 20
-7.36568
 30
0.0
 10
-0.7689
 20
-7.40109
 30
0.0
 10
-0.7689
 20
-7.40109
 30
0.0
 10
-0.75973
 20
-7.43651
 30
0.0
 10
-0.75521
 20
-7.48435
 30
0.0
 10
-0.75521
 20
-7.54432
 30
0.0
 10
-0.75521
 20
-7.54432
 30
0.0
 10
-0.75521
 20
-7.61544
 30
0.0
 10
-0.76255
 20
-7.67302
 30
0.0
 10
-0.77708
 20
-7.71676
 30
0.0
 10
-0.77708
 20
-7.71676
 30
0.0
 10
-0.79162
 20
-7.76065
 30
0.0
 10
-0.81349
 20
-7.79437
 30
0.0
 10
-0.84256
 20
-7.81808
 30
0.0
 10
-0.84256
 20
-7.81808
 30
0.0
 10
-0.87149
 20
-7.84179
 30
0.0
 10
-0.90818
 20
-7.85364
 30
0.0
 10
-0.95249
 20
-7.85364
 30
0.0
 10
-0.95249
 20
-7.85364
 30
0.0
 10
-1.01076
 20
-7.85364
 30
0.0
 10
-1.05663
 20
-7.8329
 30
0.0
 10
-1.08993
 20
-7.79127
 30
0.0
 10
-1.08993
 20
-7.79127
 30
0.0
 10
-1.12986
 20
-7.74047
 30
0.0
 10
-1.14976
 20
-7.6582
 30
0.0
 10
-1.14976
 20
-7.54432
 30
0.0
  0
SPLINE
  5
47
330
1F
100
AcDbEntity
  8
Layer 1
 62
   250
100
AcDbSpline
210
0.0
220
0.0
230
1.0
 70
    11
 71
     3
 72
    36
 73
    32
 74
     0
 42
0.0000000001
 43
0.0000000001
 12
1.0
 22
0.0
 32
0.0
 13
1.0
 23
0.0
 33
0.0
 40
0.0
 40
0.0
 40
0.0
 40
0.0
 40
0.1111111111111111
 40
0.1111111111111111
 40
0.1111111111111111
 40
0.1111111111111111
 40
0.2222222222222222
 40
0.2222222222222222
 40
0.2222222222222222
 40
0.2222222222222222
 40
0.3333333333333333
 40
0.3333333333333333
 40
0.3333333333333333
 40
0.3333333333333333
 40
0.4444444444444444
 40
0.4444444444444444
 40
0.4444444444444444
 40
0.4444444444444444
 40
0.5555555555555556
 40
0.5555555555555556
 40
0.5555555555555556
 40
0.5555555555555556
 40
0.6666666666666666
 40
0.6666666666666666
 40
0.6666666666666666
 40
0.6666666666666666
 40
0.7777777777777778
 40
0.7777777777777778
 40
0.7777777777777778
 40
0.7777777777777778
 40
1.0
 40
1.0
 40
1.0
 40
1.0
 10
-1.07356
 20
-7.54461
 30
0.0
 10
-1.07356
 20
-7.64437
 30
0.0
 10
-1.06199
 20
-7.71069
 30
0.0
 10
-1.0387
 20
-7.74343
 30
0.0
 10
-1.0387
 20
-7.74343
 30
0.0
 10
-1.01542
 20
-7.77631
 30
0.0
 10
-0.98663
 20
-7.79268
 30
0.0
 10
-0.95249
 20
-7.79268
 30
0.0
 10
-0.95249
 20
-7.79268
 30
0.0
 10
-0.91834
 20
-7.79268
 30
0.0
 10
-0.88955
 20
-7.77617
 30
0.0
 10
-0.86627
 20
-7.74329
 30
0.0
 10
-0.86627
 20
-7.74329
 30
0.0
 10
-0.84298
 20
-7.71027
 30
0.0
 10
-0.83141
 20
-7.64409
 30
0.0
 10
-0.83141
 20
-7.54461
 30
0.0
 10
-0.83141
 20
-7.54461
 30
0.0
 10
-0.83141
 20
-7.44484
 30
0.0
 10
-0.84298
 20
-7.37852
 30
0.0
 10
-0.86627
 20
-7.34578
 30
0.0
 10
-0.86627
 20
-7.34578
 30
0.0
 10
-0.88941
 20
-7.3129
 30
0.0
 10
-0.91848
 20
-7.29653
 30
0.0
 10
-0.95333
 20
-7.29653
 30
0.0
 10
-0.95333
 20
-7.29653
 30
0.0
 10
-0.98748
 20
-7.29653
 30
0.0
 10
-1.01486
 20
-7.31107
 30
0.0
 10
-1.03532
 20
-7.33999
 30
0.0
 10
-1.03532
 20
-7.33999
 30
0.0
 10
-1.06086
 20
-7.37682
 30
0.0
 10
-1.07356
 20
-7.44512
 30
0.0
 10
-1.07356
 20
-7.54461
 30
0.0
  0
SPLINE
  5
48
330
1F
100
AcDbEntity
  8
Layer 1
 62
   250
100
AcDbSpline
210
0.0
220
0.0
230
1.0
 70
    11
 71
     3
 72
    52
 73
    48
 74
     0
 42
0.0000000001
 43
0.0000000001
 12
1.0
 22
0.0
 32
0.0
 13
1.0
 23
0.0
 33
0.0
 40
0.0
 40
0.0
 40
0.0
 40
0.0
 40
0.0769230769230769
 40
0.0769230769230769
 40
0.0769230769230769
 40
0.0769230769230769
 40
0.1538461538461539
 40
0.1538461538461539
 40
0.1538461538461539
 40
0.1538461538461539
 40
0.2307692307692308
 40
0.2307692307692308
 40
0.2307692307692308
 40
0.2307692307692308
 40
0.3076923076923077
 40
0.3076923076923077
 40
0.3076923076923077
 40
0.3076923076923077
 40
0.3846153846153846
 40
0.3846153846153846
 40
0.3846153846153846
 40
0.3846153846153846
 40
0.4615384615384616
 40
0.4615384615384616
 40
0.4615384615384616
 40
0.4615384615384616
 40
0.5384615384615384
 40
0.5384615384615384
 40
0.5384615384615384
 40
0.5384615384615384
 40
0.6153846153846154
 40
0.6153846153846154
 40
0.6153846153846154
 40
0.6153846153846154
 40
0.6923076923076923
 40
0.6923076923076923
 40
0.6923076923076923
 40
0.6923076923076923
 40
0.7692307692307693
 40
0.7692307692307693
 40
0.7692307692307693
 40
0.7692307692307693
 40
0.8461538461538461
 40
0.8461538461538461
 40
0.8461538461538461
 40
0.8461538461538461
 40
1.0
 40
1.0
 40
1.0
 40
1.0
 10
-0.67887
 20
-7.54432
 30
0.0
 10
-0.67887
 20
-7.47278
 30
0.0
 10
-0.67153
 20
-7.41492
 30
0.0
 10
-0.65686
 20
-7.37118
 30
0.0
 10
-0.65686
 20
-7.37118
 30
0.0
 10
-0.64204
 20
-7.32729
 30
0.0
 10
-0.62017
 20
-7.29357
 30
0.0
 10
-0.5911
 20
-7.27
 30
0.0
 10
-0.5911
 20
-7.27
 30
0.0
 10
-0.56217
 20
-7.24644
 30
0.0
 10
-0.52562
 20
-7.23472
 30
0.0
 10
-0.4816
 20
-7.23472
 30
0.0
 10
-0.4816
 20
-7.23472
 30
0.0
 10
-0.44914
 20
-7.23472
 30
0.0
 10
-0.42064
 20
-7.24122
 30
0.0
 10
-0.39594
 20
-7.25434
 30
0.0
 10
-0.39594
 20
-7.25434
 30
0.0
 10
-0.37139
 20
-7.26746
 30
0.0
 10
-0.35107
 20
-7.28637
 30
0.0
 10
-0.33526
 20
-7.31107
 30
0.0
 10
-0.33526
 20
-7.31107
 30
0.0
 10
-0.31946
 20
-7.33562
 30
0.0
 10
-0.30704
 20
-7.36568
 30
0.0
 10
-0.29801
 20
-7.40109
 30
0.0
 10
-0.29801
 20
-7.40109
 30
0.0
 10
-0.28884
 20
-7.43651
 30
0.0
 10
-0.28432
 20
-7.48435
 30
0.0
 10
-0.28432
 20
-7.54432
 30
0.0
 10
-0.28432
 20
-7.54432
 30
0.0
 10
-0.28432
 20
-7.61544
 30
0.0
 10
-0.29166
 20
-7.67302
 30
0.0
 10
-0.30619
 20
-7.71676
 30
0.0
 10
-0.30619
 20
-7.71676
 30
0.0
 10
-0.32073
 20
-7.76065
 30
0.0
 10
-0.3426
 20
-7.79437
 30
0.0
 10
-0.37167
 20
-7.81808
 30
0.0
 10
-0.37167
 20
-7.81808
 30
0.0
 10
-0.4006
 20
-7.84179
 30
0.0
 10
-0.43729
 20
-7.85364
 30
0.0
 10
-0.4816
 20
-7.85364
 30
0.0
 10
-0.4816
 20
-7.85364
 30
0.0
 10
-0.53987
 20
-7.85364
 30
0.0
 10
-0.58574
 20
-7.8329
 30
0.0
 10
-0.61904
 20
-7.79127
 30
0.0
 10
-0.61904
 20
-7.79127
 30
0.0
 10
-0.65897
 20
-7.74047
 30
0.0
 10
-0.67887
 20
-7.6582
 30
0.0
 10
-0.67887
 20
-7.54432
 30
0.0
  0
SPLINE
  5
49
330
1F
100
AcDbEntity
  8
Layer 1
 62
   250
100
AcDbSpline
210
0.0
220
0.0
230
1.0
 70
    11
 71
     3
 72
    36
 73
    32
 74
     0
 42
0.0000000001
 43
0.0000000001
 12
1.0
 22
0.0
 32
0.0
 13
1.0
 23
0.0
 33
0.0
 40
0.0
 40
0.0
 40
0.0
 40
0.0
 40
0.1111111111111111
 40
0.1111111111111111
 40
0.1111111111111111
 40
0.1111111111111111
 40
0.2222222222222222
 40
0.2222222222222222
 40
0.2222222222222222
 40
0.2222222222222222
 40
0.3333333333333333
 40
0.3333333333333333
 40
0.3333333333333333
 40
0.3333333333333333
 40
0.4444444444444444
 40
0.4444444444444444
 40
0.4444444444444444
 40
0.4444444444444444
 40
0.5555555555555556
 40
0.5555555555555556
 40
0.5555555555555556
 40
0.5555555555555556
 40
0.6666666666666666
 40
0.6666666666666666
 40
0.6666666666666666
 40
0.6666666666666666
 40
0.7777777777777778
 40
0.7777777777777778
 40
0.7777777777777778
 40
0.7777777777777778
 40
1.0
 40
1.0
 40
1.0
 40
1.0
 10
-0.60267
 20
-7.54461
 30
0.0
 10
-0.60267
 20
-7.64437
 30
0.0
 10
-0.5911
 20
-7.71069
 30
0.0
 10
-0.56781
 20
-7.74343
 30
0.0
 10
-0.56781
 20
-7.74343
 30
0.0
 10
-0.54453
 20
-7.77631
 30
0.0
 10
-0.51574
 20
-7.79268
 30
0.0
 10
-0.4816
 20
-7.79268
 30
0.0
 10
-0.4816
 20
-7.79268
 30
0.0
 10
-0.44745
 20
-7.79268
 30
0.0
 10
-0.41866
 20
-7.77617
 30
0.0
 10
-0.39538
 20
-7.74329
 30
0.0
 10
-0.39538
 20
-7.74329
 30
0.0
 10
-0.37209
 20
-7.71027
 30
0.0
 10
-0.36052
 20
-7.64409
 30
0.0
 10
-0.36052
 20
-7.54461
 30
0.0
 10
-0.36052
 20
-7.54461
 30
0.0
 10
-0.36052
 20
-7.44484
 30
0.0
 10
-0.37209
 20
-7.37852
 30
0.0
 10
-0.39538
 20
-7.34578
 30
0.0
 10
-0.39538
 20
-7.34578
 30
0.0
 10
-0.41852
 20
-7.3129
 30
0.0
 10
-0.44759
 20
-7.29653
 30
0.0
 10
-0.48244
 20
-7.29653
 30
0.0
 10
-0.48244
 20
-7.29653
 30
0.0
 10
-0.51659
 20
-7.29653
 30
0.0
 10
-0.54397
 20
-7.31107
 30
0.0
 10
-0.56443
 20
-7.33999
 30
0.0
 10
-0.56443
 20
-7.33999
 30
0.0
 10
-0.58997
 20
-7.37682
 30
0.0
 10
-0.60267
 20
-7.44512
 30
0.0
 10
-0.60267
 20
-7.54461
 30
0.0
  0
SPLINE
  5
4A
330
1F
100
AcDbEntity
  8
Layer 1
 62
   250
100
AcDbSpline
210
0.0
220
0.0
230
1.0
 70
    11
 71
     3
 72
    92
 73
    88
 74
     0
 42
0.0000000001
 43
0.0000000001
 12
1.0
 22
0.0
 32
0.0
 13
1.0
 23
0.0
 33
0.0
 40
0.0
 40
0.0
 40
0.0
 40
0.0
 40
0.0434782608695652
 40
0.0434782608695652
 40
0.0434782608695652
 40
0.0434782608695652
 40
0.0869565217391304
 40
0.0869565217391304
 40
0.0869565217391304
 40
0.0869565217391304
 40
0.1304347826086956
 40
0.1304347826086956
 40
0.1304347826086956
 40
0.1304347826086956
 40
0.1739130434782609
 40
0.1739130434782609
 40
0.1739130434782609
 40
0.1739130434782609
 40
0.2173913043478261
 40
0.2173913043478261
 40
0.2173913043478261
 40
0.2173913043478261
 40
0.2608695652173913
 40
0.2608695652173913
 40
0.2608695652173913
 40
0.2608695652173913
 40
0.3043478260869565
 40
0.3043478260869565
 40
0.3043478260869565
 40
0.3043478260869565
 40
0.3478260869565217
 40
0.3478260869565217
 40
0.3478260869565217
 40
0.3478260869565217
 40
0.391304347826087
 40
0.391304347826087
 40
0.391304347826087
 40
0.391304347826087
 40
0.4347826086956522
 40
0.4347826086956522
 40
0.4347826086956522
 40
0.4347826086956522
 40
0.4782608695652174
 40
0.4782608695652174
 40
0.4782608695652174
 40
0.4782608695652174
 40
0.5217391304347826
 40
0.5217391304347826
 40
0.5217391304347826
 40
0.5217391304347826
 40
0.5652173913043478
 40
0.5652173913043478
 40
0.5652173913043478
 40
0.5652173913043478
 40
0.6086956521739131
 40
0.6086956521739131
 40
0.6086956521739131
 40
0.6086956521739131
 40
0.6521739130434783
 40
0.6521739130434783
 40
0.6521739130434783
 40
0.6521739130434783
 40
0.6956521739130435
 40
0.6956521739130435
 40
0.6956521739130435
 40
0.6956521739130435
 40
0.7391304347826086
 40
0.7391304347826086
 40
0.7391304347826086
 40
0.7391304347826086
 40
0.782608695652174
 40
0.782608695652174
 40
0.782608695652174
 40
0.782608695652174
 40
0.8260869565217391
 40
0.8260869565217391
 40
0.8260869565217391
 40
0.8260869565217391
 40
0.8695652173913043
 40
0.8695652173913043
 40
0.8695652173913043
 40
0.8695652173913043
 40
0.9130434782608695
 40
0.9130434782608695
 40
0.9130434782608695
 40
0.9130434782608695
 40
1.0
 40
1.0
 40
1.0
 40
1.0
 10
-0.20798
 20
-7.68431
 30
0.0
 10
-0.20798
 20
-7.68431
 30
0.0
 10
-0.13009
 20
-7.67838
 30
0.0
 10
-0.13009
 20
-7.67838
 30
0.0
 10
-0.13009
 20
-7.67838
 30
0.0
 10
-0.1243
 20
-7.71634
 30
0.0
 10
-0.1109
 20
-7.74484
 30
0.0
 10
-0.09001
 20
-7.76403
 30
0.0
 10
-0.09001
 20
-7.76403
 30
0.0
 10
-0.06913
 20
-7.78308
 30
0.0
 10
-0.04358
 20
-7.79268
 30
0.0
 10
-0.01353
 20
-7.79268
 30
0.0
 10
-0.01353
 20
-7.79268
 30
0.0
 10
0.02274
 20
-7.79268
 30
0.0
 10
0.05308
 20
-7.77913
 30
0.0
 10
0.07777
 20
-7.75218
 30
0.0
 10
0.07777
 20
-7.75218
 30
0.0
 10
0.10232
 20
-7.72509
 30
0.0
 10
0.1146
 20
-7.68924
 30
0.0
 10
0.1146
 20
-7.64465
 30
0.0
 10
0.1146
 20
-7.64465
 30
0.0
 10
0.1146
 20
-7.60218
 30
0.0
 10
0.10289
 20
-7.56874
 30
0.0
 10
0.07932
 20
-7.54418
 30
0.0
 10
0.07932
 20
-7.54418
 30
0.0
 10
0.05576
 20
-7.51963
 30
0.0
 10
0.02457
 20
-7.50735
 30
0.0
 10
-0.01423
 20
-7.50735
 30
0.0
 10
-0.01423
 20
-7.50735
 30
0.0
 10
-0.03836
 20
-7.50735
 30
0.0
 10
-0.05995
 20
-7.51286
 30
0.0
 10
-0.07914
 20
-7.52386
 30
0.0
 10
-0.07914
 20
-7.52386
 30
0.0
 10
-0.09819
 20
-7.53487
 30
0.0
 10
-0.11315
 20
-7.54912
 30
0.0
 10
-0.12416
 20
-7.56662
 30
0.0
 10
-0.12416
 20
-7.56662
 30
0.0
 10
-0.12416
 20
-7.56662
 30
0.0
 10
-0.19443
 20
-7.55646
 30
0.0
 10
-0.19443
 20
-7.55646
 30
0.0
 10
-0.19443
 20
-7.55646
 30
0.0
 10
-0.19443
 20
-7.55646
 30
0.0
 10
-0.13601
 20
-7.24488
 30
0.0
 10
-0.13601
 20
-7.24488
 30
0.0
 10
-0.13601
 20
-7.24488
 30
0.0
 10
-0.13601
 20
-7.24488
 30
0.0
 10
0.16455
 20
-7.24488
 30
0.0
 10
0.16455
 20
-7.24488
 30
0.0
 10
0.16455
 20
-7.24488
 30
0.0
 10
0.16455
 20
-7.24488
 30
0.0
 10
0.16455
 20
-7.316
 30
0.0
 10
0.16455
 20
-7.316
 30
0.0
 10
0.16455
 20
-7.316
 30
0.0
 10
0.16455
 20
-7.316
 30
0.0
 10
-0.0766
 20
-7.316
 30
0.0
 10
-0.0766
 20
-7.316
 30
0.0
 10
-0.0766
 20
-7.316
 30
0.0
 10
-0.0766
 20
-7.316
 30
0.0
 10
-0.10892
 20
-7.47955
 30
0.0
 10
-0.10892
 20
-7.47955
 30
0.0
 10
-0.10892
 20
-7.47955
 30
0.0
 10
-0.07265
 20
-7.45401
 30
0.0
 10
-0.03455
 20
-7.44131
 30
0.0
 10
0.00524
 20
-7.44131
 30
0.0
 10
0.00524
 20
-7.44131
 30
0.0
 10
0.05802
 20
-7.44131
 30
0.0
 10
0.10261
 20
-7.45966
 30
0.0
 10
0.13887
 20
-7.49635
 30
0.0
 10
0.13887
 20
-7.49635
 30
0.0
 10
0.17514
 20
-7.53303
 30
0.0
 10
0.19334
 20
-7.58017
 30
0.0
 10
0.19334
 20
-7.63774
 30
0.0
 10
0.19334
 20
-7.63774
 30
0.0
 10
0.19334
 20
-7.69263
 30
0.0
 10
0.1774
 20
-7.74005
 30
0.0
 10
0.1455
 20
-7.77998
 30
0.0
 10
0.1455
 20
-7.77998
 30
0.0
 10
0.1067
 20
-7.82909
 30
0.0
 10
0.05364
 20
-7.85364
 30
0.0
 10
-0.01353
 20
-7.85364
 30
0.0
 10
-0.01353
 20
-7.85364
 30
0.0
 10
-0.06856
 20
-7.85364
 30
0.0
 10
-0.11344
 20
-7.83812
 30
0.0
 10
-0.14829
 20
-7.80721
 30
0.0
 10
-0.14829
 20
-7.80721
 30
0.0
 10
-0.18314
 20
-7.77631
 30
0.0
 10
-0.20304
 20
-7.73539
 30
0.0
 10
-0.20798
 20
-7.68431
 30
0.0
  0
SPLINE
  5
4B
330
1F
100
AcDbEntity
  8
Layer 1
 62
   250
100
AcDbSpline
210
0.0
220
0.0
230
1.0
 70
    11
 71
     3
 72
    20
 73
    16
 74
     0
 42
0.0000000001
 43
0.0000000001
 12
1.0
 22
0.0
 32
0.0
 13
1.0
 23
0.0
 33
0.0
 40
0.0
 40
0.0
 40
0.0
 40
0.0
 40
0.2
 40
0.2
 40
0.2
 40
0.2
 40
0.4
 40
0.4
 40
0.4
 40
0.4
 40
0.6
 40
0.6
 40
0.6
 40
0.6
 40
1.0
 40
1.0
 40
1.0
 40
1.0
 10
0.2536
 20
-7.66145
 30
0.0
 10
0.2536
 20
-7.66145
 30
0.0
 10
0.2536
 20
-7.58694
 30
0.0
 10
0.2536
 20
-7.58694
 30
0.0
 10
0.2536
 20
-7.58694
 30
0.0
 10
0.2536
 20
-7.58694
 30
0.0
 10
0.48389
 20
-7.58694
 30
0.0
 10
0.48389
 20
-7.58694
 30
0.0
 10
0.48389
 20
-7.58694
 30
0.0
 10
0.48389
 20
-7.58694
 30
0.0
 10
0.48389
 20
-7.66145
 30
0.0
 10
0.48389
 20
-7.66145
 30
0.0
 10
0.48389
 20
-7.66145
 30
0.0
 10
0.48389
 20
-7.66145
 30
0.0
 10
0.2536
 20
-7.66145
 30
0.0
 10
0.2536
 20
-7.66145
 30
0.0
  0
SPLINE
  5
4C
330
1F
100
AcDbEntity
  8
Layer 1
 62
   250
100
AcDbSpline
210
0.0
220
0.0
230
1.0
 70
    11
 71
     3
 72
    84
 73
    80
 74
     0
 42
0.0000000001
 43
0.0000000001
 12
1.0
 22
0.0
 32
0.0
 13
1.0
 23
0.0
 33
0.0
 40
0.0
 40
0.0
 40
0.0
 40
0.0
 40
0.0476190476190476
 40
0.0476190476190476
 40
0.0476190476190476
 40
0.0476190476190476
 40
0.0952380952380952
 40
0.0952380952380952
 40
0.0952380952380952
 40
0.0952380952380952
 40
0.1428571428571428
 40
0.1428571428571428
 40
0.1428571428571428
 40
0.1428571428571428
 40
0.1904761904761905
 40
0.1904761904761905
 40
0.1904761904761905
 40
0.1904761904761905
 40
0.2380952380952381
 40
0.2380952380952381
 40
0.2380952380952381
 40
0.2380952380952381
 40
0.2857142857142857
 40
0.2857142857142857
 40
0.2857142857142857
 40
0.2857142857142857
 40
0.3333333333333333
 40
0.3333333333333333
 40
0.3333333333333333
 40
0.3333333333333333
 40
0.3809523809523809
 40
0.3809523809523809
 40
0.3809523809523809
 40
0.3809523809523809
 40
0.4285714285714285
 40
0.4285714285714285
 40
0.4285714285714285
 40
0.4285714285714285
 40
0.4761904761904762
 40
0.4761904761904762
 40
0.4761904761904762
 40
0.4761904761904762
 40
0.5238095238095238
 40
0.5238095238095238
 40
0.5238095238095238
 40
0.5238095238095238
 40
0.5714285714285714
 40
0.5714285714285714
 40
0.5714285714285714
 40
0.5714285714285714
 40
0.6190476190476191
 40
0.6190476190476191
 40
0.6190476190476191
 40
0.6190476190476191
 40
0.6666666666666666
 40
0.6666666666666666
 40
0.6666666666666666
 40
0.6666666666666666
 40
0.7142857142857143
 40
0.7142857142857143
 40
0.7142857142857143
 40
0.7142857142857143
 40
0.7619047619047619
 40
0.7619047619047619
 40
0.7619047619047619
 40
0.7619047619047619
 40
0.8095238095238095
 40
0.8095238095238095
 40
0.8095238095238095
 40
0.8095238095238095
 40
0.8571428571428571
 40
0.8571428571428571
 40
0.8571428571428571
 40
0.8571428571428571
 40
0.9047619047619048
 40
0.9047619047619048
 40
0.9047619047619048
 40
0.9047619047619048
 40
1.0
 40
1.0
 40
1.0
 40
1.0
 10
0.72688
 20
-7.77702
 30
0.0
 10
0.72688
 20
-7.77702
 30
0.0
 10
0.73704
 20
-7.84277
 30
0.0
 10
0.73704
 20
-7.84277
 30
0.0
 10
0.73704
 20
-7.84277
 30
0.0
 10
0.71616
 20
-7.84715
 30
0.0
 10
0.69739
 20
-7.84941
 30
0.0
 10
0.68102
 20
-7.84941
 30
0.0
 10
0.68102
 20
-7.84941
 30
0.0
 10
0.65407
 20
-7.84941
 30
0.0
 10
0.63319
 20
-7.84517
 30
0.0
 10
0.61823
 20
-7.83657
 30
0.0
 10
0.61823
 20
-7.83657
 30
0.0
 10
0.60341
 20
-7.82796
 30
0.0
 10
0.59297
 20
-7.81681
 30
0.0
 10
0.5869
 20
-7.80284
 30
0.0
 10
0.5869
 20
-7.80284
 30
0.0
 10
0.58083
 20
-7.78887
 30
0.0
 10
0.57787
 20
-7.75952
 30
0.0
 10
0.57787
 20
-7.71479
 30
0.0
 10
0.57787
 20
-7.71479
 30
0.0
 10
0.57787
 20
-7.71479
 30
0.0
 10
0.57787
 20
-7.46163
 30
0.0
 10
0.57787
 20
-7.46163
 30
0.0
 10
0.57787
 20
-7.46163
 30
0.0
 10
0.57787
 20
-7.46163
 30
0.0
 10
0.52284
 20
-7.46163
 30
0.0
 10
0.52284
 20
-7.46163
 30
0.0
 10
0.52284
 20
-7.46163
 30
0.0
 10
0.52284
 20
-7.46163
 30
0.0
 10
0.52284
 20
-7.40406
 30
0.0
 10
0.52284
 20
-7.40406
 30
0.0
 10
0.52284
 20
-7.40406
 30
0.0
 10
0.52284
 20
-7.40406
 30
0.0
 10
0.57787
 20
-7.40406
 30
0.0
 10
0.57787
 20
-7.40406
 30
0.0
 10
0.57787
 20
-7.40406
 30
0.0
 10
0.57787
 20
-7.40406
 30
0.0
 10
0.57787
 20
-7.2954
 30
0.0
 10
0.57787
 20
-7.2954
 30
0.0
 10
0.57787
 20
-7.2954
 30
0.0
 10
0.57787
 20
-7.2954
 30
0.0
 10
0.65238
 20
-7.25067
 30
0.0
 10
0.65238
 20
-7.25067
 30
0.0
 10
0.65238
 20
-7.25067
 30
0.0
 10
0.65238
 20
-7.25067
 30
0.0
 10
0.65238
 20
-7.40406
 30
0.0
 10
0.65238
 20
-7.40406
 30
0.0
 10
0.65238
 20
-7.40406
 30
0.0
 10
0.65238
 20
-7.40406
 30
0.0
 10
0.72688
 20
-7.40406
 30
0.0
 10
0.72688
 20
-7.40406
 30
0.0
 10
0.72688
 20
-7.40406
 30
0.0
 10
0.72688
 20
-7.40406
 30
0.0
 10
0.72688
 20
-7.46163
 30
0.0
 10
0.72688
 20
-7.46163
 30
0.0
 10
0.72688
 20
-7.46163
 30
0.0
 10
0.72688
 20
-7.46163
 30
0.0
 10
0.65238
 20
-7.46163
 30
0.0
 10
0.65238
 20
-7.46163
 30
0.0
 10
0.65238
 20
-7.46163
 30
0.0
 10
0.65238
 20
-7.46163
 30
0.0
 10
0.65238
 20
-7.71902
 30
0.0
 10
0.65238
 20
-7.71902
 30
0.0
 10
0.65238
 20
-7.71902
 30
0.0
 10
0.65238
 20
-7.74033
 30
0.0
 10
0.65365
 20
-7.75402
 30
0.0
 10
0.65633
 20
-7.76008
 30
0.0
 10
0.65633
 20
-7.76008
 30
0.0
 10
0.65887
 20
-7.76615
 30
0.0
 10
0.6631
 20
-7.77095
 30
0.0
 10
0.66903
 20
-7.77462
 30
0.0
 10
0.66903
 20
-7.77462
 30
0.0
 10
0.67496
 20
-7.77815
 30
0.0
 10
0.68342
 20
-7.77998
 30
0.0
 10
0.69443
 20
-7.77998
 30
0.0
 10
0.69443
 20
-7.77998
 30
0.0
 10
0.70261
 20
-7.77998
 30
0.0
 10
0.71348
 20
-7.77899
 30
0.0
 10
0.72688
 20
-7.77702
 30
0.0
  0
SPLINE
  5
4D
330
1F
100
AcDbEntity
  8
Layer 1
 62
   250
100
AcDbSpline
210
0.0
220
0.0
230
1.0
 70
    11
 71
     3
 72
    64
 73
    60
 74
     0
 42
0.0000000001
 43
0.0000000001
 12
1.0
 22
0.0
 32
0.0
 13
1.0
 23
0.0
 33
0.0
 40
0.0
 40
0.0
 40
0.0
 40
0.0
 40
0.0625
 40
0.0625
 40
0.0625
 40
0.0625
 40
0.125
 40
0.125
 40
0.125
 40
0.125
 40
0.1875
 40
0.1875
 40
0.1875
 40
0.1875
 40
0.25
 40
0.25
 40
0.25
 40
0.25
 40
0.3125
 40
0.3125
 40
0.3125
 40
0.3125
 40
0.375
 40
0.375
 40
0.375
 40
0.375
 40
0.4375
 40
0.4375
 40
0.4375
 40
0.4375
 40
0.5
 40
0.5
 40
0.5
 40
0.5
 40
0.5625
 40
0.5625
 40
0.5625
 40
0.5625
 40
0.625
 40
0.625
 40
0.625
 40
0.625
 40
0.6875
 40
0.6875
 40
0.6875
 40
0.6875
 40
0.75
 40
0.75
 40
0.75
 40
0.75
 40
0.8125
 40
0.8125
 40
0.8125
 40
0.8125
 40
0.875
 40
0.875
 40
0.875
 40
0.875
 40
1.0
 40
1.0
 40
1.0
 40
1.0
 10
1.10012
 20
-7.70124
 30
0.0
 10
1.10012
 20
-7.70124
 30
0.0
 10
1.17717
 20
-7.7114
 30
0.0
 10
1.17717
 20
-7.7114
 30
0.0
 10
1.17717
 20
-7.7114
 30
0.0
 10
1.16517
 20
-7.75613
 30
0.0
 10
1.14274
 20
-7.79099
 30
0.0
 10
1.11
 20
-7.81568
 30
0.0
 10
1.11
 20
-7.81568
 30
0.0
 10
1.07726
 20
-7.84038
 30
0.0
 10
1.03549
 20
-7.85279
 30
0.0
 10
0.98455
 20
-7.85279
 30
0.0
 10
0.98455
 20
-7.85279
 30
0.0
 10
0.92049
 20
-7.85279
 30
0.0
 10
0.86969
 20
-7.83304
 30
0.0
 10
0.83215
 20
-7.79353
 30
0.0
 10
0.83215
 20
-7.79353
 30
0.0
 10
0.79461
 20
-7.75416
 30
0.0
 10
0.77585
 20
-7.6987
 30
0.0
 10
0.77585
 20
-7.62744
 30
0.0
 10
0.77585
 20
-7.62744
 30
0.0
 10
0.77585
 20
-7.55378
 30
0.0
 10
0.79476
 20
-7.49649
 30
0.0
 10
0.83271
 20
-7.45585
 30
0.0
 10
0.83271
 20
-7.45585
 30
0.0
 10
0.87067
 20
-7.41506
 30
0.0
 10
0.91992
 20
-7.39474
 30
0.0
 10
0.98046
 20
-7.39474
 30
0.0
 10
0.98046
 20
-7.39474
 30
0.0
 10
1.03902
 20
-7.39474
 30
0.0
 10
1.08686
 20
-7.41464
 30
0.0
 10
1.12397
 20
-7.45458
 30
0.0
 10
1.12397
 20
-7.45458
 30
0.0
 10
1.16108
 20
-7.49451
 30
0.0
 10
1.17971
 20
-7.55067
 30
0.0
 10
1.17971
 20
-7.62306
 30
0.0
 10
1.17971
 20
-7.62306
 30
0.0
 10
1.17971
 20
-7.62744
 30
0.0
 10
1.17957
 20
-7.63407
 30
0.0
 10
1.17929
 20
-7.64282
 30
0.0
 10
1.17929
 20
-7.64282
 30
0.0
 10
1.17929
 20
-7.64282
 30
0.0
 10
0.85205
 20
-7.64282
 30
0.0
 10
0.85205
 20
-7.64282
 30
0.0
 10
0.85205
 20
-7.64282
 30
0.0
 10
0.85487
 20
-7.69094
 30
0.0
 10
0.86842
 20
-7.72791
 30
0.0
 10
0.89297
 20
-7.75345
 30
0.0
 10
0.89297
 20
-7.75345
 30
0.0
 10
0.91738
 20
-7.77899
 30
0.0
 10
0.948
 20
-7.79183
 30
0.0
 10
0.98455
 20
-7.79183
 30
0.0
 10
0.98455
 20
-7.79183
 30
0.0
 10
1.01179
 20
-7.79183
 30
0.0
 10
1.03507
 20
-7.78464
 30
0.0
 10
1.05426
 20
-7.77024
 30
0.0
 10
1.05426
 20
-7.77024
 30
0.0
 10
1.07359
 20
-7.75585
 30
0.0
 10
1.08883
 20
-7.73285
 30
0.0
 10
1.10012
 20
-7.70124
 30
0.0
  0
SPLINE
  5
4E
330
1F
100
AcDbEntity
  8
Layer 1
 62
   250
100
AcDbSpline
210
0.0
220
0.0
230
1.0
 70
    11
 71
     3
 72
    24
 73
    20
 74
     0
 42
0.0000000001
 43
0.0000000001
 12
1.0
 22
0.0
 32
0.0
 13
1.0
 23
0.0
 33
0.0
 40
0.0
 40
0.0
 40
0.0
 40
0.0
 40
0.1666666666666667
 40
0.1666666666666667
 40
0.1666666666666667
 40
0.1666666666666667
 40
0.3333333333333333
 40
0.3333333333333333
 40
0.3333333333333333
 40
0.3333333333333333
 40
0.5
 40
0.5
 40
0.5
 40
0.5
 40
0.6666666666666666
 40
0.6666666666666666
 40
0.6666666666666666
 40
0.6666666666666666
 40
1.0
 40
1.0
 40
1.0
 40
1.0
 10
0.85628
 20
-7.58186
 30
0.0
 10
0.85628
 20
-7.58186
 30
0.0
 10
1.10097
 20
-7.58186
 30
0.0
 10
1.10097
 20
-7.58186
 30
0.0
 10
1.10097
 20
-7.58186
 30
0.0
 10
1.09772
 20
-7.54489
 30
0.0
 10
1.08827
 20
-7.51723
 30
0.0
 10
1.07289
 20
-7.49874
 30
0.0
 10
1.07289
 20
-7.49874
 30
0.0
 10
1.04932
 20
-7.4701
 30
0.0
 10
1.01856
 20
-7.45571
 30
0.0
 10
0.98088
 20
-7.45571
 30
0.0
 10
0.98088
 20
-7.45571
 30
0.0
 10
0.94673
 20
-7.45571
 30
0.0
 10
0.91809
 20
-7.46714
 30
0.0
 10
0.8948
 20
-7.49
 30
0.0
 10
0.8948
 20
-7.49
 30
0.0
 10
0.87166
 20
-7.51286
 30
0.0
 10
0.85882
 20
-7.54348
 30
0.0
 10
0.85628
 20
-7.58186
 30
0.0
  0
SPLINE
  5
4F
330
1F
100
AcDbEntity
  8
Layer 1
 62
   250
100
AcDbSpline
210
0.0
220
0.0
230
1.0
 70
    11
 71
     3
 72
   116
 73
   112
 74
     0
 42
0.0000000001
 43
0.0000000001
 12
1.0
 22
0.0
 32
0.0
 13
1.0
 23
0.0
 33
0.0
 40
0.0
 40
0.0
 40
0.0
 40
0.0
 40
0.0344827586206897
 40
0.0344827586206897
 40
0.0344827586206897
 40
0.0344827586206897
 40
0.0689655172413793
 40
0.0689655172413793
 40
0.0689655172413793
 40
0.0689655172413793
 40
0.103448275862069
 40
0.103448275862069
 40
0.103448275862069
 40
0.103448275862069
 40
0.1379310344827586
 40
0.1379310344827586
 40
0.1379310344827586
 40
0.1379310344827586
 40
0.1724137931034483
 40
0.1724137931034483
 40
0.1724137931034483
 40
0.1724137931034483
 40
0.2068965517241379
 40
0.2068965517241379
 40
0.2068965517241379
 40
0.2068965517241379
 40
0.2413793103448276
 40
0.2413793103448276
 40
0.2413793103448276
 40
0.2413793103448276
 40
0.2758620689655172
 40
0.2758620689655172
 40
0.2758620689655172
 40
0.2758620689655172
 40
0.3103448275862069
 40
0.3103448275862069
 40
0.3103448275862069
 40
0.3103448275862069
 40
0.3448275862068966
 40
0.3448275862068966
 40
0.3448275862068966
 40
0.3448275862068966
 40
0.3793103448275862
 40
0.3793103448275862
 40
0.3793103448275862
 40
0.3793103448275862
 40
0.4137931034482759
 40
0.4137931034482759
 40
0.4137931034482759
 40
0.4137931034482759
 40
0.4482758620689655
 40
0.4482758620689655
 40
0.4482758620689655
 40
0.4482758620689655
 40
0.4827586206896552
 40
0.4827586206896552
 40
0.4827586206896552
 40
0.4827586206896552
 40
0.5172413793103449
 40
0.5172413793103449
 40
0.5172413793103449
 40
0.5172413793103449
 40
0.5517241379310345
 40
0.5517241379310345
 40
0.5517241379310345
 40
0.5517241379310345
 40
0.5862068965517241
 40
0.5862068965517241
 40
0.5862068965517241
 40
0.5862068965517241
 40
0.6206896551724138
 40
0.6206896551724138
 40
0.6206896551724138
 40
0.6206896551724138
 40
0.6551724137931034
 40
0.6551724137931034
 40
0.6551724137931034
 40
0.6551724137931034
 40
0.6896551724137931
 40
0.6896551724137931
 40
0.6896551724137931
 40
0.6896551724137931
 40
0.7241379310344828
 40
0.7241379310344828
 40
0.7241379310344828
 40
0.7241379310344828
 40
0.7586206896551724
 40
0.7586206896551724
 40
0.7586206896551724
 40
0.7586206896551724
 40
0.7931034482758621
 40
0.7931034482758621
 40
0.7931034482758621
 40
0.7931034482758621
 40
0.8275862068965517
 40
0.8275862068965517
 40
0.8275862068965517
 40
0.8275862068965517
 40
0.8620689655172413
 40
0.8620689655172413
 40
0.8620689655172413
 40
0.8620689655172413
 40
0.896551724137931
 40
0.896551724137931
 40
0.896551724137931
 40
0.896551724137931
 40
0.9310344827586207
 40
0.9310344827586207
 40
0.9310344827586207
 40
0.9310344827586207
 40
1.0
 40
1.0
 40
1.0
 40
1.0
 10
1.27129
 20
-7.84348
 30
0.0
 10
1.27129
 20
-7.84348
 30
0.0
 10
1.27129
 20
-7.40406
 30
0.0
 10
1.27129
 20
-7.40406
 30
0.0
 10
1.27129
 20
-7.40406
 30
0.0
 10
1.27129
 20
-7.40406
 30
0.0
 10
1.33818
 20
-7.40406
 30
0.0
 10
1.33818
 20
-7.40406
 30
0.0
 10
1.33818
 20
-7.40406
 30
0.0
 10
1.33818
 20
-7.40406
 30
0.0
 10
1.33818
 20
-7.46615
 30
0.0
 10
1.33818
 20
-7.46615
 30
0.0
 10
1.33818
 20
-7.46615
 30
0.0
 10
1.35186
 20
-7.4447
 30
0.0
 10
1.37021
 20
-7.42734
 30
0.0
 10
1.39307
 20
-7.41436
 30
0.0
 10
1.39307
 20
-7.41436
 30
0.0
 10
1.41593
 20
-7.40124
 30
0.0
 10
1.44189
 20
-7.39474
 30
0.0
 10
1.4711
 20
-7.39474
 30
0.0
 10
1.4711
 20
-7.39474
 30
0.0
 10
1.50356
 20
-7.39474
 30
0.0
 10
1.53023
 20
-7.40152
 30
0.0
 10
1.55097
 20
-7.41492
 30
0.0
 10
1.55097
 20
-7.41492
 30
0.0
 10
1.57172
 20
-7.42847
 30
0.0
 10
1.58639
 20
-7.44724
 30
0.0
 10
1.59486
 20
-7.47151
 30
0.0
 10
1.59486
 20
-7.47151
 30
0.0
 10
1.62985
 20
-7.42029
 30
0.0
 10
1.67515
 20
-7.39474
 30
0.0
 10
1.73103
 20
-7.39474
 30
0.0
 10
1.73103
 20
-7.39474
 30
0.0
 10
1.77478
 20
-7.39474
 30
0.0
 10
1.8085
 20
-7.40674
 30
0.0
 10
1.83193
 20
-7.43087
 30
0.0
 10
1.83193
 20
-7.43087
 30
0.0
 10
1.85549
 20
-7.455
 30
0.0
 10
1.86735
 20
-7.49211
 30
0.0
 10
1.86735
 20
-7.54221
 30
0.0
 10
1.86735
 20
-7.54221
 30
0.0
 10
1.86735
 20
-7.54221
 30
0.0
 10
1.86735
 20
-7.84348
 30
0.0
 10
1.86735
 20
-7.84348
 30
0.0
 10
1.86735
 20
-7.84348
 30
0.0
 10
1.86735
 20
-7.84348
 30
0.0
 10
1.79284
 20
-7.84348
 30
0.0
 10
1.79284
 20
-7.84348
 30
0.0
 10
1.79284
 20
-7.84348
 30
0.0
 10
1.79284
 20
-7.84348
 30
0.0
 10
1.79284
 20
-7.5669
 30
0.0
 10
1.79284
 20
-7.5669
 30
0.0
 10
1.79284
 20
-7.5669
 30
0.0
 10
1.79284
 20
-7.53727
 30
0.0
 10
1.7903
 20
-7.51582
 30
0.0
 10
1.7855
 20
-7.5027
 30
0.0
 10
1.7855
 20
-7.5027
 30
0.0
 10
1.7807
 20
-7.48957
 30
0.0
 10
1.77195
 20
-7.47913
 30
0.0
 10
1.75911
 20
-7.47109
 30
0.0
 10
1.75911
 20
-7.47109
 30
0.0
 10
1.74641
 20
-7.46304
 30
0.0
 10
1.73146
 20
-7.45909
 30
0.0
 10
1.71438
 20
-7.45909
 30
0.0
 10
1.71438
 20
-7.45909
 30
0.0
 10
1.68334
 20
-7.45909
 30
0.0
 10
1.65765
 20
-7.46939
 30
0.0
 10
1.63719
 20
-7.48985
 30
0.0
 10
1.63719
 20
-7.48985
 30
0.0
 10
1.61673
 20
-7.51046
 30
0.0
 10
1.60657
 20
-7.54334
 30
0.0
 10
1.60657
 20
-7.58849
 30
0.0
 10
1.60657
 20
-7.58849
 30
0.0
 10
1.60657
 20
-7.58849
 30
0.0
 10
1.60657
 20
-7.84348
 30
0.0
 10
1.60657
 20
-7.84348
 30
0.0
 10
1.60657
 20
-7.84348
 30
0.0
 10
1.60657
 20
-7.84348
 30
0.0
 10
1.53206
 20
-7.84348
 30
0.0
 10
1.53206
 20
-7.84348
 30
0.0
 10
1.53206
 20
-7.84348
 30
0.0
 10
1.53206
 20
-7.84348
 30
0.0
 10
1.53206
 20
-7.55829
 30
0.0
 10
1.53206
 20
-7.55829
 30
0.0
 10
1.53206
 20
-7.55829
 30
0.0
 10
1.53206
 20
-7.52527
 30
0.0
 10
1.526
 20
-7.50044
 30
0.0
 10
1.51386
 20
-7.48393
 30
0.0
 10
1.51386
 20
-7.48393
 30
0.0
 10
1.50173
 20
-7.46742
 30
0.0
 10
1.48183
 20
-7.45909
 30
0.0
 10
1.45431
 20
-7.45909
 30
0.0
 10
1.45431
 20
-7.45909
 30
0.0
 10
1.43343
 20
-7.45909
 30
0.0
 10
1.4141
 20
-7.4646
 30
0.0
 10
1.39632
 20
-7.4756
 30
0.0
 10
1.39632
 20
-7.4756
 30
0.0
 10
1.37854
 20
-7.48661
 30
0.0
 10
1.36569
 20
-7.5027
 30
0.0
 10
1.35765
 20
-7.524
 30
0.0
 10
1.35765
 20
-7.524
 30
0.0
 10
1.34975
 20
-7.54517
 30
0.0
 10
1.3458
 20
-7.57579
 30
0.0
 10
1.3458
 20
-7.61573
 30
0.0
 10
1.3458
 20
-7.61573
 30
0.0
 10
1.3458
 20
-7.61573
 30
0.0
 10
1.3458
 20
-7.84348
 30
0.0
 10
1.3458
 20
-7.84348
 30
0.0
 10
1.3458
 20
-7.84348
 30
0.0
 10
1.3458
 20
-7.84348
 30
0.0
 10
1.27129
 20
-7.84348
 30
0.0
 10
1.27129
 20
-7.84348
 30
0.0
  0
SPLINE
  5
50
330
1F
100
AcDbEntity
  8
Layer 1
 62
   250
100
AcDbSpline
210
0.0
220
0.0
230
1.0
 70
    11
 71
     3
 72
    64
 73
    60
 74
     0
 42
0.0000000001
 43
0.0000000001
 12
1.0
 22
0.0
 32
0.0
 13
1.0
 23
0.0
 33
0.0
 40
0.0
 40
0.0
 40
0.0
 40
0.0
 40
0.0625
 40
0.0625
 40
0.0625
 40
0.0625
 40
0.125
 40
0.125
 40
0.125
 40
0.125
 40
0.1875
 40
0.1875
 40
0.1875
 40
0.1875
 40
0.25
 40
0.25
 40
0.25
 40
0.25
 40
0.3125
 40
0.3125
 40
0.3125
 40
0.3125
 40
0.375
 40
0.375
 40
0.375
 40
0.375
 40
0.4375
 40
0.4375
 40
0.4375
 40
0.4375
 40
0.5
 40
0.5
 40
0.5
 40
0.5
 40
0.5625
 40
0.5625
 40
0.5625
 40
0.5625
 40
0.625
 40
0.625
 40
0.625
 40
0.625
 40
0.6875
 40
0.6875
 40
0.6875
 40
0.6875
 40
0.75
 40
0.75
 40
0.75
 40
0.75
 40
0.8125
 40
0.8125
 40
0.8125
 40
0.8125
 40
0.875
 40
0.875
 40
0.875
 40
0.875
 40
1.0
 40
1.0
 40
1.0
 40
1.0
 10
1.97657
 20
-8.01197
 30
0.0
 10
1.97657
 20
-8.01197
 30
0.0
 10
1.97657
 20
-7.40406
 30
0.0
 10
1.97657
 20
-7.40406
 30
0.0
 10
1.97657
 20
-7.40406
 30
0.0
 10
1.97657
 20
-7.40406
 30
0.0
 10
2.0443
 20
-7.40406
 30
0.0
 10
2.0443
 20
-7.40406
 30
0.0
 10
2.0443
 20
-7.40406
 30
0.0
 10
2.0443
 20
-7.40406
 30
0.0
 10
2.0443
 20
-7.46177
 30
0.0
 10
2.0443
 20
-7.46177
 30
0.0
 10
2.0443
 20
-7.46177
 30
0.0
 10
2.06025
 20
-7.43948
 30
0.0
 10
2.07831
 20
-7.42269
 30
0.0
 10
2.09849
 20
-7.41154
 30
0.0
 10
2.09849
 20
-7.41154
 30
0.0
 10
2.11853
 20
-7.40039
 30
0.0
 10
2.14294
 20
-7.39474
 30
0.0
 10
2.17159
 20
-7.39474
 30
0.0
 10
2.17159
 20
-7.39474
 30
0.0
 10
2.20912
 20
-7.39474
 30
0.0
 10
2.24214
 20
-7.40434
 30
0.0
 10
2.27079
 20
-7.42367
 30
0.0
 10
2.27079
 20
-7.42367
 30
0.0
 10
2.29943
 20
-7.44286
 30
0.0
 10
2.32102
 20
-7.4701
 30
0.0
 10
2.3357
 20
-7.50509
 30
0.0
 10
2.3357
 20
-7.50509
 30
0.0
 10
2.35023
 20
-7.54023
 30
0.0
 10
2.35757
 20
-7.57861
 30
0.0
 10
2.35757
 20
-7.62052
 30
0.0
 10
2.35757
 20
-7.62052
 30
0.0
 10
2.35757
 20
-7.66526
 30
0.0
 10
2.34953
 20
-7.70561
 30
0.0
 10
2.33344
 20
-7.7416
 30
0.0
 10
2.33344
 20
-7.7416
 30
0.0
 10
2.31735
 20
-7.77744
 30
0.0
 10
2.29393
 20
-7.80496
 30
0.0
 10
2.26317
 20
-7.82415
 30
0.0
 10
2.26317
 20
-7.82415
 30
0.0
 10
2.23255
 20
-7.8432
 30
0.0
 10
2.20023
 20
-7.85279
 30
0.0
 10
2.16637
 20
-7.85279
 30
0.0
 10
2.16637
 20
-7.85279
 30
0.0
 10
2.14153
 20
-7.85279
 30
0.0
 10
2.11923
 20
-7.84757
 30
0.0
 10
2.09962
 20
-7.83713
 30
0.0
 10
2.09962
 20
-7.83713
 30
0.0
 10
2.07986
 20
-7.82669
 30
0.0
 10
2.06378
 20
-7.81356
 30
0.0
 10
2.05108
 20
-7.79762
 30
0.0
 10
2.05108
 20
-7.79762
 30
0.0
 10
2.05108
 20
-7.79762
 30
0.0
 10
2.05108
 20
-8.01197
 30
0.0
 10
2.05108
 20
-8.01197
 30
0.0
 10
2.05108
 20
-8.01197
 30
0.0
 10
2.05108
 20
-8.01197
 30
0.0
 10
1.97657
 20
-8.01197
 30
0.0
 10
1.97657
 20
-8.01197
 30
0.0
  0
SPLINE
  5
51
330
1F
100
AcDbEntity
  8
Layer 1
 62
   250
100
AcDbSpline
210
0.0
220
0.0
230
1.0
 70
    11
 71
     3
 72
    36
 73
    32
 74
     0
 42
0.0000000001
 43
0.0000000001
 12
1.0
 22
0.0
 32
0.0
 13
1.0
 23
0.0
 33
0.0
 40
0.0
 40
0.0
 40
0.0
 40
0.0
 40
0.1111111111111111
 40
0.1111111111111111
 40
0.1111111111111111
 40
0.1111111111111111
 40
0.2222222222222222
 40
0.2222222222222222
 40
0.2222222222222222
 40
0.2222222222222222
 40
0.3333333333333333
 40
0.3333333333333333
 40
0.3333333333333333
 40
0.3333333333333333
 40
0.4444444444444444
 40
0.4444444444444444
 40
0.4444444444444444
 40
0.4444444444444444
 40
0.5555555555555556
 40
0.5555555555555556
 40
0.5555555555555556
 40
0.5555555555555556
 40
0.6666666666666666
 40
0.6666666666666666
 40
0.6666666666666666
 40
0.6666666666666666
 40
0.7777777777777778
 40
0.7777777777777778
 40
0.7777777777777778
 40
0.7777777777777778
 40
1.0
 40
1.0
 40
1.0
 40
1.0
 10
2.0443
 20
-7.62645
 30
0.0
 10
2.0443
 20
-7.68275
 30
0.0
 10
2.05573
 20
-7.72438
 30
0.0
 10
2.07845
 20
-7.75133
 30
0.0
 10
2.07845
 20
-7.75133
 30
0.0
 10
2.10131
 20
-7.77829
 30
0.0
 10
2.12897
 20
-7.79183
 30
0.0
 10
2.16143
 20
-7.79183
 30
0.0
 10
2.16143
 20
-7.79183
 30
0.0
 10
2.19445
 20
-7.79183
 30
0.0
 10
2.22267
 20
-7.77786
 30
0.0
 10
2.24609
 20
-7.74992
 30
0.0
 10
2.24609
 20
-7.74992
 30
0.0
 10
2.26966
 20
-7.72198
 30
0.0
 10
2.28137
 20
-7.6788
 30
0.0
 10
2.28137
 20
-7.62024
 30
0.0
 10
2.28137
 20
-7.62024
 30
0.0
 10
2.28137
 20
-7.56436
 30
0.0
 10
2.26994
 20
-7.52259
 30
0.0
 10
2.24694
 20
-7.49479
 30
0.0
 10
2.24694
 20
-7.49479
 30
0.0
 10
2.22394
 20
-7.46699
 30
0.0
 10
2.19656
 20
-7.45317
 30
0.0
 10
2.16467
 20
-7.45317
 30
0.0
 10
2.16467
 20
-7.45317
 30
0.0
 10
2.13306
 20
-7.45317
 30
0.0
 10
2.10512
 20
-7.46798
 30
0.0
 10
2.08085
 20
-7.49747
 30
0.0
 10
2.08085
 20
-7.49747
 30
0.0
 10
2.05644
 20
-7.52711
 30
0.0
 10
2.0443
 20
-7.57001
 30
0.0
 10
2.0443
 20
-7.62645
 30
0.0
  0
SPLINE
  5
52
330
1F
100
AcDbEntity
  8
Layer 1
 62
   250
100
AcDbSpline
210
0.0
220
0.0
230
1.0
 70
    11
 71
     3
 72
    20
 73
    16
 74
     0
 42
0.0000000001
 43
0.0000000001
 12
1.0
 22
0.0
 32
0.0
 13
1.0
 23
0.0
 33
0.0
 40
0.0
 40
0.0
 40
0.0
 40
0.0
 40
0.2
 40
0.2
 40
0.2
 40
0.2
 40
0.4
 40
0.4
 40
0.4
 40
0.4
 40
0.6
 40
0.6
 40
0.6
 40
0.6
 40
1.0
 40
1.0
 40
1.0
 40
1.0
 10
2.44577
 20
-7.84348
 30
0.0
 10
2.44577
 20
-7.84348
 30
0.0
 10
2.44577
 20
-7.23726
 30
0.0
 10
2.44577
 20
-7.23726
 30
0.0
 10
2.44577
 20
-7.23726
 30
0.0
 10
2.44577
 20
-7.23726
 30
0.0
 10
2.52027
 20
-7.23726
 30
0.0
 10
2.52027
 20
-7.23726
 30
0.0
 10
2.52027
 20
-7.23726
 30
0.0
 10
2.52027
 20
-7.23726
 30
0.0
 10
2.52027
 20
-7.84348
 30
0.0
 10
2.52027
 20
-7.84348
 30
0.0
 10
2.52027
 20
-7.84348
 30
0.0
 10
2.52027
 20
-7.84348
 30
0.0
 10
2.44577
 20
-7.84348
 30
0.0
 10
2.44577
 20
-7.84348
 30
0.0
  0
SPLINE
  5
53
330
1F
100
AcDbEntity
  8
Layer 1
 62
   250
100
AcDbSpline
210
0.0
220
0.0
230
1.0
 70
    11
 71
     3
 72
   112
 73
   108
 74
     0
 42
0.0000000001
 43
0.0000000001
 12
1.0
 22
0.0
 32
0.0
 13
1.0
 23
0.0
 33
0.0
 40
0.0
 40
0.0
 40
0.0
 40
0.0
 40
0.0357142857142857
 40
0.0357142857142857
 40
0.0357142857142857
 40
0.0357142857142857
 40
0.0714285714285714
 40
0.0714285714285714
 40
0.0714285714285714
 40
0.0714285714285714
 40
0.1071428571428571
 40
0.1071428571428571
 40
0.1071428571428571
 40
0.1071428571428571
 40
0.1428571428571428
 40
0.1428571428571428
 40
0.1428571428571428
 40
0.1428571428571428
 40
0.1785714285714286
 40
0.1785714285714286
 40
0.1785714285714286
 40
0.1785714285714286
 40
0.2142857142857143
 40
0.2142857142857143
 40
0.2142857142857143
 40
0.2142857142857143
 40
0.25
 40
0.25
 40
0.25
 40
0.25
 40
0.2857142857142857
 40
0.2857142857142857
 40
0.2857142857142857
 40
0.2857142857142857
 40
0.3214285714285715
 40
0.3214285714285715
 40
0.3214285714285715
 40
0.3214285714285715
 40
0.3571428571428572
 40
0.3571428571428572
 40
0.3571428571428572
 40
0.3571428571428572
 40
0.3928571428571428
 40
0.3928571428571428
 40
0.3928571428571428
 40
0.3928571428571428
 40
0.4285714285714285
 40
0.4285714285714285
 40
0.4285714285714285
 40
0.4285714285714285
 40
0.4642857142857143
 40
0.4642857142857143
 40
0.4642857142857143
 40
0.4642857142857143
 40
0.5
 40
0.5
 40
0.5
 40
0.5
 40
0.5357142857142857
 40
0.5357142857142857
 40
0.5357142857142857
 40
0.5357142857142857
 40
0.5714285714285714
 40
0.5714285714285714
 40
0.5714285714285714
 40
0.5714285714285714
 40
0.6071428571428571
 40
0.6071428571428571
 40
0.6071428571428571
 40
0.6071428571428571
 40
0.6428571428571429
 40
0.6428571428571429
 40
0.6428571428571429
 40
0.6428571428571429
 40
0.6785714285714286
 40
0.6785714285714286
 40
0.6785714285714286
 40
0.6785714285714286
 40
0.7142857142857143
 40
0.7142857142857143
 40
0.7142857142857143
 40
0.7142857142857143
 40
0.75
 40
0.75
 40
0.75
 40
0.75
 40
0.7857142857142857
 40
0.7857142857142857
 40
0.7857142857142857
 40
0.7857142857142857
 40
0.8214285714285714
 40
0.8214285714285714
 40
0.8214285714285714
 40
0.8214285714285714
 40
0.8571428571428571
 40
0.8571428571428571
 40
0.8571428571428571
 40
0.8571428571428571
 40
0.8928571428571429
 40
0.8928571428571429
 40
0.8928571428571429
 40
0.8928571428571429
 40
0.9285714285714286
 40
0.9285714285714286
 40
0.9285714285714286
 40
0.9285714285714286
 40
1.0
 40
1.0
 40
1.0
 40
1.0
 10
2.92258
 20
-7.78845
 30
0.0
 10
2.89492
 20
-7.81201
 30
0.0
 10
2.86825
 20
-7.82852
 30
0.0
 10
2.84271
 20
-7.83826
 30
0.0
 10
2.84271
 20
-7.83826
 30
0.0
 10
2.81717
 20
-7.848
 30
0.0
 10
2.7898
 20
-7.85279
 30
0.0
 10
2.76044
 20
-7.85279
 30
0.0
 10
2.76044
 20
-7.85279
 30
0.0
 10
2.71218
 20
-7.85279
 30
0.0
 10
2.67507
 20
-7.84108
 30
0.0
 10
2.64911
 20
-7.81752
 30
0.0
 10
2.64911
 20
-7.81752
 30
0.0
 10
2.62314
 20
-7.79409
 30
0.0
 10
2.61016
 20
-7.76403
 30
0.0
 10
2.61016
 20
-7.72749
 30
0.0
 10
2.61016
 20
-7.72749
 30
0.0
 10
2.61016
 20
-7.70604
 30
0.0
 10
2.6151
 20
-7.68642
 30
0.0
 10
2.62484
 20
-7.66864
 30
0.0
 10
2.62484
 20
-7.66864
 30
0.0
 10
2.63471
 20
-7.65086
 30
0.0
 10
2.64755
 20
-7.63675
 30
0.0
 10
2.66336
 20
-7.62603
 30
0.0
 10
2.66336
 20
-7.62603
 30
0.0
 10
2.6793
 20
-7.6153
 30
0.0
 10
2.69708
 20
-7.60712
 30
0.0
 10
2.71698
 20
-7.60161
 30
0.0
 10
2.71698
 20
-7.60161
 30
0.0
 10
2.73166
 20
-7.5978
 30
0.0
 10
2.75381
 20
-7.59414
 30
0.0
 10
2.7833
 20
-7.59047
 30
0.0
 10
2.7833
 20
-7.59047
 30
0.0
 10
2.84342
 20
-7.58341
 30
0.0
 10
2.88787
 20
-7.5748
 30
0.0
 10
2.91623
 20
-7.56493
 30
0.0
 10
2.91623
 20
-7.56493
 30
0.0
 10
2.91651
 20
-7.55477
 30
0.0
 10
2.91665
 20
-7.54827
 30
0.0
 10
2.91665
 20
-7.54559
 30
0.0
 10
2.91665
 20
-7.54559
 30
0.0
 10
2.91665
 20
-7.5154
 30
0.0
 10
2.9096
 20
-7.49409
 30
0.0
 10
2.89549
 20
-7.48167
 30
0.0
 10
2.89549
 20
-7.48167
 30
0.0
 10
2.87644
 20
-7.46488
 30
0.0
 10
2.84807
 20
-7.45655
 30
0.0
 10
2.81054
 20
-7.45655
 30
0.0
 10
2.81054
 20
-7.45655
 30
0.0
 10
2.7754
 20
-7.45655
 30
0.0
 10
2.74944
 20
-7.46276
 30
0.0
 10
2.73279
 20
-7.47504
 30
0.0
 10
2.73279
 20
-7.47504
 30
0.0
 10
2.71599
 20
-7.48731
 30
0.0
 10
2.70372
 20
-7.50905
 30
0.0
 10
2.69567
 20
-7.54037
 30
0.0
 10
2.69567
 20
-7.54037
 30
0.0
 10
2.69567
 20
-7.54037
 30
0.0
 10
2.62286
 20
-7.53021
 30
0.0
 10
2.62286
 20
-7.53021
 30
0.0
 10
2.62286
 20
-7.53021
 30
0.0
 10
2.62949
 20
-7.49903
 30
0.0
 10
2.64036
 20
-7.47377
 30
0.0
 10
2.6556
 20
-7.45458
 30
0.0
 10
2.6556
 20
-7.45458
 30
0.0
 10
2.67084
 20
-7.43539
 30
0.0
 10
2.69285
 20
-7.42071
 30
0.0
 10
2.72164
 20
-7.41027
 30
0.0
 10
2.72164
 20
-7.41027
 30
0.0
 10
2.75028
 20
-7.39997
 30
0.0
 10
2.78373
 20
-7.39474
 30
0.0
 10
2.82155
 20
-7.39474
 30
0.0
 10
2.82155
 20
-7.39474
 30
0.0
 10
2.85908
 20
-7.39474
 30
0.0
 10
2.8897
 20
-7.39912
 30
0.0
 10
2.91327
 20
-7.40801
 30
0.0
 10
2.91327
 20
-7.40801
 30
0.0
 10
2.93669
 20
-7.4169
 30
0.0
 10
2.95405
 20
-7.42791
 30
0.0
 10
2.96506
 20
-7.44131
 30
0.0
 10
2.96506
 20
-7.44131
 30
0.0
 10
2.97606
 20
-7.45472
 30
0.0
 10
2.98382
 20
-7.47165
 30
0.0
 10
2.98834
 20
-7.49211
 30
0.0
 10
2.98834
 20
-7.49211
 30
0.0
 10
2.99074
 20
-7.50481
 30
0.0
 10
2.99201
 20
-7.52767
 30
0.0
 10
2.99201
 20
-7.56055
 30
0.0
 10
2.99201
 20
-7.56055
 30
0.0
 10
2.99201
 20
-7.56055
 30
0.0
 10
2.99201
 20
-7.65933
 30
0.0
 10
2.99201
 20
-7.65933
 30
0.0
 10
2.99201
 20
-7.65933
 30
0.0
 10
2.99201
 20
-7.72833
 30
0.0
 10
2.99356
 20
-7.77194
 30
0.0
 10
2.99666
 20
-7.79042
 30
0.0
 10
2.99666
 20
-7.79042
 30
0.0
 10
2.99963
 20
-7.80891
 30
0.0
 10
3.00584
 20
-7.82655
 30
0.0
 10
3.01487
 20
-7.84348
 30
0.0
 10
3.01487
 20
-7.84348
 30
0.0
 10
3.01487
 20
-7.84348
 30
0.0
 10
2.93697
 20
-7.84348
 30
0.0
 10
2.93697
 20
-7.84348
 30
0.0
 10
2.93697
 20
-7.84348
 30
0.0
 10
2.9295
 20
-7.82782
 30
0.0
 10
2.9247
 20
-7.80947
 30
0.0
 10
2.92258
 20
-7.78845
 30
0.0
  0
SPLINE
  5
54
330
1F
100
AcDbEntity
  8
Layer 1
 62
   250
100
AcDbSpline
210
0.0
220
0.0
230
1.0
 70
    11
 71
     3
 72
    44
 73
    40
 74
     0
 42
0.0000000001
 43
0.0000000001
 12
1.0
 22
0.0
 32
0.0
 13
1.0
 23
0.0
 33
0.0
 40
0.0
 40
0.0
 40
0.0
 40
0.0
 40
0.0909090909090909
 40
0.0909090909090909
 40
0.0909090909090909
 40
0.0909090909090909
 40
0.1818181818181818
 40
0.1818181818181818
 40
0.1818181818181818
 40
0.1818181818181818
 40
0.2727272727272727
 40
0.2727272727272727
 40
0.2727272727272727
 40
0.2727272727272727
 40
0.3636363636363636
 40
0.3636363636363636
 40
0.3636363636363636
 40
0.3636363636363636
 40
0.4545454545454545
 40
0.4545454545454545
 40
0.4545454545454545
 40
0.4545454545454545
 40
0.5454545454545454
 40
0.5454545454545454
 40
0.5454545454545454
 40
0.5454545454545454
 40
0.6363636363636364
 40
0.6363636363636364
 40
0.6363636363636364
 40
0.6363636363636364
 40
0.7272727272727273
 40
0.7272727272727273
 40
0.7272727272727273
 40
0.7272727272727273
 40
0.8181818181818182
 40
0.8181818181818182
 40
0.8181818181818182
 40
0.8181818181818182
 40
1.0
 40
1.0
 40
1.0
 40
1.0
 10
2.91665
 20
-7.62335
 30
0.0
 10
2.88956
 20
-7.63435
 30
0.0
 10
2.84892
 20
-7.64367
 30
0.0
 10
2.79473
 20
-7.65129
 30
0.0
 10
2.79473
 20
-7.65129
 30
0.0
 10
2.76397
 20
-7.65566
 30
0.0
 10
2.74224
 20
-7.6606
 30
0.0
 10
2.72954
 20
-7.6661
 30
0.0
 10
2.72954
 20
-7.6661
 30
0.0
 10
2.71684
 20
-7.67161
 30
0.0
 10
2.7071
 20
-7.67965
 30
0.0
 10
2.70019
 20
-7.69009
 30
0.0
 10
2.70019
 20
-7.69009
 30
0.0
 10
2.69327
 20
-7.70067
 30
0.0
 10
2.68975
 20
-7.71239
 30
0.0
 10
2.68975
 20
-7.72537
 30
0.0
 10
2.68975
 20
-7.72537
 30
0.0
 10
2.68975
 20
-7.74498
 30
0.0
 10
2.69723
 20
-7.76149
 30
0.0
 10
2.71232
 20
-7.77462
 30
0.0
 10
2.71232
 20
-7.77462
 30
0.0
 10
2.72742
 20
-7.78774
 30
0.0
 10
2.74944
 20
-7.79437
 30
0.0
 10
2.77837
 20
-7.79437
 30
0.0
 10
2.77837
 20
-7.79437
 30
0.0
 10
2.80701
 20
-7.79437
 30
0.0
 10
2.83255
 20
-7.78816
 30
0.0
 10
2.85499
 20
-7.77561
 30
0.0
 10
2.85499
 20
-7.77561
 30
0.0
 10
2.87728
 20
-7.76319
 30
0.0
 10
2.89379
 20
-7.74611
 30
0.0
 10
2.90424
 20
-7.72452
 30
0.0
 10
2.90424
 20
-7.72452
 30
0.0
 10
2.91228
 20
-7.70773
 30
0.0
 10
2.91623
 20
-7.68304
 30
0.0
 10
2.91623
 20
-7.65044
 30
0.0
 10
2.91623
 20
-7.65044
 30
0.0
 10
2.91623
 20
-7.65044
 30
0.0
 10
2.91665
 20
-7.62335
 30
0.0
 10
2.91665
 20
-7.62335
 30
0.0
  0
SPLINE
  5
55
330
1F
100
AcDbEntity
  8
Layer 1
 62
   250
100
AcDbSpline
210
0.0
220
0.0
230
1.0
 70
    11
 71
     3
 72
    84
 73
    80
 74
     0
 42
0.0000000001
 43
0.0000000001
 12
1.0
 22
0.0
 32
0.0
 13
1.0
 23
0.0
 33
0.0
 40
0.0
 40
0.0
 40
0.0
 40
0.0
 40
0.0476190476190476
 40
0.0476190476190476
 40
0.0476190476190476
 40
0.0476190476190476
 40
0.0952380952380952
 40
0.0952380952380952
 40
0.0952380952380952
 40
0.0952380952380952
 40
0.1428571428571428
 40
0.1428571428571428
 40
0.1428571428571428
 40
0.1428571428571428
 40
0.1904761904761905
 40
0.1904761904761905
 40
0.1904761904761905
 40
0.1904761904761905
 40
0.2380952380952381
 40
0.2380952380952381
 40
0.2380952380952381
 40
0.2380952380952381
 40
0.2857142857142857
 40
0.2857142857142857
 40
0.2857142857142857
 40
0.2857142857142857
 40
0.3333333333333333
 40
0.3333333333333333
 40
0.3333333333333333
 40
0.3333333333333333
 40
0.3809523809523809
 40
0.3809523809523809
 40
0.3809523809523809
 40
0.3809523809523809
 40
0.4285714285714285
 40
0.4285714285714285
 40
0.4285714285714285
 40
0.4285714285714285
 40
0.4761904761904762
 40
0.4761904761904762
 40
0.4761904761904762
 40
0.4761904761904762
 40
0.5238095238095238
 40
0.5238095238095238
 40
0.5238095238095238
 40
0.5238095238095238
 40
0.5714285714285714
 40
0.5714285714285714
 40
0.5714285714285714
 40
0.5714285714285714
 40
0.6190476190476191
 40
0.6190476190476191
 40
0.6190476190476191
 40
0.6190476190476191
 40
0.6666666666666666
 40
0.6666666666666666
 40
0.6666666666666666
 40
0.6666666666666666
 40
0.7142857142857143
 40
0.7142857142857143
 40
0.7142857142857143
 40
0.7142857142857143
 40
0.7619047619047619
 40
0.7619047619047619
 40
0.7619047619047619
 40
0.7619047619047619
 40
0.8095238095238095
 40
0.8095238095238095
 40
0.8095238095238095
 40
0.8095238095238095
 40
0.8571428571428571
 40
0.8571428571428571
 40
0.8571428571428571
 40
0.8571428571428571
 40
0.9047619047619048
 40
0.9047619047619048
 40
0.9047619047619048
 40
0.9047619047619048
 40
1.0
 40
1.0
 40
1.0
 40
1.0
 10
3.26816
 20
-7.77702
 30
0.0
 10
3.26816
 20
-7.77702
 30
0.0
 10
3.27832
 20
-7.84277
 30
0.0
 10
3.27832
 20
-7.84277
 30
0.0
 10
3.27832
 20
-7.84277
 30
0.0
 10
3.25744
 20
-7.84715
 30
0.0
 10
3.23867
 20
-7.84941
 30
0.0
 10
3.2223
 20
-7.84941
 30
0.0
 10
3.2223
 20
-7.84941
 30
0.0
 10
3.19535
 20
-7.84941
 30
0.0
 10
3.17447
 20
-7.84517
 30
0.0
 10
3.15951
 20
-7.83657
 30
0.0
 10
3.15951
 20
-7.83657
 30
0.0
 10
3.14469
 20
-7.82796
 30
0.0
 10
3.13425
 20
-7.81681
 30
0.0
 10
3.12818
 20
-7.80284
 30
0.0
 10
3.12818
 20
-7.80284
 30
0.0
 10
3.12211
 20
-7.78887
 30
0.0
 10
3.11915
 20
-7.75952
 30
0.0
 10
3.11915
 20
-7.71479
 30
0.0
 10
3.11915
 20
-7.71479
 30
0.0
 10
3.11915
 20
-7.71479
 30
0.0
 10
3.11915
 20
-7.46163
 30
0.0
 10
3.11915
 20
-7.46163
 30
0.0
 10
3.11915
 20
-7.46163
 30
0.0
 10
3.11915
 20
-7.46163
 30
0.0
 10
3.06412
 20
-7.46163
 30
0.0
 10
3.06412
 20
-7.46163
 30
0.0
 10
3.06412
 20
-7.46163
 30
0.0
 10
3.06412
 20
-7.46163
 30
0.0
 10
3.06412
 20
-7.40406
 30
0.0
 10
3.06412
 20
-7.40406
 30
0.0
 10
3.06412
 20
-7.40406
 30
0.0
 10
3.06412
 20
-7.40406
 30
0.0
 10
3.11915
 20
-7.40406
 30
0.0
 10
3.11915
 20
-7.40406
 30
0.0
 10
3.11915
 20
-7.40406
 30
0.0
 10
3.11915
 20
-7.40406
 30
0.0
 10
3.11915
 20
-7.2954
 30
0.0
 10
3.11915
 20
-7.2954
 30
0.0
 10
3.11915
 20
-7.2954
 30
0.0
 10
3.11915
 20
-7.2954
 30
0.0
 10
3.19366
 20
-7.25067
 30
0.0
 10
3.19366
 20
-7.25067
 30
0.0
 10
3.19366
 20
-7.25067
 30
0.0
 10
3.19366
 20
-7.25067
 30
0.0
 10
3.19366
 20
-7.40406
 30
0.0
 10
3.19366
 20
-7.40406
 30
0.0
 10
3.19366
 20
-7.40406
 30
0.0
 10
3.19366
 20
-7.40406
 30
0.0
 10
3.26816
 20
-7.40406
 30
0.0
 10
3.26816
 20
-7.40406
 30
0.0
 10
3.26816
 20
-7.40406
 30
0.0
 10
3.26816
 20
-7.40406
 30
0.0
 10
3.26816
 20
-7.46163
 30
0.0
 10
3.26816
 20
-7.46163
 30
0.0
 10
3.26816
 20
-7.46163
 30
0.0
 10
3.26816
 20
-7.46163
 30
0.0
 10
3.19366
 20
-7.46163
 30
0.0
 10
3.19366
 20
-7.46163
 30
0.0
 10
3.19366
 20
-7.46163
 30
0.0
 10
3.19366
 20
-7.46163
 30
0.0
 10
3.19366
 20
-7.71902
 30
0.0
 10
3.19366
 20
-7.71902
 30
0.0
 10
3.19366
 20
-7.71902
 30
0.0
 10
3.19366
 20
-7.74033
 30
0.0
 10
3.19493
 20
-7.75402
 30
0.0
 10
3.19761
 20
-7.76008
 30
0.0
 10
3.19761
 20
-7.76008
 30
0.0
 10
3.20015
 20
-7.76615
 30
0.0
 10
3.20438
 20
-7.77095
 30
0.0
 10
3.21031
 20
-7.77462
 30
0.0
 10
3.21031
 20
-7.77462
 30
0.0
 10
3.21624
 20
-7.77815
 30
0.0
 10
3.2247
 20
-7.77998
 30
0.0
 10
3.23571
 20
-7.77998
 30
0.0
 10
3.23571
 20
-7.77998
 30
0.0
 10
3.24389
 20
-7.77998
 30
0.0
 10
3.25476
 20
-7.77899
 30
0.0
 10
3.26816
 20
-7.77702
 30
0.0
  0
SPLINE
  5
56
330
1F
100
AcDbEntity
  8
Layer 1
 62
   250
100
AcDbSpline
210
0.0
220
0.0
230
1.0
 70
    11
 71
     3
 72
    64
 73
    60
 74
     0
 42
0.0000000001
 43
0.0000000001
 12
1.0
 22
0.0
 32
0.0
 13
1.0
 23
0.0
 33
0.0
 40
0.0
 40
0.0
 40
0.0
 40
0.0
 40
0.0625
 40
0.0625
 40
0.0625
 40
0.0625
 40
0.125
 40
0.125
 40
0.125
 40
0.125
 40
0.1875
 40
0.1875
 40
0.1875
 40
0.1875
 40
0.25
 40
0.25
 40
0.25
 40
0.25
 40
0.3125
 40
0.3125
 40
0.3125
 40
0.3125
 40
0.375
 40
0.375
 40
0.375
 40
0.375
 40
0.4375
 40
0.4375
 40
0.4375
 40
0.4375
 40
0.5
 40
0.5
 40
0.5
 40
0.5
 40
0.5625
 40
0.5625
 40
0.5625
 40
0.5625
 40
0.625
 40
0.625
 40
0.625
 40
0.625
 40
0.6875
 40
0.6875
 40
0.6875
 40
0.6875
 40
0.75
 40
0.75
 40
0.75
 40
0.75
 40
0.8125
 40
0.8125
 40
0.8125
 40
0.8125
 40
0.875
 40
0.875
 40
0.875
 40
0.875
 40
1.0
 40
1.0
 40
1.0
 40
1.0
 10
3.6414
 20
-7.70124
 30
0.0
 10
3.6414
 20
-7.70124
 30
0.0
 10
3.71845
 20
-7.7114
 30
0.0
 10
3.71845
 20
-7.7114
 30
0.0
 10
3.71845
 20
-7.7114
 30
0.0
 10
3.70645
 20
-7.75613
 30
0.0
 10
3.68402
 20
-7.79099
 30
0.0
 10
3.65128
 20
-7.81568
 30
0.0
 10
3.65128
 20
-7.81568
 30
0.0
 10
3.61854
 20
-7.84038
 30
0.0
 10
3.57677
 20
-7.85279
 30
0.0
 10
3.52583
 20
-7.85279
 30
0.0
 10
3.52583
 20
-7.85279
 30
0.0
 10
3.46177
 20
-7.85279
 30
0.0
 10
3.41097
 20
-7.83304
 30
0.0
 10
3.37343
 20
-7.79353
 30
0.0
 10
3.37343
 20
-7.79353
 30
0.0
 10
3.33589
 20
-7.75416
 30
0.0
 10
3.31713
 20
-7.6987
 30
0.0
 10
3.31713
 20
-7.62744
 30
0.0
 10
3.31713
 20
-7.62744
 30
0.0
 10
3.31713
 20
-7.55378
 30
0.0
 10
3.33604
 20
-7.49649
 30
0.0
 10
3.37399
 20
-7.45585
 30
0.0
 10
3.37399
 20
-7.45585
 30
0.0
 10
3.41195
 20
-7.41506
 30
0.0
 10
3.4612
 20
-7.39474
 30
0.0
 10
3.52174
 20
-7.39474
 30
0.0
 10
3.52174
 20
-7.39474
 30
0.0
 10
3.5803
 20
-7.39474
 30
0.0
 10
3.62814
 20
-7.41464
 30
0.0
 10
3.66525
 20
-7.45458
 30
0.0
 10
3.66525
 20
-7.45458
 30
0.0
 10
3.70236
 20
-7.49451
 30
0.0
 10
3.72099
 20
-7.55067
 30
0.0
 10
3.72099
 20
-7.62306
 30
0.0
 10
3.72099
 20
-7.62306
 30
0.0
 10
3.72099
 20
-7.62744
 30
0.0
 10
3.72085
 20
-7.63407
 30
0.0
 10
3.72057
 20
-7.64282
 30
0.0
 10
3.72057
 20
-7.64282
 30
0.0
 10
3.72057
 20
-7.64282
 30
0.0
 10
3.39333
 20
-7.64282
 30
0.0
 10
3.39333
 20
-7.64282
 30
0.0
 10
3.39333
 20
-7.64282
 30
0.0
 10
3.39615
 20
-7.69094
 30
0.0
 10
3.4097
 20
-7.72791
 30
0.0
 10
3.43425
 20
-7.75345
 30
0.0
 10
3.43425
 20
-7.75345
 30
0.0
 10
3.45866
 20
-7.77899
 30
0.0
 10
3.48928
 20
-7.79183
 30
0.0
 10
3.52583
 20
-7.79183
 30
0.0
 10
3.52583
 20
-7.79183
 30
0.0
 10
3.55307
 20
-7.79183
 30
0.0
 10
3.57635
 20
-7.78464
 30
0.0
 10
3.59554
 20
-7.77024
 30
0.0
 10
3.59554
 20
-7.77024
 30
0.0
 10
3.61487
 20
-7.75585
 30
0.0
 10
3.63011
 20
-7.73285
 30
0.0
 10
3.6414
 20
-7.70124
 30
0.0
  0
SPLINE
  5
57
330
1F
100
AcDbEntity
  8
Layer 1
 62
   250
100
AcDbSpline
210
0.0
220
0.0
230
1.0
 70
    11
 71
     3
 72
    24
 73
    20
 74
     0
 42
0.0000000001
 43
0.0000000001
 12
1.0
 22
0.0
 32
0.0
 13
1.0
 23
0.0
 33
0.0
 40
0.0
 40
0.0
 40
0.0
 40
0.0
 40
0.1666666666666667
 40
0.1666666666666667
 40
0.1666666666666667
 40
0.1666666666666667
 40
0.3333333333333333
 40
0.3333333333333333
 40
0.3333333333333333
 40
0.3333333333333333
 40
0.5
 40
0.5
 40
0.5
 40
0.5
 40
0.6666666666666666
 40
0.6666666666666666
 40
0.6666666666666666
 40
0.6666666666666666
 40
1.0
 40
1.0
 40
1.0
 40
1.0
 10
3.39756
 20
-7.58186
 30
0.0
 10
3.39756
 20
-7.58186
 30
0.0
 10
3.64225
 20
-7.58186
 30
0.0
 10
3.64225
 20
-7.58186
 30
0.0
 10
3.64225
 20
-7.58186
 30
0.0
 10
3.639
 20
-7.54489
 30
0.0
 10
3.62955
 20
-7.51723
 30
0.0
 10
3.61417
 20
-7.49874
 30
0.0
 10
3.61417
 20
-7.49874
 30
0.0
 10
3.5906
 20
-7.4701
 30
0.0
 10
3.55984
 20
-7.45571
 30
0.0
 10
3.52216
 20
-7.45571
 30
0.0
 10
3.52216
 20
-7.45571
 30
0.0
 10
3.48801
 20
-7.45571
 30
0.0
 10
3.45937
 20
-7.46714
 30
0.0
 10
3.43608
 20
-7.49
 30
0.0
 10
3.43608
 20
-7.49
 30
0.0
 10
3.41294
 20
-7.51286
 30
0.0
 10
3.4001
 20
-7.54348
 30
0.0
 10
3.39756
 20
-7.58186
 30
0.0
  0
SPLINE
  5
58
330
1F
100
AcDbEntity
  8
Layer 1
370
    35
100
AcDbSpline
210
0.0
220
0.0
230
1.0
 70
    27
 71
     3
 72
     8
 73
     4
 74
     0
 42
0.0000000001
 43
0.0000000001
 12
1.0
 22
0.0
 32
0.0
 13
1.0
 23
0.0
 33
0.0
 40
0.0
 40
0.0
 40
0.0
 40
0.0
 40
1.0
 40
1.0
 40
1.0
 40
1.0
 10
-5.48141
 20
5.73385
 30
0.0
 10
-5.48141
 20
5.73385
 30
0.0
 10
-5.48141
 20
5.73385
 30
0.0
 10
-5.48141
 20
5.73385
 30
0.0
  0
SPLINE
  5
59
330
1F
100
AcDbEntity
  8
Layer 1
370
    35
100
AcDbSpline
210
0.0
220
0.0
230
1.0
 70
    24
 71
     3
 72
     8
 73
     4
 74
     0
 42
0.0000000001
 43
0.0000000001
 12
1.0
 22
0.0
 32
0.0
 13
1.0
 23
0.0
 33
0.0
 40
0.0
 40
0.0
 40
0.0
 40
0.0
 40
1.0
 40
1.0
 40
1.0
 40
1.0
 10
-5.91441
 20
5.73385
 30
0.0
 10
-5.91441
 20
5.73385
 30
0.0
 10
-5.48141
 20
5.73385
 30
0.0
 10
-5.48141
 20
5.73385
 30
0.0
  0
SPLINE
  5
5A
330
1F
100
AcDbEntity
  8
Layer 1
370
    35
100
AcDbSpline
210
0.0
220
0.0
230
1.0
 70
    27
 71
     3
 72
     8
 73
     4
 74
     0
 42
0.0000000001
 43
0.0000000001
 12
1.0
 22
0.0
 32
0.0
 13
1.0
 23
0.0
 33
0.0
 40
0.0
 40
0.0
 40
0.0
 40
0.0
 40
1.0
 40
1.0
 40
1.0
 40
1.0
 10
5.90658
 20
4.28329
 30
0.0
 10
5.90658
 20
4.28329
 30
0.0
 10
5.90658
 20
4.28329
 30
0.0
 10
5.90658
 20
4.28329
 30
0.0
  0
SPLINE
  5
5B
330
1F
100
AcDbEntity
  8
Layer 1
370
    35
100
AcDbSpline
210
0.0
220
0.0
230
1.0
 70
    24
 71
     3
 72
     8
 73
     4
 74
     0
 42
0.0000000001
 43
0.0000000001
 12
1.0
 22
0.0
 32
0.0
 13
1.0
 23
0.0
 33
0.0
 40
0.0
 40
0.0
 40
0.0
 40
0.0
 40
1.0
 40
1.0
 40
1.0
 40
1.0
 10
-5.48141
 20
4.28329
 30
0.0
 10
-5.48141
 20
4.28329
 30
0.0
 10
5.90658
 20
4.28329
 30
0.0
 10
5.90658
 20
4.28329
 30
0.0
  0
SPLINE
  5
5C
330
1F
100
AcDbEntity
  8
Layer 1
370
    35
100
AcDbSpline
210
0.0
220
0.0
230
1.0
 70
    24
 71
     3
 72
     8
 73
     4
 74
     0
 42
0.0000000001
 43
0.0000000001
 12
1.0
 22
0.0
 32
0.0
 13
1.0
 23
0.0
 33
0.0
 40
0.0
 40
0.0
 40
0.0
 40
0.0
 40
1.0
 40
1.0
 40
1.0
 40
1.0
 10
-3.68445
 20
-5.58918
 30
0.0
 10
-3.68445
 20
-5.58918
 30
0.0
 10
4.10961
 20
-5.58918
 30
0.0
 10
4.10961
 20
-5.58918
 30
0.0
  0
SPLINE
  5
5D
330
1F
100
AcDbEntity
  8
Layer 1
370
    35
100
AcDbSpline
210
0.0
220
0.0
230
1.0
 70
    27
 71
     3
 72
     8
 73
     4
 74
     0
 42
0.0000000001
 43
0.0000000001
 12
1.0
 22
0.0
 32
0.0
 13
1.0
 23
0.0
 33
0.0
 40
0.0
 40
0.0
 40
0.0
 40
0.0
 40
1.0
 40
1.0
 40
1.0
 40
1.0
 10
6.77258
 20
5.30085
 30
0.0
 10
6.77258
 20
5.30085
 30
0.0
 10
6.77258
 20
5.30085
 30
0.0
 10
6.77258
 20
5.30085
 30
0.0
  0
SPLINE
  5
5E
330
1F
100
AcDbEntity
  8
Layer 1
370
    35
100
AcDbSpline
210
0.0
220
0.0
230
1.0
 70
    24
 71
     3
 72
     8
 73
     4
 74
     0
 42
0.0000000001
 43
0.0000000001
 12
1.0
 22
0.0
 32
0.0
 13
1.0
 23
0.0
 33
0.0
 40
0.0
 40
0.0
 40
0.0
 40
0.0
 40
1.0
 40
1.0
 40
1.0
 40
1.0
 10
6.77258
 20
5.30085
 30
0.0
 10
6.77258
 20
5.30085
 30
0.0
 10
6.77258
 20
-2.92621
 30
0.0
 10
6.77258
 20
-2.92621
 30
0.0
  0
SPLINE
  5
5F
330
1F
100
AcDbEntity
  8
Layer 1
370
    35
100
AcDbSpline
210
0.0
220
0.0
230
1.0
 70
    27
 71
     3
 72
     8
 73
     4
 74
     0
 42
0.0000000001
 43
0.0000000001
 12
1.0
 22
0.0
 32
0.0
 13
1.0
 23
0.0
 33
0.0
 40
0.0
 40
0.0
 40
0.0
 40
0.0
 40
1.0
 40
1.0
 40
1.0
 40
1.0
 10
-6.34742
 20
5.30085
 30
0.0
 10
-6.34742
 20
5.30085
 30
0.0
 10
-6.34742
 20
5.30085
 30
0.0
 10
-6.34742
 20
5.30085
 30
0.0
  0
SPLINE
  5
60
330
1F
100
AcDbEntity
  8
Layer 1
370
    35
100
AcDbSpline
210
0.0
220
0.0
230
1.0
 70
    24
 71
     3
 72
     8
 73
     4
 74
     0
 42
0.0000000001
 43
0.0000000001
 12
1.0
 22
0.0
 32
0.0
 13
1.0
 23
0.0
 33
0.0
 40
0.0
 40
0.0
 40
0.0
 40
0.0
 40
1.0
 40
1.0
 40
1.0
 40
1.0
 10
-6.34742
 20
5.30085
 30
0.0
 10
-6.34742
 20
5.30085
 30
0.0
 10
-6.34742
 20
-2.92621
 30
0.0
 10
-6.34742
 20
-2.92621
 30
0.0
  0
SPLINE
  5
61
330
1F
100
AcDbEntity
  8
Layer 1
370
    35
100
AcDbSpline
210
0.0
220
0.0
230
1.0
 70
     8
 71
     3
 72
     8
 73
     4
 74
     0
 42
0.0000000001
 43
0.0000000001
 12
1.0
 22
0.0
 32
0.0
 13
1.0
 23
0.0
 33
0.0
 40
0.0
 40
0.0
 40
0.0
 40
0.0
 40
1.0
 40
1.0
 40
1.0
 40
1.0
 10
4.10961
 20
-5.58918
 30
0.0
 10
5.58032
 20
-5.58918
 30
0.0
 10
6.77257
 20
-4.39693
 30
0.0
 10
6.77258
 20
-2.92622
 30
0.0
  0
SPLINE
  5
62
330
1F
100
AcDbEntity
  8
Layer 1
370
    35
100
AcDbSpline
210
0.0
220
0.0
230
1.0
 70
     8
 71
     3
 72
    12
 73
     8
 74
     0
 42
0.0000000001
 43
0.0000000001
 12
1.0
 22
0.0
 32
0.0
 13
1.0
 23
0.0
 33
0.0
 40
0.0
 40
0.0
 40
0.0
 40
0.0
 40
0.3333333333333333
 40
0.3333333333333333
 40
0.3333333333333333
 40
0.3333333333333333
 40
1.0
 40
1.0
 40
1.0
 40
1.0
 10
-6.34742
 20
-2.92621
 30
0.0
 10
-6.34742
 20
-3.63247
 30
0.0
 10
-6.06685
 20
-4.30981
 30
0.0
 10
-5.56745
 20
-4.80921
 30
0.0
 10
-5.56745
 20
-4.80921
 30
0.0
 10
-5.06805
 20
-5.30861
 30
0.0
 10
-4.39071
 20
-5.58918
 30
0.0
 10
-3.68445
 20
-5.58918
 30
0.0
  0
SPLINE
  5
63
330
1F
100
AcDbEntity
  8
Layer 1
370
    35
100
AcDbSpline
210
0.0
220
0.0
230
1.0
 70
     8
 71
     3
 72
    12
 73
     8
 74
     0
 42
0.0000000001
 43
0.0000000001
 12
1.0
 22
0.0
 32
0.0
 13
1.0
 23
0.0
 33
0.0
 40
0.0
 40
0.0
 40
0.0
 40
0.0
 40
0.3333333333333333
 40
0.3333333333333333
 40
0.3333333333333333
 40
0.3333333333333333
 40
1.0
 40
1.0
 40
1.0
 40
1.0
 10
6.77258
 20
5.30085
 30
0.0
 10
6.77258
 20
5.41569
 30
0.0
 10
6.72696
 20
5.52582
 30
0.0
 10
6.64576
 20
5.60703
 30
0.0
 10
6.64576
 20
5.60703
 30
0.0
 10
6.56455
 20
5.68823
 30
0.0
 10
6.45442
 20
5.73385
 30
0.0
 10
6.33958
 20
5.73385
 30
0.0
  0
SPLINE
  5
64
330
1F
100
AcDbEntity
  8
Layer 1
370
    35
100
AcDbSpline
210
0.0
220
0.0
230
1.0
 70
     8
 71
     3
 72
    12
 73
     8
 74
     0
 42
0.0000000001
 43
0.0000000001
 12
1.0
 22
0.0
 32
0.0
 13
1.0
 23
0.0
 33
0.0
 40
0.0
 40
0.0
 40
0.0
 40
0.0
 40
0.3333333333333333
 40
0.3333333333333333
 40
0.3333333333333333
 40
0.3333333333333333
 40
1.0
 40
1.0
 40
1.0
 40
1.0
 10
-5.91441
 20
5.73385
 30
0.0
 10
-6.02925
 20
5.73385
 30
0.0
 10
-6.13939
 20
5.68823
 30
0.0
 10
-6.22059
 20
5.60703
 30
0.0
 10
-6.22059
 20
5.60703
 30
0.0
 10
-6.3018
 20
5.52582
 30
0.0
 10
-6.34742
 20
5.41569
 30
0.0
 10
-6.34742
 20
5.30085
 30
0.0
  0
SPLINE
  5
65
330
1F
100
AcDbEntity
  8
Layer 1
370
    35
100
AcDbSpline
210
0.0
220
0.0
230
1.0
 70
    27
 71
     3
 72
     8
 73
     4
 74
     0
 42
0.0000000001
 43
0.0000000001
 12
1.0
 22
0.0
 32
0.0
 13
1.0
 23
0.0
 33
0.0
 40
0.0
 40
0.0
 40
0.0
 40
0.0
 40
1.0
 40
1.0
 40
1.0
 40
1.0
 10
5.90658
 20
5.73385
 30
0.0
 10
5.90658
 20
5.73385
 30
0.0
 10
5.90658
 20
5.73385
 30
0.0
 10
5.90658
 20
5.73385
 30
0.0
  0
SPLINE
  5
66
330
1F
100
AcDbEntity
  8
Layer 1
370
    35
100
AcDbSpline
210
0.0
220
0.0
230
1.0
 70
    24
 71
     3
 72
     8
 73
     4
 74
     0
 42
0.0000000001
 43
0.0000000001
 12
1.0
 22
0.0
 32
0.0
 13
1.0
 23
0.0
 33
0.0
 40
0.0
 40
0.0
 40
0.0
 40
0.0
 40
1.0
 40
1.0
 40
1.0
 40
1.0
 10
5.90658
 20
5.73385
 30
0.0
 10
5.90658
 20
5.73385
 30
0.0
 10
5.90658
 20
4.28329
 30
0.0
 10
5.90658
 20
4.28329
 30
0.0
  0
SPLINE
  5
67
330
1F
100
AcDbEntity
  8
Layer 1
370
    35
100
AcDbSpline
210
0.0
220
0.0
230
1.0
 70
    27
 71
     3
 72
     8
 73
     4
 74
     0
 42
0.0000000001
 43
0.0000000001
 12
1.0
 22
0.0
 32
0.0
 13
1.0
 23
0.0
 33
0.0
 40
0.0
 40
0.0
 40
0.0
 40
0.0
 40
1.0
 40
1.0
 40
1.0
 40
1.0
 10
-5.48141
 20
5.73385
 30
0.0
 10
-5.48141
 20
5.73385
 30
0.0
 10
-5.48141
 20
5.73385
 30
0.0
 10
-5.48141
 20
5.73385
 30
0.0
  0
SPLINE
  5
68
330
1F
100
AcDbEntity
  8
Layer 1
370
    35
100
AcDbSpline
210
0.0
220
0.0
230
1.0
 70
    24
 71
     3
 72
     8
 73
     4
 74
     0
 42
0.0000000001
 43
0.0000000001
 12
1.0
 22
0.0
 32
0.0
 13
1.0
 23
0.0
 33
0.0
 40
0.0
 40
0.0
 40
0.0
 40
0.0
 40
1.0
 40
1.0
 40
1.0
 40
1.0
 10
-5.48141
 20
5.73385
 30
0.0
 10
-5.48141
 20
5.73385
 30
0.0
 10
-5.48141
 20
4.28329
 30
0.0
 10
-5.48141
 20
4.28329
 30
0.0
  0
SPLINE
  5
69
330
1F
100
AcDbEntity
  8
Layer 1
370
    35
100
AcDbSpline
210
0.0
220
0.0
230
1.0
 70
    27
 71
     3
 72
     8
 73
     4
 74
     0
 42
0.0000000001
 43
0.0000000001
 12
1.0
 22
0.0
 32
0.0
 13
1.0
 23
0.0
 33
0.0
 40
0.0
 40
0.0
 40
0.0
 40
0.0
 40
1.0
 40
1.0
 40
1.0
 40
1.0
 10
6.33958
 20
5.73385
 30
0.0
 10
6.33958
 20
5.73385
 30
0.0
 10
6.33958
 20
5.73385
 30
0.0
 10
6.33958
 20
5.73385
 30
0.0
  0
SPLINE
  5
6A
330
1F
100
AcDbEntity
  8
Layer 1
370
    35
100
AcDbSpline
210
0.0
220
0.0
230
1.0
 70
    24
 71
     3
 72
     8
 73
     4
 74
     0
 42
0.0000000001
 43
0.0000000001
 12
1.0
 22
0.0
 32
0.0
 13
1.0
 23
0.0
 33
0.0
 40
0.0
 40
0.0
 40
0.0
 40
0.0
 40
1.0
 40
1.0
 40
1.0
 40
1.0
 10
5.90658
 20
5.73385
 30
0.0
 10
5.90658
 20
5.73385
 30
0.0
 10
6.33958
 20
5.73385
 30
0.0
 10
6.33958
 20
5.73385
 30
0.0
  0
SPLINE
  5
6C
330
1F
100
AcDbEntity
  8
layer 2
370
     5
100
AcDbSpline
210
0.0
220
0.0
230
1.0
 70
    27
 71
     3
 72
     8
 73
     4
 74
     0
 42
0.0000000001
 43
0.0000000001
 12
1.0
 22
0.0
 32
0.0
 13
1.0
 23
0.0
 33
0.0
 40
0.0
 40
0.0
 40
0.0
 40
0.0
 40
1.0
 40
1.0
 40
1.0
 40
1.0
 10
-6.66308
 20
6.16131
 30
0.0
 10
-6.66308
 20
6.16131
 30
0.0
 10
-6.66308
 20
6.16131
 30
0.0
 10
-6.66308
 20
6.16131
 30
0.0
  0
SPLINE
  5
6D
330
1F
100
AcDbEntity
  8
layer 2
370
     5
100
AcDbSpline
210
0.0
220
0.0
230
1.0
 70
    24
 71
     3
 72
     8
 73
     4
 74
     0
 42
0.0000000001
 43
0.0000000001
 12
1.0
 22
0.0
 32
0.0
 13
1.0
 23
0.0
 33
0.0
 40
0.0
 40
0.0
 40
0.0
 40
0.0
 40
1.0
 40
1.0
 40
1.0
 40
1.0
 10
-8.25437
 20
6.16131
 30
0.0
 10
-8.25437
 20
6.16131
 30
0.0
 10
-6.66308
 20
6.16131
 30
0.0
 10
-6.66308
 20
6.16131
 30
0.0
  0
SPLINE
  5
6E
330
1F
100
AcDbEntity
  8
layer 2
370
     5
100
AcDbSpline
210
0.0
220
0.0
230
1.0
 70
    24
 71
     3
 72
     8
 73
     4
 74
     0
 42
0.0000000001
 43
0.0000000001
 12
1.0
 22
0.0
 32
0.0
 13
1.0
 23
0.0
 33
0.0
 40
0.0
 40
0.0
 40
0.0
 40
0.0
 40
1.0
 40
1.0
 40
1.0
 40
1.0
 10
-6.66308
 20
6.16131
 30
0.0
 10
-6.66308
 20
6.16131
 30
0.0
 10
-6.39759
 20
5.85617
 30
0.0
 10
-6.39759
 20
5.85617
 30
0.0
  0
SPLINE
  5
6F
330
1F
100
AcDbEntity
  8
layer 2
370
     9
100
AcDbSpline
210
0.0
220
0.0
230
1.0
 70
    11
 71
     3
 72
    92
 73
    88
 74
     0
 42
0.0000000001
 43
0.0000000001
 12
1.0
 22
0.0
 32
0.0
 13
1.0
 23
0.0
 33
0.0
 40
0.0
 40
0.0
 40
0.0
 40
0.0
 40
0.0434782608695652
 40
0.0434782608695652
 40
0.0434782608695652
 40
0.0434782608695652
 40
0.0869565217391304
 40
0.0869565217391304
 40
0.0869565217391304
 40
0.0869565217391304
 40
0.1304347826086956
 40
0.1304347826086956
 40
0.1304347826086956
 40
0.1304347826086956
 40
0.1739130434782609
 40
0.1739130434782609
 40
0.1739130434782609
 40
0.1739130434782609
 40
0.2173913043478261
 40
0.2173913043478261
 40
0.2173913043478261
 40
0.2173913043478261
 40
0.2608695652173913
 40
0.2608695652173913
 40
0.2608695652173913
 40
0.2608695652173913
 40
0.3043478260869565
 40
0.3043478260869565
 40
0.3043478260869565
 40
0.3043478260869565
 40
0.3478260869565217
 40
0.3478260869565217
 40
0.3478260869565217
 40
0.3478260869565217
 40
0.391304347826087
 40
0.391304347826087
 40
0.391304347826087
 40
0.391304347826087
 40
0.4347826086956522
 40
0.4347826086956522
 40
0.4347826086956522
 40
0.4347826086956522
 40
0.4782608695652174
 40
0.4782608695652174
 40
0.4782608695652174
 40
0.4782608695652174
 40
0.5217391304347826
 40
0.5217391304347826
 40
0.5217391304347826
 40
0.5217391304347826
 40
0.5652173913043478
 40
0.5652173913043478
 40
0.5652173913043478
 40
0.5652173913043478
 40
0.6086956521739131
 40
0.6086956521739131
 40
0.6086956521739131
 40
0.6086956521739131
 40
0.6521739130434783
 40
0.6521739130434783
 40
0.6521739130434783
 40
0.6521739130434783
 40
0.6956521739130435
 40
0.6956521739130435
 40
0.6956521739130435
 40
0.6956521739130435
 40
0.7391304347826086
 40
0.7391304347826086
 40
0.7391304347826086
 40
0.7391304347826086
 40
0.782608695652174
 40
0.782608695652174
 40
0.782608695652174
 40
0.782608695652174
 40
0.8260869565217391
 40
0.8260869565217391
 40
0.8260869565217391
 40
0.8260869565217391
 40
0.8695652173913043
 40
0.8695652173913043
 40
0.8695652173913043
 40
0.8695652173913043
 40
0.9130434782608695
 40
0.9130434782608695
 40
0.9130434782608695
 40
0.9130434782608695
 40
1.0
 40
1.0
 40
1.0
 40
1.0
 10
-7.80242
 20
6.36842
 30
0.0
 10
-7.80242
 20
6.36842
 30
0.0
 10
-7.80242
 20
6.34097
 30
0.0
 10
-7.80242
 20
6.34097
 30
0.0
 10
-7.80242
 20
6.34097
 30
0.0
 10
-7.80242
 20
6.34097
 30
0.0
 10
-7.95608
 20
6.34097
 30
0.0
 10
-7.95608
 20
6.34097
 30
0.0
 10
-7.95608
 20
6.34097
 30
0.0
 10
-7.9563
 20
6.34785
 30
0.0
 10
-7.95522
 20
6.35445
 30
0.0
 10
-7.95278
 20
6.36078
 30
0.0
 10
-7.95278
 20
6.36078
 30
0.0
 10
-7.94888
 20
6.37128
 30
0.0
 10
-7.94261
 20
6.38157
 30
0.0
 10
-7.934
 20
6.39174
 30
0.0
 10
-7.934
 20
6.39174
 30
0.0
 10
-7.92534
 20
6.40187
 30
0.0
 10
-7.91289
 20
6.41361
 30
0.0
 10
-7.89665
 20
6.42693
 30
0.0
 10
-7.89665
 20
6.42693
 30
0.0
 10
-7.87138
 20
6.44766
 30
0.0
 10
-7.85427
 20
6.46406
 30
0.0
 10
-7.8454
 20
6.47618
 30
0.0
 10
-7.8454
 20
6.47618
 30
0.0
 10
-7.83652
 20
6.48825
 30
0.0
 10
-7.83208
 20
6.49972
 30
0.0
 10
-7.83208
 20
6.51049
 30
0.0
 10
-7.83208
 20
6.51049
 30
0.0
 10
-7.83208
 20
6.52181
 30
0.0
 10
-7.83614
 20
6.53133
 30
0.0
 10
-7.84421
 20
6.53913
 30
0.0
 10
-7.84421
 20
6.53913
 30
0.0
 10
-7.85232
 20
6.54687
 30
0.0
 10
-7.86288
 20
6.55076
 30
0.0
 10
-7.87587
 20
6.55076
 30
0.0
 10
-7.87587
 20
6.55076
 30
0.0
 10
-7.88962
 20
6.55076
 30
0.0
 10
-7.9006
 20
6.54665
 30
0.0
 10
-7.90883
 20
6.53837
 30
0.0
 10
-7.90883
 20
6.53837
 30
0.0
 10
-7.91711
 20
6.53014
 30
0.0
 10
-7.92128
 20
6.51872
 30
0.0
 10
-7.92139
 20
6.50416
 30
0.0
 10
-7.92139
 20
6.50416
 30
0.0
 10
-7.92139
 20
6.50416
 30
0.0
 10
-7.95072
 20
6.50714
 30
0.0
 10
-7.95072
 20
6.50714
 30
0.0
 10
-7.95072
 20
6.50714
 30
0.0
 10
-7.94872
 20
6.52906
 30
0.0
 10
-7.94114
 20
6.54573
 30
0.0
 10
-7.92805
 20
6.55721
 30
0.0
 10
-7.92805
 20
6.55721
 30
0.0
 10
-7.91495
 20
6.56868
 30
0.0
 10
-7.8973
 20
6.57442
 30
0.0
 10
-7.87522
 20
6.57442
 30
0.0
 10
-7.87522
 20
6.57442
 30
0.0
 10
-7.85292
 20
6.57442
 30
0.0
 10
-7.83527
 20
6.56819
 30
0.0
 10
-7.82228
 20
6.55585
 30
0.0
 10
-7.82228
 20
6.55585
 30
0.0
 10
-7.80924
 20
6.54346
 30
0.0
 10
-7.80275
 20
6.52814
 30
0.0
 10
-7.80275
 20
6.50985
 30
0.0
 10
-7.80275
 20
6.50985
 30
0.0
 10
-7.80275
 20
6.50054
 30
0.0
 10
-7.80464
 20
6.49139
 30
0.0
 10
-7.80848
 20
6.4824
 30
0.0
 10
-7.80848
 20
6.4824
 30
0.0
 10
-7.81227
 20
6.47342
 30
0.0
 10
-7.8186
 20
6.46395
 30
0.0
 10
-7.82743
 20
6.45404
 30
0.0
 10
-7.82743
 20
6.45404
 30
0.0
 10
-7.83625
 20
6.44408
 30
0.0
 10
-7.85092
 20
6.43044
 30
0.0
 10
-7.87143
 20
6.41312
 30
0.0
 10
-7.87143
 20
6.41312
 30
0.0
 10
-7.88853
 20
6.39873
 30
0.0
 10
-7.89952
 20
6.38898
 30
0.0
 10
-7.90439
 20
6.38384
 30
0.0
 10
-7.90439
 20
6.38384
 30
0.0
 10
-7.90926
 20
6.37875
 30
0.0
 10
-7.91327
 20
6.37361
 30
0.0
 10
-7.91646
 20
6.36842
 30
0.0
 10
-7.91646
 20
6.36842
 30
0.0
 10
-7.91646
 20
6.36842
 30
0.0
 10
-7.80242
 20
6.36842
 30
0.0
 10
-7.80242
 20
6.36842
 30
0.0
  0
SPLINE
  5
70
330
1F
100
AcDbEntity
  8
layer 2
370
     9
100
AcDbSpline
210
0.0
220
0.0
230
1.0
 70
    11
 71
     3
 72
    20
 73
    16
 74
     0
 42
0.0000000001
 43
0.0000000001
 12
1.0
 22
0.0
 32
0.0
 13
1.0
 23
0.0
 33
0.0
 40
0.0
 40
0.0
 40
0.0
 40
0.0
 40
0.2
 40
0.2
 40
0.2
 40
0.2
 40
0.4
 40
0.4
 40
0.4
 40
0.4
 40
0.6
 40
0.6
 40
0.6
 40
0.6
 40
1.0
 40
1.0
 40
1.0
 40
1.0
 10
-7.77503
 20
6.41074
 30
0.0
 10
-7.77503
 20
6.41074
 30
0.0
 10
-7.77503
 20
6.43943
 30
0.0
 10
-7.77503
 20
6.43943
 30
0.0
 10
-7.77503
 20
6.43943
 30
0.0
 10
-7.77503
 20
6.43943
 30
0.0
 10
-7.6873
 20
6.43943
 30
0.0
 10
-7.6873
 20
6.43943
 30
0.0
 10
-7.6873
 20
6.43943
 30
0.0
 10
-7.6873
 20
6.43943
 30
0.0
 10
-7.6873
 20
6.41074
 30
0.0
 10
-7.6873
 20
6.41074
 30
0.0
 10
-7.6873
 20
6.41074
 30
0.0
 10
-7.6873
 20
6.41074
 30
0.0
 10
-7.77503
 20
6.41074
 30
0.0
 10
-7.77503
 20
6.41074
 30
0.0
  0
SPLINE
  5
71
330
1F
100
AcDbEntity
  8
layer 2
370
     9
100
AcDbSpline
210
0.0
220
0.0
230
1.0
 70
    11
 71
     3
 72
    80
 73
    76
 74
     0
 42
0.0000000001
 43
0.0000000001
 12
1.0
 22
0.0
 32
0.0
 13
1.0
 23
0.0
 33
0.0
 40
0.0
 40
0.0
 40
0.0
 40
0.0
 40
0.05
 40
0.05
 40
0.05
 40
0.05
 40
0.1
 40
0.1
 40
0.1
 40
0.1
 40
0.15
 40
0.15
 40
0.15
 40
0.15
 40
0.2
 40
0.2
 40
0.2
 40
0.2
 40
0.25
 40
0.25
 40
0.25
 40
0.25
 40
0.3
 40
0.3
 40
0.3
 40
0.3
 40
0.35
 40
0.35
 40
0.35
 40
0.35
 40
0.4
 40
0.4
 40
0.4
 40
0.4
 40
0.45
 40
0.45
 40
0.45
 40
0.45
 40
0.5
 40
0.5
 40
0.5
 40
0.5
 40
0.55
 40
0.55
 40
0.55
 40
0.55
 40
0.6
 40
0.6
 40
0.6
 40
0.6
 40
0.65
 40
0.65
 40
0.65
 40
0.65
 40
0.7
 40
0.7
 40
0.7
 40
0.7
 40
0.75
 40
0.75
 40
0.75
 40
0.75
 40
0.8
 40
0.8
 40
0.8
 40
0.8
 40
0.85
 40
0.85
 40
0.85
 40
0.85
 40
0.9
 40
0.9
 40
0.9
 40
0.9
 40
1.0
 40
1.0
 40
1.0
 40
1.0
 10
-7.65163
 20
6.34097
 30
0.0
 10
-7.65163
 20
6.34097
 30
0.0
 10
-7.65163
 20
6.57344
 30
0.0
 10
-7.65163
 20
6.57344
 30
0.0
 10
-7.65163
 20
6.57344
 30
0.0
 10
-7.65163
 20
6.57344
 30
0.0
 10
-7.54857
 20
6.57344
 30
0.0
 10
-7.54857
 20
6.57344
 30
0.0
 10
-7.54857
 20
6.57344
 30
0.0
 10
-7.52784
 20
6.57344
 30
0.0
 10
-7.51209
 20
6.57133
 30
0.0
 10
-7.50132
 20
6.56716
 30
0.0
 10
-7.50132
 20
6.56716
 30
0.0
 10
-7.49055
 20
6.563
 30
0.0
 10
-7.48194
 20
6.55564
 30
0.0
 10
-7.47545
 20
6.54508
 30
0.0
 10
-7.47545
 20
6.54508
 30
0.0
 10
-7.46901
 20
6.53447
 30
0.0
 10
-7.46582
 20
6.52278
 30
0.0
 10
-7.46582
 20
6.51001
 30
0.0
 10
-7.46582
 20
6.51001
 30
0.0
 10
-7.46582
 20
6.4935
 30
0.0
 10
-7.47112
 20
6.47964
 30
0.0
 10
-7.48184
 20
6.46833
 30
0.0
 10
-7.48184
 20
6.46833
 30
0.0
 10
-7.4925
 20
6.45702
 30
0.0
 10
-7.50901
 20
6.44982
 30
0.0
 10
-7.53131
 20
6.44674
 30
0.0
 10
-7.53131
 20
6.44674
 30
0.0
 10
-7.52313
 20
6.44284
 30
0.0
 10
-7.51696
 20
6.439
 30
0.0
 10
-7.51274
 20
6.43515
 30
0.0
 10
-7.51274
 20
6.43515
 30
0.0
 10
-7.50376
 20
6.42693
 30
0.0
 10
-7.49526
 20
6.41659
 30
0.0
 10
-7.48719
 20
6.40425
 30
0.0
 10
-7.48719
 20
6.40425
 30
0.0
 10
-7.48719
 20
6.40425
 30
0.0
 10
-7.44676
 20
6.34097
 30
0.0
 10
-7.44676
 20
6.34097
 30
0.0
 10
-7.44676
 20
6.34097
 30
0.0
 10
-7.44676
 20
6.34097
 30
0.0
 10
-7.48546
 20
6.34097
 30
0.0
 10
-7.48546
 20
6.34097
 30
0.0
 10
-7.48546
 20
6.34097
 30
0.0
 10
-7.48546
 20
6.34097
 30
0.0
 10
-7.51621
 20
6.38936
 30
0.0
 10
-7.51621
 20
6.38936
 30
0.0
 10
-7.51621
 20
6.38936
 30
0.0
 10
-7.52519
 20
6.40327
 30
0.0
 10
-7.53261
 20
6.41399
 30
0.0
 10
-7.53845
 20
6.42135
 30
0.0
 10
-7.53845
 20
6.42135
 30
0.0
 10
-7.54424
 20
6.42877
 30
0.0
 10
-7.54944
 20
6.43396
 30
0.0
 10
-7.55404
 20
6.43688
 30
0.0
 10
-7.55404
 20
6.43688
 30
0.0
 10
-7.55864
 20
6.43986
 30
0.0
 10
-7.56329
 20
6.44192
 30
0.0
 10
-7.56806
 20
6.44311
 30
0.0
 10
-7.56806
 20
6.44311
 30
0.0
 10
-7.57158
 20
6.44381
 30
0.0
 10
-7.57726
 20
6.44419
 30
0.0
 10
-7.58522
 20
6.44419
 30
0.0
 10
-7.58522
 20
6.44419
 30
0.0
 10
-7.58522
 20
6.44419
 30
0.0
 10
-7.62088
 20
6.44419
 30
0.0
 10
-7.62088
 20
6.44419
 30
0.0
 10
-7.62088
 20
6.44419
 30
0.0
 10
-7.62088
 20
6.44419
 30
0.0
 10
-7.62088
 20
6.34097
 30
0.0
 10
-7.62088
 20
6.34097
 30
0.0
 10
-7.62088
 20
6.34097
 30
0.0
 10
-7.62088
 20
6.34097
 30
0.0
 10
-7.65163
 20
6.34097
 30
0.0
 10
-7.65163
 20
6.34097
 30
0.0
  0
SPLINE
  5
72
330
1F
100
AcDbEntity
  8
layer 2
370
     9
100
AcDbSpline
210
0.0
220
0.0
230
1.0
 70
    11
 71
     3
 72
    36
 73
    32
 74
     0
 42
0.0000000001
 43
0.0000000001
 12
1.0
 22
0.0
 32
0.0
 13
1.0
 23
0.0
 33
0.0
 40
0.0
 40
0.0
 40
0.0
 40
0.0
 40
0.1111111111111111
 40
0.1111111111111111
 40
0.1111111111111111
 40
0.1111111111111111
 40
0.2222222222222222
 40
0.2222222222222222
 40
0.2222222222222222
 40
0.2222222222222222
 40
0.3333333333333333
 40
0.3333333333333333
 40
0.3333333333333333
 40
0.3333333333333333
 40
0.4444444444444444
 40
0.4444444444444444
 40
0.4444444444444444
 40
0.4444444444444444
 40
0.5555555555555556
 40
0.5555555555555556
 40
0.5555555555555556
 40
0.5555555555555556
 40
0.6666666666666666
 40
0.6666666666666666
 40
0.6666666666666666
 40
0.6666666666666666
 40
0.7777777777777778
 40
0.7777777777777778
 40
0.7777777777777778
 40
0.7777777777777778
 40
1.0
 40
1.0
 40
1.0
 40
1.0
 10
-7.62088
 20
6.47082
 30
0.0
 10
-7.62088
 20
6.47082
 30
0.0
 10
-7.55474
 20
6.47082
 30
0.0
 10
-7.55474
 20
6.47082
 30
0.0
 10
-7.55474
 20
6.47082
 30
0.0
 10
-7.54072
 20
6.47082
 30
0.0
 10
-7.52968
 20
6.47228
 30
0.0
 10
-7.52178
 20
6.47521
 30
0.0
 10
-7.52178
 20
6.47521
 30
0.0
 10
-7.51382
 20
6.47813
 30
0.0
 10
-7.50782
 20
6.48278
 30
0.0
 10
-7.5037
 20
6.48917
 30
0.0
 10
-7.5037
 20
6.48917
 30
0.0
 10
-7.49959
 20
6.49556
 30
0.0
 10
-7.49753
 20
6.50248
 30
0.0
 10
-7.49753
 20
6.51001
 30
0.0
 10
-7.49753
 20
6.51001
 30
0.0
 10
-7.49753
 20
6.521
 30
0.0
 10
-7.50148
 20
6.53003
 30
0.0
 10
-7.50949
 20
6.53712
 30
0.0
 10
-7.50949
 20
6.53712
 30
0.0
 10
-7.51745
 20
6.54422
 30
0.0
 10
-7.53006
 20
6.54773
 30
0.0
 10
-7.54733
 20
6.54773
 30
0.0
 10
-7.54733
 20
6.54773
 30
0.0
 10
-7.54733
 20
6.54773
 30
0.0
 10
-7.62088
 20
6.54773
 30
0.0
 10
-7.62088
 20
6.54773
 30
0.0
 10
-7.62088
 20
6.54773
 30
0.0
 10
-7.62088
 20
6.54773
 30
0.0
 10
-7.62088
 20
6.47082
 30
0.0
 10
-7.62088
 20
6.47082
 30
0.0
  0
SPLINE
  5
73
330
1F
100
AcDbEntity
  8
layer 2
370
     9
100
AcDbSpline
210
0.0
220
0.0
230
1.0
 70
    11
 71
     3
 72
    92
 73
    88
 74
     0
 42
0.0000000001
 43
0.0000000001
 12
1.0
 22
0.0
 32
0.0
 13
1.0
 23
0.0
 33
0.0
 40
0.0
 40
0.0
 40
0.0
 40
0.0
 40
0.0434782608695652
 40
0.0434782608695652
 40
0.0434782608695652
 40
0.0434782608695652
 40
0.0869565217391304
 40
0.0869565217391304
 40
0.0869565217391304
 40
0.0869565217391304
 40
0.1304347826086956
 40
0.1304347826086956
 40
0.1304347826086956
 40
0.1304347826086956
 40
0.1739130434782609
 40
0.1739130434782609
 40
0.1739130434782609
 40
0.1739130434782609
 40
0.2173913043478261
 40
0.2173913043478261
 40
0.2173913043478261
 40
0.2173913043478261
 40
0.2608695652173913
 40
0.2608695652173913
 40
0.2608695652173913
 40
0.2608695652173913
 40
0.3043478260869565
 40
0.3043478260869565
 40
0.3043478260869565
 40
0.3043478260869565
 40
0.3478260869565217
 40
0.3478260869565217
 40
0.3478260869565217
 40
0.3478260869565217
 40
0.391304347826087
 40
0.391304347826087
 40
0.391304347826087
 40
0.391304347826087
 40
0.4347826086956522
 40
0.4347826086956522
 40
0.4347826086956522
 40
0.4347826086956522
 40
0.4782608695652174
 40
0.4782608695652174
 40
0.4782608695652174
 40
0.4782608695652174
 40
0.5217391304347826
 40
0.5217391304347826
 40
0.5217391304347826
 40
0.5217391304347826
 40
0.5652173913043478
 40
0.5652173913043478
 40
0.5652173913043478
 40
0.5652173913043478
 40
0.6086956521739131
 40
0.6086956521739131
 40
0.6086956521739131
 40
0.6086956521739131
 40
0.6521739130434783
 40
0.6521739130434783
 40
0.6521739130434783
 40
0.6521739130434783
 40
0.6956521739130435
 40
0.6956521739130435
 40
0.6956521739130435
 40
0.6956521739130435
 40
0.7391304347826086
 40
0.7391304347826086
 40
0.7391304347826086
 40
0.7391304347826086
 40
0.782608695652174
 40
0.782608695652174
 40
0.782608695652174
 40
0.782608695652174
 40
0.8260869565217391
 40
0.8260869565217391
 40
0.8260869565217391
 40
0.8260869565217391
 40
0.8695652173913043
 40
0.8695652173913043
 40
0.8695652173913043
 40
0.8695652173913043
 40
0.9130434782608695
 40
0.9130434782608695
 40
0.9130434782608695
 40
0.9130434782608695
 40
1.0
 40
1.0
 40
1.0
 40
1.0
 10
-7.27914
 20
6.36842
 30
0.0
 10
-7.27914
 20
6.36842
 30
0.0
 10
-7.27914
 20
6.34097
 30
0.0
 10
-7.27914
 20
6.34097
 30
0.0
 10
-7.27914
 20
6.34097
 30
0.0
 10
-7.27914
 20
6.34097
 30
0.0
 10
-7.4328
 20
6.34097
 30
0.0
 10
-7.4328
 20
6.34097
 30
0.0
 10
-7.4328
 20
6.34097
 30
0.0
 10
-7.43302
 20
6.34785
 30
0.0
 10
-7.43193
 20
6.35445
 30
0.0
 10
-7.4295
 20
6.36078
 30
0.0
 10
-7.4295
 20
6.36078
 30
0.0
 10
-7.4256
 20
6.37128
 30
0.0
 10
-7.41932
 20
6.38157
 30
0.0
 10
-7.41072
 20
6.39174
 30
0.0
 10
-7.41072
 20
6.39174
 30
0.0
 10
-7.40206
 20
6.40187
 30
0.0
 10
-7.38961
 20
6.41361
 30
0.0
 10
-7.37337
 20
6.42693
 30
0.0
 10
-7.37337
 20
6.42693
 30
0.0
 10
-7.34809
 20
6.44766
 30
0.0
 10
-7.33099
 20
6.46406
 30
0.0
 10
-7.32211
 20
6.47618
 30
0.0
 10
-7.32211
 20
6.47618
 30
0.0
 10
-7.31324
 20
6.48825
 30
0.0
 10
-7.3088
 20
6.49972
 30
0.0
 10
-7.3088
 20
6.51049
 30
0.0
 10
-7.3088
 20
6.51049
 30
0.0
 10
-7.3088
 20
6.52181
 30
0.0
 10
-7.31286
 20
6.53133
 30
0.0
 10
-7.32092
 20
6.53913
 30
0.0
 10
-7.32092
 20
6.53913
 30
0.0
 10
-7.32904
 20
6.54687
 30
0.0
 10
-7.33959
 20
6.55076
 30
0.0
 10
-7.35258
 20
6.55076
 30
0.0
 10
-7.35258
 20
6.55076
 30
0.0
 10
-7.36633
 20
6.55076
 30
0.0
 10
-7.37732
 20
6.54665
 30
0.0
 10
-7.38555
 20
6.53837
 30
0.0
 10
-7.38555
 20
6.53837
 30
0.0
 10
-7.39383
 20
6.53014
 30
0.0
 10
-7.398
 20
6.51872
 30
0.0
 10
-7.3981
 20
6.50416
 30
0.0
 10
-7.3981
 20
6.50416
 30
0.0
 10
-7.3981
 20
6.50416
 30
0.0
 10
-7.42744
 20
6.50714
 30
0.0
 10
-7.42744
 20
6.50714
 30
0.0
 10
-7.42744
 20
6.50714
 30
0.0
 10
-7.42544
 20
6.52906
 30
0.0
 10
-7.41786
 20
6.54573
 30
0.0
 10
-7.40476
 20
6.55721
 30
0.0
 10
-7.40476
 20
6.55721
 30
0.0
 10
-7.39166
 20
6.56868
 30
0.0
 10
-7.37402
 20
6.57442
 30
0.0
 10
-7.35194
 20
6.57442
 30
0.0
 10
-7.35194
 20
6.57442
 30
0.0
 10
-7.32964
 20
6.57442
 30
0.0
 10
-7.31199
 20
6.56819
 30
0.0
 10
-7.299
 20
6.55585
 30
0.0
 10
-7.299
 20
6.55585
 30
0.0
 10
-7.28596
 20
6.54346
 30
0.0
 10
-7.27946
 20
6.52814
 30
0.0
 10
-7.27946
 20
6.50985
 30
0.0
 10
-7.27946
 20
6.50985
 30
0.0
 10
-7.27946
 20
6.50054
 30
0.0
 10
-7.28136
 20
6.49139
 30
0.0
 10
-7.2852
 20
6.4824
 30
0.0
 10
-7.2852
 20
6.4824
 30
0.0
 10
-7.28899
 20
6.47342
 30
0.0
 10
-7.29532
 20
6.46395
 30
0.0
 10
-7.30414
 20
6.45404
 30
0.0
 10
-7.30414
 20
6.45404
 30
0.0
 10
-7.31297
 20
6.44408
 30
0.0
 10
-7.32763
 20
6.43044
 30
0.0
 10
-7.34815
 20
6.41312
 30
0.0
 10
-7.34815
 20
6.41312
 30
0.0
 10
-7.36525
 20
6.39873
 30
0.0
 10
-7.37624
 20
6.38898
 30
0.0
 10
-7.38111
 20
6.38384
 30
0.0
 10
-7.38111
 20
6.38384
 30
0.0
 10
-7.38598
 20
6.37875
 30
0.0
 10
-7.38999
 20
6.37361
 30
0.0
 10
-7.39318
 20
6.36842
 30
0.0
 10
-7.39318
 20
6.36842
 30
0.0
 10
-7.39318
 20
6.36842
 30
0.0
 10
-7.27914
 20
6.36842
 30
0.0
 10
-7.27914
 20
6.36842
 30
0.0
  0
SPLINE
  5
74
330
1F
100
AcDbEntity
  8
layer 2
370
     9
100
AcDbSpline
210
0.0
220
0.0
230
1.0
 70
    11
 71
     3
 72
    52
 73
    48
 74
     0
 42
0.0000000001
 43
0.0000000001
 12
1.0
 22
0.0
 32
0.0
 13
1.0
 23
0.0
 33
0.0
 40
0.0
 40
0.0
 40
0.0
 40
0.0
 40
0.0769230769230769
 40
0.0769230769230769
 40
0.0769230769230769
 40
0.0769230769230769
 40
0.1538461538461539
 40
0.1538461538461539
 40
0.1538461538461539
 40
0.1538461538461539
 40
0.2307692307692308
 40
0.2307692307692308
 40
0.2307692307692308
 40
0.2307692307692308
 40
0.3076923076923077
 40
0.3076923076923077
 40
0.3076923076923077
 40
0.3076923076923077
 40
0.3846153846153846
 40
0.3846153846153846
 40
0.3846153846153846
 40
0.3846153846153846
 40
0.4615384615384616
 40
0.4615384615384616
 40
0.4615384615384616
 40
0.4615384615384616
 40
0.5384615384615384
 40
0.5384615384615384
 40
0.5384615384615384
 40
0.5384615384615384
 40
0.6153846153846154
 40
0.6153846153846154
 40
0.6153846153846154
 40
0.6153846153846154
 40
0.6923076923076923
 40
0.6923076923076923
 40
0.6923076923076923
 40
0.6923076923076923
 40
0.7692307692307693
 40
0.7692307692307693
 40
0.7692307692307693
 40
0.7692307692307693
 40
0.8461538461538461
 40
0.8461538461538461
 40
0.8461538461538461
 40
0.8461538461538461
 40
1.0
 40
1.0
 40
1.0
 40
1.0
 10
-7.24856
 20
6.45561
 30
0.0
 10
-7.24856
 20
6.48311
 30
0.0
 10
-7.24574
 20
6.50524
 30
0.0
 10
-7.24006
 20
6.52197
 30
0.0
 10
-7.24006
 20
6.52197
 30
0.0
 10
-7.23443
 20
6.53875
 30
0.0
 10
-7.22599
 20
6.55168
 30
0.0
 10
-7.21484
 20
6.56078
 30
0.0
 10
-7.21484
 20
6.56078
 30
0.0
 10
-7.20369
 20
6.56987
 30
0.0
 10
-7.18967
 20
6.57442
 30
0.0
 10
-7.17278
 20
6.57442
 30
0.0
 10
-7.17278
 20
6.57442
 30
0.0
 10
-7.16028
 20
6.57442
 30
0.0
 10
-7.14934
 20
6.57187
 30
0.0
 10
-7.13993
 20
6.56684
 30
0.0
 10
-7.13993
 20
6.56684
 30
0.0
 10
-7.13051
 20
6.56186
 30
0.0
 10
-7.12277
 20
6.55461
 30
0.0
 10
-7.1166
 20
6.54514
 30
0.0
 10
-7.1166
 20
6.54514
 30
0.0
 10
-7.11048
 20
6.53566
 30
0.0
 10
-7.10567
 20
6.52413
 30
0.0
 10
-7.1022
 20
6.51055
 30
0.0
 10
-7.1022
 20
6.51055
 30
0.0
 10
-7.09868
 20
6.49696
 30
0.0
 10
-7.09695
 20
6.47867
 30
0.0
 10
-7.09695
 20
6.45561
 30
0.0
 10
-7.09695
 20
6.45561
 30
0.0
 10
-7.09695
 20
6.42833
 30
0.0
 10
-7.09977
 20
6.40636
 30
0.0
 10
-7.10534
 20
6.38958
 30
0.0
 10
-7.10534
 20
6.38958
 30
0.0
 10
-7.11097
 20
6.3728
 30
0.0
 10
-7.11936
 20
6.35986
 30
0.0
 10
-7.13051
 20
6.35072
 30
0.0
 10
-7.13051
 20
6.35072
 30
0.0
 10
-7.14166
 20
6.34157
 30
0.0
 10
-7.15573
 20
6.33702
 30
0.0
 10
-7.17278
 20
6.33702
 30
0.0
 10
-7.17278
 20
6.33702
 30
0.0
 10
-7.19519
 20
6.33702
 30
0.0
 10
-7.21278
 20
6.34503
 30
0.0
 10
-7.22555
 20
6.36111
 30
0.0
 10
-7.22555
 20
6.36111
 30
0.0
 10
-7.24087
 20
6.38043
 30
0.0
 10
-7.24856
 20
6.41199
 30
0.0
 10
-7.24856
 20
6.45561
 30
0.0
  0
SPLINE
  5
75
330
1F
100
AcDbEntity
  8
layer 2
370
     9
100
AcDbSpline
210
0.0
220
0.0
230
1.0
 70
    11
 71
     3
 72
    36
 73
    32
 74
     0
 42
0.0000000001
 43
0.0000000001
 12
1.0
 22
0.0
 32
0.0
 13
1.0
 23
0.0
 33
0.0
 40
0.0
 40
0.0
 40
0.0
 40
0.0
 40
0.1111111111111111
 40
0.1111111111111111
 40
0.1111111111111111
 40
0.1111111111111111
 40
0.2222222222222222
 40
0.2222222222222222
 40
0.2222222222222222
 40
0.2222222222222222
 40
0.3333333333333333
 40
0.3333333333333333
 40
0.3333333333333333
 40
0.3333333333333333
 40
0.4444444444444444
 40
0.4444444444444444
 40
0.4444444444444444
 40
0.4444444444444444
 40
0.5555555555555556
 40
0.5555555555555556
 40
0.5555555555555556
 40
0.5555555555555556
 40
0.6666666666666666
 40
0.6666666666666666
 40
0.6666666666666666
 40
0.6666666666666666
 40
0.7777777777777778
 40
0.7777777777777778
 40
0.7777777777777778
 40
0.7777777777777778
 40
1.0
 40
1.0
 40
1.0
 40
1.0
 10
-7.21922
 20
6.45561
 30
0.0
 10
-7.21922
 20
6.41745
 30
0.0
 10
-7.21473
 20
6.39207
 30
0.0
 10
-7.2058
 20
6.3794
 30
0.0
 10
-7.2058
 20
6.3794
 30
0.0
 10
-7.19687
 20
6.36679
 30
0.0
 10
-7.18588
 20
6.36046
 30
0.0
 10
-7.17278
 20
6.36046
 30
0.0
 10
-7.17278
 20
6.36046
 30
0.0
 10
-7.15963
 20
6.36046
 30
0.0
 10
-7.14864
 20
6.36685
 30
0.0
 10
-7.13971
 20
6.37951
 30
0.0
 10
-7.13971
 20
6.37951
 30
0.0
 10
-7.13078
 20
6.39218
 30
0.0
 10
-7.12629
 20
6.41756
 30
0.0
 10
-7.12629
 20
6.45561
 30
0.0
 10
-7.12629
 20
6.45561
 30
0.0
 10
-7.12629
 20
6.49388
 30
0.0
 10
-7.13078
 20
6.51932
 30
0.0
 10
-7.13971
 20
6.53187
 30
0.0
 10
-7.13971
 20
6.53187
 30
0.0
 10
-7.14864
 20
6.54449
 30
0.0
 10
-7.15974
 20
6.55076
 30
0.0
 10
-7.17305
 20
6.55076
 30
0.0
 10
-7.17305
 20
6.55076
 30
0.0
 10
-7.1862
 20
6.55076
 30
0.0
 10
-7.19665
 20
6.54519
 30
0.0
 10
-7.2045
 20
6.53409
 30
0.0
 10
-7.2045
 20
6.53409
 30
0.0
 10
-7.21429
 20
6.51997
 30
0.0
 10
-7.21922
 20
6.49377
 30
0.0
 10
-7.21922
 20
6.45561
 30
0.0
  0
SPLINE
  5
76
330
1F
100
AcDbEntity
  8
layer 2
370
     5
100
AcDbSpline
210
0.0
220
0.0
230
1.0
 70
    24
 71
     3
 72
     8
 73
     4
 74
     0
 42
0.0000000001
 43
0.0000000001
 12
1.0
 22
0.0
 32
0.0
 13
1.0
 23
0.0
 33
0.0
 40
0.0
 40
0.0
 40
0.0
 40
0.0
 40
1.0
 40
1.0
 40
1.0
 40
1.0
 10
-5.91441
 20
5.30085
 30
0.0
 10
-5.91441
 20
5.30085
 30
0.0
 10
-6.19864
 20
5.62751
 30
0.0
 10
-6.19864
 20
5.62751
 30
0.0
  0
SPLINE
  5
77
330
1F
100
AcDbEntity
  8
layer 2
370
     9
100
AcDbSpline
210
0.0
220
0.0
230
1.0
 70
    27
 71
     3
 72
    12
 73
     8
 74
     0
 42
0.0000000001
 43
0.0000000001
 12
1.0
 22
0.0
 32
0.0
 13
1.0
 23
0.0
 33
0.0
 40
0.0
 40
0.0
 40
0.0
 40
0.0
 40
0.3333333333333333
 40
0.3333333333333333
 40
0.3333333333333333
 40
0.3333333333333333
 40
1.0
 40
1.0
 40
1.0
 40
1.0
 10
-6.35948
 20
5.88933
 30
0.0
 10
-6.35948
 20
5.88933
 30
0.0
 10
-6.19864
 20
5.62751
 30
0.0
 10
-6.19864
 20
5.62751
 30
0.0
 10
-6.19864
 20
5.62751
 30
0.0
 10
-6.19864
 20
5.62751
 30
0.0
 10
-6.35948
 20
5.88933
 30
0.0
 10
-6.35948
 20
5.88933
 30
0.0
  0
SPLINE
  5
78
330
1F
100
AcDbEntity
  8
layer 2
370
     9
100
AcDbSpline
210
0.0
220
0.0
230
1.0
 70
    11
 71
     3
 72
    16
 73
    12
 74
     0
 42
0.0000000001
 43
0.0000000001
 12
1.0
 22
0.0
 32
0.0
 13
1.0
 23
0.0
 33
0.0
 40
0.0
 40
0.0
 40
0.0
 40
0.0
 40
0.25
 40
0.25
 40
0.25
 40
0.25
 40
0.5
 40
0.5
 40
0.5
 40
0.5
 40
1.0
 40
1.0
 40
1.0
 40
1.0
 10
-6.19864
 20
5.62751
 30
0.0
 10
-6.19864
 20
5.62751
 30
0.0
 10
-6.4357
 20
5.82301
 30
0.0
 10
-6.4357
 20
5.82301
 30
0.0
 10
-6.4357
 20
5.82301
 30
0.0
 10
-6.4357
 20
5.82301
 30
0.0
 10
-6.35948
 20
5.88933
 30
0.0
 10
-6.35948
 20
5.88933
 30
0.0
 10
-6.35948
 20
5.88933
 30
0.0
 10
-6.35948
 20
5.88933
 30
0.0
 10
-6.19864
 20
5.62751
 30
0.0
 10
-6.19864
 20
5.62751
 30
0.0
  0
SPLINE
  5
79
330
1F
100
AcDbEntity
  8
layer 2
370
    20
100
AcDbSpline
210
0.0
220
0.0
230
1.0
 70
    24
 71
     3
 72
     8
 73
     4
 74
     0
 42
0.0000000001
 43
0.0000000001
 12
1.0
 22
0.0
 32
0.0
 13
1.0
 23
0.0
 33
0.0
 40
0.0
 40
0.0
 40
0.0
 40
0.0
 40
1.0
 40
1.0
 40
1.0
 40
1.0
 10
-6.35948
 20
5.88933
 30
0.0
 10
-6.35948
 20
5.88933
 30
0.0
 10
-6.19864
 20
5.62751
 30
0.0
 10
-6.19864
 20
5.62751
 30
0.0
  0
SPLINE
  5
7A
330
1F
100
AcDbEntity
  8
layer 2
370
    20
100
AcDbSpline
210
0.0
220
0.0
230
1.0
 70
     8
 71
     3
 72
    12
 73
     8
 74
     0
 42
0.0000000001
 43
0.0000000001
 12
1.0
 22
0.0
 32
0.0
 13
1.0
 23
0.0
 33
0.0
 40
0.0
 40
0.0
 40
0.0
 40
0.0
 40
0.3333333333333333
 40
0.3333333333333333
 40
0.3333333333333333
 40
0.3333333333333333
 40
1.0
 40
1.0
 40
1.0
 40
1.0
 10
-6.19864
 20
5.62751
 30
0.0
 10
-6.19864
 20
5.62751
 30
0.0
 10
-6.4357
 20
5.82301
 30
0.0
 10
-6.4357
 20
5.82301
 30
0.0
 10
-6.4357
 20
5.82301
 30
0.0
 10
-6.4357
 20
5.82301
 30
0.0
 10
-6.35948
 20
5.88933
 30
0.0
 10
-6.35948
 20
5.88933
 30
0.0
  0
SPLINE
  5
7B
330
1F
100
AcDbEntity
  8
layer 2
370
     5
100
AcDbSpline
210
0.0
220
0.0
230
1.0
 70
    27
 71
     3
 72
     8
 73
     4
 74
     0
 42
0.0000000001
 43
0.0000000001
 12
1.0
 22
0.0
 32
0.0
 13
1.0
 23
0.0
 33
0.0
 40
0.0
 40
0.0
 40
0.0
 40
0.0
 40
1.0
 40
1.0
 40
1.0
 40
1.0
 10
-6.34742
 20
7.26035
 30
0.0
 10
-6.34742
 20
7.26035
 30
0.0
 10
-6.34742
 20
7.26035
 30
0.0
 10
-6.34742
 20
7.26035
 30
0.0
  0
SPLINE
  5
7C
330
1F
100
AcDbEntity
  8
layer 2
370
     5
100
AcDbSpline
210
0.0
220
0.0
230
1.0
 70
    24
 71
     3
 72
     8
 73
     4
 74
     0
 42
0.0000000001
 43
0.0000000001
 12
1.0
 22
0.0
 32
0.0
 13
1.0
 23
0.0
 33
0.0
 40
0.0
 40
0.0
 40
0.0
 40
0.0
 40
1.0
 40
1.0
 40
1.0
 40
1.0
 10
-6.34742
 20
5.4091
 30
0.0
 10
-6.34742
 20
5.4091
 30
0.0
 10
-6.34742
 20
7.26035
 30
0.0
 10
-6.34742
 20
7.26035
 30
0.0
  0
SPLINE
  5
7D
330
1F
100
AcDbEntity
  8
layer 2
370
     5
100
AcDbSpline
210
0.0
220
0.0
230
1.0
 70
    27
 71
     3
 72
     8
 73
     4
 74
     0
 42
0.0000000001
 43
0.0000000001
 12
1.0
 22
0.0
 32
0.0
 13
1.0
 23
0.0
 33
0.0
 40
0.0
 40
0.0
 40
0.0
 40
0.0
 40
1.0
 40
1.0
 40
1.0
 40
1.0
 10
-5.48141
 20
7.26035
 30
0.0
 10
-5.48141
 20
7.26035
 30
0.0
 10
-5.48141
 20
7.26035
 30
0.0
 10
-5.48141
 20
7.26035
 30
0.0
  0
SPLINE
  5
7E
330
1F
100
AcDbEntity
  8
layer 2
370
     5
100
AcDbSpline
210
0.0
220
0.0
230
1.0
 70
    24
 71
     3
 72
     8
 73
     4
 74
     0
 42
0.0000000001
 43
0.0000000001
 12
1.0
 22
0.0
 32
0.0
 13
1.0
 23
0.0
 33
0.0
 40
0.0
 40
0.0
 40
0.0
 40
0.0
 40
1.0
 40
1.0
 40
1.0
 40
1.0
 10
-5.48141
 20
5.8421
 30
0.0
 10
-5.48141
 20
5.8421
 30
0.0
 10
-5.48141
 20
7.26035
 30
0.0
 10
-5.48141
 20
7.26035
 30
0.0
  0
SPLINE
  5
7F
330
1F
100
AcDbEntity
  8
layer 2
370
     5
100
AcDbSpline
210
0.0
220
0.0
230
1.0
 70
    27
 71
     3
 72
     8
 73
     4
 74
     0
 42
0.0000000001
 43
0.0000000001
 12
1.0
 22
0.0
 32
0.0
 13
1.0
 23
0.0
 33
0.0
 40
0.0
 40
0.0
 40
0.0
 40
0.0
 40
1.0
 40
1.0
 40
1.0
 40
1.0
 10
-6.65052
 20
7.23329
 30
0.0
 10
-6.65052
 20
7.23329
 30
0.0
 10
-6.65052
 20
7.23329
 30
0.0
 10
-6.65052
 20
7.23329
 30
0.0
  0
SPLINE
  5
80
330
1F
100
AcDbEntity
  8
layer 2
370
     5
100
AcDbSpline
210
0.0
220
0.0
230
1.0
 70
    24
 71
     3
 72
     8
 73
     4
 74
     0
 42
0.0000000001
 43
0.0000000001
 12
1.0
 22
0.0
 32
0.0
 13
1.0
 23
0.0
 33
0.0
 40
0.0
 40
0.0
 40
0.0
 40
0.0
 40
1.0
 40
1.0
 40
1.0
 40
1.0
 10
-6.65052
 20
7.23329
 30
0.0
 10
-6.65052
 20
7.23329
 30
0.0
 10
-6.95362
 20
7.23329
 30
0.0
 10
-6.95362
 20
7.23329
 30
0.0
  0
SPLINE
  5
81
330
1F
100
AcDbEntity
  8
layer 2
370
     5
100
AcDbSpline
210
0.0
220
0.0
230
1.0
 70
    27
 71
     3
 72
     8
 73
     4
 74
     0
 42
0.0000000001
 43
0.0000000001
 12
1.0
 22
0.0
 32
0.0
 13
1.0
 23
0.0
 33
0.0
 40
0.0
 40
0.0
 40
0.0
 40
0.0
 40
1.0
 40
1.0
 40
1.0
 40
1.0
 10
-4.87521
 20
7.23329
 30
0.0
 10
-4.87521
 20
7.23329
 30
0.0
 10
-4.87521
 20
7.23329
 30
0.0
 10
-4.87521
 20
7.23329
 30
0.0
  0
SPLINE
  5
82
330
1F
100
AcDbEntity
  8
layer 2
370
     5
100
AcDbSpline
210
0.0
220
0.0
230
1.0
 70
    24
 71
     3
 72
     8
 73
     4
 74
     0
 42
0.0000000001
 43
0.0000000001
 12
1.0
 22
0.0
 32
0.0
 13
1.0
 23
0.0
 33
0.0
 40
0.0
 40
0.0
 40
0.0
 40
0.0
 40
1.0
 40
1.0
 40
1.0
 40
1.0
 10
-5.17831
 20
7.23329
 30
0.0
 10
-5.17831
 20
7.23329
 30
0.0
 10
-4.87521
 20
7.23329
 30
0.0
 10
-4.87521
 20
7.23329
 30
0.0
  0
SPLINE
  5
83
330
1F
100
AcDbEntity
  8
layer 2
370
     5
100
AcDbSpline
210
0.0
220
0.0
230
1.0
 70
    27
 71
     3
 72
     8
 73
     4
 74
     0
 42
0.0000000001
 43
0.0000000001
 12
1.0
 22
0.0
 32
0.0
 13
1.0
 23
0.0
 33
0.0
 40
0.0
 40
0.0
 40
0.0
 40
0.0
 40
1.0
 40
1.0
 40
1.0
 40
1.0
 10
-5.48141
 20
7.23329
 30
0.0
 10
-5.48141
 20
7.23329
 30
0.0
 10
-5.48141
 20
7.23329
 30
0.0
 10
-5.48141
 20
7.23329
 30
0.0
  0
SPLINE
  5
84
330
1F
100
AcDbEntity
  8
layer 2
370
     5
100
AcDbSpline
210
0.0
220
0.0
230
1.0
 70
    24
 71
     3
 72
     8
 73
     4
 74
     0
 42
0.0000000001
 43
0.0000000001
 12
1.0
 22
0.0
 32
0.0
 13
1.0
 23
0.0
 33
0.0
 40
0.0
 40
0.0
 40
0.0
 40
0.0
 40
1.0
 40
1.0
 40
1.0
 40
1.0
 10
-6.34742
 20
7.23329
 30
0.0
 10
-6.34742
 20
7.23329
 30
0.0
 10
-5.48141
 20
7.23329
 30
0.0
 10
-5.48141
 20
7.23329
 30
0.0
  0
SPLINE
  5
85
330
1F
100
AcDbEntity
  8
layer 2
370
     9
100
AcDbSpline
210
0.0
220
0.0
230
1.0
 70
    27
 71
     3
 72
    12
 73
     8
 74
     0
 42
0.0000000001
 43
0.0000000001
 12
1.0
 22
0.0
 32
0.0
 13
1.0
 23
0.0
 33
0.0
 40
0.0
 40
0.0
 40
0.0
 40
0.0
 40
0.3333333333333333
 40
0.3333333333333333
 40
0.3333333333333333
 40
0.3333333333333333
 40
1.0
 40
1.0
 40
1.0
 40
1.0
 10
-6.65052
 20
7.28381
 30
0.0
 10
-6.65052
 20
7.28381
 30
0.0
 10
-6.34742
 20
7.23329
 30
0.0
 10
-6.34742
 20
7.23329
 30
0.0
 10
-6.34742
 20
7.23329
 30
0.0
 10
-6.34742
 20
7.23329
 30
0.0
 10
-6.65052
 20
7.28381
 30
0.0
 10
-6.65052
 20
7.28381
 30
0.0
  0
SPLINE
  5
86
330
1F
100
AcDbEntity
  8
layer 2
370
     9
100
AcDbSpline
210
0.0
220
0.0
230
1.0
 70
    11
 71
     3
 72
    16
 73
    12
 74
     0
 42
0.0000000001
 43
0.0000000001
 12
1.0
 22
0.0
 32
0.0
 13
1.0
 23
0.0
 33
0.0
 40
0.0
 40
0.0
 40
0.0
 40
0.0
 40
0.25
 40
0.25
 40
0.25
 40
0.25
 40
0.5
 40
0.5
 40
0.5
 40
0.5
 40
1.0
 40
1.0
 40
1.0
 40
1.0
 10
-6.34742
 20
7.23329
 30
0.0
 10
-6.34742
 20
7.23329
 30
0.0
 10
-6.65052
 20
7.18278
 30
0.0
 10
-6.65052
 20
7.18278
 30
0.0
 10
-6.65052
 20
7.18278
 30
0.0
 10
-6.65052
 20
7.18278
 30
0.0
 10
-6.65052
 20
7.28381
 30
0.0
 10
-6.65052
 20
7.28381
 30
0.0
 10
-6.65052
 20
7.28381
 30
0.0
 10
-6.65052
 20
7.28381
 30
0.0
 10
-6.34742
 20
7.23329
 30
0.0
 10
-6.34742
 20
7.23329
 30
0.0
  0
SPLINE
  5
87
330
1F
100
AcDbEntity
  8
layer 2
370
    20
100
AcDbSpline
210
0.0
220
0.0
230
1.0
 70
    24
 71
     3
 72
     8
 73
     4
 74
     0
 42
0.0000000001
 43
0.0000000001
 12
1.0
 22
0.0
 32
0.0
 13
1.0
 23
0.0
 33
0.0
 40
0.0
 40
0.0
 40
0.0
 40
0.0
 40
1.0
 40
1.0
 40
1.0
 40
1.0
 10
-6.65052
 20
7.28381
 30
0.0
 10
-6.65052
 20
7.28381
 30
0.0
 10
-6.34742
 20
7.23329
 30
0.0
 10
-6.34742
 20
7.23329
 30
0.0
  0
SPLINE
  5
88
330
1F
100
AcDbEntity
  8
layer 2
370
    20
100
AcDbSpline
210
0.0
220
0.0
230
1.0
 70
     8
 71
     3
 72
    12
 73
     8
 74
     0
 42
0.0000000001
 43
0.0000000001
 12
1.0
 22
0.0
 32
0.0
 13
1.0
 23
0.0
 33
0.0
 40
0.0
 40
0.0
 40
0.0
 40
0.0
 40
0.3333333333333333
 40
0.3333333333333333
 40
0.3333333333333333
 40
0.3333333333333333
 40
1.0
 40
1.0
 40
1.0
 40
1.0
 10
-6.34742
 20
7.23329
 30
0.0
 10
-6.34742
 20
7.23329
 30
0.0
 10
-6.65052
 20
7.18278
 30
0.0
 10
-6.65052
 20
7.18278
 30
0.0
 10
-6.65052
 20
7.18278
 30
0.0
 10
-6.65052
 20
7.18278
 30
0.0
 10
-6.65052
 20
7.28381
 30
0.0
 10
-6.65052
 20
7.28381
 30
0.0
  0
SPLINE
  5
89
330
1F
100
AcDbEntity
  8
layer 2
370
     9
100
AcDbSpline
210
0.0
220
0.0
230
1.0
 70
    27
 71
     3
 72
    12
 73
     8
 74
     0
 42
0.0000000001
 43
0.0000000001
 12
1.0
 22
0.0
 32
0.0
 13
1.0
 23
0.0
 33
0.0
 40
0.0
 40
0.0
 40
0.0
 40
0.0
 40
0.3333333333333333
 40
0.3333333333333333
 40
0.3333333333333333
 40
0.3333333333333333
 40
1.0
 40
1.0
 40
1.0
 40
1.0
 10
-5.17831
 20
7.28381
 30
0.0
 10
-5.17831
 20
7.28381
 30
0.0
 10
-5.48141
 20
7.23329
 30
0.0
 10
-5.48141
 20
7.23329
 30
0.0
 10
-5.48141
 20
7.23329
 30
0.0
 10
-5.48141
 20
7.23329
 30
0.0
 10
-5.17831
 20
7.28381
 30
0.0
 10
-5.17831
 20
7.28381
 30
0.0
  0
SPLINE
  5
8A
330
1F
100
AcDbEntity
  8
layer 2
370
     9
100
AcDbSpline
210
0.0
220
0.0
230
1.0
 70
    11
 71
     3
 72
    16
 73
    12
 74
     0
 42
0.0000000001
 43
0.0000000001
 12
1.0
 22
0.0
 32
0.0
 13
1.0
 23
0.0
 33
0.0
 40
0.0
 40
0.0
 40
0.0
 40
0.0
 40
0.25
 40
0.25
 40
0.25
 40
0.25
 40
0.5
 40
0.5
 40
0.5
 40
0.5
 40
1.0
 40
1.0
 40
1.0
 40
1.0
 10
-5.48141
 20
7.23329
 30
0.0
 10
-5.48141
 20
7.23329
 30
0.0
 10
-5.17831
 20
7.18278
 30
0.0
 10
-5.17831
 20
7.18278
 30
0.0
 10
-5.17831
 20
7.18278
 30
0.0
 10
-5.17831
 20
7.18278
 30
0.0
 10
-5.17831
 20
7.28381
 30
0.0
 10
-5.17831
 20
7.28381
 30
0.0
 10
-5.17831
 20
7.28381
 30
0.0
 10
-5.17831
 20
7.28381
 30
0.0
 10
-5.48141
 20
7.23329
 30
0.0
 10
-5.48141
 20
7.23329
 30
0.0
  0
SPLINE
  5
8B
330
1F
100
AcDbEntity
  8
layer 2
370
    20
100
AcDbSpline
210
0.0
220
0.0
230
1.0
 70
    24
 71
     3
 72
     8
 73
     4
 74
     0
 42
0.0000000001
 43
0.0000000001
 12
1.0
 22
0.0
 32
0.0
 13
1.0
 23
0.0
 33
0.0
 40
0.0
 40
0.0
 40
0.0
 40
0.0
 40
1.0
 40
1.0
 40
1.0
 40
1.0
 10
-5.17831
 20
7.28381
 30
0.0
 10
-5.17831
 20
7.28381
 30
0.0
 10
-5.48141
 20
7.23329
 30
0.0
 10
-5.48141
 20
7.23329
 30
0.0
  0
SPLINE
  5
8C
330
1F
100
AcDbEntity
  8
layer 2
370
    20
100
AcDbSpline
210
0.0
220
0.0
230
1.0
 70
     8
 71
     3
 72
    12
 73
     8
 74
     0
 42
0.0000000001
 43
0.0000000001
 12
1.0
 22
0.0
 32
0.0
 13
1.0
 23
0.0
 33
0.0
 40
0.0
 40
0.0
 40
0.0
 40
0.0
 40
0.3333333333333333
 40
0.3333333333333333
 40
0.3333333333333333
 40
0.3333333333333333
 40
1.0
 40
1.0
 40
1.0
 40
1.0
 10
-5.48141
 20
7.23329
 30
0.0
 10
-5.48141
 20
7.23329
 30
0.0
 10
-5.17831
 20
7.18278
 30
0.0
 10
-5.17831
 20
7.18278
 30
0.0
 10
-5.17831
 20
7.18278
 30
0.0
 10
-5.17831
 20
7.18278
 30
0.0
 10
-5.17831
 20
7.28381
 30
0.0
 10
-5.17831
 20
7.28381
 30
0.0
  0
SPLINE
  5
8D
330
1F
100
AcDbEntity
  8
layer 2
370
     9
100
AcDbSpline
210
0.0
220
0.0
230
1.0
 70
    11
 71
     3
 72
    48
 73
    44
 74
     0
 42
0.0000000001
 43
0.0000000001
 12
1.0
 22
0.0
 32
0.0
 13
1.0
 23
0.0
 33
0.0
 40
0.0
 40
0.0
 40
0.0
 40
0.0
 40
0.0833333333333333
 40
0.0833333333333333
 40
0.0833333333333333
 40
0.0833333333333333
 40
0.1666666666666667
 40
0.1666666666666667
 40
0.1666666666666667
 40
0.1666666666666667
 40
0.25
 40
0.25
 40
0.25
 40
0.25
 40
0.3333333333333333
 40
0.3333333333333333
 40
0.3333333333333333
 40
0.3333333333333333
 40
0.4166666666666667
 40
0.4166666666666667
 40
0.4166666666666667
 40
0.4166666666666667
 40
0.5
 40
0.5
 40
0.5
 40
0.5
 40
0.5833333333333334
 40
0.5833333333333334
 40
0.5833333333333334
 40
0.5833333333333334
 40
0.6666666666666666
 40
0.6666666666666666
 40
0.6666666666666666
 40
0.6666666666666666
 40
0.75
 40
0.75
 40
0.75
 40
0.75
 40
0.8333333333333334
 40
0.8333333333333334
 40
0.8333333333333334
 40
0.8333333333333334
 40
1.0
 40
1.0
 40
1.0
 40
1.0
 10
-5.99008
 20
7.41296
 30
0.0
 10
-5.99008
 20
7.41296
 30
0.0
 10
-5.99008
 20
7.4686
 30
0.0
 10
-5.99008
 20
7.4686
 30
0.0
 10
-5.99008
 20
7.4686
 30
0.0
 10
-5.99008
 20
7.4686
 30
0.0
 10
-6.09092
 20
7.4686
 30
0.0
 10
-6.09092
 20
7.4686
 30
0.0
 10
-6.09092
 20
7.4686
 30
0.0
 10
-6.09092
 20
7.4686
 30
0.0
 10
-6.09092
 20
7.4948
 30
0.0
 10
-6.09092
 20
7.4948
 30
0.0
 10
-6.09092
 20
7.4948
 30
0.0
 10
-6.09092
 20
7.4948
 30
0.0
 10
-5.98483
 20
7.64543
 30
0.0
 10
-5.98483
 20
7.64543
 30
0.0
 10
-5.98483
 20
7.64543
 30
0.0
 10
-5.98483
 20
7.64543
 30
0.0
 10
-5.9615
 20
7.64543
 30
0.0
 10
-5.9615
 20
7.64543
 30
0.0
 10
-5.9615
 20
7.64543
 30
0.0
 10
-5.9615
 20
7.64543
 30
0.0
 10
-5.9615
 20
7.4948
 30
0.0
 10
-5.9615
 20
7.4948
 30
0.0
 10
-5.9615
 20
7.4948
 30
0.0
 10
-5.9615
 20
7.4948
 30
0.0
 10
-5.93011
 20
7.4948
 30
0.0
 10
-5.93011
 20
7.4948
 30
0.0
 10
-5.93011
 20
7.4948
 30
0.0
 10
-5.93011
 20
7.4948
 30
0.0
 10
-5.93011
 20
7.4686
 30
0.0
 10
-5.93011
 20
7.4686
 30
0.0
 10
-5.93011
 20
7.4686
 30
0.0
 10
-5.93011
 20
7.4686
 30
0.0
 10
-5.9615
 20
7.4686
 30
0.0
 10
-5.9615
 20
7.4686
 30
0.0
 10
-5.9615
 20
7.4686
 30
0.0
 10
-5.9615
 20
7.4686
 30
0.0
 10
-5.9615
 20
7.41296
 30
0.0
 10
-5.9615
 20
7.41296
 30
0.0
 10
-5.9615
 20
7.41296
 30
0.0
 10
-5.9615
 20
7.41296
 30
0.0
 10
-5.99008
 20
7.41296
 30
0.0
 10
-5.99008
 20
7.41296
 30
0.0
  0
SPLINE
  5
8E
330
1F
100
AcDbEntity
  8
layer 2
370
     9
100
AcDbSpline
210
0.0
220
0.0
230
1.0
 70
    11
 71
     3
 72
    16
 73
    12
 74
     0
 42
0.0000000001
 43
0.0000000001
 12
1.0
 22
0.0
 32
0.0
 13
1.0
 23
0.0
 33
0.0
 40
0.0
 40
0.0
 40
0.0
 40
0.0
 40
0.25
 40
0.25
 40
0.25
 40
0.25
 40
0.5
 40
0.5
 40
0.5
 40
0.5
 40
1.0
 40
1.0
 40
1.0
 40
1.0
 10
-5.99008
 20
7.4948
 30
0.0
 10
-5.99008
 20
7.4948
 30
0.0
 10
-5.99008
 20
7.59958
 30
0.0
 10
-5.99008
 20
7.59958
 30
0.0
 10
-5.99008
 20
7.59958
 30
0.0
 10
-5.99008
 20
7.59958
 30
0.0
 10
-6.06283
 20
7.4948
 30
0.0
 10
-6.06283
 20
7.4948
 30
0.0
 10
-6.06283
 20
7.4948
 30
0.0
 10
-6.06283
 20
7.4948
 30
0.0
 10
-5.99008
 20
7.4948
 30
0.0
 10
-5.99008
 20
7.4948
 30
0.0
  0
SPLINE
  5
8F
330
1F
100
AcDbEntity
  8
layer 2
370
     9
100
AcDbSpline
210
0.0
220
0.0
230
1.0
 70
    11
 71
     3
 72
    52
 73
    48
 74
     0
 42
0.0000000001
 43
0.0000000001
 12
1.0
 22
0.0
 32
0.0
 13
1.0
 23
0.0
 33
0.0
 40
0.0
 40
0.0
 40
0.0
 40
0.0
 40
0.0769230769230769
 40
0.0769230769230769
 40
0.0769230769230769
 40
0.0769230769230769
 40
0.1538461538461539
 40
0.1538461538461539
 40
0.1538461538461539
 40
0.1538461538461539
 40
0.2307692307692308
 40
0.2307692307692308
 40
0.2307692307692308
 40
0.2307692307692308
 40
0.3076923076923077
 40
0.3076923076923077
 40
0.3076923076923077
 40
0.3076923076923077
 40
0.3846153846153846
 40
0.3846153846153846
 40
0.3846153846153846
 40
0.3846153846153846
 40
0.4615384615384616
 40
0.4615384615384616
 40
0.4615384615384616
 40
0.4615384615384616
 40
0.5384615384615384
 40
0.5384615384615384
 40
0.5384615384615384
 40
0.5384615384615384
 40
0.6153846153846154
 40
0.6153846153846154
 40
0.6153846153846154
 40
0.6153846153846154
 40
0.6923076923076923
 40
0.6923076923076923
 40
0.6923076923076923
 40
0.6923076923076923
 40
0.7692307692307693
 40
0.7692307692307693
 40
0.7692307692307693
 40
0.7692307692307693
 40
0.8461538461538461
 40
0.8461538461538461
 40
0.8461538461538461
 40
0.8461538461538461
 40
1.0
 40
1.0
 40
1.0
 40
1.0
 10
-5.90094
 20
7.5276
 30
0.0
 10
-5.90094
 20
7.55509
 30
0.0
 10
-5.89812
 20
7.57723
 30
0.0
 10
-5.89244
 20
7.59395
 30
0.0
 10
-5.89244
 20
7.59395
 30
0.0
 10
-5.88681
 20
7.61073
 30
0.0
 10
-5.87837
 20
7.62367
 30
0.0
 10
-5.86722
 20
7.63276
 30
0.0
 10
-5.86722
 20
7.63276
 30
0.0
 10
-5.85607
 20
7.64186
 30
0.0
 10
-5.84205
 20
7.6464
 30
0.0
 10
-5.82516
 20
7.6464
 30
0.0
 10
-5.82516
 20
7.6464
 30
0.0
 10
-5.81266
 20
7.6464
 30
0.0
 10
-5.80172
 20
7.64386
 30
0.0
 10
-5.79231
 20
7.63882
 30
0.0
 10
-5.79231
 20
7.63882
 30
0.0
 10
-5.78289
 20
7.63385
 30
0.0
 10
-5.77515
 20
7.62659
 30
0.0
 10
-5.76898
 20
7.61712
 30
0.0
 10
-5.76898
 20
7.61712
 30
0.0
 10
-5.76286
 20
7.60765
 30
0.0
 10
-5.75805
 20
7.59612
 30
0.0
 10
-5.75458
 20
7.58253
 30
0.0
 10
-5.75458
 20
7.58253
 30
0.0
 10
-5.75106
 20
7.56895
 30
0.0
 10
-5.74933
 20
7.55065
 30
0.0
 10
-5.74933
 20
7.5276
 30
0.0
 10
-5.74933
 20
7.5276
 30
0.0
 10
-5.74933
 20
7.50032
 30
0.0
 10
-5.75215
 20
7.47834
 30
0.0
 10
-5.75772
 20
7.46156
 30
0.0
 10
-5.75772
 20
7.46156
 30
0.0
 10
-5.76335
 20
7.44479
 30
0.0
 10
-5.77174
 20
7.43185
 30
0.0
 10
-5.78289
 20
7.4227
 30
0.0
 10
-5.78289
 20
7.4227
 30
0.0
 10
-5.79404
 20
7.41355
 30
0.0
 10
-5.80811
 20
7.40901
 30
0.0
 10
-5.82516
 20
7.40901
 30
0.0
 10
-5.82516
 20
7.40901
 30
0.0
 10
-5.84757
 20
7.40901
 30
0.0
 10
-5.86516
 20
7.41702
 30
0.0
 10
-5.87793
 20
7.43309
 30
0.0
 10
-5.87793
 20
7.43309
 30
0.0
 10
-5.89325
 20
7.45242
 30
0.0
 10
-5.90094
 20
7.48397
 30
0.0
 10
-5.90094
 20
7.5276
 30
0.0
  0
SPLINE
  5
90
330
1F
100
AcDbEntity
  8
layer 2
370
     9
100
AcDbSpline
210
0.0
220
0.0
230
1.0
 70
    11
 71
     3
 72
    36
 73
    32
 74
     0
 42
0.0000000001
 43
0.0000000001
 12
1.0
 22
0.0
 32
0.0
 13
1.0
 23
0.0
 33
0.0
 40
0.0
 40
0.0
 40
0.0
 40
0.0
 40
0.1111111111111111
 40
0.1111111111111111
 40
0.1111111111111111
 40
0.1111111111111111
 40
0.2222222222222222
 40
0.2222222222222222
 40
0.2222222222222222
 40
0.2222222222222222
 40
0.3333333333333333
 40
0.3333333333333333
 40
0.3333333333333333
 40
0.3333333333333333
 40
0.4444444444444444
 40
0.4444444444444444
 40
0.4444444444444444
 40
0.4444444444444444
 40
0.5555555555555556
 40
0.5555555555555556
 40
0.5555555555555556
 40
0.5555555555555556
 40
0.6666666666666666
 40
0.6666666666666666
 40
0.6666666666666666
 40
0.6666666666666666
 40
0.7777777777777778
 40
0.7777777777777778
 40
0.7777777777777778
 40
0.7777777777777778
 40
1.0
 40
1.0
 40
1.0
 40
1.0
 10
-5.8716
 20
7.5276
 30
0.0
 10
-5.8716
 20
7.48944
 30
0.0
 10
-5.86711
 20
7.46405
 30
0.0
 10
-5.85818
 20
7.45139
 30
0.0
 10
-5.85818
 20
7.45139
 30
0.0
 10
-5.84925
 20
7.43878
 30
0.0
 10
-5.83826
 20
7.43244
 30
0.0
 10
-5.82516
 20
7.43244
 30
0.0
 10
-5.82516
 20
7.43244
 30
0.0
 10
-5.81201
 20
7.43244
 30
0.0
 10
-5.80102
 20
7.43883
 30
0.0
 10
-5.79209
 20
7.4515
 30
0.0
 10
-5.79209
 20
7.4515
 30
0.0
 10
-5.78316
 20
7.46416
 30
0.0
 10
-5.77867
 20
7.48955
 30
0.0
 10
-5.77867
 20
7.5276
 30
0.0
 10
-5.77867
 20
7.5276
 30
0.0
 10
-5.77867
 20
7.56586
 30
0.0
 10
-5.78316
 20
7.5913
 30
0.0
 10
-5.79209
 20
7.60386
 30
0.0
 10
-5.79209
 20
7.60386
 30
0.0
 10
-5.80102
 20
7.61647
 30
0.0
 10
-5.81212
 20
7.62275
 30
0.0
 10
-5.82543
 20
7.62275
 30
0.0
 10
-5.82543
 20
7.62275
 30
0.0
 10
-5.83858
 20
7.62275
 30
0.0
 10
-5.84903
 20
7.61717
 30
0.0
 10
-5.85688
 20
7.60608
 30
0.0
 10
-5.85688
 20
7.60608
 30
0.0
 10
-5.86667
 20
7.59195
 30
0.0
 10
-5.8716
 20
7.56576
 30
0.0
 10
-5.8716
 20
7.5276
 30
0.0
  0
SPLINE
  5
91
330
1F
100
AcDbEntity
  8
layer 2
370
     5
100
AcDbSpline
210
0.0
220
0.0
230
1.0
 70
    27
 71
     3
 72
     8
 73
     4
 74
     0
 42
0.0000000001
 43
0.0000000001
 12
1.0
 22
0.0
 32
0.0
 13
1.0
 23
0.0
 33
0.0
 40
0.0
 40
0.0
 40
0.0
 40
0.0
 40
1.0
 40
1.0
 40
1.0
 40
1.0
 10
-5.48141
 20
7.26035
 30
0.0
 10
-5.48141
 20
7.26035
 30
0.0
 10
-5.48141
 20
7.26035
 30
0.0
 10
-5.48141
 20
7.26035
 30
0.0
  0
SPLINE
  5
92
330
1F
100
AcDbEntity
  8
layer 2
370
     5
100
AcDbSpline
210
0.0
220
0.0
230
1.0
 70
    24
 71
     3
 72
     8
 73
     4
 74
     0
 42
0.0000000001
 43
0.0000000001
 12
1.0
 22
0.0
 32
0.0
 13
1.0
 23
0.0
 33
0.0
 40
0.0
 40
0.0
 40
0.0
 40
0.0
 40
1.0
 40
1.0
 40
1.0
 40
1.0
 10
-5.48141
 20
5.8421
 30
0.0
 10
-5.48141
 20
5.8421
 30
0.0
 10
-5.48141
 20
7.26035
 30
0.0
 10
-5.48141
 20
7.26035
 30
0.0
  0
SPLINE
  5
93
330
1F
100
AcDbEntity
  8
layer 2
370
     5
100
AcDbSpline
210
0.0
220
0.0
230
1.0
 70
    27
 71
     3
 72
     8
 73
     4
 74
     0
 42
0.0000000001
 43
0.0000000001
 12
1.0
 22
0.0
 32
0.0
 13
1.0
 23
0.0
 33
0.0
 40
0.0
 40
0.0
 40
0.0
 40
0.0
 40
1.0
 40
1.0
 40
1.0
 40
1.0
 10
5.90658
 20
7.26035
 30
0.0
 10
5.90658
 20
7.26035
 30
0.0
 10
5.90658
 20
7.26035
 30
0.0
 10
5.90658
 20
7.26035
 30
0.0
  0
SPLINE
  5
94
330
1F
100
AcDbEntity
  8
layer 2
370
     5
100
AcDbSpline
210
0.0
220
0.0
230
1.0
 70
    24
 71
     3
 72
     8
 73
     4
 74
     0
 42
0.0000000001
 43
0.0000000001
 12
1.0
 22
0.0
 32
0.0
 13
1.0
 23
0.0
 33
0.0
 40
0.0
 40
0.0
 40
0.0
 40
0.0
 40
1.0
 40
1.0
 40
1.0
 40
1.0
 10
5.90658
 20
5.8421
 30
0.0
 10
5.90658
 20
5.8421
 30
0.0
 10
5.90658
 20
7.26035
 30
0.0
 10
5.90658
 20
7.26035
 30
0.0
  0
SPLINE
  5
95
330
1F
100
AcDbEntity
  8
layer 2
370
     5
100
AcDbSpline
210
0.0
220
0.0
230
1.0
 70
    27
 71
     3
 72
     8
 73
     4
 74
     0
 42
0.0000000001
 43
0.0000000001
 12
1.0
 22
0.0
 32
0.0
 13
1.0
 23
0.0
 33
0.0
 40
0.0
 40
0.0
 40
0.0
 40
0.0
 40
1.0
 40
1.0
 40
1.0
 40
1.0
 10
5.60347
 20
7.23329
 30
0.0
 10
5.60347
 20
7.23329
 30
0.0
 10
5.60347
 20
7.23329
 30
0.0
 10
5.60347
 20
7.23329
 30
0.0
  0
SPLINE
  5
96
330
1F
100
AcDbEntity
  8
layer 2
370
     5
100
AcDbSpline
210
0.0
220
0.0
230
1.0
 70
    24
 71
     3
 72
     8
 73
     4
 74
     0
 42
0.0000000001
 43
0.0000000001
 12
1.0
 22
0.0
 32
0.0
 13
1.0
 23
0.0
 33
0.0
 40
0.0
 40
0.0
 40
0.0
 40
0.0
 40
1.0
 40
1.0
 40
1.0
 40
1.0
 10
-5.17831
 20
7.23329
 30
0.0
 10
-5.17831
 20
7.23329
 30
0.0
 10
5.60347
 20
7.23329
 30
0.0
 10
5.60347
 20
7.23329
 30
0.0
  0
SPLINE
  5
97
330
1F
100
AcDbEntity
  8
layer 2
370
     9
100
AcDbSpline
210
0.0
220
0.0
230
1.0
 70
    27
 71
     3
 72
    12
 73
     8
 74
     0
 42
0.0000000001
 43
0.0000000001
 12
1.0
 22
0.0
 32
0.0
 13
1.0
 23
0.0
 33
0.0
 40
0.0
 40
0.0
 40
0.0
 40
0.0
 40
0.3333333333333333
 40
0.3333333333333333
 40
0.3333333333333333
 40
0.3333333333333333
 40
1.0
 40
1.0
 40
1.0
 40
1.0
 10
-5.17831
 20
7.28381
 30
0.0
 10
-5.17831
 20
7.28381
 30
0.0
 10
-5.48141
 20
7.23329
 30
0.0
 10
-5.48141
 20
7.23329
 30
0.0
 10
-5.48141
 20
7.23329
 30
0.0
 10
-5.48141
 20
7.23329
 30
0.0
 10
-5.17831
 20
7.28381
 30
0.0
 10
-5.17831
 20
7.28381
 30
0.0
  0
SPLINE
  5
98
330
1F
100
AcDbEntity
  8
layer 2
370
     9
100
AcDbSpline
210
0.0
220
0.0
230
1.0
 70
    11
 71
     3
 72
    16
 73
    12
 74
     0
 42
0.0000000001
 43
0.0000000001
 12
1.0
 22
0.0
 32
0.0
 13
1.0
 23
0.0
 33
0.0
 40
0.0
 40
0.0
 40
0.0
 40
0.0
 40
0.25
 40
0.25
 40
0.25
 40
0.25
 40
0.5
 40
0.5
 40
0.5
 40
0.5
 40
1.0
 40
1.0
 40
1.0
 40
1.0
 10
-5.48141
 20
7.23329
 30
0.0
 10
-5.48141
 20
7.23329
 30
0.0
 10
-5.17831
 20
7.18278
 30
0.0
 10
-5.17831
 20
7.18278
 30
0.0
 10
-5.17831
 20
7.18278
 30
0.0
 10
-5.17831
 20
7.18278
 30
0.0
 10
-5.17831
 20
7.28381
 30
0.0
 10
-5.17831
 20
7.28381
 30
0.0
 10
-5.17831
 20
7.28381
 30
0.0
 10
-5.17831
 20
7.28381
 30
0.0
 10
-5.48141
 20
7.23329
 30
0.0
 10
-5.48141
 20
7.23329
 30
0.0
  0
SPLINE
  5
99
330
1F
100
AcDbEntity
  8
layer 2
370
    20
100
AcDbSpline
210
0.0
220
0.0
230
1.0
 70
    24
 71
     3
 72
     8
 73
     4
 74
     0
 42
0.0000000001
 43
0.0000000001
 12
1.0
 22
0.0
 32
0.0
 13
1.0
 23
0.0
 33
0.0
 40
0.0
 40
0.0
 40
0.0
 40
0.0
 40
1.0
 40
1.0
 40
1.0
 40
1.0
 10
-5.17831
 20
7.28381
 30
0.0
 10
-5.17831
 20
7.28381
 30
0.0
 10
-5.48141
 20
7.23329
 30
0.0
 10
-5.48141
 20
7.23329
 30
0.0
  0
SPLINE
  5
9A
330
1F
100
AcDbEntity
  8
layer 2
370
    20
100
AcDbSpline
210
0.0
220
0.0
230
1.0
 70
     8
 71
     3
 72
    12
 73
     8
 74
     0
 42
0.0000000001
 43
0.0000000001
 12
1.0
 22
0.0
 32
0.0
 13
1.0
 23
0.0
 33
0.0
 40
0.0
 40
0.0
 40
0.0
 40
0.0
 40
0.3333333333333333
 40
0.3333333333333333
 40
0.3333333333333333
 40
0.3333333333333333
 40
1.0
 40
1.0
 40
1.0
 40
1.0
 10
-5.48141
 20
7.23329
 30
0.0
 10
-5.48141
 20
7.23329
 30
0.0
 10
-5.17831
 20
7.18278
 30
0.0
 10
-5.17831
 20
7.18278
 30
0.0
 10
-5.17831
 20
7.18278
 30
0.0
 10
-5.17831
 20
7.18278
 30
0.0
 10
-5.17831
 20
7.28381
 30
0.0
 10
-5.17831
 20
7.28381
 30
0.0
  0
SPLINE
  5
9B
330
1F
100
AcDbEntity
  8
layer 2
370
     9
100
AcDbSpline
210
0.0
220
0.0
230
1.0
 70
    27
 71
     3
 72
    12
 73
     8
 74
     0
 42
0.0000000001
 43
0.0000000001
 12
1.0
 22
0.0
 32
0.0
 13
1.0
 23
0.0
 33
0.0
 40
0.0
 40
0.0
 40
0.0
 40
0.0
 40
0.3333333333333333
 40
0.3333333333333333
 40
0.3333333333333333
 40
0.3333333333333333
 40
1.0
 40
1.0
 40
1.0
 40
1.0
 10
5.60347
 20
7.28381
 30
0.0
 10
5.60347
 20
7.28381
 30
0.0
 10
5.90658
 20
7.23329
 30
0.0
 10
5.90658
 20
7.23329
 30
0.0
 10
5.90658
 20
7.23329
 30
0.0
 10
5.90658
 20
7.23329
 30
0.0
 10
5.60347
 20
7.28381
 30
0.0
 10
5.60347
 20
7.28381
 30
0.0
  0
SPLINE
  5
9C
330
1F
100
AcDbEntity
  8
layer 2
370
     9
100
AcDbSpline
210
0.0
220
0.0
230
1.0
 70
    11
 71
     3
 72
    16
 73
    12
 74
     0
 42
0.0000000001
 43
0.0000000001
 12
1.0
 22
0.0
 32
0.0
 13
1.0
 23
0.0
 33
0.0
 40
0.0
 40
0.0
 40
0.0
 40
0.0
 40
0.25
 40
0.25
 40
0.25
 40
0.25
 40
0.5
 40
0.5
 40
0.5
 40
0.5
 40
1.0
 40
1.0
 40
1.0
 40
1.0
 10
5.90658
 20
7.23329
 30
0.0
 10
5.90658
 20
7.23329
 30
0.0
 10
5.60347
 20
7.18278
 30
0.0
 10
5.60347
 20
7.18278
 30
0.0
 10
5.60347
 20
7.18278
 30
0.0
 10
5.60347
 20
7.18278
 30
0.0
 10
5.60347
 20
7.28381
 30
0.0
 10
5.60347
 20
7.28381
 30
0.0
 10
5.60347
 20
7.28381
 30
0.0
 10
5.60347
 20
7.28381
 30
0.0
 10
5.90658
 20
7.23329
 30
0.0
 10
5.90658
 20
7.23329
 30
0.0
  0
SPLINE
  5
9D
330
1F
100
AcDbEntity
  8
layer 2
370
    20
100
AcDbSpline
210
0.0
220
0.0
230
1.0
 70
    24
 71
     3
 72
     8
 73
     4
 74
     0
 42
0.0000000001
 43
0.0000000001
 12
1.0
 22
0.0
 32
0.0
 13
1.0
 23
0.0
 33
0.0
 40
0.0
 40
0.0
 40
0.0
 40
0.0
 40
1.0
 40
1.0
 40
1.0
 40
1.0
 10
5.60347
 20
7.28381
 30
0.0
 10
5.60347
 20
7.28381
 30
0.0
 10
5.90658
 20
7.23329
 30
0.0
 10
5.90658
 20
7.23329
 30
0.0
  0
SPLINE
  5
9E
330
1F
100
AcDbEntity
  8
layer 2
370
    20
100
AcDbSpline
210
0.0
220
0.0
230
1.0
 70
     8
 71
     3
 72
    12
 73
     8
 74
     0
 42
0.0000000001
 43
0.0000000001
 12
1.0
 22
0.0
 32
0.0
 13
1.0
 23
0.0
 33
0.0
 40
0.0
 40
0.0
 40
0.0
 40
0.0
 40
0.3333333333333333
 40
0.3333333333333333
 40
0.3333333333333333
 40
0.3333333333333333
 40
1.0
 40
1.0
 40
1.0
 40
1.0
 10
5.90658
 20
7.23329
 30
0.0
 10
5.90658
 20
7.23329
 30
0.0
 10
5.60347
 20
7.18278
 30
0.0
 10
5.60347
 20
7.18278
 30
0.0
 10
5.60347
 20
7.18278
 30
0.0
 10
5.60347
 20
7.18278
 30
0.0
 10
5.60347
 20
7.28381
 30
0.0
 10
5.60347
 20
7.28381
 30
0.0
  0
SPLINE
  5
9F
330
1F
100
AcDbEntity
  8
layer 2
370
     9
100
AcDbSpline
210
0.0
220
0.0
230
1.0
 70
    11
 71
     3
 72
    92
 73
    88
 74
     0
 42
0.0000000001
 43
0.0000000001
 12
1.0
 22
0.0
 32
0.0
 13
1.0
 23
0.0
 33
0.0
 40
0.0
 40
0.0
 40
0.0
 40
0.0
 40
0.0434782608695652
 40
0.0434782608695652
 40
0.0434782608695652
 40
0.0434782608695652
 40
0.0869565217391304
 40
0.0869565217391304
 40
0.0869565217391304
 40
0.0869565217391304
 40
0.1304347826086956
 40
0.1304347826086956
 40
0.1304347826086956
 40
0.1304347826086956
 40
0.1739130434782609
 40
0.1739130434782609
 40
0.1739130434782609
 40
0.1739130434782609
 40
0.2173913043478261
 40
0.2173913043478261
 40
0.2173913043478261
 40
0.2173913043478261
 40
0.2608695652173913
 40
0.2608695652173913
 40
0.2608695652173913
 40
0.2608695652173913
 40
0.3043478260869565
 40
0.3043478260869565
 40
0.3043478260869565
 40
0.3043478260869565
 40
0.3478260869565217
 40
0.3478260869565217
 40
0.3478260869565217
 40
0.3478260869565217
 40
0.391304347826087
 40
0.391304347826087
 40
0.391304347826087
 40
0.391304347826087
 40
0.4347826086956522
 40
0.4347826086956522
 40
0.4347826086956522
 40
0.4347826086956522
 40
0.4782608695652174
 40
0.4782608695652174
 40
0.4782608695652174
 40
0.4782608695652174
 40
0.5217391304347826
 40
0.5217391304347826
 40
0.5217391304347826
 40
0.5217391304347826
 40
0.5652173913043478
 40
0.5652173913043478
 40
0.5652173913043478
 40
0.5652173913043478
 40
0.6086956521739131
 40
0.6086956521739131
 40
0.6086956521739131
 40
0.6086956521739131
 40
0.6521739130434783
 40
0.6521739130434783
 40
0.6521739130434783
 40
0.6521739130434783
 40
0.6956521739130435
 40
0.6956521739130435
 40
0.6956521739130435
 40
0.6956521739130435
 40
0.7391304347826086
 40
0.7391304347826086
 40
0.7391304347826086
 40
0.7391304347826086
 40
0.782608695652174
 40
0.782608695652174
 40
0.782608695652174
 40
0.782608695652174
 40
0.8260869565217391
 40
0.8260869565217391
 40
0.8260869565217391
 40
0.8260869565217391
 40
0.8695652173913043
 40
0.8695652173913043
 40
0.8695652173913043
 40
0.8695652173913043
 40
0.9130434782608695
 40
0.9130434782608695
 40
0.9130434782608695
 40
0.9130434782608695
 40
1.0
 40
1.0
 40
1.0
 40
1.0
 10
-0.04486
 20
7.47385
 30
0.0
 10
-0.04486
 20
7.47385
 30
0.0
 10
-0.01488
 20
7.47639
 30
0.0
 10
-0.01488
 20
7.47639
 30
0.0
 10
-0.01488
 20
7.47639
 30
0.0
 10
-0.01266
 20
7.46178
 30
0.0
 10
-0.00751
 20
7.45085
 30
0.0
 10
0.00055
 20
7.44349
 30
0.0
 10
0.00055
 20
7.44349
 30
0.0
 10
0.00867
 20
7.43613
 30
0.0
 10
0.01841
 20
7.43244
 30
0.0
 10
0.02983
 20
7.43244
 30
0.0
 10
0.02983
 20
7.43244
 30
0.0
 10
0.04358
 20
7.43244
 30
0.0
 10
0.05522
 20
7.43764
 30
0.0
 10
0.06469
 20
7.44798
 30
0.0
 10
0.06469
 20
7.44798
 30
0.0
 10
0.07421
 20
7.45837
 30
0.0
 10
0.07898
 20
7.47212
 30
0.0
 10
0.07898
 20
7.48922
 30
0.0
 10
0.07898
 20
7.48922
 30
0.0
 10
0.07898
 20
7.50551
 30
0.0
 10
0.07443
 20
7.51834
 30
0.0
 10
0.06528
 20
7.52776
 30
0.0
 10
0.06528
 20
7.52776
 30
0.0
 10
0.05614
 20
7.53718
 30
0.0
 10
0.04418
 20
7.54189
 30
0.0
 10
0.02934
 20
7.54189
 30
0.0
 10
0.02934
 20
7.54189
 30
0.0
 10
0.02014
 20
7.54189
 30
0.0
 10
0.01186
 20
7.53978
 30
0.0
 10
0.00445
 20
7.53561
 30
0.0
 10
0.00445
 20
7.53561
 30
0.0
 10
-0.00297
 20
7.53144
 30
0.0
 10
-0.00876
 20
7.52603
 30
0.0
 10
-0.01298
 20
7.51937
 30
0.0
 10
-0.01298
 20
7.51937
 30
0.0
 10
-0.01298
 20
7.51937
 30
0.0
 10
-0.03977
 20
7.52283
 30
0.0
 10
-0.03977
 20
7.52283
 30
0.0
 10
-0.03977
 20
7.52283
 30
0.0
 10
-0.03977
 20
7.52283
 30
0.0
 10
-0.01726
 20
7.64223
 30
0.0
 10
-0.01726
 20
7.64223
 30
0.0
 10
-0.01726
 20
7.64223
 30
0.0
 10
-0.01726
 20
7.64223
 30
0.0
 10
0.09835
 20
7.64223
 30
0.0
 10
0.09835
 20
7.64223
 30
0.0
 10
0.09835
 20
7.64223
 30
0.0
 10
0.09835
 20
7.64223
 30
0.0
 10
0.09835
 20
7.61496
 30
0.0
 10
0.09835
 20
7.61496
 30
0.0
 10
0.09835
 20
7.61496
 30
0.0
 10
0.09835
 20
7.61496
 30
0.0
 10
0.00558
 20
7.61496
 30
0.0
 10
0.00558
 20
7.61496
 30
0.0
 10
0.00558
 20
7.61496
 30
0.0
 10
0.00558
 20
7.61496
 30
0.0
 10
-0.00697
 20
7.55249
 30
0.0
 10
-0.00697
 20
7.55249
 30
0.0
 10
-0.00697
 20
7.55249
 30
0.0
 10
0.00699
 20
7.56224
 30
0.0
 10
0.02166
 20
7.56711
 30
0.0
 10
0.03698
 20
7.56711
 30
0.0
 10
0.03698
 20
7.56711
 30
0.0
 10
0.05727
 20
7.56711
 30
0.0
 10
0.07438
 20
7.56007
 30
0.0
 10
0.08834
 20
7.546
 30
0.0
 10
0.08834
 20
7.546
 30
0.0
 10
0.10231
 20
7.53193
 30
0.0
 10
0.10929
 20
7.51385
 30
0.0
 10
0.10929
 20
7.49177
 30
0.0
 10
0.10929
 20
7.49177
 30
0.0
 10
0.10929
 20
7.47071
 30
0.0
 10
0.10312
 20
7.45253
 30
0.0
 10
0.09089
 20
7.43721
 30
0.0
 10
0.09089
 20
7.43721
 30
0.0
 10
0.07595
 20
7.41843
 30
0.0
 10
0.0556
 20
7.40901
 30
0.0
 10
0.02983
 20
7.40901
 30
0.0
 10
0.02983
 20
7.40901
 30
0.0
 10
0.00867
 20
7.40901
 30
0.0
 10
-0.0086
 20
7.41491
 30
0.0
 10
-0.02197
 20
7.42676
 30
0.0
 10
-0.02197
 20
7.42676
 30
0.0
 10
-0.03533
 20
7.43861
 30
0.0
 10
-0.04297
 20
7.45431
 30
0.0
 10
-0.04486
 20
7.47385
 30
0.0
  0
SPLINE
  5
A0
330
1F
100
AcDbEntity
  8
layer 2
370
     9
100
AcDbSpline
210
0.0
220
0.0
230
1.0
 70
    11
 71
     3
 72
    92
 73
    88
 74
     0
 42
0.0000000001
 43
0.0000000001
 12
1.0
 22
0.0
 32
0.0
 13
1.0
 23
0.0
 33
0.0
 40
0.0
 40
0.0
 40
0.0
 40
0.0
 40
0.0434782608695652
 40
0.0434782608695652
 40
0.0434782608695652
 40
0.0434782608695652
 40
0.0869565217391304
 40
0.0869565217391304
 40
0.0869565217391304
 40
0.0869565217391304
 40
0.1304347826086956
 40
0.1304347826086956
 40
0.1304347826086956
 40
0.1304347826086956
 40
0.1739130434782609
 40
0.1739130434782609
 40
0.1739130434782609
 40
0.1739130434782609
 40
0.2173913043478261
 40
0.2173913043478261
 40
0.2173913043478261
 40
0.2173913043478261
 40
0.2608695652173913
 40
0.2608695652173913
 40
0.2608695652173913
 40
0.2608695652173913
 40
0.3043478260869565
 40
0.3043478260869565
 40
0.3043478260869565
 40
0.3043478260869565
 40
0.3478260869565217
 40
0.3478260869565217
 40
0.3478260869565217
 40
0.3478260869565217
 40
0.391304347826087
 40
0.391304347826087
 40
0.391304347826087
 40
0.391304347826087
 40
0.4347826086956522
 40
0.4347826086956522
 40
0.4347826086956522
 40
0.4347826086956522
 40
0.4782608695652174
 40
0.4782608695652174
 40
0.4782608695652174
 40
0.4782608695652174
 40
0.5217391304347826
 40
0.5217391304347826
 40
0.5217391304347826
 40
0.5217391304347826
 40
0.5652173913043478
 40
0.5652173913043478
 40
0.5652173913043478
 40
0.5652173913043478
 40
0.6086956521739131
 40
0.6086956521739131
 40
0.6086956521739131
 40
0.6086956521739131
 40
0.6521739130434783
 40
0.6521739130434783
 40
0.6521739130434783
 40
0.6521739130434783
 40
0.6956521739130435
 40
0.6956521739130435
 40
0.6956521739130435
 40
0.6956521739130435
 40
0.7391304347826086
 40
0.7391304347826086
 40
0.7391304347826086
 40
0.7391304347826086
 40
0.782608695652174
 40
0.782608695652174
 40
0.782608695652174
 40
0.782608695652174
 40
0.8260869565217391
 40
0.8260869565217391
 40
0.8260869565217391
 40
0.8260869565217391
 40
0.8695652173913043
 40
0.8695652173913043
 40
0.8695652173913043
 40
0.8695652173913043
 40
0.9130434782608695
 40
0.9130434782608695
 40
0.9130434782608695
 40
0.9130434782608695
 40
1.0
 40
1.0
 40
1.0
 40
1.0
 10
0.28579
 20
7.4404
 30
0.0
 10
0.28579
 20
7.4404
 30
0.0
 10
0.28579
 20
7.41296
 30
0.0
 10
0.28579
 20
7.41296
 30
0.0
 10
0.28579
 20
7.41296
 30
0.0
 10
0.28579
 20
7.41296
 30
0.0
 10
0.13213
 20
7.41296
 30
0.0
 10
0.13213
 20
7.41296
 30
0.0
 10
0.13213
 20
7.41296
 30
0.0
 10
0.13191
 20
7.41983
 30
0.0
 10
0.13299
 20
7.42644
 30
0.0
 10
0.13543
 20
7.43277
 30
0.0
 10
0.13543
 20
7.43277
 30
0.0
 10
0.13933
 20
7.44327
 30
0.0
 10
0.14561
 20
7.45355
 30
0.0
 10
0.15421
 20
7.46373
 30
0.0
 10
0.15421
 20
7.46373
 30
0.0
 10
0.16287
 20
7.47385
 30
0.0
 10
0.17532
 20
7.4856
 30
0.0
 10
0.19156
 20
7.49891
 30
0.0
 10
0.19156
 20
7.49891
 30
0.0
 10
0.21684
 20
7.51964
 30
0.0
 10
0.23394
 20
7.53604
 30
0.0
 10
0.24282
 20
7.54816
 30
0.0
 10
0.24282
 20
7.54816
 30
0.0
 10
0.25169
 20
7.56023
 30
0.0
 10
0.25613
 20
7.57171
 30
0.0
 10
0.25613
 20
7.58248
 30
0.0
 10
0.25613
 20
7.58248
 30
0.0
 10
0.25613
 20
7.59379
 30
0.0
 10
0.25207
 20
7.60332
 30
0.0
 10
0.24401
 20
7.61111
 30
0.0
 10
0.24401
 20
7.61111
 30
0.0
 10
0.23589
 20
7.61885
 30
0.0
 10
0.22533
 20
7.62275
 30
0.0
 10
0.21234
 20
7.62275
 30
0.0
 10
0.21234
 20
7.62275
 30
0.0
 10
0.19859
 20
7.62275
 30
0.0
 10
0.18761
 20
7.61864
 30
0.0
 10
0.17938
 20
7.61035
 30
0.0
 10
0.17938
 20
7.61035
 30
0.0
 10
0.1711
 20
7.60213
 30
0.0
 10
0.16693
 20
7.59071
 30
0.0
 10
0.16682
 20
7.57615
 30
0.0
 10
0.16682
 20
7.57615
 30
0.0
 10
0.16682
 20
7.57615
 30
0.0
 10
0.13749
 20
7.57912
 30
0.0
 10
0.13749
 20
7.57912
 30
0.0
 10
0.13749
 20
7.57912
 30
0.0
 10
0.13949
 20
7.60105
 30
0.0
 10
0.14707
 20
7.61772
 30
0.0
 10
0.16017
 20
7.62919
 30
0.0
 10
0.16017
 20
7.62919
 30
0.0
 10
0.17326
 20
7.64066
 30
0.0
 10
0.19091
 20
7.6464
 30
0.0
 10
0.21299
 20
7.6464
 30
0.0
 10
0.21299
 20
7.6464
 30
0.0
 10
0.23529
 20
7.6464
 30
0.0
 10
0.25294
 20
7.64018
 30
0.0
 10
0.26593
 20
7.62784
 30
0.0
 10
0.26593
 20
7.62784
 30
0.0
 10
0.27897
 20
7.61544
 30
0.0
 10
0.28547
 20
7.60013
 30
0.0
 10
0.28547
 20
7.58183
 30
0.0
 10
0.28547
 20
7.58183
 30
0.0
 10
0.28547
 20
7.57252
 30
0.0
 10
0.28357
 20
7.56337
 30
0.0
 10
0.27973
 20
7.55439
 30
0.0
 10
0.27973
 20
7.55439
 30
0.0
 10
0.27594
 20
7.5454
 30
0.0
 10
0.26961
 20
7.53593
 30
0.0
 10
0.26078
 20
7.52603
 30
0.0
 10
0.26078
 20
7.52603
 30
0.0
 10
0.25196
 20
7.51607
 30
0.0
 10
0.23729
 20
7.50243
 30
0.0
 10
0.21678
 20
7.48511
 30
0.0
 10
0.21678
 20
7.48511
 30
0.0
 10
0.19968
 20
7.47071
 30
0.0
 10
0.18869
 20
7.46097
 30
0.0
 10
0.18382
 20
7.45583
 30
0.0
 10
0.18382
 20
7.45583
 30
0.0
 10
0.17895
 20
7.45074
 30
0.0
 10
0.17494
 20
7.4456
 30
0.0
 10
0.17175
 20
7.4404
 30
0.0
 10
0.17175
 20
7.4404
 30
0.0
 10
0.17175
 20
7.4404
 30
0.0
 10
0.28579
 20
7.4404
 30
0.0
 10
0.28579
 20
7.4404
 30
0.0
  0
SPLINE
  5
A1
330
1F
100
AcDbEntity
  8
layer 2
370
     9
100
AcDbSpline
210
0.0
220
0.0
230
1.0
 70
    11
 71
     3
 72
    80
 73
    76
 74
     0
 42
0.0000000001
 43
0.0000000001
 12
1.0
 22
0.0
 32
0.0
 13
1.0
 23
0.0
 33
0.0
 40
0.0
 40
0.0
 40
0.0
 40
0.0
 40
0.05
 40
0.05
 40
0.05
 40
0.05
 40
0.1
 40
0.1
 40
0.1
 40
0.1
 40
0.15
 40
0.15
 40
0.15
 40
0.15
 40
0.2
 40
0.2
 40
0.2
 40
0.2
 40
0.25
 40
0.25
 40
0.25
 40
0.25
 40
0.3
 40
0.3
 40
0.3
 40
0.3
 40
0.35
 40
0.35
 40
0.35
 40
0.35
 40
0.4
 40
0.4
 40
0.4
 40
0.4
 40
0.45
 40
0.45
 40
0.45
 40
0.45
 40
0.5
 40
0.5
 40
0.5
 40
0.5
 40
0.55
 40
0.55
 40
0.55
 40
0.55
 40
0.6
 40
0.6
 40
0.6
 40
0.6
 40
0.65
 40
0.65
 40
0.65
 40
0.65
 40
0.7
 40
0.7
 40
0.7
 40
0.7
 40
0.75
 40
0.75
 40
0.75
 40
0.75
 40
0.8
 40
0.8
 40
0.8
 40
0.8
 40
0.85
 40
0.85
 40
0.85
 40
0.85
 40
0.9
 40
0.9
 40
0.9
 40
0.9
 40
1.0
 40
1.0
 40
1.0
 40
1.0
 10
0.46446
 20
7.58849
 30
0.0
 10
0.46446
 20
7.58849
 30
0.0
 10
0.4361
 20
7.58627
 30
0.0
 10
0.4361
 20
7.58627
 30
0.0
 10
0.4361
 20
7.58627
 30
0.0
 10
0.43355
 20
7.59747
 30
0.0
 10
0.42998
 20
7.60565
 30
0.0
 10
0.42533
 20
7.61068
 30
0.0
 10
0.42533
 20
7.61068
 30
0.0
 10
0.41759
 20
7.61885
 30
0.0
 10
0.40806
 20
7.62291
 30
0.0
 10
0.39675
 20
7.62291
 30
0.0
 10
0.39675
 20
7.62291
 30
0.0
 10
0.38765
 20
7.62291
 30
0.0
 10
0.3797
 20
7.62037
 30
0.0
 10
0.37282
 20
7.61528
 30
0.0
 10
0.37282
 20
7.61528
 30
0.0
 10
0.36384
 20
7.60873
 30
0.0
 10
0.35675
 20
7.59915
 30
0.0
 10
0.35155
 20
7.58659
 30
0.0
 10
0.35155
 20
7.58659
 30
0.0
 10
0.34641
 20
7.57404
 30
0.0
 10
0.3437
 20
7.55612
 30
0.0
 10
0.34349
 20
7.53285
 30
0.0
 10
0.34349
 20
7.53285
 30
0.0
 10
0.35036
 20
7.54329
 30
0.0
 10
0.35875
 20
7.55109
 30
0.0
 10
0.36871
 20
7.55618
 30
0.0
 10
0.36871
 20
7.55618
 30
0.0
 10
0.37862
 20
7.56121
 30
0.0
 10
0.38906
 20
7.56375
 30
0.0
 10
0.39994
 20
7.56375
 30
0.0
 10
0.39994
 20
7.56375
 30
0.0
 10
0.41899
 20
7.56375
 30
0.0
 10
0.43518
 20
7.55677
 30
0.0
 10
0.44855
 20
7.54275
 30
0.0
 10
0.44855
 20
7.54275
 30
0.0
 10
0.46191
 20
7.52873
 30
0.0
 10
0.46863
 20
7.51066
 30
0.0
 10
0.46863
 20
7.48846
 30
0.0
 10
0.46863
 20
7.48846
 30
0.0
 10
0.46863
 20
7.47385
 30
0.0
 10
0.46543
 20
7.46032
 30
0.0
 10
0.45915
 20
7.44776
 30
0.0
 10
0.45915
 20
7.44776
 30
0.0
 10
0.45288
 20
7.43526
 30
0.0
 10
0.44422
 20
7.42562
 30
0.0
 10
0.43323
 20
7.41897
 30
0.0
 10
0.43323
 20
7.41897
 30
0.0
 10
0.42224
 20
7.41231
 30
0.0
 10
0.40979
 20
7.40901
 30
0.0
 10
0.39583
 20
7.40901
 30
0.0
 10
0.39583
 20
7.40901
 30
0.0
 10
0.37201
 20
7.40901
 30
0.0
 10
0.35264
 20
7.41772
 30
0.0
 10
0.33764
 20
7.43526
 30
0.0
 10
0.33764
 20
7.43526
 30
0.0
 10
0.3226
 20
7.45274
 30
0.0
 10
0.31513
 20
7.48159
 30
0.0
 10
0.31513
 20
7.52175
 30
0.0
 10
0.31513
 20
7.52175
 30
0.0
 10
0.31513
 20
7.56668
 30
0.0
 10
0.32341
 20
7.59931
 30
0.0
 10
0.34002
 20
7.61972
 30
0.0
 10
0.34002
 20
7.61972
 30
0.0
 10
0.35448
 20
7.63747
 30
0.0
 10
0.37396
 20
7.6464
 30
0.0
 10
0.39853
 20
7.6464
 30
0.0
 10
0.39853
 20
7.6464
 30
0.0
 10
0.41677
 20
7.6464
 30
0.0
 10
0.43177
 20
7.64126
 30
0.0
 10
0.44346
 20
7.63098
 30
0.0
 10
0.44346
 20
7.63098
 30
0.0
 10
0.45515
 20
7.62075
 30
0.0
 10
0.46213
 20
7.60657
 30
0.0
 10
0.46446
 20
7.58849
 30
0.0
  0
SPLINE
  5
A2
330
1F
100
AcDbEntity
  8
layer 2
370
     9
100
AcDbSpline
210
0.0
220
0.0
230
1.0
 70
    11
 71
     3
 72
    40
 73
    36
 74
     0
 42
0.0000000001
 43
0.0000000001
 12
1.0
 22
0.0
 32
0.0
 13
1.0
 23
0.0
 33
0.0
 40
0.0
 40
0.0
 40
0.0
 40
0.0
 40
0.1
 40
0.1
 40
0.1
 40
0.1
 40
0.2
 40
0.2
 40
0.2
 40
0.2
 40
0.3
 40
0.3
 40
0.3
 40
0.3
 40
0.4
 40
0.4
 40
0.4
 40
0.4
 40
0.5
 40
0.5
 40
0.5
 40
0.5
 40
0.6
 40
0.6
 40
0.6
 40
0.6
 40
0.7
 40
0.7
 40
0.7
 40
0.7
 40
0.8
 40
0.8
 40
0.8
 40
0.8
 40
1.0
 40
1.0
 40
1.0
 40
1.0
 10
0.34793
 20
7.4883
 30
0.0
 10
0.34793
 20
7.47845
 30
0.0
 10
0.35004
 20
7.46903
 30
0.0
 10
0.35421
 20
7.46005
 30
0.0
 10
0.35421
 20
7.46005
 30
0.0
 10
0.35837
 20
7.45106
 30
0.0
 10
0.36422
 20
7.44424
 30
0.0
 10
0.37169
 20
7.43954
 30
0.0
 10
0.37169
 20
7.43954
 30
0.0
 10
0.37921
 20
7.43483
 30
0.0
 10
0.38711
 20
7.43244
 30
0.0
 10
0.39534
 20
7.43244
 30
0.0
 10
0.39534
 20
7.43244
 30
0.0
 10
0.40741
 20
7.43244
 30
0.0
 10
0.41775
 20
7.43732
 30
0.0
 10
0.42641
 20
7.44706
 30
0.0
 10
0.42641
 20
7.44706
 30
0.0
 10
0.43507
 20
7.4568
 30
0.0
 10
0.4394
 20
7.47001
 30
0.0
 10
0.4394
 20
7.48668
 30
0.0
 10
0.4394
 20
7.48668
 30
0.0
 10
0.4394
 20
7.50275
 30
0.0
 10
0.43512
 20
7.51542
 30
0.0
 10
0.42657
 20
7.52467
 30
0.0
 10
0.42657
 20
7.52467
 30
0.0
 10
0.41802
 20
7.53393
 30
0.0
 10
0.40725
 20
7.53853
 30
0.0
 10
0.39426
 20
7.53853
 30
0.0
 10
0.39426
 20
7.53853
 30
0.0
 10
0.38132
 20
7.53853
 30
0.0
 10
0.37039
 20
7.53393
 30
0.0
 10
0.3614
 20
7.52467
 30
0.0
 10
0.3614
 20
7.52467
 30
0.0
 10
0.35242
 20
7.51542
 30
0.0
 10
0.34793
 20
7.50329
 30
0.0
 10
0.34793
 20
7.4883
 30
0.0
  0
SPLINE
  5
A3
330
1F
100
AcDbEntity
  8
layer 2
370
     5
100
AcDbSpline
210
0.0
220
0.0
230
1.0
 70
    27
 71
     3
 72
     8
 73
     4
 74
     0
 42
0.0000000001
 43
0.0000000001
 12
1.0
 22
0.0
 32
0.0
 13
1.0
 23
0.0
 33
0.0
 40
0.0
 40
0.0
 40
0.0
 40
0.0
 40
1.0
 40
1.0
 40
1.0
 40
1.0
 10
5.90658
 20
7.26035
 30
0.0
 10
5.90658
 20
7.26035
 30
0.0
 10
5.90658
 20
7.26035
 30
0.0
 10
5.90658
 20
7.26035
 30
0.0
  0
SPLINE
  5
A4
330
1F
100
AcDbEntity
  8
layer 2
370
     5
100
AcDbSpline
210
0.0
220
0.0
230
1.0
 70
    24
 71
     3
 72
     8
 73
     4
 74
     0
 42
0.0000000001
 43
0.0000000001
 12
1.0
 22
0.0
 32
0.0
 13
1.0
 23
0.0
 33
0.0
 40
0.0
 40
0.0
 40
0.0
 40
0.0
 40
1.0
 40
1.0
 40
1.0
 40
1.0
 10
5.90658
 20
5.8421
 30
0.0
 10
5.90658
 20
5.8421
 30
0.0
 10
5.90658
 20
7.26035
 30
0.0
 10
5.90658
 20
7.26035
 30
0.0
  0
SPLINE
  5
A5
330
1F
100
AcDbEntity
  8
layer 2
370
     5
100
AcDbSpline
210
0.0
220
0.0
230
1.0
 70
    27
 71
     3
 72
     8
 73
     4
 74
     0
 42
0.0000000001
 43
0.0000000001
 12
1.0
 22
0.0
 32
0.0
 13
1.0
 23
0.0
 33
0.0
 40
0.0
 40
0.0
 40
0.0
 40
0.0
 40
1.0
 40
1.0
 40
1.0
 40
1.0
 10
6.77258
 20
7.26035
 30
0.0
 10
6.77258
 20
7.26035
 30
0.0
 10
6.77258
 20
7.26035
 30
0.0
 10
6.77258
 20
7.26035
 30
0.0
  0
SPLINE
  5
A6
330
1F
100
AcDbEntity
  8
layer 2
370
     5
100
AcDbSpline
210
0.0
220
0.0
230
1.0
 70
    24
 71
     3
 72
     8
 73
     4
 74
     0
 42
0.0000000001
 43
0.0000000001
 12
1.0
 22
0.0
 32
0.0
 13
1.0
 23
0.0
 33
0.0
 40
0.0
 40
0.0
 40
0.0
 40
0.0
 40
1.0
 40
1.0
 40
1.0
 40
1.0
 10
6.77258
 20
5.4091
 30
0.0
 10
6.77258
 20
5.4091
 30
0.0
 10
6.77258
 20
7.26035
 30
0.0
 10
6.77258
 20
7.26035
 30
0.0
  0
SPLINE
  5
A7
330
1F
100
AcDbEntity
  8
layer 2
370
     5
100
AcDbSpline
210
0.0
220
0.0
230
1.0
 70
    27
 71
     3
 72
     8
 73
     4
 74
     0
 42
0.0000000001
 43
0.0000000001
 12
1.0
 22
0.0
 32
0.0
 13
1.0
 23
0.0
 33
0.0
 40
0.0
 40
0.0
 40
0.0
 40
0.0
 40
1.0
 40
1.0
 40
1.0
 40
1.0
 10
5.60347
 20
7.23329
 30
0.0
 10
5.60347
 20
7.23329
 30
0.0
 10
5.60347
 20
7.23329
 30
0.0
 10
5.60347
 20
7.23329
 30
0.0
  0
SPLINE
  5
A8
330
1F
100
AcDbEntity
  8
layer 2
370
     5
100
AcDbSpline
210
0.0
220
0.0
230
1.0
 70
    24
 71
     3
 72
     8
 73
     4
 74
     0
 42
0.0000000001
 43
0.0000000001
 12
1.0
 22
0.0
 32
0.0
 13
1.0
 23
0.0
 33
0.0
 40
0.0
 40
0.0
 40
0.0
 40
0.0
 40
1.0
 40
1.0
 40
1.0
 40
1.0
 10
5.60347
 20
7.23329
 30
0.0
 10
5.60347
 20
7.23329
 30
0.0
 10
5.30037
 20
7.23329
 30
0.0
 10
5.30037
 20
7.23329
 30
0.0
  0
SPLINE
  5
A9
330
1F
100
AcDbEntity
  8
layer 2
370
     5
100
AcDbSpline
210
0.0
220
0.0
230
1.0
 70
    27
 71
     3
 72
     8
 73
     4
 74
     0
 42
0.0000000001
 43
0.0000000001
 12
1.0
 22
0.0
 32
0.0
 13
1.0
 23
0.0
 33
0.0
 40
0.0
 40
0.0
 40
0.0
 40
0.0
 40
1.0
 40
1.0
 40
1.0
 40
1.0
 10
7.37879
 20
7.23329
 30
0.0
 10
7.37879
 20
7.23329
 30
0.0
 10
7.37879
 20
7.23329
 30
0.0
 10
7.37879
 20
7.23329
 30
0.0
  0
SPLINE
  5
AA
330
1F
100
AcDbEntity
  8
layer 2
370
     5
100
AcDbSpline
210
0.0
220
0.0
230
1.0
 70
    24
 71
     3
 72
     8
 73
     4
 74
     0
 42
0.0000000001
 43
0.0000000001
 12
1.0
 22
0.0
 32
0.0
 13
1.0
 23
0.0
 33
0.0
 40
0.0
 40
0.0
 40
0.0
 40
0.0
 40
1.0
 40
1.0
 40
1.0
 40
1.0
 10
7.07568
 20
7.23329
 30
0.0
 10
7.07568
 20
7.23329
 30
0.0
 10
7.37879
 20
7.23329
 30
0.0
 10
7.37879
 20
7.23329
 30
0.0
  0
SPLINE
  5
AB
330
1F
100
AcDbEntity
  8
layer 2
370
     5
100
AcDbSpline
210
0.0
220
0.0
230
1.0
 70
    27
 71
     3
 72
     8
 73
     4
 74
     0
 42
0.0000000001
 43
0.0000000001
 12
1.0
 22
0.0
 32
0.0
 13
1.0
 23
0.0
 33
0.0
 40
0.0
 40
0.0
 40
0.0
 40
0.0
 40
1.0
 40
1.0
 40
1.0
 40
1.0
 10
6.77258
 20
7.23329
 30
0.0
 10
6.77258
 20
7.23329
 30
0.0
 10
6.77258
 20
7.23329
 30
0.0
 10
6.77258
 20
7.23329
 30
0.0
  0
SPLINE
  5
AC
330
1F
100
AcDbEntity
  8
layer 2
370
     5
100
AcDbSpline
210
0.0
220
0.0
230
1.0
 70
    24
 71
     3
 72
     8
 73
     4
 74
     0
 42
0.0000000001
 43
0.0000000001
 12
1.0
 22
0.0
 32
0.0
 13
1.0
 23
0.0
 33
0.0
 40
0.0
 40
0.0
 40
0.0
 40
0.0
 40
1.0
 40
1.0
 40
1.0
 40
1.0
 10
5.90658
 20
7.23329
 30
0.0
 10
5.90658
 20
7.23329
 30
0.0
 10
6.77258
 20
7.23329
 30
0.0
 10
6.77258
 20
7.23329
 30
0.0
  0
SPLINE
  5
AD
330
1F
100
AcDbEntity
  8
layer 2
370
     9
100
AcDbSpline
210
0.0
220
0.0
230
1.0
 70
    27
 71
     3
 72
    12
 73
     8
 74
     0
 42
0.0000000001
 43
0.0000000001
 12
1.0
 22
0.0
 32
0.0
 13
1.0
 23
0.0
 33
0.0
 40
0.0
 40
0.0
 40
0.0
 40
0.0
 40
0.3333333333333333
 40
0.3333333333333333
 40
0.3333333333333333
 40
0.3333333333333333
 40
1.0
 40
1.0
 40
1.0
 40
1.0
 10
5.60347
 20
7.28381
 30
0.0
 10
5.60347
 20
7.28381
 30
0.0
 10
5.90658
 20
7.23329
 30
0.0
 10
5.90658
 20
7.23329
 30
0.0
 10
5.90658
 20
7.23329
 30
0.0
 10
5.90658
 20
7.23329
 30
0.0
 10
5.60347
 20
7.28381
 30
0.0
 10
5.60347
 20
7.28381
 30
0.0
  0
SPLINE
  5
AE
330
1F
100
AcDbEntity
  8
layer 2
370
     9
100
AcDbSpline
210
0.0
220
0.0
230
1.0
 70
    11
 71
     3
 72
    16
 73
    12
 74
     0
 42
0.0000000001
 43
0.0000000001
 12
1.0
 22
0.0
 32
0.0
 13
1.0
 23
0.0
 33
0.0
 40
0.0
 40
0.0
 40
0.0
 40
0.0
 40
0.25
 40
0.25
 40
0.25
 40
0.25
 40
0.5
 40
0.5
 40
0.5
 40
0.5
 40
1.0
 40
1.0
 40
1.0
 40
1.0
 10
5.90658
 20
7.23329
 30
0.0
 10
5.90658
 20
7.23329
 30
0.0
 10
5.60347
 20
7.18278
 30
0.0
 10
5.60347
 20
7.18278
 30
0.0
 10
5.60347
 20
7.18278
 30
0.0
 10
5.60347
 20
7.18278
 30
0.0
 10
5.60347
 20
7.28381
 30
0.0
 10
5.60347
 20
7.28381
 30
0.0
 10
5.60347
 20
7.28381
 30
0.0
 10
5.60347
 20
7.28381
 30
0.0
 10
5.90658
 20
7.23329
 30
0.0
 10
5.90658
 20
7.23329
 30
0.0
  0
SPLINE
  5
AF
330
1F
100
AcDbEntity
  8
layer 2
370
    20
100
AcDbSpline
210
0.0
220
0.0
230
1.0
 70
    24
 71
     3
 72
     8
 73
     4
 74
     0
 42
0.0000000001
 43
0.0000000001
 12
1.0
 22
0.0
 32
0.0
 13
1.0
 23
0.0
 33
0.0
 40
0.0
 40
0.0
 40
0.0
 40
0.0
 40
1.0
 40
1.0
 40
1.0
 40
1.0
 10
5.60347
 20
7.28381
 30
0.0
 10
5.60347
 20
7.28381
 30
0.0
 10
5.90658
 20
7.23329
 30
0.0
 10
5.90658
 20
7.23329
 30
0.0
  0
SPLINE
  5
B0
330
1F
100
AcDbEntity
  8
layer 2
370
    20
100
AcDbSpline
210
0.0
220
0.0
230
1.0
 70
     8
 71
     3
 72
    12
 73
     8
 74
     0
 42
0.0000000001
 43
0.0000000001
 12
1.0
 22
0.0
 32
0.0
 13
1.0
 23
0.0
 33
0.0
 40
0.0
 40
0.0
 40
0.0
 40
0.0
 40
0.3333333333333333
 40
0.3333333333333333
 40
0.3333333333333333
 40
0.3333333333333333
 40
1.0
 40
1.0
 40
1.0
 40
1.0
 10
5.90658
 20
7.23329
 30
0.0
 10
5.90658
 20
7.23329
 30
0.0
 10
5.60347
 20
7.18278
 30
0.0
 10
5.60347
 20
7.18278
 30
0.0
 10
5.60347
 20
7.18278
 30
0.0
 10
5.60347
 20
7.18278
 30
0.0
 10
5.60347
 20
7.28381
 30
0.0
 10
5.60347
 20
7.28381
 30
0.0
  0
SPLINE
  5
B1
330
1F
100
AcDbEntity
  8
layer 2
370
     9
100
AcDbSpline
210
0.0
220
0.0
230
1.0
 70
    27
 71
     3
 72
    12
 73
     8
 74
     0
 42
0.0000000001
 43
0.0000000001
 12
1.0
 22
0.0
 32
0.0
 13
1.0
 23
0.0
 33
0.0
 40
0.0
 40
0.0
 40
0.0
 40
0.0
 40
0.3333333333333333
 40
0.3333333333333333
 40
0.3333333333333333
 40
0.3333333333333333
 40
1.0
 40
1.0
 40
1.0
 40
1.0
 10
7.07568
 20
7.28381
 30
0.0
 10
7.07568
 20
7.28381
 30
0.0
 10
6.77258
 20
7.23329
 30
0.0
 10
6.77258
 20
7.23329
 30
0.0
 10
6.77258
 20
7.23329
 30
0.0
 10
6.77258
 20
7.23329
 30
0.0
 10
7.07568
 20
7.28381
 30
0.0
 10
7.07568
 20
7.28381
 30
0.0
  0
SPLINE
  5
B2
330
1F
100
AcDbEntity
  8
layer 2
370
     9
100
AcDbSpline
210
0.0
220
0.0
230
1.0
 70
    11
 71
     3
 72
    16
 73
    12
 74
     0
 42
0.0000000001
 43
0.0000000001
 12
1.0
 22
0.0
 32
0.0
 13
1.0
 23
0.0
 33
0.0
 40
0.0
 40
0.0
 40
0.0
 40
0.0
 40
0.25
 40
0.25
 40
0.25
 40
0.25
 40
0.5
 40
0.5
 40
0.5
 40
0.5
 40
1.0
 40
1.0
 40
1.0
 40
1.0
 10
6.77258
 20
7.23329
 30
0.0
 10
6.77258
 20
7.23329
 30
0.0
 10
7.07568
 20
7.18278
 30
0.0
 10
7.07568
 20
7.18278
 30
0.0
 10
7.07568
 20
7.18278
 30
0.0
 10
7.07568
 20
7.18278
 30
0.0
 10
7.07568
 20
7.28381
 30
0.0
 10
7.07568
 20
7.28381
 30
0.0
 10
7.07568
 20
7.28381
 30
0.0
 10
7.07568
 20
7.28381
 30
0.0
 10
6.77258
 20
7.23329
 30
0.0
 10
6.77258
 20
7.23329
 30
0.0
  0
SPLINE
  5
B3
330
1F
100
AcDbEntity
  8
layer 2
370
    20
100
AcDbSpline
210
0.0
220
0.0
230
1.0
 70
    24
 71
     3
 72
     8
 73
     4
 74
     0
 42
0.0000000001
 43
0.0000000001
 12
1.0
 22
0.0
 32
0.0
 13
1.0
 23
0.0
 33
0.0
 40
0.0
 40
0.0
 40
0.0
 40
0.0
 40
1.0
 40
1.0
 40
1.0
 40
1.0
 10
7.07568
 20
7.28381
 30
0.0
 10
7.07568
 20
7.28381
 30
0.0
 10
6.77258
 20
7.23329
 30
0.0
 10
6.77258
 20
7.23329
 30
0.0
  0
SPLINE
  5
B4
330
1F
100
AcDbEntity
  8
layer 2
370
    20
100
AcDbSpline
210
0.0
220
0.0
230
1.0
 70
     8
 71
     3
 72
    12
 73
     8
 74
     0
 42
0.0000000001
 43
0.0000000001
 12
1.0
 22
0.0
 32
0.0
 13
1.0
 23
0.0
 33
0.0
 40
0.0
 40
0.0
 40
0.0
 40
0.0
 40
0.3333333333333333
 40
0.3333333333333333
 40
0.3333333333333333
 40
0.3333333333333333
 40
1.0
 40
1.0
 40
1.0
 40
1.0
 10
6.77258
 20
7.23329
 30
0.0
 10
6.77258
 20
7.23329
 30
0.0
 10
7.07568
 20
7.18278
 30
0.0
 10
7.07568
 20
7.18278
 30
0.0
 10
7.07568
 20
7.18278
 30
0.0
 10
7.07568
 20
7.18278
 30
0.0
 10
7.07568
 20
7.28381
 30
0.0
 10
7.07568
 20
7.28381
 30
0.0
  0
SPLINE
  5
B5
330
1F
100
AcDbEntity
  8
layer 2
370
     9
100
AcDbSpline
210
0.0
220
0.0
230
1.0
 70
    11
 71
     3
 72
    48
 73
    44
 74
     0
 42
0.0000000001
 43
0.0000000001
 12
1.0
 22
0.0
 32
0.0
 13
1.0
 23
0.0
 33
0.0
 40
0.0
 40
0.0
 40
0.0
 40
0.0
 40
0.0833333333333333
 40
0.0833333333333333
 40
0.0833333333333333
 40
0.0833333333333333
 40
0.1666666666666667
 40
0.1666666666666667
 40
0.1666666666666667
 40
0.1666666666666667
 40
0.25
 40
0.25
 40
0.25
 40
0.25
 40
0.3333333333333333
 40
0.3333333333333333
 40
0.3333333333333333
 40
0.3333333333333333
 40
0.4166666666666667
 40
0.4166666666666667
 40
0.4166666666666667
 40
0.4166666666666667
 40
0.5
 40
0.5
 40
0.5
 40
0.5
 40
0.5833333333333334
 40
0.5833333333333334
 40
0.5833333333333334
 40
0.5833333333333334
 40
0.6666666666666666
 40
0.6666666666666666
 40
0.6666666666666666
 40
0.6666666666666666
 40
0.75
 40
0.75
 40
0.75
 40
0.75
 40
0.8333333333333334
 40
0.8333333333333334
 40
0.8333333333333334
 40
0.8333333333333334
 40
1.0
 40
1.0
 40
1.0
 40
1.0
 10
6.26391
 20
7.41296
 30
0.0
 10
6.26391
 20
7.41296
 30
0.0
 10
6.26391
 20
7.4686
 30
0.0
 10
6.26391
 20
7.4686
 30
0.0
 10
6.26391
 20
7.4686
 30
0.0
 10
6.26391
 20
7.4686
 30
0.0
 10
6.16308
 20
7.4686
 30
0.0
 10
6.16308
 20
7.4686
 30
0.0
 10
6.16308
 20
7.4686
 30
0.0
 10
6.16308
 20
7.4686
 30
0.0
 10
6.16308
 20
7.4948
 30
0.0
 10
6.16308
 20
7.4948
 30
0.0
 10
6.16308
 20
7.4948
 30
0.0
 10
6.16308
 20
7.4948
 30
0.0
 10
6.26916
 20
7.64543
 30
0.0
 10
6.26916
 20
7.64543
 30
0.0
 10
6.26916
 20
7.64543
 30
0.0
 10
6.26916
 20
7.64543
 30
0.0
 10
6.29249
 20
7.64543
 30
0.0
 10
6.29249
 20
7.64543
 30
0.0
 10
6.29249
 20
7.64543
 30
0.0
 10
6.29249
 20
7.64543
 30
0.0
 10
6.29249
 20
7.4948
 30
0.0
 10
6.29249
 20
7.4948
 30
0.0
 10
6.29249
 20
7.4948
 30
0.0
 10
6.29249
 20
7.4948
 30
0.0
 10
6.32388
 20
7.4948
 30
0.0
 10
6.32388
 20
7.4948
 30
0.0
 10
6.32388
 20
7.4948
 30
0.0
 10
6.32388
 20
7.4948
 30
0.0
 10
6.32388
 20
7.4686
 30
0.0
 10
6.32388
 20
7.4686
 30
0.0
 10
6.32388
 20
7.4686
 30
0.0
 10
6.32388
 20
7.4686
 30
0.0
 10
6.29249
 20
7.4686
 30
0.0
 10
6.29249
 20
7.4686
 30
0.0
 10
6.29249
 20
7.4686
 30
0.0
 10
6.29249
 20
7.4686
 30
0.0
 10
6.29249
 20
7.41296
 30
0.0
 10
6.29249
 20
7.41296
 30
0.0
 10
6.29249
 20
7.41296
 30
0.0
 10
6.29249
 20
7.41296
 30
0.0
 10
6.26391
 20
7.41296
 30
0.0
 10
6.26391
 20
7.41296
 30
0.0
  0
SPLINE
  5
B6
330
1F
100
AcDbEntity
  8
layer 2
370
     9
100
AcDbSpline
210
0.0
220
0.0
230
1.0
 70
    11
 71
     3
 72
    16
 73
    12
 74
     0
 42
0.0000000001
 43
0.0000000001
 12
1.0
 22
0.0
 32
0.0
 13
1.0
 23
0.0
 33
0.0
 40
0.0
 40
0.0
 40
0.0
 40
0.0
 40
0.25
 40
0.25
 40
0.25
 40
0.25
 40
0.5
 40
0.5
 40
0.5
 40
0.5
 40
1.0
 40
1.0
 40
1.0
 40
1.0
 10
6.26391
 20
7.4948
 30
0.0
 10
6.26391
 20
7.4948
 30
0.0
 10
6.26391
 20
7.59958
 30
0.0
 10
6.26391
 20
7.59958
 30
0.0
 10
6.26391
 20
7.59958
 30
0.0
 10
6.26391
 20
7.59958
 30
0.0
 10
6.19117
 20
7.4948
 30
0.0
 10
6.19117
 20
7.4948
 30
0.0
 10
6.19117
 20
7.4948
 30
0.0
 10
6.19117
 20
7.4948
 30
0.0
 10
6.26391
 20
7.4948
 30
0.0
 10
6.26391
 20
7.4948
 30
0.0
  0
SPLINE
  5
B7
330
1F
100
AcDbEntity
  8
layer 2
370
     9
100
AcDbSpline
210
0.0
220
0.0
230
1.0
 70
    11
 71
     3
 72
    52
 73
    48
 74
     0
 42
0.0000000001
 43
0.0000000001
 12
1.0
 22
0.0
 32
0.0
 13
1.0
 23
0.0
 33
0.0
 40
0.0
 40
0.0
 40
0.0
 40
0.0
 40
0.0769230769230769
 40
0.0769230769230769
 40
0.0769230769230769
 40
0.0769230769230769
 40
0.1538461538461539
 40
0.1538461538461539
 40
0.1538461538461539
 40
0.1538461538461539
 40
0.2307692307692308
 40
0.2307692307692308
 40
0.2307692307692308
 40
0.2307692307692308
 40
0.3076923076923077
 40
0.3076923076923077
 40
0.3076923076923077
 40
0.3076923076923077
 40
0.3846153846153846
 40
0.3846153846153846
 40
0.3846153846153846
 40
0.3846153846153846
 40
0.4615384615384616
 40
0.4615384615384616
 40
0.4615384615384616
 40
0.4615384615384616
 40
0.5384615384615384
 40
0.5384615384615384
 40
0.5384615384615384
 40
0.5384615384615384
 40
0.6153846153846154
 40
0.6153846153846154
 40
0.6153846153846154
 40
0.6153846153846154
 40
0.6923076923076923
 40
0.6923076923076923
 40
0.6923076923076923
 40
0.6923076923076923
 40
0.7692307692307693
 40
0.7692307692307693
 40
0.7692307692307693
 40
0.7692307692307693
 40
0.8461538461538461
 40
0.8461538461538461
 40
0.8461538461538461
 40
0.8461538461538461
 40
1.0
 40
1.0
 40
1.0
 40
1.0
 10
6.35306
 20
7.5276
 30
0.0
 10
6.35306
 20
7.55509
 30
0.0
 10
6.35587
 20
7.57723
 30
0.0
 10
6.36155
 20
7.59395
 30
0.0
 10
6.36155
 20
7.59395
 30
0.0
 10
6.36718
 20
7.61073
 30
0.0
 10
6.37563
 20
7.62367
 30
0.0
 10
6.38678
 20
7.63276
 30
0.0
 10
6.38678
 20
7.63276
 30
0.0
 10
6.39793
 20
7.64186
 30
0.0
 10
6.41194
 20
7.6464
 30
0.0
 10
6.42883
 20
7.6464
 30
0.0
 10
6.42883
 20
7.6464
 30
0.0
 10
6.44133
 20
7.6464
 30
0.0
 10
6.45227
 20
7.64386
 30
0.0
 10
6.46169
 20
7.63882
 30
0.0
 10
6.46169
 20
7.63882
 30
0.0
 10
6.4711
 20
7.63385
 30
0.0
 10
6.47884
 20
7.62659
 30
0.0
 10
6.48501
 20
7.61712
 30
0.0
 10
6.48501
 20
7.61712
 30
0.0
 10
6.49113
 20
7.60765
 30
0.0
 10
6.49595
 20
7.59612
 30
0.0
 10
6.49941
 20
7.58253
 30
0.0
 10
6.49941
 20
7.58253
 30
0.0
 10
6.50293
 20
7.56895
 30
0.0
 10
6.50466
 20
7.55065
 30
0.0
 10
6.50466
 20
7.5276
 30
0.0
 10
6.50466
 20
7.5276
 30
0.0
 10
6.50466
 20
7.50032
 30
0.0
 10
6.50185
 20
7.47834
 30
0.0
 10
6.49627
 20
7.46156
 30
0.0
 10
6.49627
 20
7.46156
 30
0.0
 10
6.49064
 20
7.44479
 30
0.0
 10
6.48225
 20
7.43185
 30
0.0
 10
6.4711
 20
7.4227
 30
0.0
 10
6.4711
 20
7.4227
 30
0.0
 10
6.45995
 20
7.41355
 30
0.0
 10
6.44588
 20
7.40901
 30
0.0
 10
6.42883
 20
7.40901
 30
0.0
 10
6.42883
 20
7.40901
 30
0.0
 10
6.40642
 20
7.40901
 30
0.0
 10
6.38883
 20
7.41702
 30
0.0
 10
6.37606
 20
7.43309
 30
0.0
 10
6.37606
 20
7.43309
 30
0.0
 10
6.36074
 20
7.45242
 30
0.0
 10
6.35306
 20
7.48397
 30
0.0
 10
6.35306
 20
7.5276
 30
0.0
  0
SPLINE
  5
B8
330
1F
100
AcDbEntity
  8
layer 2
370
     9
100
AcDbSpline
210
0.0
220
0.0
230
1.0
 70
    11
 71
     3
 72
    36
 73
    32
 74
     0
 42
0.0000000001
 43
0.0000000001
 12
1.0
 22
0.0
 32
0.0
 13
1.0
 23
0.0
 33
0.0
 40
0.0
 40
0.0
 40
0.0
 40
0.0
 40
0.1111111111111111
 40
0.1111111111111111
 40
0.1111111111111111
 40
0.1111111111111111
 40
0.2222222222222222
 40
0.2222222222222222
 40
0.2222222222222222
 40
0.2222222222222222
 40
0.3333333333333333
 40
0.3333333333333333
 40
0.3333333333333333
 40
0.3333333333333333
 40
0.4444444444444444
 40
0.4444444444444444
 40
0.4444444444444444
 40
0.4444444444444444
 40
0.5555555555555556
 40
0.5555555555555556
 40
0.5555555555555556
 40
0.5555555555555556
 40
0.6666666666666666
 40
0.6666666666666666
 40
0.6666666666666666
 40
0.6666666666666666
 40
0.7777777777777778
 40
0.7777777777777778
 40
0.7777777777777778
 40
0.7777777777777778
 40
1.0
 40
1.0
 40
1.0
 40
1.0
 10
6.38239
 20
7.5276
 30
0.0
 10
6.38239
 20
7.48944
 30
0.0
 10
6.38688
 20
7.46405
 30
0.0
 10
6.39581
 20
7.45139
 30
0.0
 10
6.39581
 20
7.45139
 30
0.0
 10
6.40475
 20
7.43878
 30
0.0
 10
6.41573
 20
7.43244
 30
0.0
 10
6.42883
 20
7.43244
 30
0.0
 10
6.42883
 20
7.43244
 30
0.0
 10
6.44198
 20
7.43244
 30
0.0
 10
6.45297
 20
7.43883
 30
0.0
 10
6.4619
 20
7.4515
 30
0.0
 10
6.4619
 20
7.4515
 30
0.0
 10
6.47083
 20
7.46416
 30
0.0
 10
6.47532
 20
7.48955
 30
0.0
 10
6.47532
 20
7.5276
 30
0.0
 10
6.47532
 20
7.5276
 30
0.0
 10
6.47532
 20
7.56586
 30
0.0
 10
6.47083
 20
7.5913
 30
0.0
 10
6.4619
 20
7.60386
 30
0.0
 10
6.4619
 20
7.60386
 30
0.0
 10
6.45297
 20
7.61647
 30
0.0
 10
6.44188
 20
7.62275
 30
0.0
 10
6.42856
 20
7.62275
 30
0.0
 10
6.42856
 20
7.62275
 30
0.0
 10
6.41541
 20
7.62275
 30
0.0
 10
6.40496
 20
7.61717
 30
0.0
 10
6.39711
 20
7.60608
 30
0.0
 10
6.39711
 20
7.60608
 30
0.0
 10
6.38732
 20
7.59195
 30
0.0
 10
6.38239
 20
7.56576
 30
0.0
 10
6.38239
 20
7.5276
 30
0.0
  0
SPLINE
  5
B9
330
1F
100
AcDbEntity
  8
layer 2
370
     5
100
AcDbSpline
210
0.0
220
0.0
230
1.0
 70
    27
 71
     3
 72
     8
 73
     4
 74
     0
 42
0.0000000001
 43
0.0000000001
 12
1.0
 22
0.0
 32
0.0
 13
1.0
 23
0.0
 33
0.0
 40
0.0
 40
0.0
 40
0.0
 40
0.0
 40
1.0
 40
1.0
 40
1.0
 40
1.0
 10
-6.34742
 20
8.48123
 30
0.0
 10
-6.34742
 20
8.48123
 30
0.0
 10
-6.34742
 20
8.48123
 30
0.0
 10
-6.34742
 20
8.48123
 30
0.0
  0
SPLINE
  5
BA
330
1F
100
AcDbEntity
  8
layer 2
370
     5
100
AcDbSpline
210
0.0
220
0.0
230
1.0
 70
    24
 71
     3
 72
     8
 73
     4
 74
     0
 42
0.0000000001
 43
0.0000000001
 12
1.0
 22
0.0
 32
0.0
 13
1.0
 23
0.0
 33
0.0
 40
0.0
 40
0.0
 40
0.0
 40
0.0
 40
1.0
 40
1.0
 40
1.0
 40
1.0
 10
-6.34742
 20
6.44298
 30
0.0
 10
-6.34742
 20
6.44298
 30
0.0
 10
-6.34742
 20
8.48123
 30
0.0
 10
-6.34742
 20
8.48123
 30
0.0
  0
SPLINE
  5
BB
330
1F
100
AcDbEntity
  8
layer 2
370
     5
100
AcDbSpline
210
0.0
220
0.0
230
1.0
 70
    27
 71
     3
 72
     8
 73
     4
 74
     0
 42
0.0000000001
 43
0.0000000001
 12
1.0
 22
0.0
 32
0.0
 13
1.0
 23
0.0
 33
0.0
 40
0.0
 40
0.0
 40
0.0
 40
0.0
 40
1.0
 40
1.0
 40
1.0
 40
1.0
 10
6.77258
 20
8.48123
 30
0.0
 10
6.77258
 20
8.48123
 30
0.0
 10
6.77258
 20
8.48123
 30
0.0
 10
6.77258
 20
8.48123
 30
0.0
  0
SPLINE
  5
BC
330
1F
100
AcDbEntity
  8
layer 2
370
     5
100
AcDbSpline
210
0.0
220
0.0
230
1.0
 70
    24
 71
     3
 72
     8
 73
     4
 74
     0
 42
0.0000000001
 43
0.0000000001
 12
1.0
 22
0.0
 32
0.0
 13
1.0
 23
0.0
 33
0.0
 40
0.0
 40
0.0
 40
0.0
 40
0.0
 40
1.0
 40
1.0
 40
1.0
 40
1.0
 10
6.77258
 20
6.44298
 30
0.0
 10
6.77258
 20
6.44298
 30
0.0
 10
6.77258
 20
8.48123
 30
0.0
 10
6.77258
 20
8.48123
 30
0.0
  0
SPLINE
  5
BD
330
1F
100
AcDbEntity
  8
layer 2
370
     5
100
AcDbSpline
210
0.0
220
0.0
230
1.0
 70
    27
 71
     3
 72
     8
 73
     4
 74
     0
 42
0.0000000001
 43
0.0000000001
 12
1.0
 22
0.0
 32
0.0
 13
1.0
 23
0.0
 33
0.0
 40
0.0
 40
0.0
 40
0.0
 40
0.0
 40
1.0
 40
1.0
 40
1.0
 40
1.0
 10
6.46948
 20
8.45416
 30
0.0
 10
6.46948
 20
8.45416
 30
0.0
 10
6.46948
 20
8.45416
 30
0.0
 10
6.46948
 20
8.45416
 30
0.0
  0
SPLINE
  5
BE
330
1F
100
AcDbEntity
  8
layer 2
370
     5
100
AcDbSpline
210
0.0
220
0.0
230
1.0
 70
    24
 71
     3
 72
     8
 73
     4
 74
     0
 42
0.0000000001
 43
0.0000000001
 12
1.0
 22
0.0
 32
0.0
 13
1.0
 23
0.0
 33
0.0
 40
0.0
 40
0.0
 40
0.0
 40
0.0
 40
1.0
 40
1.0
 40
1.0
 40
1.0
 10
-6.04431
 20
8.45416
 30
0.0
 10
-6.04431
 20
8.45416
 30
0.0
 10
6.46948
 20
8.45416
 30
0.0
 10
6.46948
 20
8.45416
 30
0.0
  0
SPLINE
  5
BF
330
1F
100
AcDbEntity
  8
layer 2
370
     9
100
AcDbSpline
210
0.0
220
0.0
230
1.0
 70
    27
 71
     3
 72
    12
 73
     8
 74
     0
 42
0.0000000001
 43
0.0000000001
 12
1.0
 22
0.0
 32
0.0
 13
1.0
 23
0.0
 33
0.0
 40
0.0
 40
0.0
 40
0.0
 40
0.0
 40
0.3333333333333333
 40
0.3333333333333333
 40
0.3333333333333333
 40
0.3333333333333333
 40
1.0
 40
1.0
 40
1.0
 40
1.0
 10
-6.04431
 20
8.50468
 30
0.0
 10
-6.04431
 20
8.50468
 30
0.0
 10
-6.34742
 20
8.45416
 30
0.0
 10
-6.34742
 20
8.45416
 30
0.0
 10
-6.34742
 20
8.45416
 30
0.0
 10
-6.34742
 20
8.45416
 30
0.0
 10
-6.04431
 20
8.50468
 30
0.0
 10
-6.04431
 20
8.50468
 30
0.0
  0
SPLINE
  5
C0
330
1F
100
AcDbEntity
  8
layer 2
370
     9
100
AcDbSpline
210
0.0
220
0.0
230
1.0
 70
    11
 71
     3
 72
    16
 73
    12
 74
     0
 42
0.0000000001
 43
0.0000000001
 12
1.0
 22
0.0
 32
0.0
 13
1.0
 23
0.0
 33
0.0
 40
0.0
 40
0.0
 40
0.0
 40
0.0
 40
0.25
 40
0.25
 40
0.25
 40
0.25
 40
0.5
 40
0.5
 40
0.5
 40
0.5
 40
1.0
 40
1.0
 40
1.0
 40
1.0
 10
-6.34742
 20
8.45416
 30
0.0
 10
-6.34742
 20
8.45416
 30
0.0
 10
-6.04431
 20
8.40365
 30
0.0
 10
-6.04431
 20
8.40365
 30
0.0
 10
-6.04431
 20
8.40365
 30
0.0
 10
-6.04431
 20
8.40365
 30
0.0
 10
-6.04431
 20
8.50468
 30
0.0
 10
-6.04431
 20
8.50468
 30
0.0
 10
-6.04431
 20
8.50468
 30
0.0
 10
-6.04431
 20
8.50468
 30
0.0
 10
-6.34742
 20
8.45416
 30
0.0
 10
-6.34742
 20
8.45416
 30
0.0
  0
SPLINE
  5
C1
330
1F
100
AcDbEntity
  8
layer 2
370
    20
100
AcDbSpline
210
0.0
220
0.0
230
1.0
 70
    24
 71
     3
 72
     8
 73
     4
 74
     0
 42
0.0000000001
 43
0.0000000001
 12
1.0
 22
0.0
 32
0.0
 13
1.0
 23
0.0
 33
0.0
 40
0.0
 40
0.0
 40
0.0
 40
0.0
 40
1.0
 40
1.0
 40
1.0
 40
1.0
 10
-6.04431
 20
8.50468
 30
0.0
 10
-6.04431
 20
8.50468
 30
0.0
 10
-6.34742
 20
8.45416
 30
0.0
 10
-6.34742
 20
8.45416
 30
0.0
  0
SPLINE
  5
C2
330
1F
100
AcDbEntity
  8
layer 2
370
    20
100
AcDbSpline
210
0.0
220
0.0
230
1.0
 70
     8
 71
     3
 72
    12
 73
     8
 74
     0
 42
0.0000000001
 43
0.0000000001
 12
1.0
 22
0.0
 32
0.0
 13
1.0
 23
0.0
 33
0.0
 40
0.0
 40
0.0
 40
0.0
 40
0.0
 40
0.3333333333333333
 40
0.3333333333333333
 40
0.3333333333333333
 40
0.3333333333333333
 40
1.0
 40
1.0
 40
1.0
 40
1.0
 10
-6.34742
 20
8.45416
 30
0.0
 10
-6.34742
 20
8.45416
 30
0.0
 10
-6.04431
 20
8.40365
 30
0.0
 10
-6.04431
 20
8.40365
 30
0.0
 10
-6.04431
 20
8.40365
 30
0.0
 10
-6.04431
 20
8.40365
 30
0.0
 10
-6.04431
 20
8.50468
 30
0.0
 10
-6.04431
 20
8.50468
 30
0.0
  0
SPLINE
  5
C3
330
1F
100
AcDbEntity
  8
layer 2
370
     9
100
AcDbSpline
210
0.0
220
0.0
230
1.0
 70
    27
 71
     3
 72
    12
 73
     8
 74
     0
 42
0.0000000001
 43
0.0000000001
 12
1.0
 22
0.0
 32
0.0
 13
1.0
 23
0.0
 33
0.0
 40
0.0
 40
0.0
 40
0.0
 40
0.0
 40
0.3333333333333333
 40
0.3333333333333333
 40
0.3333333333333333
 40
0.3333333333333333
 40
1.0
 40
1.0
 40
1.0
 40
1.0
 10
6.46948
 20
8.50468
 30
0.0
 10
6.46948
 20
8.50468
 30
0.0
 10
6.77258
 20
8.45416
 30
0.0
 10
6.77258
 20
8.45416
 30
0.0
 10
6.77258
 20
8.45416
 30
0.0
 10
6.77258
 20
8.45416
 30
0.0
 10
6.46948
 20
8.50468
 30
0.0
 10
6.46948
 20
8.50468
 30
0.0
  0
SPLINE
  5
C4
330
1F
100
AcDbEntity
  8
layer 2
370
     9
100
AcDbSpline
210
0.0
220
0.0
230
1.0
 70
    11
 71
     3
 72
    16
 73
    12
 74
     0
 42
0.0000000001
 43
0.0000000001
 12
1.0
 22
0.0
 32
0.0
 13
1.0
 23
0.0
 33
0.0
 40
0.0
 40
0.0
 40
0.0
 40
0.0
 40
0.25
 40
0.25
 40
0.25
 40
0.25
 40
0.5
 40
0.5
 40
0.5
 40
0.5
 40
1.0
 40
1.0
 40
1.0
 40
1.0
 10
6.77258
 20
8.45416
 30
0.0
 10
6.77258
 20
8.45416
 30
0.0
 10
6.46948
 20
8.40365
 30
0.0
 10
6.46948
 20
8.40365
 30
0.0
 10
6.46948
 20
8.40365
 30
0.0
 10
6.46948
 20
8.40365
 30
0.0
 10
6.46948
 20
8.50468
 30
0.0
 10
6.46948
 20
8.50468
 30
0.0
 10
6.46948
 20
8.50468
 30
0.0
 10
6.46948
 20
8.50468
 30
0.0
 10
6.77258
 20
8.45416
 30
0.0
 10
6.77258
 20
8.45416
 30
0.0
  0
SPLINE
  5
C5
330
1F
100
AcDbEntity
  8
layer 2
370
    20
100
AcDbSpline
210
0.0
220
0.0
230
1.0
 70
    24
 71
     3
 72
     8
 73
     4
 74
     0
 42
0.0000000001
 43
0.0000000001
 12
1.0
 22
0.0
 32
0.0
 13
1.0
 23
0.0
 33
0.0
 40
0.0
 40
0.0
 40
0.0
 40
0.0
 40
1.0
 40
1.0
 40
1.0
 40
1.0
 10
6.46948
 20
8.50468
 30
0.0
 10
6.46948
 20
8.50468
 30
0.0
 10
6.77258
 20
8.45416
 30
0.0
 10
6.77258
 20
8.45416
 30
0.0
  0
SPLINE
  5
C6
330
1F
100
AcDbEntity
  8
layer 2
370
    20
100
AcDbSpline
210
0.0
220
0.0
230
1.0
 70
     8
 71
     3
 72
    12
 73
     8
 74
     0
 42
0.0000000001
 43
0.0000000001
 12
1.0
 22
0.0
 32
0.0
 13
1.0
 23
0.0
 33
0.0
 40
0.0
 40
0.0
 40
0.0
 40
0.0
 40
0.3333333333333333
 40
0.3333333333333333
 40
0.3333333333333333
 40
0.3333333333333333
 40
1.0
 40
1.0
 40
1.0
 40
1.0
 10
6.77258
 20
8.45416
 30
0.0
 10
6.77258
 20
8.45416
 30
0.0
 10
6.46948
 20
8.40365
 30
0.0
 10
6.46948
 20
8.40365
 30
0.0
 10
6.46948
 20
8.40365
 30
0.0
 10
6.46948
 20
8.40365
 30
0.0
 10
6.46948
 20
8.50468
 30
0.0
 10
6.46948
 20
8.50468
 30
0.0
  0
SPLINE
  5
C7
330
1F
100
AcDbEntity
  8
layer 2
370
     9
100
AcDbSpline
210
0.0
220
0.0
230
1.0
 70
    11
 71
     3
 72
    80
 73
    76
 74
     0
 42
0.0000000001
 43
0.0000000001
 12
1.0
 22
0.0
 32
0.0
 13
1.0
 23
0.0
 33
0.0
 40
0.0
 40
0.0
 40
0.0
 40
0.0
 40
0.05
 40
0.05
 40
0.05
 40
0.05
 40
0.1
 40
0.1
 40
0.1
 40
0.1
 40
0.15
 40
0.15
 40
0.15
 40
0.15
 40
0.2
 40
0.2
 40
0.2
 40
0.2
 40
0.25
 40
0.25
 40
0.25
 40
0.25
 40
0.3
 40
0.3
 40
0.3
 40
0.3
 40
0.35
 40
0.35
 40
0.35
 40
0.35
 40
0.4
 40
0.4
 40
0.4
 40
0.4
 40
0.45
 40
0.45
 40
0.45
 40
0.45
 40
0.5
 40
0.5
 40
0.5
 40
0.5
 40
0.55
 40
0.55
 40
0.55
 40
0.55
 40
0.6
 40
0.6
 40
0.6
 40
0.6
 40
0.65
 40
0.65
 40
0.65
 40
0.65
 40
0.7
 40
0.7
 40
0.7
 40
0.7
 40
0.75
 40
0.75
 40
0.75
 40
0.75
 40
0.8
 40
0.8
 40
0.8
 40
0.8
 40
0.85
 40
0.85
 40
0.85
 40
0.85
 40
0.9
 40
0.9
 40
0.9
 40
0.9
 40
1.0
 40
1.0
 40
1.0
 40
1.0
 10
0.10323
 20
8.80936
 30
0.0
 10
0.10323
 20
8.80936
 30
0.0
 10
0.07487
 20
8.80714
 30
0.0
 10
0.07487
 20
8.80714
 30
0.0
 10
0.07487
 20
8.80714
 30
0.0
 10
0.07232
 20
8.81835
 30
0.0
 10
0.06875
 20
8.82652
 30
0.0
 10
0.0641
 20
8.83155
 30
0.0
 10
0.0641
 20
8.83155
 30
0.0
 10
0.05636
 20
8.83973
 30
0.0
 10
0.04683
 20
8.84379
 30
0.0
 10
0.03552
 20
8.84379
 30
0.0
 10
0.03552
 20
8.84379
 30
0.0
 10
0.02642
 20
8.84379
 30
0.0
 10
0.01847
 20
8.84124
 30
0.0
 10
0.01159
 20
8.83615
 30
0.0
 10
0.01159
 20
8.83615
 30
0.0
 10
0.00261
 20
8.8296
 30
0.0
 10
-0.00448
 20
8.82002
 30
0.0
 10
-0.00968
 20
8.80747
 30
0.0
 10
-0.00968
 20
8.80747
 30
0.0
 10
-0.01482
 20
8.79491
 30
0.0
 10
-0.01753
 20
8.77699
 30
0.0
 10
-0.01774
 20
8.75372
 30
0.0
 10
-0.01774
 20
8.75372
 30
0.0
 10
-0.01087
 20
8.76417
 30
0.0
 10
-0.00248
 20
8.77196
 30
0.0
 10
0.00748
 20
8.77705
 30
0.0
 10
0.00748
 20
8.77705
 30
0.0
 10
0.01739
 20
8.78208
 30
0.0
 10
0.02783
 20
8.78463
 30
0.0
 10
0.03871
 20
8.78463
 30
0.0
 10
0.03871
 20
8.78463
 30
0.0
 10
0.05776
 20
8.78463
 30
0.0
 10
0.07395
 20
8.77764
 30
0.0
 10
0.08732
 20
8.76363
 30
0.0
 10
0.08732
 20
8.76363
 30
0.0
 10
0.10068
 20
8.74961
 30
0.0
 10
0.1074
 20
8.73153
 30
0.0
 10
0.1074
 20
8.70934
 30
0.0
 10
0.1074
 20
8.70934
 30
0.0
 10
0.1074
 20
8.69472
 30
0.0
 10
0.1042
 20
8.68119
 30
0.0
 10
0.09792
 20
8.66864
 30
0.0
 10
0.09792
 20
8.66864
 30
0.0
 10
0.09165
 20
8.65613
 30
0.0
 10
0.08299
 20
8.6465
 30
0.0
 10
0.072
 20
8.63984
 30
0.0
 10
0.072
 20
8.63984
 30
0.0
 10
0.06101
 20
8.63318
 30
0.0
 10
0.04856
 20
8.62988
 30
0.0
 10
0.0346
 20
8.62988
 30
0.0
 10
0.0346
 20
8.62988
 30
0.0
 10
0.01078
 20
8.62988
 30
0.0
 10
-0.00859
 20
8.6386
 30
0.0
 10
-0.02359
 20
8.65613
 30
0.0
 10
-0.02359
 20
8.65613
 30
0.0
 10
-0.03863
 20
8.67361
 30
0.0
 10
-0.0461
 20
8.70246
 30
0.0
 10
-0.0461
 20
8.74262
 30
0.0
 10
-0.0461
 20
8.74262
 30
0.0
 10
-0.0461
 20
8.78755
 30
0.0
 10
-0.03782
 20
8.82019
 30
0.0
 10
-0.02121
 20
8.84059
 30
0.0
 10
-0.02121
 20
8.84059
 30
0.0
 10
-0.00675
 20
8.85834
 30
0.0
 10
0.01273
 20
8.86728
 30
0.0
 10
0.0373
 20
8.86728
 30
0.0
 10
0.0373
 20
8.86728
 30
0.0
 10
0.05554
 20
8.86728
 30
0.0
 10
0.07054
 20
8.86213
 30
0.0
 10
0.08223
 20
8.85185
 30
0.0
 10
0.08223
 20
8.85185
 30
0.0
 10
0.09392
 20
8.84162
 30
0.0
 10
0.1009
 20
8.82744
 30
0.0
 10
0.10323
 20
8.80936
 30
0.0
  0
SPLINE
  5
C8
330
1F
100
AcDbEntity
  8
layer 2
370
     9
100
AcDbSpline
210
0.0
220
0.0
230
1.0
 70
    11
 71
     3
 72
    40
 73
    36
 74
     0
 42
0.0000000001
 43
0.0000000001
 12
1.0
 22
0.0
 32
0.0
 13
1.0
 23
0.0
 33
0.0
 40
0.0
 40
0.0
 40
0.0
 40
0.0
 40
0.1
 40
0.1
 40
0.1
 40
0.1
 40
0.2
 40
0.2
 40
0.2
 40
0.2
 40
0.3
 40
0.3
 40
0.3
 40
0.3
 40
0.4
 40
0.4
 40
0.4
 40
0.4
 40
0.5
 40
0.5
 40
0.5
 40
0.5
 40
0.6
 40
0.6
 40
0.6
 40
0.6
 40
0.7
 40
0.7
 40
0.7
 40
0.7
 40
0.8
 40
0.8
 40
0.8
 40
0.8
 40
1.0
 40
1.0
 40
1.0
 40
1.0
 10
-0.0133
 20
8.70918
 30
0.0
 10
-0.0133
 20
8.69932
 30
0.0
 10
-0.01119
 20
8.68991
 30
0.0
 10
-0.00703
 20
8.68092
 30
0.0
 10
-0.00703
 20
8.68092
 30
0.0
 10
-0.00286
 20
8.67194
 30
0.0
 10
0.00299
 20
8.66512
 30
0.0
 10
0.01046
 20
8.66041
 30
0.0
 10
0.01046
 20
8.66041
 30
0.0
 10
0.01798
 20
8.6557
 30
0.0
 10
0.02588
 20
8.65332
 30
0.0
 10
0.03411
 20
8.65332
 30
0.0
 10
0.03411
 20
8.65332
 30
0.0
 10
0.04618
 20
8.65332
 30
0.0
 10
0.05652
 20
8.65819
 30
0.0
 10
0.06518
 20
8.66793
 30
0.0
 10
0.06518
 20
8.66793
 30
0.0
 10
0.07384
 20
8.67767
 30
0.0
 10
0.07817
 20
8.69088
 30
0.0
 10
0.07817
 20
8.70755
 30
0.0
 10
0.07817
 20
8.70755
 30
0.0
 10
0.07817
 20
8.72363
 30
0.0
 10
0.07389
 20
8.73629
 30
0.0
 10
0.06534
 20
8.74555
 30
0.0
 10
0.06534
 20
8.74555
 30
0.0
 10
0.05679
 20
8.7548
 30
0.0
 10
0.04602
 20
8.7594
 30
0.0
 10
0.03303
 20
8.7594
 30
0.0
 10
0.03303
 20
8.7594
 30
0.0
 10
0.02009
 20
8.7594
 30
0.0
 10
0.00916
 20
8.7548
 30
0.0
 10
0.00017
 20
8.74555
 30
0.0
 10
0.00017
 20
8.74555
 30
0.0
 10
-0.00881
 20
8.73629
 30
0.0
 10
-0.0133
 20
8.72417
 30
0.0
 10
-0.0133
 20
8.70918
 30
0.0
  0
SPLINE
  5
C9
330
1F
100
AcDbEntity
  8
layer 2
370
     9
100
AcDbSpline
210
0.0
220
0.0
230
1.0
 70
    11
 71
     3
 72
    52
 73
    48
 74
     0
 42
0.0000000001
 43
0.0000000001
 12
1.0
 22
0.0
 32
0.0
 13
1.0
 23
0.0
 33
0.0
 40
0.0
 40
0.0
 40
0.0
 40
0.0
 40
0.0769230769230769
 40
0.0769230769230769
 40
0.0769230769230769
 40
0.0769230769230769
 40
0.1538461538461539
 40
0.1538461538461539
 40
0.1538461538461539
 40
0.1538461538461539
 40
0.2307692307692308
 40
0.2307692307692308
 40
0.2307692307692308
 40
0.2307692307692308
 40
0.3076923076923077
 40
0.3076923076923077
 40
0.3076923076923077
 40
0.3076923076923077
 40
0.3846153846153846
 40
0.3846153846153846
 40
0.3846153846153846
 40
0.3846153846153846
 40
0.4615384615384616
 40
0.4615384615384616
 40
0.4615384615384616
 40
0.4615384615384616
 40
0.5384615384615384
 40
0.5384615384615384
 40
0.5384615384615384
 40
0.5384615384615384
 40
0.6153846153846154
 40
0.6153846153846154
 40
0.6153846153846154
 40
0.6153846153846154
 40
0.6923076923076923
 40
0.6923076923076923
 40
0.6923076923076923
 40
0.6923076923076923
 40
0.7692307692307693
 40
0.7692307692307693
 40
0.7692307692307693
 40
0.7692307692307693
 40
0.8461538461538461
 40
0.8461538461538461
 40
0.8461538461538461
 40
0.8461538461538461
 40
1.0
 40
1.0
 40
1.0
 40
1.0
 10
0.13576
 20
8.74847
 30
0.0
 10
0.13576
 20
8.77597
 30
0.0
 10
0.13857
 20
8.7981
 30
0.0
 10
0.14426
 20
8.81483
 30
0.0
 10
0.14426
 20
8.81483
 30
0.0
 10
0.14988
 20
8.83161
 30
0.0
 10
0.15833
 20
8.84454
 30
0.0
 10
0.16948
 20
8.85364
 30
0.0
 10
0.16948
 20
8.85364
 30
0.0
 10
0.18063
 20
8.86273
 30
0.0
 10
0.19465
 20
8.86728
 30
0.0
 10
0.21153
 20
8.86728
 30
0.0
 10
0.21153
 20
8.86728
 30
0.0
 10
0.22404
 20
8.86728
 30
0.0
 10
0.23497
 20
8.86473
 30
0.0
 10
0.24439
 20
8.8597
 30
0.0
 10
0.24439
 20
8.8597
 30
0.0
 10
0.2538
 20
8.85472
 30
0.0
 10
0.26154
 20
8.84747
 30
0.0
 10
0.26772
 20
8.83799
 30
0.0
 10
0.26772
 20
8.83799
 30
0.0
 10
0.27383
 20
8.82852
 30
0.0
 10
0.27865
 20
8.81699
 30
0.0
 10
0.28211
 20
8.80341
 30
0.0
 10
0.28211
 20
8.80341
 30
0.0
 10
0.28563
 20
8.78982
 30
0.0
 10
0.28736
 20
8.77153
 30
0.0
 10
0.28736
 20
8.74847
 30
0.0
 10
0.28736
 20
8.74847
 30
0.0
 10
0.28736
 20
8.72119
 30
0.0
 10
0.28455
 20
8.69922
 30
0.0
 10
0.27897
 20
8.68244
 30
0.0
 10
0.27897
 20
8.68244
 30
0.0
 10
0.27334
 20
8.66566
 30
0.0
 10
0.26495
 20
8.65272
 30
0.0
 10
0.2538
 20
8.64358
 30
0.0
 10
0.2538
 20
8.64358
 30
0.0
 10
0.24266
 20
8.63443
 30
0.0
 10
0.22858
 20
8.62988
 30
0.0
 10
0.21153
 20
8.62988
 30
0.0
 10
0.21153
 20
8.62988
 30
0.0
 10
0.18913
 20
8.62988
 30
0.0
 10
0.17153
 20
8.63789
 30
0.0
 10
0.15876
 20
8.65397
 30
0.0
 10
0.15876
 20
8.65397
 30
0.0
 10
0.14344
 20
8.67329
 30
0.0
 10
0.13576
 20
8.70485
 30
0.0
 10
0.13576
 20
8.74847
 30
0.0
  0
SPLINE
  5
CA
330
1F
100
AcDbEntity
  8
layer 2
370
     9
100
AcDbSpline
210
0.0
220
0.0
230
1.0
 70
    11
 71
     3
 72
    36
 73
    32
 74
     0
 42
0.0000000001
 43
0.0000000001
 12
1.0
 22
0.0
 32
0.0
 13
1.0
 23
0.0
 33
0.0
 40
0.0
 40
0.0
 40
0.0
 40
0.0
 40
0.1111111111111111
 40
0.1111111111111111
 40
0.1111111111111111
 40
0.1111111111111111
 40
0.2222222222222222
 40
0.2222222222222222
 40
0.2222222222222222
 40
0.2222222222222222
 40
0.3333333333333333
 40
0.3333333333333333
 40
0.3333333333333333
 40
0.3333333333333333
 40
0.4444444444444444
 40
0.4444444444444444
 40
0.4444444444444444
 40
0.4444444444444444
 40
0.5555555555555556
 40
0.5555555555555556
 40
0.5555555555555556
 40
0.5555555555555556
 40
0.6666666666666666
 40
0.6666666666666666
 40
0.6666666666666666
 40
0.6666666666666666
 40
0.7777777777777778
 40
0.7777777777777778
 40
0.7777777777777778
 40
0.7777777777777778
 40
1.0
 40
1.0
 40
1.0
 40
1.0
 10
0.16509
 20
8.74847
 30
0.0
 10
0.16509
 20
8.71031
 30
0.0
 10
0.16959
 20
8.68493
 30
0.0
 10
0.17852
 20
8.67226
 30
0.0
 10
0.17852
 20
8.67226
 30
0.0
 10
0.18745
 20
8.65965
 30
0.0
 10
0.19843
 20
8.65332
 30
0.0
 10
0.21153
 20
8.65332
 30
0.0
 10
0.21153
 20
8.65332
 30
0.0
 10
0.22469
 20
8.65332
 30
0.0
 10
0.23567
 20
8.6597
 30
0.0
 10
0.2446
 20
8.67237
 30
0.0
 10
0.2446
 20
8.67237
 30
0.0
 10
0.25353
 20
8.68504
 30
0.0
 10
0.25803
 20
8.71042
 30
0.0
 10
0.25803
 20
8.74847
 30
0.0
 10
0.25803
 20
8.74847
 30
0.0
 10
0.25803
 20
8.78674
 30
0.0
 10
0.25353
 20
8.81218
 30
0.0
 10
0.2446
 20
8.82473
 30
0.0
 10
0.2446
 20
8.82473
 30
0.0
 10
0.23567
 20
8.83734
 30
0.0
 10
0.22458
 20
8.84362
 30
0.0
 10
0.21126
 20
8.84362
 30
0.0
 10
0.21126
 20
8.84362
 30
0.0
 10
0.19811
 20
8.84362
 30
0.0
 10
0.18766
 20
8.83805
 30
0.0
 10
0.17982
 20
8.82695
 30
0.0
 10
0.17982
 20
8.82695
 30
0.0
 10
0.17002
 20
8.81283
 30
0.0
 10
0.16509
 20
8.78663
 30
0.0
 10
0.16509
 20
8.74847
 30
0.0
  0
SPLINE
  5
CB
330
1F
100
AcDbEntity
  8
layer 2
370
     9
100
AcDbSpline
210
0.0
220
0.0
230
1.0
 70
    11
 71
     3
 72
    80
 73
    76
 74
     0
 42
0.0000000001
 43
0.0000000001
 12
1.0
 22
0.0
 32
0.0
 13
1.0
 23
0.0
 33
0.0
 40
0.0
 40
0.0
 40
0.0
 40
0.0
 40
0.05
 40
0.05
 40
0.05
 40
0.05
 40
0.1
 40
0.1
 40
0.1
 40
0.1
 40
0.15
 40
0.15
 40
0.15
 40
0.15
 40
0.2
 40
0.2
 40
0.2
 40
0.2
 40
0.25
 40
0.25
 40
0.25
 40
0.25
 40
0.3
 40
0.3
 40
0.3
 40
0.3
 40
0.35
 40
0.35
 40
0.35
 40
0.35
 40
0.4
 40
0.4
 40
0.4
 40
0.4
 40
0.45
 40
0.45
 40
0.45
 40
0.45
 40
0.5
 40
0.5
 40
0.5
 40
0.5
 40
0.55
 40
0.55
 40
0.55
 40
0.55
 40
0.6
 40
0.6
 40
0.6
 40
0.6
 40
0.65
 40
0.65
 40
0.65
 40
0.65
 40
0.7
 40
0.7
 40
0.7
 40
0.7
 40
0.75
 40
0.75
 40
0.75
 40
0.75
 40
0.8
 40
0.8
 40
0.8
 40
0.8
 40
0.85
 40
0.85
 40
0.85
 40
0.85
 40
0.9
 40
0.9
 40
0.9
 40
0.9
 40
1.0
 40
1.0
 40
1.0
 40
1.0
 10
0.46446
 20
8.80936
 30
0.0
 10
0.46446
 20
8.80936
 30
0.0
 10
0.4361
 20
8.80714
 30
0.0
 10
0.4361
 20
8.80714
 30
0.0
 10
0.4361
 20
8.80714
 30
0.0
 10
0.43356
 20
8.81835
 30
0.0
 10
0.42998
 20
8.82652
 30
0.0
 10
0.42533
 20
8.83155
 30
0.0
 10
0.42533
 20
8.83155
 30
0.0
 10
0.41759
 20
8.83973
 30
0.0
 10
0.40806
 20
8.84379
 30
0.0
 10
0.39675
 20
8.84379
 30
0.0
 10
0.39675
 20
8.84379
 30
0.0
 10
0.38766
 20
8.84379
 30
0.0
 10
0.3797
 20
8.84124
 30
0.0
 10
0.37283
 20
8.83615
 30
0.0
 10
0.37283
 20
8.83615
 30
0.0
 10
0.36384
 20
8.8296
 30
0.0
 10
0.35675
 20
8.82002
 30
0.0
 10
0.35156
 20
8.80747
 30
0.0
 10
0.35156
 20
8.80747
 30
0.0
 10
0.34641
 20
8.79491
 30
0.0
 10
0.34371
 20
8.77699
 30
0.0
 10
0.34349
 20
8.75372
 30
0.0
 10
0.34349
 20
8.75372
 30
0.0
 10
0.35036
 20
8.76417
 30
0.0
 10
0.35875
 20
8.77196
 30
0.0
 10
0.36871
 20
8.77705
 30
0.0
 10
0.36871
 20
8.77705
 30
0.0
 10
0.37862
 20
8.78208
 30
0.0
 10
0.38906
 20
8.78463
 30
0.0
 10
0.39994
 20
8.78463
 30
0.0
 10
0.39994
 20
8.78463
 30
0.0
 10
0.419
 20
8.78463
 30
0.0
 10
0.43518
 20
8.77764
 30
0.0
 10
0.44855
 20
8.76363
 30
0.0
 10
0.44855
 20
8.76363
 30
0.0
 10
0.46192
 20
8.74961
 30
0.0
 10
0.46863
 20
8.73153
 30
0.0
 10
0.46863
 20
8.70934
 30
0.0
 10
0.46863
 20
8.70934
 30
0.0
 10
0.46863
 20
8.69472
 30
0.0
 10
0.46544
 20
8.68119
 30
0.0
 10
0.45916
 20
8.66864
 30
0.0
 10
0.45916
 20
8.66864
 30
0.0
 10
0.45288
 20
8.65613
 30
0.0
 10
0.44422
 20
8.6465
 30
0.0
 10
0.43323
 20
8.63984
 30
0.0
 10
0.43323
 20
8.63984
 30
0.0
 10
0.42224
 20
8.63318
 30
0.0
 10
0.40979
 20
8.62988
 30
0.0
 10
0.39583
 20
8.62988
 30
0.0
 10
0.39583
 20
8.62988
 30
0.0
 10
0.37201
 20
8.62988
 30
0.0
 10
0.35264
 20
8.6386
 30
0.0
 10
0.33765
 20
8.65613
 30
0.0
 10
0.33765
 20
8.65613
 30
0.0
 10
0.3226
 20
8.67361
 30
0.0
 10
0.31513
 20
8.70246
 30
0.0
 10
0.31513
 20
8.74262
 30
0.0
 10
0.31513
 20
8.74262
 30
0.0
 10
0.31513
 20
8.78755
 30
0.0
 10
0.32341
 20
8.82019
 30
0.0
 10
0.34003
 20
8.84059
 30
0.0
 10
0.34003
 20
8.84059
 30
0.0
 10
0.35448
 20
8.85834
 30
0.0
 10
0.37396
 20
8.86728
 30
0.0
 10
0.39854
 20
8.86728
 30
0.0
 10
0.39854
 20
8.86728
 30
0.0
 10
0.41678
 20
8.86728
 30
0.0
 10
0.43177
 20
8.86213
 30
0.0
 10
0.44346
 20
8.85185
 30
0.0
 10
0.44346
 20
8.85185
 30
0.0
 10
0.45515
 20
8.84162
 30
0.0
 10
0.46213
 20
8.82744
 30
0.0
 10
0.46446
 20
8.80936
 30
0.0
  0
SPLINE
  5
CC
330
1F
100
AcDbEntity
  8
layer 2
370
     9
100
AcDbSpline
210
0.0
220
0.0
230
1.0
 70
    11
 71
     3
 72
    40
 73
    36
 74
     0
 42
0.0000000001
 43
0.0000000001
 12
1.0
 22
0.0
 32
0.0
 13
1.0
 23
0.0
 33
0.0
 40
0.0
 40
0.0
 40
0.0
 40
0.0
 40
0.1
 40
0.1
 40
0.1
 40
0.1
 40
0.2
 40
0.2
 40
0.2
 40
0.2
 40
0.3
 40
0.3
 40
0.3
 40
0.3
 40
0.4
 40
0.4
 40
0.4
 40
0.4
 40
0.5
 40
0.5
 40
0.5
 40
0.5
 40
0.6
 40
0.6
 40
0.6
 40
0.6
 40
0.7
 40
0.7
 40
0.7
 40
0.7
 40
0.8
 40
0.8
 40
0.8
 40
0.8
 40
1.0
 40
1.0
 40
1.0
 40
1.0
 10
0.34793
 20
8.70918
 30
0.0
 10
0.34793
 20
8.69932
 30
0.0
 10
0.35004
 20
8.68991
 30
0.0
 10
0.35421
 20
8.68092
 30
0.0
 10
0.35421
 20
8.68092
 30
0.0
 10
0.35838
 20
8.67194
 30
0.0
 10
0.36422
 20
8.66512
 30
0.0
 10
0.37169
 20
8.66041
 30
0.0
 10
0.37169
 20
8.66041
 30
0.0
 10
0.37921
 20
8.6557
 30
0.0
 10
0.38712
 20
8.65332
 30
0.0
 10
0.39534
 20
8.65332
 30
0.0
 10
0.39534
 20
8.65332
 30
0.0
 10
0.40741
 20
8.65332
 30
0.0
 10
0.41775
 20
8.65819
 30
0.0
 10
0.42641
 20
8.66793
 30
0.0
 10
0.42641
 20
8.66793
 30
0.0
 10
0.43507
 20
8.67767
 30
0.0
 10
0.4394
 20
8.69088
 30
0.0
 10
0.4394
 20
8.70755
 30
0.0
 10
0.4394
 20
8.70755
 30
0.0
 10
0.4394
 20
8.72363
 30
0.0
 10
0.43512
 20
8.73629
 30
0.0
 10
0.42657
 20
8.74555
 30
0.0
 10
0.42657
 20
8.74555
 30
0.0
 10
0.41802
 20
8.7548
 30
0.0
 10
0.40725
 20
8.7594
 30
0.0
 10
0.39426
 20
8.7594
 30
0.0
 10
0.39426
 20
8.7594
 30
0.0
 10
0.38132
 20
8.7594
 30
0.0
 10
0.37039
 20
8.7548
 30
0.0
 10
0.36141
 20
8.74555
 30
0.0
 10
0.36141
 20
8.74555
 30
0.0
 10
0.35242
 20
8.73629
 30
0.0
 10
0.34793
 20
8.72417
 30
0.0
 10
0.34793
 20
8.70918
 30
0.0
  0
SPLINE
  5
CD
330
1F
100
AcDbEntity
  8
layer 2
370
     5
100
AcDbSpline
210
0.0
220
0.0
230
1.0
 70
    24
 71
     3
 72
     8
 73
     4
 74
     0
 42
0.0000000001
 43
0.0000000001
 12
1.0
 22
0.0
 32
0.0
 13
1.0
 23
0.0
 33
0.0
 40
0.0
 40
0.0
 40
0.0
 40
0.0
 40
1.0
 40
1.0
 40
1.0
 40
1.0
 10
4.21786
 20
-5.58918
 30
0.0
 10
4.21786
 20
-5.58918
 30
0.0
 10
8.01224
 20
-5.58918
 30
0.0
 10
8.01224
 20
-5.58918
 30
0.0
  0
SPLINE
  5
CE
330
1F
100
AcDbEntity
  8
layer 2
370
     5
100
AcDbSpline
210
0.0
220
0.0
230
1.0
 70
    27
 71
     3
 72
     8
 73
     4
 74
     0
 42
0.0000000001
 43
0.0000000001
 12
1.0
 22
0.0
 32
0.0
 13
1.0
 23
0.0
 33
0.0
 40
0.0
 40
0.0
 40
0.0
 40
0.0
 40
1.0
 40
1.0
 40
1.0
 40
1.0
 10
8.01224
 20
4.28329
 30
0.0
 10
8.01224
 20
4.28329
 30
0.0
 10
8.01224
 20
4.28329
 30
0.0
 10
8.01224
 20
4.28329
 30
0.0
  0
SPLINE
  5
CF
330
1F
100
AcDbEntity
  8
layer 2
370
     5
100
AcDbSpline
210
0.0
220
0.0
230
1.0
 70
    24
 71
     3
 72
     8
 73
     4
 74
     0
 42
0.0000000001
 43
0.0000000001
 12
1.0
 22
0.0
 32
0.0
 13
1.0
 23
0.0
 33
0.0
 40
0.0
 40
0.0
 40
0.0
 40
0.0
 40
1.0
 40
1.0
 40
1.0
 40
1.0
 10
6.01483
 20
4.28329
 30
0.0
 10
6.01483
 20
4.28329
 30
0.0
 10
8.01224
 20
4.28329
 30
0.0
 10
8.01224
 20
4.28329
 30
0.0
  0
SPLINE
  5
D0
330
1F
100
AcDbEntity
  8
layer 2
370
     5
100
AcDbSpline
210
0.0
220
0.0
230
1.0
 70
    24
 71
     3
 72
     8
 73
     4
 74
     0
 42
0.0000000001
 43
0.0000000001
 12
1.0
 22
0.0
 32
0.0
 13
1.0
 23
0.0
 33
0.0
 40
0.0
 40
0.0
 40
0.0
 40
0.0
 40
1.0
 40
1.0
 40
1.0
 40
1.0
 10
7.98518
 20
-5.28607
 30
0.0
 10
7.98518
 20
-5.28607
 30
0.0
 10
7.98518
 20
3.98019
 30
0.0
 10
7.98518
 20
3.98019
 30
0.0
  0
SPLINE
  5
D1
330
1F
100
AcDbEntity
  8
layer 2
370
     9
100
AcDbSpline
210
0.0
220
0.0
230
1.0
 70
    27
 71
     3
 72
    12
 73
     8
 74
     0
 42
0.0000000001
 43
0.0000000001
 12
1.0
 22
0.0
 32
0.0
 13
1.0
 23
0.0
 33
0.0
 40
0.0
 40
0.0
 40
0.0
 40
0.0
 40
0.3333333333333333
 40
0.3333333333333333
 40
0.3333333333333333
 40
0.3333333333333333
 40
1.0
 40
1.0
 40
1.0
 40
1.0
 10
7.93466
 20
-5.28607
 30
0.0
 10
7.93466
 20
-5.28607
 30
0.0
 10
7.98518
 20
-5.58918
 30
0.0
 10
7.98518
 20
-5.58918
 30
0.0
 10
7.98518
 20
-5.58918
 30
0.0
 10
7.98518
 20
-5.58918
 30
0.0
 10
7.93466
 20
-5.28607
 30
0.0
 10
7.93466
 20
-5.28607
 30
0.0
  0
SPLINE
  5
D2
330
1F
100
AcDbEntity
  8
layer 2
370
     9
100
AcDbSpline
210
0.0
220
0.0
230
1.0
 70
    11
 71
     3
 72
    16
 73
    12
 74
     0
 42
0.0000000001
 43
0.0000000001
 12
1.0
 22
0.0
 32
0.0
 13
1.0
 23
0.0
 33
0.0
 40
0.0
 40
0.0
 40
0.0
 40
0.0
 40
0.25
 40
0.25
 40
0.25
 40
0.25
 40
0.5
 40
0.5
 40
0.5
 40
0.5
 40
1.0
 40
1.0
 40
1.0
 40
1.0
 10
7.98518
 20
-5.58918
 30
0.0
 10
7.98518
 20
-5.58918
 30
0.0
 10
8.03569
 20
-5.28607
 30
0.0
 10
8.03569
 20
-5.28607
 30
0.0
 10
8.03569
 20
-5.28607
 30
0.0
 10
8.03569
 20
-5.28607
 30
0.0
 10
7.93466
 20
-5.28607
 30
0.0
 10
7.93466
 20
-5.28607
 30
0.0
 10
7.93466
 20
-5.28607
 30
0.0
 10
7.93466
 20
-5.28607
 30
0.0
 10
7.98518
 20
-5.58918
 30
0.0
 10
7.98518
 20
-5.58918
 30
0.0
  0
SPLINE
  5
D3
330
1F
100
AcDbEntity
  8
layer 2
370
    20
100
AcDbSpline
210
0.0
220
0.0
230
1.0
 70
    24
 71
     3
 72
     8
 73
     4
 74
     0
 42
0.0000000001
 43
0.0000000001
 12
1.0
 22
0.0
 32
0.0
 13
1.0
 23
0.0
 33
0.0
 40
0.0
 40
0.0
 40
0.0
 40
0.0
 40
1.0
 40
1.0
 40
1.0
 40
1.0
 10
7.93466
 20
-5.28607
 30
0.0
 10
7.93466
 20
-5.28607
 30
0.0
 10
7.98518
 20
-5.58918
 30
0.0
 10
7.98518
 20
-5.58918
 30
0.0
  0
SPLINE
  5
D4
330
1F
100
AcDbEntity
  8
layer 2
370
    20
100
AcDbSpline
210
0.0
220
0.0
230
1.0
 70
     8
 71
     3
 72
    12
 73
     8
 74
     0
 42
0.0000000001
 43
0.0000000001
 12
1.0
 22
0.0
 32
0.0
 13
1.0
 23
0.0
 33
0.0
 40
0.0
 40
0.0
 40
0.0
 40
0.0
 40
0.3333333333333333
 40
0.3333333333333333
 40
0.3333333333333333
 40
0.3333333333333333
 40
1.0
 40
1.0
 40
1.0
 40
1.0
 10
7.98518
 20
-5.58918
 30
0.0
 10
7.98518
 20
-5.58918
 30
0.0
 10
8.03569
 20
-5.28607
 30
0.0
 10
8.03569
 20
-5.28607
 30
0.0
 10
8.03569
 20
-5.28607
 30
0.0
 10
8.03569
 20
-5.28607
 30
0.0
 10
7.93466
 20
-5.28607
 30
0.0
 10
7.93466
 20
-5.28607
 30
0.0
  0
SPLINE
  5
D5
330
1F
100
AcDbEntity
  8
layer 2
370
     9
100
AcDbSpline
210
0.0
220
0.0
230
1.0
 70
    27
 71
     3
 72
    12
 73
     8
 74
     0
 42
0.0000000001
 43
0.0000000001
 12
1.0
 22
0.0
 32
0.0
 13
1.0
 23
0.0
 33
0.0
 40
0.0
 40
0.0
 40
0.0
 40
0.0
 40
0.3333333333333333
 40
0.3333333333333333
 40
0.3333333333333333
 40
0.3333333333333333
 40
1.0
 40
1.0
 40
1.0
 40
1.0
 10
7.93466
 20
3.98019
 30
0.0
 10
7.93466
 20
3.98019
 30
0.0
 10
7.98518
 20
4.28329
 30
0.0
 10
7.98518
 20
4.28329
 30
0.0
 10
7.98518
 20
4.28329
 30
0.0
 10
7.98518
 20
4.28329
 30
0.0
 10
7.93466
 20
3.98019
 30
0.0
 10
7.93466
 20
3.98019
 30
0.0
  0
SPLINE
  5
D6
330
1F
100
AcDbEntity
  8
layer 2
370
     9
100
AcDbSpline
210
0.0
220
0.0
230
1.0
 70
    11
 71
     3
 72
    16
 73
    12
 74
     0
 42
0.0000000001
 43
0.0000000001
 12
1.0
 22
0.0
 32
0.0
 13
1.0
 23
0.0
 33
0.0
 40
0.0
 40
0.0
 40
0.0
 40
0.0
 40
0.25
 40
0.25
 40
0.25
 40
0.25
 40
0.5
 40
0.5
 40
0.5
 40
0.5
 40
1.0
 40
1.0
 40
1.0
 40
1.0
 10
7.98518
 20
4.28329
 30
0.0
 10
7.98518
 20
4.28329
 30
0.0
 10
8.03569
 20
3.98019
 30
0.0
 10
8.03569
 20
3.98019
 30
0.0
 10
8.03569
 20
3.98019
 30
0.0
 10
8.03569
 20
3.98019
 30
0.0
 10
7.93466
 20
3.98019
 30
0.0
 10
7.93466
 20
3.98019
 30
0.0
 10
7.93466
 20
3.98019
 30
0.0
 10
7.93466
 20
3.98019
 30
0.0
 10
7.98518
 20
4.28329
 30
0.0
 10
7.98518
 20
4.28329
 30
0.0
  0
SPLINE
  5
D7
330
1F
100
AcDbEntity
  8
layer 2
370
    20
100
AcDbSpline
210
0.0
220
0.0
230
1.0
 70
    24
 71
     3
 72
     8
 73
     4
 74
     0
 42
0.0000000001
 43
0.0000000001
 12
1.0
 22
0.0
 32
0.0
 13
1.0
 23
0.0
 33
0.0
 40
0.0
 40
0.0
 40
0.0
 40
0.0
 40
1.0
 40
1.0
 40
1.0
 40
1.0
 10
7.93466
 20
3.98019
 30
0.0
 10
7.93466
 20
3.98019
 30
0.0
 10
7.98518
 20
4.28329
 30
0.0
 10
7.98518
 20
4.28329
 30
0.0
  0
SPLINE
  5
D8
330
1F
100
AcDbEntity
  8
layer 2
370
    20
100
AcDbSpline
210
0.0
220
0.0
230
1.0
 70
     8
 71
     3
 72
    12
 73
     8
 74
     0
 42
0.0000000001
 43
0.0000000001
 12
1.0
 22
0.0
 32
0.0
 13
1.0
 23
0.0
 33
0.0
 40
0.0
 40
0.0
 40
0.0
 40
0.0
 40
0.3333333333333333
 40
0.3333333333333333
 40
0.3333333333333333
 40
0.3333333333333333
 40
1.0
 40
1.0
 40
1.0
 40
1.0
 10
7.98518
 20
4.28329
 30
0.0
 10
7.98518
 20
4.28329
 30
0.0
 10
8.03569
 20
3.98019
 30
0.0
 10
8.03569
 20
3.98019
 30
0.0
 10
8.03569
 20
3.98019
 30
0.0
 10
8.03569
 20
3.98019
 30
0.0
 10
7.93466
 20
3.98019
 30
0.0
 10
7.93466
 20
3.98019
 30
0.0
  0
SPLINE
  5
D9
330
1F
100
AcDbEntity
  8
layer 2
370
     9
100
AcDbSpline
210
0.0
220
0.0
230
1.0
 70
    11
 71
     3
 72
    48
 73
    44
 74
     0
 42
0.0000000001
 43
0.0000000001
 12
1.0
 22
0.0
 32
0.0
 13
1.0
 23
0.0
 33
0.0
 40
0.0
 40
0.0
 40
0.0
 40
0.0
 40
0.0833333333333333
 40
0.0833333333333333
 40
0.0833333333333333
 40
0.0833333333333333
 40
0.1666666666666667
 40
0.1666666666666667
 40
0.1666666666666667
 40
0.1666666666666667
 40
0.25
 40
0.25
 40
0.25
 40
0.25
 40
0.3333333333333333
 40
0.3333333333333333
 40
0.3333333333333333
 40
0.3333333333333333
 40
0.4166666666666667
 40
0.4166666666666667
 40
0.4166666666666667
 40
0.4166666666666667
 40
0.5
 40
0.5
 40
0.5
 40
0.5
 40
0.5833333333333334
 40
0.5833333333333334
 40
0.5833333333333334
 40
0.5833333333333334
 40
0.6666666666666666
 40
0.6666666666666666
 40
0.6666666666666666
 40
0.6666666666666666
 40
0.75
 40
0.75
 40
0.75
 40
0.75
 40
0.8333333333333334
 40
0.8333333333333334
 40
0.8333333333333334
 40
0.8333333333333334
 40
1.0
 40
1.0
 40
1.0
 40
1.0
 10
7.80551
 20
-0.81892
 30
0.0
 10
7.80551
 20
-0.81892
 30
0.0
 10
7.74987
 20
-0.81892
 30
0.0
 10
7.74987
 20
-0.81892
 30
0.0
 10
7.74987
 20
-0.81892
 30
0.0
 10
7.74987
 20
-0.81892
 30
0.0
 10
7.74987
 20
-0.91975
 30
0.0
 10
7.74987
 20
-0.91975
 30
0.0
 10
7.74987
 20
-0.91975
 30
0.0
 10
7.74987
 20
-0.91975
 30
0.0
 10
7.72367
 20
-0.91975
 30
0.0
 10
7.72367
 20
-0.91975
 30
0.0
 10
7.72367
 20
-0.91975
 30
0.0
 10
7.72367
 20
-0.91975
 30
0.0
 10
7.57304
 20
-0.81367
 30
0.0
 10
7.57304
 20
-0.81367
 30
0.0
 10
7.57304
 20
-0.81367
 30
0.0
 10
7.57304
 20
-0.81367
 30
0.0
 10
7.57304
 20
-0.79034
 30
0.0
 10
7.57304
 20
-0.79034
 30
0.0
 10
7.57304
 20
-0.79034
 30
0.0
 10
7.57304
 20
-0.79034
 30
0.0
 10
7.72367
 20
-0.79034
 30
0.0
 10
7.72367
 20
-0.79034
 30
0.0
 10
7.72367
 20
-0.79034
 30
0.0
 10
7.72367
 20
-0.79034
 30
0.0
 10
7.72367
 20
-0.75895
 30
0.0
 10
7.72367
 20
-0.75895
 30
0.0
 10
7.72367
 20
-0.75895
 30
0.0
 10
7.72367
 20
-0.75895
 30
0.0
 10
7.74987
 20
-0.75895
 30
0.0
 10
7.74987
 20
-0.75895
 30
0.0
 10
7.74987
 20
-0.75895
 30
0.0
 10
7.74987
 20
-0.75895
 30
0.0
 10
7.74987
 20
-0.79034
 30
0.0
 10
7.74987
 20
-0.79034
 30
0.0
 10
7.74987
 20
-0.79034
 30
0.0
 10
7.74987
 20
-0.79034
 30
0.0
 10
7.80551
 20
-0.79034
 30
0.0
 10
7.80551
 20
-0.79034
 30
0.0
 10
7.80551
 20
-0.79034
 30
0.0
 10
7.80551
 20
-0.79034
 30
0.0
 10
7.80551
 20
-0.81892
 30
0.0
 10
7.80551
 20
-0.81892
 30
0.0
  0
SPLINE
  5
DA
330
1F
100
AcDbEntity
  8
layer 2
370
     9
100
AcDbSpline
210
0.0
220
0.0
230
1.0
 70
    11
 71
     3
 72
    16
 73
    12
 74
     0
 42
0.0000000001
 43
0.0000000001
 12
1.0
 22
0.0
 32
0.0
 13
1.0
 23
0.0
 33
0.0
 40
0.0
 40
0.0
 40
0.0
 40
0.0
 40
0.25
 40
0.25
 40
0.25
 40
0.25
 40
0.5
 40
0.5
 40
0.5
 40
0.5
 40
1.0
 40
1.0
 40
1.0
 40
1.0
 10
7.72367
 20
-0.81892
 30
0.0
 10
7.72367
 20
-0.81892
 30
0.0
 10
7.61888
 20
-0.81892
 30
0.0
 10
7.61888
 20
-0.81892
 30
0.0
 10
7.61888
 20
-0.81892
 30
0.0
 10
7.61888
 20
-0.81892
 30
0.0
 10
7.72367
 20
-0.89166
 30
0.0
 10
7.72367
 20
-0.89166
 30
0.0
 10
7.72367
 20
-0.89166
 30
0.0
 10
7.72367
 20
-0.89166
 30
0.0
 10
7.72367
 20
-0.81892
 30
0.0
 10
7.72367
 20
-0.81892
 30
0.0
  0
SPLINE
  5
DB
330
1F
100
AcDbEntity
  8
layer 2
370
     9
100
AcDbSpline
210
0.0
220
0.0
230
1.0
 70
    11
 71
     3
 72
    92
 73
    88
 74
     0
 42
0.0000000001
 43
0.0000000001
 12
1.0
 22
0.0
 32
0.0
 13
1.0
 23
0.0
 33
0.0
 40
0.0
 40
0.0
 40
0.0
 40
0.0
 40
0.0434782608695652
 40
0.0434782608695652
 40
0.0434782608695652
 40
0.0434782608695652
 40
0.0869565217391304
 40
0.0869565217391304
 40
0.0869565217391304
 40
0.0869565217391304
 40
0.1304347826086956
 40
0.1304347826086956
 40
0.1304347826086956
 40
0.1304347826086956
 40
0.1739130434782609
 40
0.1739130434782609
 40
0.1739130434782609
 40
0.1739130434782609
 40
0.2173913043478261
 40
0.2173913043478261
 40
0.2173913043478261
 40
0.2173913043478261
 40
0.2608695652173913
 40
0.2608695652173913
 40
0.2608695652173913
 40
0.2608695652173913
 40
0.3043478260869565
 40
0.3043478260869565
 40
0.3043478260869565
 40
0.3043478260869565
 40
0.3478260869565217
 40
0.3478260869565217
 40
0.3478260869565217
 40
0.3478260869565217
 40
0.391304347826087
 40
0.391304347826087
 40
0.391304347826087
 40
0.391304347826087
 40
0.4347826086956522
 40
0.4347826086956522
 40
0.4347826086956522
 40
0.4347826086956522
 40
0.4782608695652174
 40
0.4782608695652174
 40
0.4782608695652174
 40
0.4782608695652174
 40
0.5217391304347826
 40
0.5217391304347826
 40
0.5217391304347826
 40
0.5217391304347826
 40
0.5652173913043478
 40
0.5652173913043478
 40
0.5652173913043478
 40
0.5652173913043478
 40
0.6086956521739131
 40
0.6086956521739131
 40
0.6086956521739131
 40
0.6086956521739131
 40
0.6521739130434783
 40
0.6521739130434783
 40
0.6521739130434783
 40
0.6521739130434783
 40
0.6956521739130435
 40
0.6956521739130435
 40
0.6956521739130435
 40
0.6956521739130435
 40
0.7391304347826086
 40
0.7391304347826086
 40
0.7391304347826086
 40
0.7391304347826086
 40
0.782608695652174
 40
0.782608695652174
 40
0.782608695652174
 40
0.782608695652174
 40
0.8260869565217391
 40
0.8260869565217391
 40
0.8260869565217391
 40
0.8260869565217391
 40
0.8695652173913043
 40
0.8695652173913043
 40
0.8695652173913043
 40
0.8695652173913043
 40
0.9130434782608695
 40
0.9130434782608695
 40
0.9130434782608695
 40
0.9130434782608695
 40
1.0
 40
1.0
 40
1.0
 40
1.0
 10
7.74462
 20
-0.72977
 30
0.0
 10
7.74462
 20
-0.72977
 30
0.0
 10
7.74207
 20
-0.69979
 30
0.0
 10
7.74207
 20
-0.69979
 30
0.0
 10
7.74207
 20
-0.69979
 30
0.0
 10
7.75669
 20
-0.69757
 30
0.0
 10
7.76762
 20
-0.69243
 30
0.0
 10
7.77498
 20
-0.68436
 30
0.0
 10
7.77498
 20
-0.68436
 30
0.0
 10
7.78234
 20
-0.67624
 30
0.0
 10
7.78602
 20
-0.6665
 30
0.0
 10
7.78602
 20
-0.65508
 30
0.0
 10
7.78602
 20
-0.65508
 30
0.0
 10
7.78602
 20
-0.64133
 30
0.0
 10
7.78083
 20
-0.6297
 30
0.0
 10
7.77049
 20
-0.62022
 30
0.0
 10
7.77049
 20
-0.62022
 30
0.0
 10
7.7601
 20
-0.6107
 30
0.0
 10
7.74635
 20
-0.60594
 30
0.0
 10
7.72924
 20
-0.60594
 30
0.0
 10
7.72924
 20
-0.60594
 30
0.0
 10
7.71295
 20
-0.60594
 30
0.0
 10
7.70013
 20
-0.61048
 30
0.0
 10
7.69071
 20
-0.61963
 30
0.0
 10
7.69071
 20
-0.61963
 30
0.0
 10
7.68129
 20
-0.62878
 30
0.0
 10
7.67658
 20
-0.64074
 30
0.0
 10
7.67658
 20
-0.65557
 30
0.0
 10
7.67658
 20
-0.65557
 30
0.0
 10
7.67658
 20
-0.66477
 30
0.0
 10
7.67869
 20
-0.67305
 30
0.0
 10
7.68286
 20
-0.68047
 30
0.0
 10
7.68286
 20
-0.68047
 30
0.0
 10
7.68703
 20
-0.68788
 30
0.0
 10
7.69244
 20
-0.69367
 30
0.0
 10
7.6991
 20
-0.69789
 30
0.0
 10
7.6991
 20
-0.69789
 30
0.0
 10
7.6991
 20
-0.69789
 30
0.0
 10
7.69563
 20
-0.72469
 30
0.0
 10
7.69563
 20
-0.72469
 30
0.0
 10
7.69563
 20
-0.72469
 30
0.0
 10
7.69563
 20
-0.72469
 30
0.0
 10
7.57623
 20
-0.70217
 30
0.0
 10
7.57623
 20
-0.70217
 30
0.0
 10
7.57623
 20
-0.70217
 30
0.0
 10
7.57623
 20
-0.70217
 30
0.0
 10
7.57623
 20
-0.58656
 30
0.0
 10
7.57623
 20
-0.58656
 30
0.0
 10
7.57623
 20
-0.58656
 30
0.0
 10
7.57623
 20
-0.58656
 30
0.0
 10
7.60351
 20
-0.58656
 30
0.0
 10
7.60351
 20
-0.58656
 30
0.0
 10
7.60351
 20
-0.58656
 30
0.0
 10
7.60351
 20
-0.58656
 30
0.0
 10
7.60351
 20
-0.67933
 30
0.0
 10
7.60351
 20
-0.67933
 30
0.0
 10
7.60351
 20
-0.67933
 30
0.0
 10
7.60351
 20
-0.67933
 30
0.0
 10
7.66597
 20
-0.69189
 30
0.0
 10
7.66597
 20
-0.69189
 30
0.0
 10
7.66597
 20
-0.69189
 30
0.0
 10
7.65623
 20
-0.67792
 30
0.0
 10
7.65136
 20
-0.66325
 30
0.0
 10
7.65136
 20
-0.64794
 30
0.0
 10
7.65136
 20
-0.64794
 30
0.0
 10
7.65136
 20
-0.62764
 30
0.0
 10
7.65839
 20
-0.61054
 30
0.0
 10
7.67247
 20
-0.59657
 30
0.0
 10
7.67247
 20
-0.59657
 30
0.0
 10
7.68654
 20
-0.58261
 30
0.0
 10
7.70462
 20
-0.57563
 30
0.0
 10
7.7267
 20
-0.57563
 30
0.0
 10
7.7267
 20
-0.57563
 30
0.0
 10
7.74776
 20
-0.57563
 30
0.0
 10
7.76594
 20
-0.5818
 30
0.0
 10
7.78126
 20
-0.59403
 30
0.0
 10
7.78126
 20
-0.59403
 30
0.0
 10
7.80004
 20
-0.60897
 30
0.0
 10
7.80946
 20
-0.62932
 30
0.0
 10
7.80946
 20
-0.65508
 30
0.0
 10
7.80946
 20
-0.65508
 30
0.0
 10
7.80946
 20
-0.67624
 30
0.0
 10
7.80356
 20
-0.69351
 30
0.0
 10
7.79171
 20
-0.70688
 30
0.0
 10
7.79171
 20
-0.70688
 30
0.0
 10
7.77985
 20
-0.72025
 30
0.0
 10
7.76416
 20
-0.72788
 30
0.0
 10
7.74462
 20
-0.72977
 30
0.0
  0
SPLINE
  5
DC
330
1F
100
AcDbEntity
  8
layer 2
370
     9
100
AcDbSpline
210
0.0
220
0.0
230
1.0
 70
    11
 71
     3
 72
    80
 73
    76
 74
     0
 42
0.0000000001
 43
0.0000000001
 12
1.0
 22
0.0
 32
0.0
 13
1.0
 23
0.0
 33
0.0
 40
0.0
 40
0.0
 40
0.0
 40
0.0
 40
0.05
 40
0.05
 40
0.05
 40
0.05
 40
0.1
 40
0.1
 40
0.1
 40
0.1
 40
0.15
 40
0.15
 40
0.15
 40
0.15
 40
0.2
 40
0.2
 40
0.2
 40
0.2
 40
0.25
 40
0.25
 40
0.25
 40
0.25
 40
0.3
 40
0.3
 40
0.3
 40
0.3
 40
0.35
 40
0.35
 40
0.35
 40
0.35
 40
0.4
 40
0.4
 40
0.4
 40
0.4
 40
0.45
 40
0.45
 40
0.45
 40
0.45
 40
0.5
 40
0.5
 40
0.5
 40
0.5
 40
0.55
 40
0.55
 40
0.55
 40
0.55
 40
0.6
 40
0.6
 40
0.6
 40
0.6
 40
0.65
 40
0.65
 40
0.65
 40
0.65
 40
0.7
 40
0.7
 40
0.7
 40
0.7
 40
0.75
 40
0.75
 40
0.75
 40
0.75
 40
0.8
 40
0.8
 40
0.8
 40
0.8
 40
0.85
 40
0.85
 40
0.85
 40
0.85
 40
0.9
 40
0.9
 40
0.9
 40
0.9
 40
1.0
 40
1.0
 40
1.0
 40
1.0
 10
7.62998
 20
-0.40107
 30
0.0
 10
7.62998
 20
-0.40107
 30
0.0
 10
7.6322
 20
-0.42943
 30
0.0
 10
7.6322
 20
-0.42943
 30
0.0
 10
7.6322
 20
-0.42943
 30
0.0
 10
7.62099
 20
-0.43198
 30
0.0
 10
7.61282
 20
-0.43555
 30
0.0
 10
7.60779
 20
-0.4402
 30
0.0
 10
7.60779
 20
-0.4402
 30
0.0
 10
7.59961
 20
-0.44794
 30
0.0
 10
7.59556
 20
-0.45747
 30
0.0
 10
7.59556
 20
-0.46878
 30
0.0
 10
7.59556
 20
-0.46878
 30
0.0
 10
7.59556
 20
-0.47788
 30
0.0
 10
7.5981
 20
-0.48583
 30
0.0
 10
7.60319
 20
-0.49271
 30
0.0
 10
7.60319
 20
-0.49271
 30
0.0
 10
7.60974
 20
-0.50169
 30
0.0
 10
7.61932
 20
-0.50878
 30
0.0
 10
7.63187
 20
-0.51398
 30
0.0
 10
7.63187
 20
-0.51398
 30
0.0
 10
7.64443
 20
-0.51912
 30
0.0
 10
7.66235
 20
-0.52182
 30
0.0
 10
7.68562
 20
-0.52204
 30
0.0
 10
7.68562
 20
-0.52204
 30
0.0
 10
7.67517
 20
-0.51517
 30
0.0
 10
7.66738
 20
-0.50678
 30
0.0
 10
7.66229
 20
-0.49682
 30
0.0
 10
7.66229
 20
-0.49682
 30
0.0
 10
7.65726
 20
-0.48691
 30
0.0
 10
7.65471
 20
-0.47647
 30
0.0
 10
7.65471
 20
-0.46559
 30
0.0
 10
7.65471
 20
-0.46559
 30
0.0
 10
7.65471
 20
-0.44654
 30
0.0
 10
7.6617
 20
-0.43035
 30
0.0
 10
7.67571
 20
-0.41698
 30
0.0
 10
7.67571
 20
-0.41698
 30
0.0
 10
7.68973
 20
-0.40362
 30
0.0
 10
7.70781
 20
-0.3969
 30
0.0
 10
7.73
 20
-0.3969
 30
0.0
 10
7.73
 20
-0.3969
 30
0.0
 10
7.74462
 20
-0.3969
 30
0.0
 10
7.75815
 20
-0.4001
 30
0.0
 10
7.7707
 20
-0.40638
 30
0.0
 10
7.7707
 20
-0.40638
 30
0.0
 10
7.78321
 20
-0.41265
 30
0.0
 10
7.79284
 20
-0.42131
 30
0.0
 10
7.7995
 20
-0.4323
 30
0.0
 10
7.7995
 20
-0.4323
 30
0.0
 10
7.80616
 20
-0.44329
 30
0.0
 10
7.80946
 20
-0.45574
 30
0.0
 10
7.80946
 20
-0.4697
 30
0.0
 10
7.80946
 20
-0.4697
 30
0.0
 10
7.80946
 20
-0.49352
 30
0.0
 10
7.80074
 20
-0.51289
 30
0.0
 10
7.78321
 20
-0.52789
 30
0.0
 10
7.78321
 20
-0.52789
 30
0.0
 10
7.76573
 20
-0.54293
 30
0.0
 10
7.73688
 20
-0.5504
 30
0.0
 10
7.69672
 20
-0.5504
 30
0.0
 10
7.69672
 20
-0.5504
 30
0.0
 10
7.65179
 20
-0.5504
 30
0.0
 10
7.61915
 20
-0.54212
 30
0.0
 10
7.59875
 20
-0.52551
 30
0.0
 10
7.59875
 20
-0.52551
 30
0.0
 10
7.581
 20
-0.51105
 30
0.0
 10
7.57206
 20
-0.49157
 30
0.0
 10
7.57206
 20
-0.467
 30
0.0
 10
7.57206
 20
-0.467
 30
0.0
 10
7.57206
 20
-0.44876
 30
0.0
 10
7.57721
 20
-0.43376
 30
0.0
 10
7.58749
 20
-0.42207
 30
0.0
 10
7.58749
 20
-0.42207
 30
0.0
 10
7.59772
 20
-0.41038
 30
0.0
 10
7.6119
 20
-0.4034
 30
0.0
 10
7.62998
 20
-0.40107
 30
0.0
  0
SPLINE
  5
DD
330
1F
100
AcDbEntity
  8
layer 2
370
     9
100
AcDbSpline
210
0.0
220
0.0
230
1.0
 70
    11
 71
     3
 72
    40
 73
    36
 74
     0
 42
0.0000000001
 43
0.0000000001
 12
1.0
 22
0.0
 32
0.0
 13
1.0
 23
0.0
 33
0.0
 40
0.0
 40
0.0
 40
0.0
 40
0.0
 40
0.1
 40
0.1
 40
0.1
 40
0.1
 40
0.2
 40
0.2
 40
0.2
 40
0.2
 40
0.3
 40
0.3
 40
0.3
 40
0.3
 40
0.4
 40
0.4
 40
0.4
 40
0.4
 40
0.5
 40
0.5
 40
0.5
 40
0.5
 40
0.6
 40
0.6
 40
0.6
 40
0.6
 40
0.7
 40
0.7
 40
0.7
 40
0.7
 40
0.8
 40
0.8
 40
0.8
 40
0.8
 40
1.0
 40
1.0
 40
1.0
 40
1.0
 10
7.73016
 20
-0.5176
 30
0.0
 10
7.74002
 20
-0.5176
 30
0.0
 10
7.74943
 20
-0.51549
 30
0.0
 10
7.75842
 20
-0.51132
 30
0.0
 10
7.75842
 20
-0.51132
 30
0.0
 10
7.7674
 20
-0.50716
 30
0.0
 10
7.77422
 20
-0.50131
 30
0.0
 10
7.77893
 20
-0.49384
 30
0.0
 10
7.77893
 20
-0.49384
 30
0.0
 10
7.78364
 20
-0.48632
 30
0.0
 10
7.78602
 20
-0.47842
 30
0.0
 10
7.78602
 20
-0.47019
 30
0.0
 10
7.78602
 20
-0.47019
 30
0.0
 10
7.78602
 20
-0.45812
 30
0.0
 10
7.78115
 20
-0.44778
 30
0.0
 10
7.77141
 20
-0.43912
 30
0.0
 10
7.77141
 20
-0.43912
 30
0.0
 10
7.76167
 20
-0.43046
 30
0.0
 10
7.74846
 20
-0.42613
 30
0.0
 10
7.73179
 20
-0.42613
 30
0.0
 10
7.73179
 20
-0.42613
 30
0.0
 10
7.71571
 20
-0.42613
 30
0.0
 10
7.70305
 20
-0.43041
 30
0.0
 10
7.69379
 20
-0.43896
 30
0.0
 10
7.69379
 20
-0.43896
 30
0.0
 10
7.68454
 20
-0.44751
 30
0.0
 10
7.67994
 20
-0.45828
 30
0.0
 10
7.67994
 20
-0.47127
 30
0.0
 10
7.67994
 20
-0.47127
 30
0.0
 10
7.67994
 20
-0.48421
 30
0.0
 10
7.68454
 20
-0.49514
 30
0.0
 10
7.69379
 20
-0.50413
 30
0.0
 10
7.69379
 20
-0.50413
 30
0.0
 10
7.70305
 20
-0.51311
 30
0.0
 10
7.71517
 20
-0.5176
 30
0.0
 10
7.73016
 20
-0.5176
 30
0.0
  0
SPLINE
  5
DE
330
1F
100
AcDbEntity
  8
layer 2
370
     5
100
AcDbSpline
210
0.0
220
0.0
230
1.0
 70
    27
 71
     3
 72
     8
 73
     4
 74
     0
 42
0.0000000001
 43
0.0000000001
 12
1.0
 22
0.0
 32
0.0
 13
1.0
 23
0.0
 33
0.0
 40
0.0
 40
0.0
 40
0.0
 40
0.0
 40
1.0
 40
1.0
 40
1.0
 40
1.0
 10
8.01224
 20
4.28329
 30
0.0
 10
8.01224
 20
4.28329
 30
0.0
 10
8.01224
 20
4.28329
 30
0.0
 10
8.01224
 20
4.28329
 30
0.0
  0
SPLINE
  5
DF
330
1F
100
AcDbEntity
  8
layer 2
370
     5
100
AcDbSpline
210
0.0
220
0.0
230
1.0
 70
    24
 71
     3
 72
     8
 73
     4
 74
     0
 42
0.0000000001
 43
0.0000000001
 12
1.0
 22
0.0
 32
0.0
 13
1.0
 23
0.0
 33
0.0
 40
0.0
 40
0.0
 40
0.0
 40
0.0
 40
1.0
 40
1.0
 40
1.0
 40
1.0
 10
6.01483
 20
4.28329
 30
0.0
 10
6.01483
 20
4.28329
 30
0.0
 10
8.01224
 20
4.28329
 30
0.0
 10
8.01224
 20
4.28329
 30
0.0
  0
SPLINE
  5
E0
330
1F
100
AcDbEntity
  8
layer 2
370
     5
100
AcDbSpline
210
0.0
220
0.0
230
1.0
 70
    27
 71
     3
 72
     8
 73
     4
 74
     0
 42
0.0000000001
 43
0.0000000001
 12
1.0
 22
0.0
 32
0.0
 13
1.0
 23
0.0
 33
0.0
 40
0.0
 40
0.0
 40
0.0
 40
0.0
 40
1.0
 40
1.0
 40
1.0
 40
1.0
 10
8.01224
 20
5.73385
 30
0.0
 10
8.01224
 20
5.73385
 30
0.0
 10
8.01224
 20
5.73385
 30
0.0
 10
8.01224
 20
5.73385
 30
0.0
  0
SPLINE
  5
E1
330
1F
100
AcDbEntity
  8
layer 2
370
     5
100
AcDbSpline
210
0.0
220
0.0
230
1.0
 70
    24
 71
     3
 72
     8
 73
     4
 74
     0
 42
0.0000000001
 43
0.0000000001
 12
1.0
 22
0.0
 32
0.0
 13
1.0
 23
0.0
 33
0.0
 40
0.0
 40
0.0
 40
0.0
 40
0.0
 40
1.0
 40
1.0
 40
1.0
 40
1.0
 10
6.44783
 20
5.73385
 30
0.0
 10
6.44783
 20
5.73385
 30
0.0
 10
8.01224
 20
5.73385
 30
0.0
 10
8.01224
 20
5.73385
 30
0.0
  0
SPLINE
  5
E2
330
1F
100
AcDbEntity
  8
layer 2
370
     5
100
AcDbSpline
210
0.0
220
0.0
230
1.0
 70
    27
 71
     3
 72
     8
 73
     4
 74
     0
 42
0.0000000001
 43
0.0000000001
 12
1.0
 22
0.0
 32
0.0
 13
1.0
 23
0.0
 33
0.0
 40
0.0
 40
0.0
 40
0.0
 40
0.0
 40
1.0
 40
1.0
 40
1.0
 40
1.0
 10
7.98518
 20
5.43075
 30
0.0
 10
7.98518
 20
5.43075
 30
0.0
 10
7.98518
 20
5.43075
 30
0.0
 10
7.98518
 20
5.43075
 30
0.0
  0
SPLINE
  5
E3
330
1F
100
AcDbEntity
  8
layer 2
370
     5
100
AcDbSpline
210
0.0
220
0.0
230
1.0
 70
    24
 71
     3
 72
     8
 73
     4
 74
     0
 42
0.0000000001
 43
0.0000000001
 12
1.0
 22
0.0
 32
0.0
 13
1.0
 23
0.0
 33
0.0
 40
0.0
 40
0.0
 40
0.0
 40
0.0
 40
1.0
 40
1.0
 40
1.0
 40
1.0
 10
7.98518
 20
4.58639
 30
0.0
 10
7.98518
 20
4.58639
 30
0.0
 10
7.98518
 20
5.43075
 30
0.0
 10
7.98518
 20
5.43075
 30
0.0
  0
SPLINE
  5
E4
330
1F
100
AcDbEntity
  8
layer 2
370
     9
100
AcDbSpline
210
0.0
220
0.0
230
1.0
 70
    27
 71
     3
 72
    12
 73
     8
 74
     0
 42
0.0000000001
 43
0.0000000001
 12
1.0
 22
0.0
 32
0.0
 13
1.0
 23
0.0
 33
0.0
 40
0.0
 40
0.0
 40
0.0
 40
0.0
 40
0.3333333333333333
 40
0.3333333333333333
 40
0.3333333333333333
 40
0.3333333333333333
 40
1.0
 40
1.0
 40
1.0
 40
1.0
 10
7.93466
 20
4.58639
 30
0.0
 10
7.93466
 20
4.58639
 30
0.0
 10
7.98518
 20
4.28329
 30
0.0
 10
7.98518
 20
4.28329
 30
0.0
 10
7.98518
 20
4.28329
 30
0.0
 10
7.98518
 20
4.28329
 30
0.0
 10
7.93466
 20
4.58639
 30
0.0
 10
7.93466
 20
4.58639
 30
0.0
  0
SPLINE
  5
E5
330
1F
100
AcDbEntity
  8
layer 2
370
     9
100
AcDbSpline
210
0.0
220
0.0
230
1.0
 70
    11
 71
     3
 72
    16
 73
    12
 74
     0
 42
0.0000000001
 43
0.0000000001
 12
1.0
 22
0.0
 32
0.0
 13
1.0
 23
0.0
 33
0.0
 40
0.0
 40
0.0
 40
0.0
 40
0.0
 40
0.25
 40
0.25
 40
0.25
 40
0.25
 40
0.5
 40
0.5
 40
0.5
 40
0.5
 40
1.0
 40
1.0
 40
1.0
 40
1.0
 10
7.98518
 20
4.28329
 30
0.0
 10
7.98518
 20
4.28329
 30
0.0
 10
8.03569
 20
4.58639
 30
0.0
 10
8.03569
 20
4.58639
 30
0.0
 10
8.03569
 20
4.58639
 30
0.0
 10
8.03569
 20
4.58639
 30
0.0
 10
7.93466
 20
4.58639
 30
0.0
 10
7.93466
 20
4.58639
 30
0.0
 10
7.93466
 20
4.58639
 30
0.0
 10
7.93466
 20
4.58639
 30
0.0
 10
7.98518
 20
4.28329
 30
0.0
 10
7.98518
 20
4.28329
 30
0.0
  0
SPLINE
  5
E6
330
1F
100
AcDbEntity
  8
layer 2
370
    20
100
AcDbSpline
210
0.0
220
0.0
230
1.0
 70
    24
 71
     3
 72
     8
 73
     4
 74
     0
 42
0.0000000001
 43
0.0000000001
 12
1.0
 22
0.0
 32
0.0
 13
1.0
 23
0.0
 33
0.0
 40
0.0
 40
0.0
 40
0.0
 40
0.0
 40
1.0
 40
1.0
 40
1.0
 40
1.0
 10
7.93466
 20
4.58639
 30
0.0
 10
7.93466
 20
4.58639
 30
0.0
 10
7.98518
 20
4.28329
 30
0.0
 10
7.98518
 20
4.28329
 30
0.0
  0
SPLINE
  5
E7
330
1F
100
AcDbEntity
  8
layer 2
370
    20
100
AcDbSpline
210
0.0
220
0.0
230
1.0
 70
     8
 71
     3
 72
    12
 73
     8
 74
     0
 42
0.0000000001
 43
0.0000000001
 12
1.0
 22
0.0
 32
0.0
 13
1.0
 23
0.0
 33
0.0
 40
0.0
 40
0.0
 40
0.0
 40
0.0
 40
0.3333333333333333
 40
0.3333333333333333
 40
0.3333333333333333
 40
0.3333333333333333
 40
1.0
 40
1.0
 40
1.0
 40
1.0
 10
7.98518
 20
4.28329
 30
0.0
 10
7.98518
 20
4.28329
 30
0.0
 10
8.03569
 20
4.58639
 30
0.0
 10
8.03569
 20
4.58639
 30
0.0
 10
8.03569
 20
4.58639
 30
0.0
 10
8.03569
 20
4.58639
 30
0.0
 10
7.93466
 20
4.58639
 30
0.0
 10
7.93466
 20
4.58639
 30
0.0
  0
SPLINE
  5
E8
330
1F
100
AcDbEntity
  8
layer 2
370
     9
100
AcDbSpline
210
0.0
220
0.0
230
1.0
 70
    27
 71
     3
 72
    12
 73
     8
 74
     0
 42
0.0000000001
 43
0.0000000001
 12
1.0
 22
0.0
 32
0.0
 13
1.0
 23
0.0
 33
0.0
 40
0.0
 40
0.0
 40
0.0
 40
0.0
 40
0.3333333333333333
 40
0.3333333333333333
 40
0.3333333333333333
 40
0.3333333333333333
 40
1.0
 40
1.0
 40
1.0
 40
1.0
 10
7.93466
 20
5.43075
 30
0.0
 10
7.93466
 20
5.43075
 30
0.0
 10
7.98518
 20
5.73385
 30
0.0
 10
7.98518
 20
5.73385
 30
0.0
 10
7.98518
 20
5.73385
 30
0.0
 10
7.98518
 20
5.73385
 30
0.0
 10
7.93466
 20
5.43075
 30
0.0
 10
7.93466
 20
5.43075
 30
0.0
  0
SPLINE
  5
E9
330
1F
100
AcDbEntity
  8
layer 2
370
     9
100
AcDbSpline
210
0.0
220
0.0
230
1.0
 70
    11
 71
     3
 72
    16
 73
    12
 74
     0
 42
0.0000000001
 43
0.0000000001
 12
1.0
 22
0.0
 32
0.0
 13
1.0
 23
0.0
 33
0.0
 40
0.0
 40
0.0
 40
0.0
 40
0.0
 40
0.25
 40
0.25
 40
0.25
 40
0.25
 40
0.5
 40
0.5
 40
0.5
 40
0.5
 40
1.0
 40
1.0
 40
1.0
 40
1.0
 10
7.98518
 20
5.73385
 30
0.0
 10
7.98518
 20
5.73385
 30
0.0
 10
8.03569
 20
5.43075
 30
0.0
 10
8.03569
 20
5.43075
 30
0.0
 10
8.03569
 20
5.43075
 30
0.0
 10
8.03569
 20
5.43075
 30
0.0
 10
7.93466
 20
5.43075
 30
0.0
 10
7.93466
 20
5.43075
 30
0.0
 10
7.93466
 20
5.43075
 30
0.0
 10
7.93466
 20
5.43075
 30
0.0
 10
7.98518
 20
5.73385
 30
0.0
 10
7.98518
 20
5.73385
 30
0.0
  0
SPLINE
  5
EA
330
1F
100
AcDbEntity
  8
layer 2
370
    20
100
AcDbSpline
210
0.0
220
0.0
230
1.0
 70
    24
 71
     3
 72
     8
 73
     4
 74
     0
 42
0.0000000001
 43
0.0000000001
 12
1.0
 22
0.0
 32
0.0
 13
1.0
 23
0.0
 33
0.0
 40
0.0
 40
0.0
 40
0.0
 40
0.0
 40
1.0
 40
1.0
 40
1.0
 40
1.0
 10
7.93466
 20
5.43075
 30
0.0
 10
7.93466
 20
5.43075
 30
0.0
 10
7.98518
 20
5.73385
 30
0.0
 10
7.98518
 20
5.73385
 30
0.0
  0
SPLINE
  5
EB
330
1F
100
AcDbEntity
  8
layer 2
370
    20
100
AcDbSpline
210
0.0
220
0.0
230
1.0
 70
     8
 71
     3
 72
    12
 73
     8
 74
     0
 42
0.0000000001
 43
0.0000000001
 12
1.0
 22
0.0
 32
0.0
 13
1.0
 23
0.0
 33
0.0
 40
0.0
 40
0.0
 40
0.0
 40
0.0
 40
0.3333333333333333
 40
0.3333333333333333
 40
0.3333333333333333
 40
0.3333333333333333
 40
1.0
 40
1.0
 40
1.0
 40
1.0
 10
7.98518
 20
5.73385
 30
0.0
 10
7.98518
 20
5.73385
 30
0.0
 10
8.03569
 20
5.43075
 30
0.0
 10
8.03569
 20
5.43075
 30
0.0
 10
8.03569
 20
5.43075
 30
0.0
 10
8.03569
 20
5.43075
 30
0.0
 10
7.93466
 20
5.43075
 30
0.0
 10
7.93466
 20
5.43075
 30
0.0
  0
SPLINE
  5
EC
330
1F
100
AcDbEntity
  8
layer 2
370
     9
100
AcDbSpline
210
0.0
220
0.0
230
1.0
 70
    11
 71
     3
 72
    80
 73
    76
 74
     0
 42
0.0000000001
 43
0.0000000001
 12
1.0
 22
0.0
 32
0.0
 13
1.0
 23
0.0
 33
0.0
 40
0.0
 40
0.0
 40
0.0
 40
0.0
 40
0.05
 40
0.05
 40
0.05
 40
0.05
 40
0.1
 40
0.1
 40
0.1
 40
0.1
 40
0.15
 40
0.15
 40
0.15
 40
0.15
 40
0.2
 40
0.2
 40
0.2
 40
0.2
 40
0.25
 40
0.25
 40
0.25
 40
0.25
 40
0.3
 40
0.3
 40
0.3
 40
0.3
 40
0.35
 40
0.35
 40
0.35
 40
0.35
 40
0.4
 40
0.4
 40
0.4
 40
0.4
 40
0.45
 40
0.45
 40
0.45
 40
0.45
 40
0.5
 40
0.5
 40
0.5
 40
0.5
 40
0.55
 40
0.55
 40
0.55
 40
0.55
 40
0.6
 40
0.6
 40
0.6
 40
0.6
 40
0.65
 40
0.65
 40
0.65
 40
0.65
 40
0.7
 40
0.7
 40
0.7
 40
0.7
 40
0.75
 40
0.75
 40
0.75
 40
0.75
 40
0.8
 40
0.8
 40
0.8
 40
0.8
 40
0.85
 40
0.85
 40
0.85
 40
0.85
 40
0.9
 40
0.9
 40
0.9
 40
0.9
 40
1.0
 40
1.0
 40
1.0
 40
1.0
 10
7.62998
 20
4.98952
 30
0.0
 10
7.62998
 20
4.98952
 30
0.0
 10
7.6322
 20
4.96115
 30
0.0
 10
7.6322
 20
4.96115
 30
0.0
 10
7.6322
 20
4.96115
 30
0.0
 10
7.62099
 20
4.95861
 30
0.0
 10
7.61282
 20
4.95504
 30
0.0
 10
7.60779
 20
4.95038
 30
0.0
 10
7.60779
 20
4.95038
 30
0.0
 10
7.59961
 20
4.94264
 30
0.0
 10
7.59556
 20
4.93312
 30
0.0
 10
7.59556
 20
4.92181
 30
0.0
 10
7.59556
 20
4.92181
 30
0.0
 10
7.59556
 20
4.91271
 30
0.0
 10
7.5981
 20
4.90476
 30
0.0
 10
7.60319
 20
4.89788
 30
0.0
 10
7.60319
 20
4.89788
 30
0.0
 10
7.60974
 20
4.8889
 30
0.0
 10
7.61932
 20
4.88181
 30
0.0
 10
7.63187
 20
4.87661
 30
0.0
 10
7.63187
 20
4.87661
 30
0.0
 10
7.64443
 20
4.87147
 30
0.0
 10
7.66235
 20
4.86876
 30
0.0
 10
7.68562
 20
4.86855
 30
0.0
 10
7.68562
 20
4.86855
 30
0.0
 10
7.67517
 20
4.87542
 30
0.0
 10
7.66738
 20
4.88381
 30
0.0
 10
7.66229
 20
4.89377
 30
0.0
 10
7.66229
 20
4.89377
 30
0.0
 10
7.65726
 20
4.90367
 30
0.0
 10
7.65471
 20
4.91412
 30
0.0
 10
7.65471
 20
4.925
 30
0.0
 10
7.65471
 20
4.925
 30
0.0
 10
7.65471
 20
4.94405
 30
0.0
 10
7.6617
 20
4.96023
 30
0.0
 10
7.67571
 20
4.9736
 30
0.0
 10
7.67571
 20
4.9736
 30
0.0
 10
7.68973
 20
4.98697
 30
0.0
 10
7.70781
 20
4.99368
 30
0.0
 10
7.73
 20
4.99368
 30
0.0
 10
7.73
 20
4.99368
 30
0.0
 10
7.74462
 20
4.99368
 30
0.0
 10
7.75815
 20
4.99049
 30
0.0
 10
7.7707
 20
4.98421
 30
0.0
 10
7.7707
 20
4.98421
 30
0.0
 10
7.78321
 20
4.97793
 30
0.0
 10
7.79284
 20
4.96927
 30
0.0
 10
7.7995
 20
4.95829
 30
0.0
 10
7.7995
 20
4.95829
 30
0.0
 10
7.80616
 20
4.9473
 30
0.0
 10
7.80946
 20
4.93485
 30
0.0
 10
7.80946
 20
4.92089
 30
0.0
 10
7.80946
 20
4.92089
 30
0.0
 10
7.80946
 20
4.89707
 30
0.0
 10
7.80074
 20
4.87769
 30
0.0
 10
7.78321
 20
4.8627
 30
0.0
 10
7.78321
 20
4.8627
 30
0.0
 10
7.76573
 20
4.84765
 30
0.0
 10
7.73688
 20
4.84018
 30
0.0
 10
7.69672
 20
4.84018
 30
0.0
 10
7.69672
 20
4.84018
 30
0.0
 10
7.65179
 20
4.84018
 30
0.0
 10
7.61915
 20
4.84847
 30
0.0
 10
7.59875
 20
4.86508
 30
0.0
 10
7.59875
 20
4.86508
 30
0.0
 10
7.581
 20
4.87953
 30
0.0
 10
7.57206
 20
4.89902
 30
0.0
 10
7.57206
 20
4.92359
 30
0.0
 10
7.57206
 20
4.92359
 30
0.0
 10
7.57206
 20
4.94183
 30
0.0
 10
7.57721
 20
4.95682
 30
0.0
 10
7.58749
 20
4.96852
 30
0.0
 10
7.58749
 20
4.96852
 30
0.0
 10
7.59772
 20
4.98021
 30
0.0
 10
7.6119
 20
4.98719
 30
0.0
 10
7.62998
 20
4.98952
 30
0.0
  0
SPLINE
  5
ED
330
1F
100
AcDbEntity
  8
layer 2
370
     9
100
AcDbSpline
210
0.0
220
0.0
230
1.0
 70
    11
 71
     3
 72
    40
 73
    36
 74
     0
 42
0.0000000001
 43
0.0000000001
 12
1.0
 22
0.0
 32
0.0
 13
1.0
 23
0.0
 33
0.0
 40
0.0
 40
0.0
 40
0.0
 40
0.0
 40
0.1
 40
0.1
 40
0.1
 40
0.1
 40
0.2
 40
0.2
 40
0.2
 40
0.2
 40
0.3
 40
0.3
 40
0.3
 40
0.3
 40
0.4
 40
0.4
 40
0.4
 40
0.4
 40
0.5
 40
0.5
 40
0.5
 40
0.5
 40
0.6
 40
0.6
 40
0.6
 40
0.6
 40
0.7
 40
0.7
 40
0.7
 40
0.7
 40
0.8
 40
0.8
 40
0.8
 40
0.8
 40
1.0
 40
1.0
 40
1.0
 40
1.0
 10
7.73016
 20
4.87298
 30
0.0
 10
7.74002
 20
4.87298
 30
0.0
 10
7.74943
 20
4.87509
 30
0.0
 10
7.75842
 20
4.87926
 30
0.0
 10
7.75842
 20
4.87926
 30
0.0
 10
7.7674
 20
4.88343
 30
0.0
 10
7.77422
 20
4.88928
 30
0.0
 10
7.77893
 20
4.89675
 30
0.0
 10
7.77893
 20
4.89675
 30
0.0
 10
7.78364
 20
4.90427
 30
0.0
 10
7.78602
 20
4.91217
 30
0.0
 10
7.78602
 20
4.9204
 30
0.0
 10
7.78602
 20
4.9204
 30
0.0
 10
7.78602
 20
4.93247
 30
0.0
 10
7.78115
 20
4.94281
 30
0.0
 10
7.77141
 20
4.95147
 30
0.0
 10
7.77141
 20
4.95147
 30
0.0
 10
7.76167
 20
4.96013
 30
0.0
 10
7.74846
 20
4.96446
 30
0.0
 10
7.73179
 20
4.96446
 30
0.0
 10
7.73179
 20
4.96446
 30
0.0
 10
7.71571
 20
4.96446
 30
0.0
 10
7.70305
 20
4.96018
 30
0.0
 10
7.69379
 20
4.95163
 30
0.0
 10
7.69379
 20
4.95163
 30
0.0
 10
7.68454
 20
4.94308
 30
0.0
 10
7.67994
 20
4.93231
 30
0.0
 10
7.67994
 20
4.91932
 30
0.0
 10
7.67994
 20
4.91932
 30
0.0
 10
7.67994
 20
4.90638
 30
0.0
 10
7.68454
 20
4.89545
 30
0.0
 10
7.69379
 20
4.88646
 30
0.0
 10
7.69379
 20
4.88646
 30
0.0
 10
7.70305
 20
4.87748
 30
0.0
 10
7.71517
 20
4.87298
 30
0.0
 10
7.73016
 20
4.87298
 30
0.0
  0
SPLINE
  5
EE
330
1F
100
AcDbEntity
  8
layer 2
370
     9
100
AcDbSpline
210
0.0
220
0.0
230
1.0
 70
    11
 71
     3
 72
    48
 73
    44
 74
     0
 42
0.0000000001
 43
0.0000000001
 12
1.0
 22
0.0
 32
0.0
 13
1.0
 23
0.0
 33
0.0
 40
0.0
 40
0.0
 40
0.0
 40
0.0
 40
0.0833333333333333
 40
0.0833333333333333
 40
0.0833333333333333
 40
0.0833333333333333
 40
0.1666666666666667
 40
0.1666666666666667
 40
0.1666666666666667
 40
0.1666666666666667
 40
0.25
 40
0.25
 40
0.25
 40
0.25
 40
0.3333333333333333
 40
0.3333333333333333
 40
0.3333333333333333
 40
0.3333333333333333
 40
0.4166666666666667
 40
0.4166666666666667
 40
0.4166666666666667
 40
0.4166666666666667
 40
0.5
 40
0.5
 40
0.5
 40
0.5
 40
0.5833333333333334
 40
0.5833333333333334
 40
0.5833333333333334
 40
0.5833333333333334
 40
0.6666666666666666
 40
0.6666666666666666
 40
0.6666666666666666
 40
0.6666666666666666
 40
0.75
 40
0.75
 40
0.75
 40
0.75
 40
0.8333333333333334
 40
0.8333333333333334
 40
0.8333333333333334
 40
0.8333333333333334
 40
1.0
 40
1.0
 40
1.0
 40
1.0
 10
7.60351
 20
5.02394
 30
0.0
 10
7.60351
 20
5.02394
 30
0.0
 10
7.57607
 20
5.02394
 30
0.0
 10
7.57607
 20
5.02394
 30
0.0
 10
7.57607
 20
5.02394
 30
0.0
 10
7.57607
 20
5.02394
 30
0.0
 10
7.57607
 20
5.17441
 30
0.0
 10
7.57607
 20
5.17441
 30
0.0
 10
7.57607
 20
5.17441
 30
0.0
 10
7.57607
 20
5.17441
 30
0.0
 10
7.59826
 20
5.17441
 30
0.0
 10
7.59826
 20
5.17441
 30
0.0
 10
7.59826
 20
5.17441
 30
0.0
 10
7.61401
 20
5.15963
 30
0.0
 10
7.63496
 20
5.14496
 30
0.0
 10
7.66105
 20
5.1304
 30
0.0
 10
7.66105
 20
5.1304
 30
0.0
 10
7.68714
 20
5.1159
 30
0.0
 10
7.71404
 20
5.10464
 30
0.0
 10
7.74159
 20
5.09674
 30
0.0
 10
7.74159
 20
5.09674
 30
0.0
 10
7.76107
 20
5.091
 30
0.0
 10
7.78234
 20
5.08737
 30
0.0
 10
7.80551
 20
5.08581
 30
0.0
 10
7.80551
 20
5.08581
 30
0.0
 10
7.80551
 20
5.08581
 30
0.0
 10
7.80551
 20
5.05647
 30
0.0
 10
7.80551
 20
5.05647
 30
0.0
 10
7.80551
 20
5.05647
 30
0.0
 10
7.78721
 20
5.05679
 30
0.0
 10
7.76513
 20
5.06037
 30
0.0
 10
7.7392
 20
5.06724
 30
0.0
 10
7.7392
 20
5.06724
 30
0.0
 10
7.71333
 20
5.07411
 30
0.0
 10
7.68833
 20
5.08396
 30
0.0
 10
7.66429
 20
5.09679
 30
0.0
 10
7.66429
 20
5.09679
 30
0.0
 10
7.64026
 20
5.10967
 30
0.0
 10
7.61997
 20
5.12331
 30
0.0
 10
7.60351
 20
5.13782
 30
0.0
 10
7.60351
 20
5.13782
 30
0.0
 10
7.60351
 20
5.13782
 30
0.0
 10
7.60351
 20
5.02394
 30
0.0
 10
7.60351
 20
5.02394
 30
0.0
  0
SPLINE
  5
EF
330
1F
100
AcDbEntity
  8
layer 2
370
     5
100
AcDbSpline
210
0.0
220
0.0
230
1.0
 70
    27
 71
     3
 72
     8
 73
     4
 74
     0
 42
0.0000000001
 43
0.0000000001
 12
1.0
 22
0.0
 32
0.0
 13
1.0
 23
0.0
 33
0.0
 40
0.0
 40
0.0
 40
0.0
 40
0.0
 40
1.0
 40
1.0
 40
1.0
 40
1.0
 10
9.04037
 20
5.73385
 30
0.0
 10
9.04037
 20
5.73385
 30
0.0
 10
9.04037
 20
5.73385
 30
0.0
 10
9.04037
 20
5.73385
 30
0.0
  0
SPLINE
  5
F0
330
1F
100
AcDbEntity
  8
layer 2
370
     5
100
AcDbSpline
210
0.0
220
0.0
230
1.0
 70
    24
 71
     3
 72
     8
 73
     4
 74
     0
 42
0.0000000001
 43
0.0000000001
 12
1.0
 22
0.0
 32
0.0
 13
1.0
 23
0.0
 33
0.0
 40
0.0
 40
0.0
 40
0.0
 40
0.0
 40
1.0
 40
1.0
 40
1.0
 40
1.0
 10
7.33828
 20
5.73385
 30
0.0
 10
7.33828
 20
5.73385
 30
0.0
 10
9.04037
 20
5.73385
 30
0.0
 10
9.04037
 20
5.73385
 30
0.0
  0
SPLINE
  5
F1
330
1F
100
AcDbEntity
  8
layer 2
370
     5
100
AcDbSpline
210
0.0
220
0.0
230
1.0
 70
    24
 71
     3
 72
     8
 73
     4
 74
     0
 42
0.0000000001
 43
0.0000000001
 12
1.0
 22
0.0
 32
0.0
 13
1.0
 23
0.0
 33
0.0
 40
0.0
 40
0.0
 40
0.0
 40
0.0
 40
1.0
 40
1.0
 40
1.0
 40
1.0
 10
7.33828
 20
-5.58918
 30
0.0
 10
7.33828
 20
-5.58918
 30
0.0
 10
9.04037
 20
-5.58918
 30
0.0
 10
9.04037
 20
-5.58918
 30
0.0
  0
SPLINE
  5
F2
330
1F
100
AcDbEntity
  8
layer 2
370
     5
100
AcDbSpline
210
0.0
220
0.0
230
1.0
 70
    27
 71
     3
 72
     8
 73
     4
 74
     0
 42
0.0000000001
 43
0.0000000001
 12
1.0
 22
0.0
 32
0.0
 13
1.0
 23
0.0
 33
0.0
 40
0.0
 40
0.0
 40
0.0
 40
0.0
 40
1.0
 40
1.0
 40
1.0
 40
1.0
 10
9.01331
 20
5.43075
 30
0.0
 10
9.01331
 20
5.43075
 30
0.0
 10
9.01331
 20
5.43075
 30
0.0
 10
9.01331
 20
5.43075
 30
0.0
  0
SPLINE
  5
F3
330
1F
100
AcDbEntity
  8
layer 2
370
     5
100
AcDbSpline
210
0.0
220
0.0
230
1.0
 70
    24
 71
     3
 72
     8
 73
     4
 74
     0
 42
0.0000000001
 43
0.0000000001
 12
1.0
 22
0.0
 32
0.0
 13
1.0
 23
0.0
 33
0.0
 40
0.0
 40
0.0
 40
0.0
 40
0.0
 40
1.0
 40
1.0
 40
1.0
 40
1.0
 10
9.01331
 20
5.43075
 30
0.0
 10
9.01331
 20
5.43075
 30
0.0
 10
9.01331
 20
-5.28607
 30
0.0
 10
9.01331
 20
-5.28607
 30
0.0
  0
SPLINE
  5
F4
330
1F
100
AcDbEntity
  8
layer 2
370
     9
100
AcDbSpline
210
0.0
220
0.0
230
1.0
 70
    27
 71
     3
 72
    12
 73
     8
 74
     0
 42
0.0000000001
 43
0.0000000001
 12
1.0
 22
0.0
 32
0.0
 13
1.0
 23
0.0
 33
0.0
 40
0.0
 40
0.0
 40
0.0
 40
0.0
 40
0.3333333333333333
 40
0.3333333333333333
 40
0.3333333333333333
 40
0.3333333333333333
 40
1.0
 40
1.0
 40
1.0
 40
1.0
 10
8.96279
 20
5.43075
 30
0.0
 10
8.96279
 20
5.43075
 30
0.0
 10
9.01331
 20
5.73385
 30
0.0
 10
9.01331
 20
5.73385
 30
0.0
 10
9.01331
 20
5.73385
 30
0.0
 10
9.01331
 20
5.73385
 30
0.0
 10
8.96279
 20
5.43075
 30
0.0
 10
8.96279
 20
5.43075
 30
0.0
  0
SPLINE
  5
F5
330
1F
100
AcDbEntity
  8
layer 2
370
     9
100
AcDbSpline
210
0.0
220
0.0
230
1.0
 70
    11
 71
     3
 72
    16
 73
    12
 74
     0
 42
0.0000000001
 43
0.0000000001
 12
1.0
 22
0.0
 32
0.0
 13
1.0
 23
0.0
 33
0.0
 40
0.0
 40
0.0
 40
0.0
 40
0.0
 40
0.25
 40
0.25
 40
0.25
 40
0.25
 40
0.5
 40
0.5
 40
0.5
 40
0.5
 40
1.0
 40
1.0
 40
1.0
 40
1.0
 10
9.01331
 20
5.73385
 30
0.0
 10
9.01331
 20
5.73385
 30
0.0
 10
9.06382
 20
5.43075
 30
0.0
 10
9.06382
 20
5.43075
 30
0.0
 10
9.06382
 20
5.43075
 30
0.0
 10
9.06382
 20
5.43075
 30
0.0
 10
8.96279
 20
5.43075
 30
0.0
 10
8.96279
 20
5.43075
 30
0.0
 10
8.96279
 20
5.43075
 30
0.0
 10
8.96279
 20
5.43075
 30
0.0
 10
9.01331
 20
5.73385
 30
0.0
 10
9.01331
 20
5.73385
 30
0.0
  0
SPLINE
  5
F6
330
1F
100
AcDbEntity
  8
layer 2
370
    20
100
AcDbSpline
210
0.0
220
0.0
230
1.0
 70
    24
 71
     3
 72
     8
 73
     4
 74
     0
 42
0.0000000001
 43
0.0000000001
 12
1.0
 22
0.0
 32
0.0
 13
1.0
 23
0.0
 33
0.0
 40
0.0
 40
0.0
 40
0.0
 40
0.0
 40
1.0
 40
1.0
 40
1.0
 40
1.0
 10
8.96279
 20
5.43075
 30
0.0
 10
8.96279
 20
5.43075
 30
0.0
 10
9.01331
 20
5.73385
 30
0.0
 10
9.01331
 20
5.73385
 30
0.0
  0
SPLINE
  5
F7
330
1F
100
AcDbEntity
  8
layer 2
370
    20
100
AcDbSpline
210
0.0
220
0.0
230
1.0
 70
     8
 71
     3
 72
    12
 73
     8
 74
     0
 42
0.0000000001
 43
0.0000000001
 12
1.0
 22
0.0
 32
0.0
 13
1.0
 23
0.0
 33
0.0
 40
0.0
 40
0.0
 40
0.0
 40
0.0
 40
0.3333333333333333
 40
0.3333333333333333
 40
0.3333333333333333
 40
0.3333333333333333
 40
1.0
 40
1.0
 40
1.0
 40
1.0
 10
9.01331
 20
5.73385
 30
0.0
 10
9.01331
 20
5.73385
 30
0.0
 10
9.06382
 20
5.43075
 30
0.0
 10
9.06382
 20
5.43075
 30
0.0
 10
9.06382
 20
5.43075
 30
0.0
 10
9.06382
 20
5.43075
 30
0.0
 10
8.96279
 20
5.43075
 30
0.0
 10
8.96279
 20
5.43075
 30
0.0
  0
SPLINE
  5
F8
330
1F
100
AcDbEntity
  8
layer 2
370
     9
100
AcDbSpline
210
0.0
220
0.0
230
1.0
 70
    27
 71
     3
 72
    12
 73
     8
 74
     0
 42
0.0000000001
 43
0.0000000001
 12
1.0
 22
0.0
 32
0.0
 13
1.0
 23
0.0
 33
0.0
 40
0.0
 40
0.0
 40
0.0
 40
0.0
 40
0.3333333333333333
 40
0.3333333333333333
 40
0.3333333333333333
 40
0.3333333333333333
 40
1.0
 40
1.0
 40
1.0
 40
1.0
 10
8.96279
 20
-5.28607
 30
0.0
 10
8.96279
 20
-5.28607
 30
0.0
 10
9.01331
 20
-5.58918
 30
0.0
 10
9.01331
 20
-5.58918
 30
0.0
 10
9.01331
 20
-5.58918
 30
0.0
 10
9.01331
 20
-5.58918
 30
0.0
 10
8.96279
 20
-5.28607
 30
0.0
 10
8.96279
 20
-5.28607
 30
0.0
  0
SPLINE
  5
F9
330
1F
100
AcDbEntity
  8
layer 2
370
     9
100
AcDbSpline
210
0.0
220
0.0
230
1.0
 70
    11
 71
     3
 72
    16
 73
    12
 74
     0
 42
0.0000000001
 43
0.0000000001
 12
1.0
 22
0.0
 32
0.0
 13
1.0
 23
0.0
 33
0.0
 40
0.0
 40
0.0
 40
0.0
 40
0.0
 40
0.25
 40
0.25
 40
0.25
 40
0.25
 40
0.5
 40
0.5
 40
0.5
 40
0.5
 40
1.0
 40
1.0
 40
1.0
 40
1.0
 10
9.01331
 20
-5.58918
 30
0.0
 10
9.01331
 20
-5.58918
 30
0.0
 10
9.06382
 20
-5.28607
 30
0.0
 10
9.06382
 20
-5.28607
 30
0.0
 10
9.06382
 20
-5.28607
 30
0.0
 10
9.06382
 20
-5.28607
 30
0.0
 10
8.96279
 20
-5.28607
 30
0.0
 10
8.96279
 20
-5.28607
 30
0.0
 10
8.96279
 20
-5.28607
 30
0.0
 10
8.96279
 20
-5.28607
 30
0.0
 10
9.01331
 20
-5.58918
 30
0.0
 10
9.01331
 20
-5.58918
 30
0.0
  0
SPLINE
  5
FA
330
1F
100
AcDbEntity
  8
layer 2
370
    20
100
AcDbSpline
210
0.0
220
0.0
230
1.0
 70
    24
 71
     3
 72
     8
 73
     4
 74
     0
 42
0.0000000001
 43
0.0000000001
 12
1.0
 22
0.0
 32
0.0
 13
1.0
 23
0.0
 33
0.0
 40
0.0
 40
0.0
 40
0.0
 40
0.0
 40
1.0
 40
1.0
 40
1.0
 40
1.0
 10
8.96279
 20
-5.28607
 30
0.0
 10
8.96279
 20
-5.28607
 30
0.0
 10
9.01331
 20
-5.58918
 30
0.0
 10
9.01331
 20
-5.58918
 30
0.0
  0
SPLINE
  5
FB
330
1F
100
AcDbEntity
  8
layer 2
370
    20
100
AcDbSpline
210
0.0
220
0.0
230
1.0
 70
     8
 71
     3
 72
    12
 73
     8
 74
     0
 42
0.0000000001
 43
0.0000000001
 12
1.0
 22
0.0
 32
0.0
 13
1.0
 23
0.0
 33
0.0
 40
0.0
 40
0.0
 40
0.0
 40
0.0
 40
0.3333333333333333
 40
0.3333333333333333
 40
0.3333333333333333
 40
0.3333333333333333
 40
1.0
 40
1.0
 40
1.0
 40
1.0
 10
9.01331
 20
-5.58918
 30
0.0
 10
9.01331
 20
-5.58918
 30
0.0
 10
9.06382
 20
-5.28607
 30
0.0
 10
9.06382
 20
-5.28607
 30
0.0
 10
9.06382
 20
-5.28607
 30
0.0
 10
9.06382
 20
-5.28607
 30
0.0
 10
8.96279
 20
-5.28607
 30
0.0
 10
8.96279
 20
-5.28607
 30
0.0
  0
SPLINE
  5
FC
330
1F
100
AcDbEntity
  8
layer 2
370
     9
100
AcDbSpline
210
0.0
220
0.0
230
1.0
 70
    11
 71
     3
 72
    92
 73
    88
 74
     0
 42
0.0000000001
 43
0.0000000001
 12
1.0
 22
0.0
 32
0.0
 13
1.0
 23
0.0
 33
0.0
 40
0.0
 40
0.0
 40
0.0
 40
0.0
 40
0.0434782608695652
 40
0.0434782608695652
 40
0.0434782608695652
 40
0.0434782608695652
 40
0.0869565217391304
 40
0.0869565217391304
 40
0.0869565217391304
 40
0.0869565217391304
 40
0.1304347826086956
 40
0.1304347826086956
 40
0.1304347826086956
 40
0.1304347826086956
 40
0.1739130434782609
 40
0.1739130434782609
 40
0.1739130434782609
 40
0.1739130434782609
 40
0.2173913043478261
 40
0.2173913043478261
 40
0.2173913043478261
 40
0.2173913043478261
 40
0.2608695652173913
 40
0.2608695652173913
 40
0.2608695652173913
 40
0.2608695652173913
 40
0.3043478260869565
 40
0.3043478260869565
 40
0.3043478260869565
 40
0.3043478260869565
 40
0.3478260869565217
 40
0.3478260869565217
 40
0.3478260869565217
 40
0.3478260869565217
 40
0.391304347826087
 40
0.391304347826087
 40
0.391304347826087
 40
0.391304347826087
 40
0.4347826086956522
 40
0.4347826086956522
 40
0.4347826086956522
 40
0.4347826086956522
 40
0.4782608695652174
 40
0.4782608695652174
 40
0.4782608695652174
 40
0.4782608695652174
 40
0.5217391304347826
 40
0.5217391304347826
 40
0.5217391304347826
 40
0.5217391304347826
 40
0.5652173913043478
 40
0.5652173913043478
 40
0.5652173913043478
 40
0.5652173913043478
 40
0.6086956521739131
 40
0.6086956521739131
 40
0.6086956521739131
 40
0.6086956521739131
 40
0.6521739130434783
 40
0.6521739130434783
 40
0.6521739130434783
 40
0.6521739130434783
 40
0.6956521739130435
 40
0.6956521739130435
 40
0.6956521739130435
 40
0.6956521739130435
 40
0.7391304347826086
 40
0.7391304347826086
 40
0.7391304347826086
 40
0.7391304347826086
 40
0.782608695652174
 40
0.782608695652174
 40
0.782608695652174
 40
0.782608695652174
 40
0.8260869565217391
 40
0.8260869565217391
 40
0.8260869565217391
 40
0.8260869565217391
 40
0.8695652173913043
 40
0.8695652173913043
 40
0.8695652173913043
 40
0.8695652173913043
 40
0.9130434782608695
 40
0.9130434782608695
 40
0.9130434782608695
 40
0.9130434782608695
 40
1.0
 40
1.0
 40
1.0
 40
1.0
 10
8.77275
 20
-0.18511
 30
0.0
 10
8.77275
 20
-0.18511
 30
0.0
 10
8.77021
 20
-0.15513
 30
0.0
 10
8.77021
 20
-0.15513
 30
0.0
 10
8.77021
 20
-0.15513
 30
0.0
 10
8.78482
 20
-0.15291
 30
0.0
 10
8.79575
 20
-0.14776
 30
0.0
 10
8.80311
 20
-0.1397
 30
0.0
 10
8.80311
 20
-0.1397
 30
0.0
 10
8.81047
 20
-0.13158
 30
0.0
 10
8.81416
 20
-0.12184
 30
0.0
 10
8.81416
 20
-0.11042
 30
0.0
 10
8.81416
 20
-0.11042
 30
0.0
 10
8.81416
 20
-0.09667
 30
0.0
 10
8.80896
 20
-0.08503
 30
0.0
 10
8.79862
 20
-0.07556
 30
0.0
 10
8.79862
 20
-0.07556
 30
0.0
 10
8.78823
 20
-0.06604
 30
0.0
 10
8.77448
 20
-0.06127
 30
0.0
 10
8.75738
 20
-0.06127
 30
0.0
 10
8.75738
 20
-0.06127
 30
0.0
 10
8.74109
 20
-0.06127
 30
0.0
 10
8.72826
 20
-0.06582
 30
0.0
 10
8.71884
 20
-0.07497
 30
0.0
 10
8.71884
 20
-0.07497
 30
0.0
 10
8.70942
 20
-0.08411
 30
0.0
 10
8.70471
 20
-0.09607
 30
0.0
 10
8.70471
 20
-0.11091
 30
0.0
 10
8.70471
 20
-0.11091
 30
0.0
 10
8.70471
 20
-0.12011
 30
0.0
 10
8.70682
 20
-0.12839
 30
0.0
 10
8.71099
 20
-0.1358
 30
0.0
 10
8.71099
 20
-0.1358
 30
0.0
 10
8.71516
 20
-0.14322
 30
0.0
 10
8.72057
 20
-0.14901
 30
0.0
 10
8.72723
 20
-0.15323
 30
0.0
 10
8.72723
 20
-0.15323
 30
0.0
 10
8.72723
 20
-0.15323
 30
0.0
 10
8.72377
 20
-0.18002
 30
0.0
 10
8.72377
 20
-0.18002
 30
0.0
 10
8.72377
 20
-0.18002
 30
0.0
 10
8.72377
 20
-0.18002
 30
0.0
 10
8.60437
 20
-0.15751
 30
0.0
 10
8.60437
 20
-0.15751
 30
0.0
 10
8.60437
 20
-0.15751
 30
0.0
 10
8.60437
 20
-0.15751
 30
0.0
 10
8.60437
 20
-0.0419
 30
0.0
 10
8.60437
 20
-0.0419
 30
0.0
 10
8.60437
 20
-0.0419
 30
0.0
 10
8.60437
 20
-0.0419
 30
0.0
 10
8.63164
 20
-0.0419
 30
0.0
 10
8.63164
 20
-0.0419
 30
0.0
 10
8.63164
 20
-0.0419
 30
0.0
 10
8.63164
 20
-0.0419
 30
0.0
 10
8.63164
 20
-0.13467
 30
0.0
 10
8.63164
 20
-0.13467
 30
0.0
 10
8.63164
 20
-0.13467
 30
0.0
 10
8.63164
 20
-0.13467
 30
0.0
 10
8.6941
 20
-0.14722
 30
0.0
 10
8.6941
 20
-0.14722
 30
0.0
 10
8.6941
 20
-0.14722
 30
0.0
 10
8.68436
 20
-0.13326
 30
0.0
 10
8.67949
 20
-0.11859
 30
0.0
 10
8.67949
 20
-0.10327
 30
0.0
 10
8.67949
 20
-0.10327
 30
0.0
 10
8.67949
 20
-0.08298
 30
0.0
 10
8.68653
 20
-0.06587
 30
0.0
 10
8.7006
 20
-0.05191
 30
0.0
 10
8.7006
 20
-0.05191
 30
0.0
 10
8.71467
 20
-0.03794
 30
0.0
 10
8.73275
 20
-0.03096
 30
0.0
 10
8.75483
 20
-0.03096
 30
0.0
 10
8.75483
 20
-0.03096
 30
0.0
 10
8.77589
 20
-0.03096
 30
0.0
 10
8.79407
 20
-0.03713
 30
0.0
 10
8.80939
 20
-0.04936
 30
0.0
 10
8.80939
 20
-0.04936
 30
0.0
 10
8.82817
 20
-0.0643
 30
0.0
 10
8.83759
 20
-0.08465
 30
0.0
 10
8.83759
 20
-0.11042
 30
0.0
 10
8.83759
 20
-0.11042
 30
0.0
 10
8.83759
 20
-0.13158
 30
0.0
 10
8.83169
 20
-0.14885
 30
0.0
 10
8.81984
 20
-0.16222
 30
0.0
 10
8.81984
 20
-0.16222
 30
0.0
 10
8.80798
 20
-0.17558
 30
0.0
 10
8.79229
 20
-0.18322
 30
0.0
 10
8.77275
 20
-0.18511
 30
0.0
  0
SPLINE
  5
FD
330
1F
100
AcDbEntity
  8
layer 2
370
     9
100
AcDbSpline
210
0.0
220
0.0
230
1.0
 70
    11
 71
     3
 72
    92
 73
    88
 74
     0
 42
0.0000000001
 43
0.0000000001
 12
1.0
 22
0.0
 32
0.0
 13
1.0
 23
0.0
 33
0.0
 40
0.0
 40
0.0
 40
0.0
 40
0.0
 40
0.0434782608695652
 40
0.0434782608695652
 40
0.0434782608695652
 40
0.0434782608695652
 40
0.0869565217391304
 40
0.0869565217391304
 40
0.0869565217391304
 40
0.0869565217391304
 40
0.1304347826086956
 40
0.1304347826086956
 40
0.1304347826086956
 40
0.1304347826086956
 40
0.1739130434782609
 40
0.1739130434782609
 40
0.1739130434782609
 40
0.1739130434782609
 40
0.2173913043478261
 40
0.2173913043478261
 40
0.2173913043478261
 40
0.2173913043478261
 40
0.2608695652173913
 40
0.2608695652173913
 40
0.2608695652173913
 40
0.2608695652173913
 40
0.3043478260869565
 40
0.3043478260869565
 40
0.3043478260869565
 40
0.3043478260869565
 40
0.3478260869565217
 40
0.3478260869565217
 40
0.3478260869565217
 40
0.3478260869565217
 40
0.391304347826087
 40
0.391304347826087
 40
0.391304347826087
 40
0.391304347826087
 40
0.4347826086956522
 40
0.4347826086956522
 40
0.4347826086956522
 40
0.4347826086956522
 40
0.4782608695652174
 40
0.4782608695652174
 40
0.4782608695652174
 40
0.4782608695652174
 40
0.5217391304347826
 40
0.5217391304347826
 40
0.5217391304347826
 40
0.5217391304347826
 40
0.5652173913043478
 40
0.5652173913043478
 40
0.5652173913043478
 40
0.5652173913043478
 40
0.6086956521739131
 40
0.6086956521739131
 40
0.6086956521739131
 40
0.6086956521739131
 40
0.6521739130434783
 40
0.6521739130434783
 40
0.6521739130434783
 40
0.6521739130434783
 40
0.6956521739130435
 40
0.6956521739130435
 40
0.6956521739130435
 40
0.6956521739130435
 40
0.7391304347826086
 40
0.7391304347826086
 40
0.7391304347826086
 40
0.7391304347826086
 40
0.782608695652174
 40
0.782608695652174
 40
0.782608695652174
 40
0.782608695652174
 40
0.8260869565217391
 40
0.8260869565217391
 40
0.8260869565217391
 40
0.8260869565217391
 40
0.8695652173913043
 40
0.8695652173913043
 40
0.8695652173913043
 40
0.8695652173913043
 40
0.9130434782608695
 40
0.9130434782608695
 40
0.9130434782608695
 40
0.9130434782608695
 40
1.0
 40
1.0
 40
1.0
 40
1.0
 10
8.8062
 20
0.14554
 30
0.0
 10
8.8062
 20
0.14554
 30
0.0
 10
8.83364
 20
0.14554
 30
0.0
 10
8.83364
 20
0.14554
 30
0.0
 10
8.83364
 20
0.14554
 30
0.0
 10
8.83364
 20
0.14554
 30
0.0
 10
8.83364
 20
-0.00812
 30
0.0
 10
8.83364
 20
-0.00812
 30
0.0
 10
8.83364
 20
-0.00812
 30
0.0
 10
8.82677
 20
-0.00834
 30
0.0
 10
8.82016
 20
-0.00726
 30
0.0
 10
8.81383
 20
-0.00482
 30
0.0
 10
8.81383
 20
-0.00482
 30
0.0
 10
8.80333
 20
-0.00092
 30
0.0
 10
8.79305
 20
0.00536
 30
0.0
 10
8.78287
 20
0.01396
 30
0.0
 10
8.78287
 20
0.01396
 30
0.0
 10
8.77275
 20
0.02262
 30
0.0
 10
8.761
 20
0.03507
 30
0.0
 10
8.74769
 20
0.05131
 30
0.0
 10
8.74769
 20
0.05131
 30
0.0
 10
8.72696
 20
0.07659
 30
0.0
 10
8.71056
 20
0.09369
 30
0.0
 10
8.69844
 20
0.10257
 30
0.0
 10
8.69844
 20
0.10257
 30
0.0
 10
8.68637
 20
0.11144
 30
0.0
 10
8.67489
 20
0.11588
 30
0.0
 10
8.66412
 20
0.11588
 30
0.0
 10
8.66412
 20
0.11588
 30
0.0
 10
8.65281
 20
0.11588
 30
0.0
 10
8.64328
 20
0.11182
 30
0.0
 10
8.63549
 20
0.10376
 30
0.0
 10
8.63549
 20
0.10376
 30
0.0
 10
8.62775
 20
0.09564
 30
0.0
 10
8.62385
 20
0.08508
 30
0.0
 10
8.62385
 20
0.07209
 30
0.0
 10
8.62385
 20
0.07209
 30
0.0
 10
8.62385
 20
0.05834
 30
0.0
 10
8.62796
 20
0.04736
 30
0.0
 10
8.63624
 20
0.03913
 30
0.0
 10
8.63624
 20
0.03913
 30
0.0
 10
8.64447
 20
0.03085
 30
0.0
 10
8.65589
 20
0.02668
 30
0.0
 10
8.67045
 20
0.02657
 30
0.0
 10
8.67045
 20
0.02657
 30
0.0
 10
8.67045
 20
0.02657
 30
0.0
 10
8.66748
 20
-0.00276
 30
0.0
 10
8.66748
 20
-0.00276
 30
0.0
 10
8.66748
 20
-0.00276
 30
0.0
 10
8.64555
 20
-0.00076
 30
0.0
 10
8.62888
 20
0.00682
 30
0.0
 10
8.61741
 20
0.01992
 30
0.0
 10
8.61741
 20
0.01992
 30
0.0
 10
8.60593
 20
0.03301
 30
0.0
 10
8.6002
 20
0.05066
 30
0.0
 10
8.6002
 20
0.07274
 30
0.0
 10
8.6002
 20
0.07274
 30
0.0
 10
8.6002
 20
0.09504
 30
0.0
 10
8.60642
 20
0.11269
 30
0.0
 10
8.61876
 20
0.12568
 30
0.0
 10
8.61876
 20
0.12568
 30
0.0
 10
8.63116
 20
0.13872
 30
0.0
 10
8.64647
 20
0.14522
 30
0.0
 10
8.66477
 20
0.14522
 30
0.0
 10
8.66477
 20
0.14522
 30
0.0
 10
8.67408
 20
0.14522
 30
0.0
 10
8.68323
 20
0.14332
 30
0.0
 10
8.69221
 20
0.13948
 30
0.0
 10
8.69221
 20
0.13948
 30
0.0
 10
8.7012
 20
0.13569
 30
0.0
 10
8.71067
 20
0.12936
 30
0.0
 10
8.72057
 20
0.12053
 30
0.0
 10
8.72057
 20
0.12053
 30
0.0
 10
8.73053
 20
0.11171
 30
0.0
 10
8.74417
 20
0.09704
 30
0.0
 10
8.76149
 20
0.07653
 30
0.0
 10
8.76149
 20
0.07653
 30
0.0
 10
8.77589
 20
0.05943
 30
0.0
 10
8.78563
 20
0.04844
 30
0.0
 10
8.79077
 20
0.04357
 30
0.0
 10
8.79077
 20
0.04357
 30
0.0
 10
8.79586
 20
0.0387
 30
0.0
 10
8.801
 20
0.03469
 30
0.0
 10
8.8062
 20
0.0315
 30
0.0
 10
8.8062
 20
0.0315
 30
0.0
 10
8.8062
 20
0.0315
 30
0.0
 10
8.8062
 20
0.14554
 30
0.0
 10
8.8062
 20
0.14554
 30
0.0
  0
SPLINE
  5
FE
330
1F
100
AcDbEntity
  8
layer 2
370
     9
100
AcDbSpline
210
0.0
220
0.0
230
1.0
 70
    11
 71
     3
 72
   124
 73
   120
 74
     0
 42
0.0000000001
 43
0.0000000001
 12
1.0
 22
0.0
 32
0.0
 13
1.0
 23
0.0
 33
0.0
 40
0.0
 40
0.0
 40
0.0
 40
0.0
 40
0.032258064516129
 40
0.032258064516129
 40
0.032258064516129
 40
0.032258064516129
 40
0.0645161290322581
 40
0.0645161290322581
 40
0.0645161290322581
 40
0.0645161290322581
 40
0.0967741935483871
 40
0.0967741935483871
 40
0.0967741935483871
 40
0.0967741935483871
 40
0.1290322580645161
 40
0.1290322580645161
 40
0.1290322580645161
 40
0.1290322580645161
 40
0.1612903225806452
 40
0.1612903225806452
 40
0.1612903225806452
 40
0.1612903225806452
 40
0.1935483870967742
 40
0.1935483870967742
 40
0.1935483870967742
 40
0.1935483870967742
 40
0.2258064516129032
 40
0.2258064516129032
 40
0.2258064516129032
 40
0.2258064516129032
 40
0.2580645161290323
 40
0.2580645161290323
 40
0.2580645161290323
 40
0.2580645161290323
 40
0.2903225806451613
 40
0.2903225806451613
 40
0.2903225806451613
 40
0.2903225806451613
 40
0.3225806451612903
 40
0.3225806451612903
 40
0.3225806451612903
 40
0.3225806451612903
 40
0.3548387096774194
 40
0.3548387096774194
 40
0.3548387096774194
 40
0.3548387096774194
 40
0.3870967741935484
 40
0.3870967741935484
 40
0.3870967741935484
 40
0.3870967741935484
 40
0.4193548387096774
 40
0.4193548387096774
 40
0.4193548387096774
 40
0.4193548387096774
 40
0.4516129032258064
 40
0.4516129032258064
 40
0.4516129032258064
 40
0.4516129032258064
 40
0.4838709677419355
 40
0.4838709677419355
 40
0.4838709677419355
 40
0.4838709677419355
 40
0.5161290322580645
 40
0.5161290322580645
 40
0.5161290322580645
 40
0.5161290322580645
 40
0.5483870967741935
 40
0.5483870967741935
 40
0.5483870967741935
 40
0.5483870967741935
 40
0.5806451612903226
 40
0.5806451612903226
 40
0.5806451612903226
 40
0.5806451612903226
 40
0.6129032258064516
 40
0.6129032258064516
 40
0.6129032258064516
 40
0.6129032258064516
 40
0.6451612903225806
 40
0.6451612903225806
 40
0.6451612903225806
 40
0.6451612903225806
 40
0.6774193548387096
 40
0.6774193548387096
 40
0.6774193548387096
 40
0.6774193548387096
 40
0.7096774193548387
 40
0.7096774193548387
 40
0.7096774193548387
 40
0.7096774193548387
 40
0.7419354838709677
 40
0.7419354838709677
 40
0.7419354838709677
 40
0.7419354838709677
 40
0.7741935483870968
 40
0.7741935483870968
 40
0.7741935483870968
 40
0.7741935483870968
 40
0.8064516129032258
 40
0.8064516129032258
 40
0.8064516129032258
 40
0.8064516129032258
 40
0.8387096774193549
 40
0.8387096774193549
 40
0.8387096774193549
 40
0.8387096774193549
 40
0.8709677419354839
 40
0.8709677419354839
 40
0.8709677419354839
 40
0.8709677419354839
 40
0.9032258064516129
 40
0.9032258064516129
 40
0.9032258064516129
 40
0.9032258064516129
 40
0.9354838709677419
 40
0.9354838709677419
 40
0.9354838709677419
 40
0.9354838709677419
 40
1.0
 40
1.0
 40
1.0
 40
1.0
 10
8.77226
 20
0.17628
 30
0.0
 10
8.77226
 20
0.17628
 30
0.0
 10
8.76847
 20
0.20481
 30
0.0
 10
8.76847
 20
0.20481
 30
0.0
 10
8.76847
 20
0.20481
 30
0.0
 10
8.78466
 20
0.20811
 30
0.0
 10
8.79629
 20
0.21368
 30
0.0
 10
8.80344
 20
0.22153
 30
0.0
 10
8.80344
 20
0.22153
 30
0.0
 10
8.81058
 20
0.22944
 30
0.0
 10
8.81416
 20
0.23902
 30
0.0
 10
8.81416
 20
0.25033
 30
0.0
 10
8.81416
 20
0.25033
 30
0.0
 10
8.81416
 20
0.26375
 30
0.0
 10
8.8095
 20
0.27512
 30
0.0
 10
8.80019
 20
0.28437
 30
0.0
 10
8.80019
 20
0.28437
 30
0.0
 10
8.79088
 20
0.29357
 30
0.0
 10
8.77935
 20
0.29823
 30
0.0
 10
8.7656
 20
0.29823
 30
0.0
 10
8.7656
 20
0.29823
 30
0.0
 10
8.75251
 20
0.29823
 30
0.0
 10
8.74168
 20
0.29395
 30
0.0
 10
8.73318
 20
0.2854
 30
0.0
 10
8.73318
 20
0.2854
 30
0.0
 10
8.72469
 20
0.27679
 30
0.0
 10
8.72041
 20
0.26592
 30
0.0
 10
8.72041
 20
0.25271
 30
0.0
 10
8.72041
 20
0.25271
 30
0.0
 10
8.72041
 20
0.2473
 30
0.0
 10
8.72149
 20
0.24059
 30
0.0
 10
8.7236
 20
0.23257
 30
0.0
 10
8.7236
 20
0.23257
 30
0.0
 10
8.7236
 20
0.23257
 30
0.0
 10
8.69854
 20
0.23577
 30
0.0
 10
8.69854
 20
0.23577
 30
0.0
 10
8.69854
 20
0.23577
 30
0.0
 10
8.69876
 20
0.23766
 30
0.0
 10
8.69887
 20
0.23918
 30
0.0
 10
8.69887
 20
0.24037
 30
0.0
 10
8.69887
 20
0.24037
 30
0.0
 10
8.69887
 20
0.25249
 30
0.0
 10
8.69567
 20
0.26343
 30
0.0
 10
8.68934
 20
0.27317
 30
0.0
 10
8.68934
 20
0.27317
 30
0.0
 10
8.68301
 20
0.28291
 30
0.0
 10
8.67321
 20
0.28778
 30
0.0
 10
8.66001
 20
0.28778
 30
0.0
 10
8.66001
 20
0.28778
 30
0.0
 10
8.64956
 20
0.28778
 30
0.0
 10
8.64085
 20
0.28421
 30
0.0
 10
8.63403
 20
0.27712
 30
0.0
 10
8.63403
 20
0.27712
 30
0.0
 10
8.62715
 20
0.27003
 30
0.0
 10
8.62369
 20
0.26088
 30
0.0
 10
8.62369
 20
0.24968
 30
0.0
 10
8.62369
 20
0.24968
 30
0.0
 10
8.62369
 20
0.23858
 30
0.0
 10
8.62721
 20
0.22933
 30
0.0
 10
8.63413
 20
0.22197
 30
0.0
 10
8.63413
 20
0.22197
 30
0.0
 10
8.64112
 20
0.21455
 30
0.0
 10
8.65162
 20
0.20979
 30
0.0
 10
8.66558
 20
0.20768
 30
0.0
 10
8.66558
 20
0.20768
 30
0.0
 10
8.66558
 20
0.20768
 30
0.0
 10
8.66049
 20
0.17915
 30
0.0
 10
8.66049
 20
0.17915
 30
0.0
 10
8.66049
 20
0.17915
 30
0.0
 10
8.64133
 20
0.18262
 30
0.0
 10
8.6265
 20
0.19057
 30
0.0
 10
8.616
 20
0.20291
 30
0.0
 10
8.616
 20
0.20291
 30
0.0
 10
8.6055
 20
0.21531
 30
0.0
 10
8.6002
 20
0.23068
 30
0.0
 10
8.6002
 20
0.24908
 30
0.0
 10
8.6002
 20
0.24908
 30
0.0
 10
8.6002
 20
0.26175
 30
0.0
 10
8.60296
 20
0.27344
 30
0.0
 10
8.60837
 20
0.2841
 30
0.0
 10
8.60837
 20
0.2841
 30
0.0
 10
8.61384
 20
0.29476
 30
0.0
 10
8.62125
 20
0.30294
 30
0.0
 10
8.63067
 20
0.30862
 30
0.0
 10
8.63067
 20
0.30862
 30
0.0
 10
8.64009
 20
0.31425
 30
0.0
 10
8.65005
 20
0.31712
 30
0.0
 10
8.66066
 20
0.31712
 30
0.0
 10
8.66066
 20
0.31712
 30
0.0
 10
8.67067
 20
0.31712
 30
0.0
 10
8.67982
 20
0.31441
 30
0.0
 10
8.6881
 20
0.309
 30
0.0
 10
8.6881
 20
0.309
 30
0.0
 10
8.69632
 20
0.30359
 30
0.0
 10
8.70287
 20
0.29563
 30
0.0
 10
8.70774
 20
0.28508
 30
0.0
 10
8.70774
 20
0.28508
 30
0.0
 10
8.71088
 20
0.29882
 30
0.0
 10
8.71749
 20
0.30949
 30
0.0
 10
8.7275
 20
0.31712
 30
0.0
 10
8.7275
 20
0.31712
 30
0.0
 10
8.73746
 20
0.3247
 30
0.0
 10
8.74996
 20
0.32848
 30
0.0
 10
8.76496
 20
0.32848
 30
0.0
 10
8.76496
 20
0.32848
 30
0.0
 10
8.78525
 20
0.32848
 30
0.0
 10
8.80246
 20
0.32112
 30
0.0
 10
8.81659
 20
0.30629
 30
0.0
 10
8.81659
 20
0.30629
 30
0.0
 10
8.83072
 20
0.29152
 30
0.0
 10
8.83775
 20
0.27279
 30
0.0
 10
8.83775
 20
0.25017
 30
0.0
 10
8.83775
 20
0.25017
 30
0.0
 10
8.83775
 20
0.22976
 30
0.0
 10
8.83169
 20
0.21282
 30
0.0
 10
8.81951
 20
0.19934
 30
0.0
 10
8.81951
 20
0.19934
 30
0.0
 10
8.80739
 20
0.18586
 30
0.0
 10
8.79164
 20
0.17818
 30
0.0
 10
8.77226
 20
0.17628
 30
0.0
  0
SPLINE
  5
FF
330
1F
100
AcDbEntity
  8
layer 2
370
     5
100
AcDbSpline
210
0.0
220
0.0
230
1.0
 70
    24
 71
     3
 72
     8
 73
     4
 74
     0
 42
0.0000000001
 43
0.0000000001
 12
1.0
 22
0.0
 32
0.0
 13
1.0
 23
0.0
 33
0.0
 40
0.0
 40
0.0
 40
0.0
 40
0.0
 40
1.0
 40
1.0
 40
1.0
 40
1.0
 10
-3.73032
 20
-2.97219
 30
0.0
 10
-3.73032
 20
-2.97219
 30
0.0
 10
-5.35121
 20
-4.5968
 30
0.0
 10
-5.35121
 20
-4.5968
 30
0.0
  0
SPLINE
  5
100
330
1F
100
AcDbEntity
  8
layer 2
370
     9
100
AcDbSpline
210
0.0
220
0.0
230
1.0
 70
    11
 71
     3
 72
    92
 73
    88
 74
     0
 42
0.0000000001
 43
0.0000000001
 12
1.0
 22
0.0
 32
0.0
 13
1.0
 23
0.0
 33
0.0
 40
0.0
 40
0.0
 40
0.0
 40
0.0
 40
0.0434782608695652
 40
0.0434782608695652
 40
0.0434782608695652
 40
0.0434782608695652
 40
0.0869565217391304
 40
0.0869565217391304
 40
0.0869565217391304
 40
0.0869565217391304
 40
0.1304347826086956
 40
0.1304347826086956
 40
0.1304347826086956
 40
0.1304347826086956
 40
0.1739130434782609
 40
0.1739130434782609
 40
0.1739130434782609
 40
0.1739130434782609
 40
0.2173913043478261
 40
0.2173913043478261
 40
0.2173913043478261
 40
0.2173913043478261
 40
0.2608695652173913
 40
0.2608695652173913
 40
0.2608695652173913
 40
0.2608695652173913
 40
0.3043478260869565
 40
0.3043478260869565
 40
0.3043478260869565
 40
0.3043478260869565
 40
0.3478260869565217
 40
0.3478260869565217
 40
0.3478260869565217
 40
0.3478260869565217
 40
0.391304347826087
 40
0.391304347826087
 40
0.391304347826087
 40
0.391304347826087
 40
0.4347826086956522
 40
0.4347826086956522
 40
0.4347826086956522
 40
0.4347826086956522
 40
0.4782608695652174
 40
0.4782608695652174
 40
0.4782608695652174
 40
0.4782608695652174
 40
0.5217391304347826
 40
0.5217391304347826
 40
0.5217391304347826
 40
0.5217391304347826
 40
0.5652173913043478
 40
0.5652173913043478
 40
0.5652173913043478
 40
0.5652173913043478
 40
0.6086956521739131
 40
0.6086956521739131
 40
0.6086956521739131
 40
0.6086956521739131
 40
0.6521739130434783
 40
0.6521739130434783
 40
0.6521739130434783
 40
0.6521739130434783
 40
0.6956521739130435
 40
0.6956521739130435
 40
0.6956521739130435
 40
0.6956521739130435
 40
0.7391304347826086
 40
0.7391304347826086
 40
0.7391304347826086
 40
0.7391304347826086
 40
0.782608695652174
 40
0.782608695652174
 40
0.782608695652174
 40
0.782608695652174
 40
0.8260869565217391
 40
0.8260869565217391
 40
0.8260869565217391
 40
0.8260869565217391
 40
0.8695652173913043
 40
0.8695652173913043
 40
0.8695652173913043
 40
0.8695652173913043
 40
0.9130434782608695
 40
0.9130434782608695
 40
0.9130434782608695
 40
0.9130434782608695
 40
1.0
 40
1.0
 40
1.0
 40
1.0
 10
-4.841
 20
-3.79219
 30
0.0
 10
-4.841
 20
-3.79219
 30
0.0
 10
-4.82158
 20
-3.81157
 30
0.0
 10
-4.82158
 20
-3.81157
 30
0.0
 10
-4.82158
 20
-3.81157
 30
0.0
 10
-4.82158
 20
-3.81157
 30
0.0
 10
-4.93011
 20
-3.92035
 30
0.0
 10
-4.93011
 20
-3.92035
 30
0.0
 10
-4.93011
 20
-3.92035
 30
0.0
 10
-4.93513
 20
-3.91565
 30
0.0
 10
-4.93903
 20
-3.91022
 30
0.0
 10
-4.94179
 20
-3.90402
 30
0.0
 10
-4.94179
 20
-3.90402
 30
0.0
 10
-4.94648
 20
-3.89384
 30
0.0
 10
-4.94933
 20
-3.88214
 30
0.0
 10
-4.95045
 20
-3.86886
 30
0.0
 10
-4.95045
 20
-3.86886
 30
0.0
 10
-4.9515
 20
-3.85558
 30
0.0
 10
-4.95102
 20
-3.83847
 30
0.0
 10
-4.94898
 20
-3.81757
 30
0.0
 10
-4.94898
 20
-3.81757
 30
0.0
 10
-4.9458
 20
-3.78503
 30
0.0
 10
-4.94533
 20
-3.76134
 30
0.0
 10
-4.94765
 20
-3.7465
 30
0.0
 10
-4.94765
 20
-3.7465
 30
0.0
 10
-4.94992
 20
-3.73169
 30
0.0
 10
-4.95491
 20
-3.72044
 30
0.0
 10
-4.96253
 20
-3.71283
 30
0.0
 10
-4.96253
 20
-3.71283
 30
0.0
 10
-4.97054
 20
-3.70484
 30
0.0
 10
-4.98015
 20
-3.70099
 30
0.0
 10
-4.99137
 20
-3.70119
 30
0.0
 10
-4.99137
 20
-3.70119
 30
0.0
 10
-5.00258
 20
-3.70148
 30
0.0
 10
-5.01279
 20
-3.70619
 30
0.0
 10
-5.02197
 20
-3.71539
 30
0.0
 10
-5.02197
 20
-3.71539
 30
0.0
 10
-5.03168
 20
-3.72512
 30
0.0
 10
-5.03653
 20
-3.73581
 30
0.0
 10
-5.03646
 20
-3.74748
 30
0.0
 10
-5.03646
 20
-3.74748
 30
0.0
 10
-5.0365
 20
-3.75915
 30
0.0
 10
-5.03136
 20
-3.77017
 30
0.0
 10
-5.02113
 20
-3.78053
 30
0.0
 10
-5.02113
 20
-3.78053
 30
0.0
 10
-5.02113
 20
-3.78053
 30
0.0
 10
-5.04395
 20
-3.79919
 30
0.0
 10
-5.04395
 20
-3.79919
 30
0.0
 10
-5.04395
 20
-3.79919
 30
0.0
 10
-5.05806
 20
-3.78229
 30
0.0
 10
-5.0645
 20
-3.76515
 30
0.0
 10
-5.06338
 20
-3.74778
 30
0.0
 10
-5.06338
 20
-3.74778
 30
0.0
 10
-5.06225
 20
-3.7304
 30
0.0
 10
-5.05385
 20
-3.71386
 30
0.0
 10
-5.03825
 20
-3.69822
 30
0.0
 10
-5.03825
 20
-3.69822
 30
0.0
 10
-5.0225
 20
-3.68244
 30
0.0
 10
-5.00563
 20
-3.67434
 30
0.0
 10
-4.98772
 20
-3.67386
 30
0.0
 10
-4.98772
 20
-3.67386
 30
0.0
 10
-4.96974
 20
-3.67338
 30
0.0
 10
-4.95431
 20
-3.6796
 30
0.0
 10
-4.94135
 20
-3.69253
 30
0.0
 10
-4.94135
 20
-3.69253
 30
0.0
 10
-4.93476
 20
-3.6991
 30
0.0
 10
-4.92963
 20
-3.7069
 30
0.0
 10
-4.92598
 20
-3.71597
 30
0.0
 10
-4.92598
 20
-3.71597
 30
0.0
 10
-4.9223
 20
-3.725
 30
0.0
 10
-4.92006
 20
-3.73617
 30
0.0
 10
-4.91928
 20
-3.74941
 30
0.0
 10
-4.91928
 20
-3.74941
 30
0.0
 10
-4.91846
 20
-3.76269
 30
0.0
 10
-4.91917
 20
-3.78271
 30
0.0
 10
-4.92139
 20
-3.80946
 30
0.0
 10
-4.92139
 20
-3.80946
 30
0.0
 10
-4.92328
 20
-3.83174
 30
0.0
 10
-4.92415
 20
-3.8464
 30
0.0
 10
-4.92394
 20
-3.85348
 30
0.0
 10
-4.92394
 20
-3.85348
 30
0.0
 10
-4.92379
 20
-3.86052
 30
0.0
 10
-4.92297
 20
-3.86699
 30
0.0
 10
-4.92155
 20
-3.87292
 30
0.0
 10
-4.92155
 20
-3.87292
 30
0.0
 10
-4.92155
 20
-3.87292
 30
0.0
 10
-4.841
 20
-3.79219
 30
0.0
 10
-4.841
 20
-3.79219
 30
0.0
  0
SPLINE
  5
101
330
1F
100
AcDbEntity
  8
layer 2
370
     9
100
AcDbSpline
210
0.0
220
0.0
230
1.0
 70
    11
 71
     3
 72
    20
 73
    16
 74
     0
 42
0.0000000001
 43
0.0000000001
 12
1.0
 22
0.0
 32
0.0
 13
1.0
 23
0.0
 33
0.0
 40
0.0
 40
0.0
 40
0.0
 40
0.0
 40
0.2
 40
0.2
 40
0.2
 40
0.2
 40
0.4
 40
0.4
 40
0.4
 40
0.4
 40
0.6
 40
0.6
 40
0.6
 40
0.6
 40
1.0
 40
1.0
 40
1.0
 40
1.0
 10
-4.85162
 20
-3.7429
 30
0.0
 10
-4.85162
 20
-3.7429
 30
0.0
 10
-4.87193
 20
-3.72264
 30
0.0
 10
-4.87193
 20
-3.72264
 30
0.0
 10
-4.87193
 20
-3.72264
 30
0.0
 10
-4.87193
 20
-3.72264
 30
0.0
 10
-4.80996
 20
-3.66053
 30
0.0
 10
-4.80996
 20
-3.66053
 30
0.0
 10
-4.80996
 20
-3.66053
 30
0.0
 10
-4.80996
 20
-3.66053
 30
0.0
 10
-4.78965
 20
-3.68079
 30
0.0
 10
-4.78965
 20
-3.68079
 30
0.0
 10
-4.78965
 20
-3.68079
 30
0.0
 10
-4.78965
 20
-3.68079
 30
0.0
 10
-4.85162
 20
-3.7429
 30
0.0
 10
-4.85162
 20
-3.7429
 30
0.0
  0
SPLINE
  5
102
330
1F
100
AcDbEntity
  8
layer 2
370
     9
100
AcDbSpline
210
0.0
220
0.0
230
1.0
 70
    11
 71
     3
 72
    80
 73
    76
 74
     0
 42
0.0000000001
 43
0.0000000001
 12
1.0
 22
0.0
 32
0.0
 13
1.0
 23
0.0
 33
0.0
 40
0.0
 40
0.0
 40
0.0
 40
0.0
 40
0.05
 40
0.05
 40
0.05
 40
0.05
 40
0.1
 40
0.1
 40
0.1
 40
0.1
 40
0.15
 40
0.15
 40
0.15
 40
0.15
 40
0.2
 40
0.2
 40
0.2
 40
0.2
 40
0.25
 40
0.25
 40
0.25
 40
0.25
 40
0.3
 40
0.3
 40
0.3
 40
0.3
 40
0.35
 40
0.35
 40
0.35
 40
0.35
 40
0.4
 40
0.4
 40
0.4
 40
0.4
 40
0.45
 40
0.45
 40
0.45
 40
0.45
 40
0.5
 40
0.5
 40
0.5
 40
0.5
 40
0.55
 40
0.55
 40
0.55
 40
0.55
 40
0.6
 40
0.6
 40
0.6
 40
0.6
 40
0.65
 40
0.65
 40
0.65
 40
0.65
 40
0.7
 40
0.7
 40
0.7
 40
0.7
 40
0.75
 40
0.75
 40
0.75
 40
0.75
 40
0.8
 40
0.8
 40
0.8
 40
0.8
 40
0.85
 40
0.85
 40
0.85
 40
0.85
 40
0.9
 40
0.9
 40
0.9
 40
0.9
 40
1.0
 40
1.0
 40
1.0
 40
1.0
 10
-4.71507
 20
-3.70482
 30
0.0
 10
-4.71507
 20
-3.70482
 30
0.0
 10
-4.87964
 20
-3.54063
 30
0.0
 10
-4.87964
 20
-3.54063
 30
0.0
 10
-4.87964
 20
-3.54063
 30
0.0
 10
-4.87964
 20
-3.54063
 30
0.0
 10
-4.80685
 20
-3.46767
 30
0.0
 10
-4.80685
 20
-3.46767
 30
0.0
 10
-4.80685
 20
-3.46767
 30
0.0
 10
-4.79221
 20
-3.453
 30
0.0
 10
-4.77959
 20
-3.44334
 30
0.0
 10
-4.76904
 20
-3.43866
 30
0.0
 10
-4.76904
 20
-3.43866
 30
0.0
 10
-4.75848
 20
-3.43398
 30
0.0
 10
-4.74719
 20
-3.43308
 30
0.0
 10
-4.73513
 20
-3.43594
 30
0.0
 10
-4.73513
 20
-3.43594
 30
0.0
 10
-4.72307
 20
-3.43887
 30
0.0
 10
-4.71254
 20
-3.44487
 30
0.0
 10
-4.7035
 20
-3.45389
 30
0.0
 10
-4.7035
 20
-3.45389
 30
0.0
 10
-4.69181
 20
-3.46555
 30
0.0
 10
-4.68575
 20
-3.47909
 30
0.0
 10
-4.68531
 20
-3.49467
 30
0.0
 10
-4.68531
 20
-3.49467
 30
0.0
 10
-4.68483
 20
-3.51021
 30
0.0
 10
-4.69139
 20
-3.52698
 30
0.0
 10
-4.70496
 20
-3.54494
 30
0.0
 10
-4.70496
 20
-3.54494
 30
0.0
 10
-4.69643
 20
-3.54191
 30
0.0
 10
-4.68935
 20
-3.54026
 30
0.0
 10
-4.68365
 20
-3.53998
 30
0.0
 10
-4.68365
 20
-3.53998
 30
0.0
 10
-4.67148
 20
-3.53943
 30
0.0
 10
-4.65816
 20
-3.54072
 30
0.0
 10
-4.64373
 20
-3.54372
 30
0.0
 10
-4.64373
 20
-3.54372
 30
0.0
 10
-4.64373
 20
-3.54372
 30
0.0
 10
-4.57038
 20
-3.55979
 30
0.0
 10
-4.57038
 20
-3.55979
 30
0.0
 10
-4.57038
 20
-3.55979
 30
0.0
 10
-4.57038
 20
-3.55979
 30
0.0
 10
-4.59771
 20
-3.58719
 30
0.0
 10
-4.59771
 20
-3.58719
 30
0.0
 10
-4.59771
 20
-3.58719
 30
0.0
 10
-4.59771
 20
-3.58719
 30
0.0
 10
-4.65367
 20
-3.57477
 30
0.0
 10
-4.65367
 20
-3.57477
 30
0.0
 10
-4.65367
 20
-3.57477
 30
0.0
 10
-4.66987
 20
-3.57131
 30
0.0
 10
-4.6827
 20
-3.56899
 30
0.0
 10
-4.69204
 20
-3.56793
 30
0.0
 10
-4.69204
 20
-3.56793
 30
0.0
 10
-4.70138
 20
-3.56679
 30
0.0
 10
-4.70873
 20
-3.5668
 30
0.0
 10
-4.71403
 20
-3.56799
 30
0.0
 10
-4.71403
 20
-3.56799
 30
0.0
 10
-4.7194
 20
-3.56915
 30
0.0
 10
-4.72414
 20
-3.57099
 30
0.0
 10
-4.72835
 20
-3.57352
 30
0.0
 10
-4.72835
 20
-3.57352
 30
0.0
 10
-4.73133
 20
-3.57551
 30
0.0
 10
-4.73562
 20
-3.57927
 30
0.0
 10
-4.74124
 20
-3.5849
 30
0.0
 10
-4.74124
 20
-3.5849
 30
0.0
 10
-4.74124
 20
-3.5849
 30
0.0
 10
-4.76643
 20
-3.61015
 30
0.0
 10
-4.76643
 20
-3.61015
 30
0.0
 10
-4.76643
 20
-3.61015
 30
0.0
 10
-4.76643
 20
-3.61015
 30
0.0
 10
-4.69336
 20
-3.68306
 30
0.0
 10
-4.69336
 20
-3.68306
 30
0.0
 10
-4.69336
 20
-3.68306
 30
0.0
 10
-4.69336
 20
-3.68306
 30
0.0
 10
-4.71507
 20
-3.70482
 30
0.0
 10
-4.71507
 20
-3.70482
 30
0.0
  0
SPLINE
  5
103
330
1F
100
AcDbEntity
  8
layer 2
370
     9
100
AcDbSpline
210
0.0
220
0.0
230
1.0
 70
    11
 71
     3
 72
    36
 73
    32
 74
     0
 42
0.0000000001
 43
0.0000000001
 12
1.0
 22
0.0
 32
0.0
 13
1.0
 23
0.0
 33
0.0
 40
0.0
 40
0.0
 40
0.0
 40
0.0
 40
0.1111111111111111
 40
0.1111111111111111
 40
0.1111111111111111
 40
0.1111111111111111
 40
0.2222222222222222
 40
0.2222222222222222
 40
0.2222222222222222
 40
0.2222222222222222
 40
0.3333333333333333
 40
0.3333333333333333
 40
0.3333333333333333
 40
0.3333333333333333
 40
0.4444444444444444
 40
0.4444444444444444
 40
0.4444444444444444
 40
0.4444444444444444
 40
0.5555555555555556
 40
0.5555555555555556
 40
0.5555555555555556
 40
0.5555555555555556
 40
0.6666666666666666
 40
0.6666666666666666
 40
0.6666666666666666
 40
0.6666666666666666
 40
0.7777777777777778
 40
0.7777777777777778
 40
0.7777777777777778
 40
0.7777777777777778
 40
1.0
 40
1.0
 40
1.0
 40
1.0
 10
-4.78528
 20
-3.59135
 30
0.0
 10
-4.78528
 20
-3.59135
 30
0.0
 10
-4.73857
 20
-3.54452
 30
0.0
 10
-4.73857
 20
-3.54452
 30
0.0
 10
-4.73857
 20
-3.54452
 30
0.0
 10
-4.72866
 20
-3.5346
 30
0.0
 10
-4.7219
 20
-3.52575
 30
0.0
 10
-4.71839
 20
-3.51809
 30
0.0
 10
-4.71839
 20
-3.51809
 30
0.0
 10
-4.71484
 20
-3.5104
 30
0.0
 10
-4.71388
 20
-3.50285
 30
0.0
 10
-4.7155
 20
-3.49543
 30
0.0
 10
-4.7155
 20
-3.49543
 30
0.0
 10
-4.71712
 20
-3.48801
 30
0.0
 10
-4.72057
 20
-3.48166
 30
0.0
 10
-4.7259
 20
-3.47634
 30
0.0
 10
-4.7259
 20
-3.47634
 30
0.0
 10
-4.73368
 20
-3.46858
 30
0.0
 10
-4.74286
 20
-3.465
 30
0.0
 10
-4.75354
 20
-3.46566
 30
0.0
 10
-4.75354
 20
-3.46566
 30
0.0
 10
-4.76418
 20
-3.46629
 30
0.0
 10
-4.77558
 20
-3.47273
 30
0.0
 10
-4.78777
 20
-3.48495
 30
0.0
 10
-4.78777
 20
-3.48495
 30
0.0
 10
-4.78777
 20
-3.48495
 30
0.0
 10
-4.83973
 20
-3.53702
 30
0.0
 10
-4.83973
 20
-3.53702
 30
0.0
 10
-4.83973
 20
-3.53702
 30
0.0
 10
-4.83973
 20
-3.53702
 30
0.0
 10
-4.78528
 20
-3.59135
 30
0.0
 10
-4.78528
 20
-3.59135
 30
0.0
  0
SPLINE
  5
104
330
1F
100
AcDbEntity
  8
layer 2
370
     9
100
AcDbSpline
210
0.0
220
0.0
230
1.0
 70
    11
 71
     3
 72
    40
 73
    36
 74
     0
 42
0.0000000001
 43
0.0000000001
 12
1.0
 22
0.0
 32
0.0
 13
1.0
 23
0.0
 33
0.0
 40
0.0
 40
0.0
 40
0.0
 40
0.0
 40
0.1
 40
0.1
 40
0.1
 40
0.1
 40
0.2
 40
0.2
 40
0.2
 40
0.2
 40
0.3
 40
0.3
 40
0.3
 40
0.3
 40
0.4
 40
0.4
 40
0.4
 40
0.4
 40
0.5
 40
0.5
 40
0.5
 40
0.5
 40
0.6
 40
0.6
 40
0.6
 40
0.6
 40
0.7
 40
0.7
 40
0.7
 40
0.7
 40
0.8
 40
0.8
 40
0.8
 40
0.8
 40
1.0
 40
1.0
 40
1.0
 40
1.0
 10
-4.48203
 20
-3.47124
 30
0.0
 10
-4.48203
 20
-3.47124
 30
0.0
 10
-4.50218
 20
-3.49143
 30
0.0
 10
-4.50218
 20
-3.49143
 30
0.0
 10
-4.50218
 20
-3.49143
 30
0.0
 10
-4.50218
 20
-3.49143
 30
0.0
 10
-4.63092
 20
-3.36299
 30
0.0
 10
-4.63092
 20
-3.36299
 30
0.0
 10
-4.63092
 20
-3.36299
 30
0.0
 10
-4.63114
 20
-3.37248
 30
0.0
 10
-4.63285
 20
-3.38347
 30
0.0
 10
-4.63609
 20
-3.39599
 30
0.0
 10
-4.63609
 20
-3.39599
 30
0.0
 10
-4.63937
 20
-3.40854
 30
0.0
 10
-4.64295
 20
-3.41911
 30
0.0
 10
-4.64692
 20
-3.42769
 30
0.0
 10
-4.64692
 20
-3.42769
 30
0.0
 10
-4.64692
 20
-3.42769
 30
0.0
 10
-4.66643
 20
-3.40823
 30
0.0
 10
-4.66643
 20
-3.40823
 30
0.0
 10
-4.66643
 20
-3.40823
 30
0.0
 10
-4.66047
 20
-3.39161
 30
0.0
 10
-4.65705
 20
-3.3753
 30
0.0
 10
-4.65615
 20
-3.3593
 30
0.0
 10
-4.65615
 20
-3.3593
 30
0.0
 10
-4.65532
 20
-3.34331
 30
0.0
 10
-4.65664
 20
-3.32999
 30
0.0
 10
-4.66024
 20
-3.31935
 30
0.0
 10
-4.66024
 20
-3.31935
 30
0.0
 10
-4.66024
 20
-3.31935
 30
0.0
 10
-4.64729
 20
-3.30636
 30
0.0
 10
-4.64729
 20
-3.30636
 30
0.0
 10
-4.64729
 20
-3.30636
 30
0.0
 10
-4.64729
 20
-3.30636
 30
0.0
 10
-4.48203
 20
-3.47124
 30
0.0
 10
-4.48203
 20
-3.47124
 30
0.0
  0
SPLINE
  5
105
330
1F
100
AcDbEntity
  8
layer 2
370
     9
100
AcDbSpline
210
0.0
220
0.0
230
1.0
 70
    11
 71
     3
 72
    92
 73
    88
 74
     0
 42
0.0000000001
 43
0.0000000001
 12
1.0
 22
0.0
 32
0.0
 13
1.0
 23
0.0
 33
0.0
 40
0.0
 40
0.0
 40
0.0
 40
0.0
 40
0.0434782608695652
 40
0.0434782608695652
 40
0.0434782608695652
 40
0.0434782608695652
 40
0.0869565217391304
 40
0.0869565217391304
 40
0.0869565217391304
 40
0.0869565217391304
 40
0.1304347826086956
 40
0.1304347826086956
 40
0.1304347826086956
 40
0.1304347826086956
 40
0.1739130434782609
 40
0.1739130434782609
 40
0.1739130434782609
 40
0.1739130434782609
 40
0.2173913043478261
 40
0.2173913043478261
 40
0.2173913043478261
 40
0.2173913043478261
 40
0.2608695652173913
 40
0.2608695652173913
 40
0.2608695652173913
 40
0.2608695652173913
 40
0.3043478260869565
 40
0.3043478260869565
 40
0.3043478260869565
 40
0.3043478260869565
 40
0.3478260869565217
 40
0.3478260869565217
 40
0.3478260869565217
 40
0.3478260869565217
 40
0.391304347826087
 40
0.391304347826087
 40
0.391304347826087
 40
0.391304347826087
 40
0.4347826086956522
 40
0.4347826086956522
 40
0.4347826086956522
 40
0.4347826086956522
 40
0.4782608695652174
 40
0.4782608695652174
 40
0.4782608695652174
 40
0.4782608695652174
 40
0.5217391304347826
 40
0.5217391304347826
 40
0.5217391304347826
 40
0.5217391304347826
 40
0.5652173913043478
 40
0.5652173913043478
 40
0.5652173913043478
 40
0.5652173913043478
 40
0.6086956521739131
 40
0.6086956521739131
 40
0.6086956521739131
 40
0.6086956521739131
 40
0.6521739130434783
 40
0.6521739130434783
 40
0.6521739130434783
 40
0.6521739130434783
 40
0.6956521739130435
 40
0.6956521739130435
 40
0.6956521739130435
 40
0.6956521739130435
 40
0.7391304347826086
 40
0.7391304347826086
 40
0.7391304347826086
 40
0.7391304347826086
 40
0.782608695652174
 40
0.782608695652174
 40
0.782608695652174
 40
0.782608695652174
 40
0.8260869565217391
 40
0.8260869565217391
 40
0.8260869565217391
 40
0.8260869565217391
 40
0.8695652173913043
 40
0.8695652173913043
 40
0.8695652173913043
 40
0.8695652173913043
 40
0.9130434782608695
 40
0.9130434782608695
 40
0.9130434782608695
 40
0.9130434782608695
 40
1.0
 40
1.0
 40
1.0
 40
1.0
 10
-4.34384
 20
-3.29388
 30
0.0
 10
-4.34384
 20
-3.29388
 30
0.0
 10
-4.32441
 20
-3.31326
 30
0.0
 10
-4.32441
 20
-3.31326
 30
0.0
 10
-4.32441
 20
-3.31326
 30
0.0
 10
-4.32441
 20
-3.31326
 30
0.0
 10
-4.43295
 20
-3.42204
 30
0.0
 10
-4.43295
 20
-3.42204
 30
0.0
 10
-4.43295
 20
-3.42204
 30
0.0
 10
-4.43796
 20
-3.41734
 30
0.0
 10
-4.44188
 20
-3.41191
 30
0.0
 10
-4.44464
 20
-3.40571
 30
0.0
 10
-4.44464
 20
-3.40571
 30
0.0
 10
-4.44932
 20
-3.39554
 30
0.0
 10
-4.45215
 20
-3.38383
 30
0.0
 10
-4.45329
 20
-3.37055
 30
0.0
 10
-4.45329
 20
-3.37055
 30
0.0
 10
-4.45434
 20
-3.35727
 30
0.0
 10
-4.45386
 20
-3.34016
 30
0.0
 10
-4.45182
 20
-3.31927
 30
0.0
 10
-4.45182
 20
-3.31927
 30
0.0
 10
-4.44864
 20
-3.28673
 30
0.0
 10
-4.44817
 20
-3.26304
 30
0.0
 10
-4.45048
 20
-3.24819
 30
0.0
 10
-4.45048
 20
-3.24819
 30
0.0
 10
-4.45275
 20
-3.23338
 30
0.0
 10
-4.45775
 20
-3.22214
 30
0.0
 10
-4.46537
 20
-3.21453
 30
0.0
 10
-4.46537
 20
-3.21453
 30
0.0
 10
-4.47338
 20
-3.20654
 30
0.0
 10
-4.48299
 20
-3.20269
 30
0.0
 10
-4.49421
 20
-3.20289
 30
0.0
 10
-4.49421
 20
-3.20289
 30
0.0
 10
-4.50542
 20
-3.20317
 30
0.0
 10
-4.51563
 20
-3.20789
 30
0.0
 10
-4.52481
 20
-3.21709
 30
0.0
 10
-4.52481
 20
-3.21709
 30
0.0
 10
-4.53452
 20
-3.22682
 30
0.0
 10
-4.53937
 20
-3.2375
 30
0.0
 10
-4.53931
 20
-3.24918
 30
0.0
 10
-4.53931
 20
-3.24918
 30
0.0
 10
-4.53933
 20
-3.26085
 30
0.0
 10
-4.5342
 20
-3.27187
 30
0.0
 10
-4.52396
 20
-3.28222
 30
0.0
 10
-4.52396
 20
-3.28222
 30
0.0
 10
-4.52396
 20
-3.28222
 30
0.0
 10
-4.54679
 20
-3.30089
 30
0.0
 10
-4.54679
 20
-3.30089
 30
0.0
 10
-4.54679
 20
-3.30089
 30
0.0
 10
-4.5609
 20
-3.28399
 30
0.0
 10
-4.56735
 20
-3.26685
 30
0.0
 10
-4.56622
 20
-3.24947
 30
0.0
 10
-4.56622
 20
-3.24947
 30
0.0
 10
-4.56509
 20
-3.2321
 30
0.0
 10
-4.55669
 20
-3.21555
 30
0.0
 10
-4.54109
 20
-3.19992
 30
0.0
 10
-4.54109
 20
-3.19992
 30
0.0
 10
-4.52533
 20
-3.18413
 30
0.0
 10
-4.50847
 20
-3.17604
 30
0.0
 10
-4.49055
 20
-3.17556
 30
0.0
 10
-4.49055
 20
-3.17556
 30
0.0
 10
-4.47257
 20
-3.17508
 30
0.0
 10
-4.45714
 20
-3.1813
 30
0.0
 10
-4.44419
 20
-3.19422
 30
0.0
 10
-4.44419
 20
-3.19422
 30
0.0
 10
-4.4376
 20
-3.2008
 30
0.0
 10
-4.43247
 20
-3.2086
 30
0.0
 10
-4.42882
 20
-3.21766
 30
0.0
 10
-4.42882
 20
-3.21766
 30
0.0
 10
-4.42513
 20
-3.22669
 30
0.0
 10
-4.42289
 20
-3.23787
 30
0.0
 10
-4.42212
 20
-3.25111
 30
0.0
 10
-4.42212
 20
-3.25111
 30
0.0
 10
-4.4213
 20
-3.26439
 30
0.0
 10
-4.42201
 20
-3.2844
 30
0.0
 10
-4.42423
 20
-3.31116
 30
0.0
 10
-4.42423
 20
-3.31116
 30
0.0
 10
-4.42612
 20
-3.33344
 30
0.0
 10
-4.42699
 20
-3.3481
 30
0.0
 10
-4.42678
 20
-3.35517
 30
0.0
 10
-4.42678
 20
-3.35517
 30
0.0
 10
-4.42662
 20
-3.36222
 30
0.0
 10
-4.42581
 20
-3.36868
 30
0.0
 10
-4.42439
 20
-3.37461
 30
0.0
 10
-4.42439
 20
-3.37461
 30
0.0
 10
-4.42439
 20
-3.37461
 30
0.0
 10
-4.34384
 20
-3.29388
 30
0.0
 10
-4.34384
 20
-3.29388
 30
0.0
  0
SPLINE
  5
106
330
1F
100
AcDbEntity
  8
layer 2
370
     9
100
AcDbSpline
210
0.0
220
0.0
230
1.0
 70
    11
 71
     3
 72
   124
 73
   120
 74
     0
 42
0.0000000001
 43
0.0000000001
 12
1.0
 22
0.0
 32
0.0
 13
1.0
 23
0.0
 33
0.0
 40
0.0
 40
0.0
 40
0.0
 40
0.0
 40
0.032258064516129
 40
0.032258064516129
 40
0.032258064516129
 40
0.032258064516129
 40
0.0645161290322581
 40
0.0645161290322581
 40
0.0645161290322581
 40
0.0645161290322581
 40
0.0967741935483871
 40
0.0967741935483871
 40
0.0967741935483871
 40
0.0967741935483871
 40
0.1290322580645161
 40
0.1290322580645161
 40
0.1290322580645161
 40
0.1290322580645161
 40
0.1612903225806452
 40
0.1612903225806452
 40
0.1612903225806452
 40
0.1612903225806452
 40
0.1935483870967742
 40
0.1935483870967742
 40
0.1935483870967742
 40
0.1935483870967742
 40
0.2258064516129032
 40
0.2258064516129032
 40
0.2258064516129032
 40
0.2258064516129032
 40
0.2580645161290323
 40
0.2580645161290323
 40
0.2580645161290323
 40
0.2580645161290323
 40
0.2903225806451613
 40
0.2903225806451613
 40
0.2903225806451613
 40
0.2903225806451613
 40
0.3225806451612903
 40
0.3225806451612903
 40
0.3225806451612903
 40
0.3225806451612903
 40
0.3548387096774194
 40
0.3548387096774194
 40
0.3548387096774194
 40
0.3548387096774194
 40
0.3870967741935484
 40
0.3870967741935484
 40
0.3870967741935484
 40
0.3870967741935484
 40
0.4193548387096774
 40
0.4193548387096774
 40
0.4193548387096774
 40
0.4193548387096774
 40
0.4516129032258064
 40
0.4516129032258064
 40
0.4516129032258064
 40
0.4516129032258064
 40
0.4838709677419355
 40
0.4838709677419355
 40
0.4838709677419355
 40
0.4838709677419355
 40
0.5161290322580645
 40
0.5161290322580645
 40
0.5161290322580645
 40
0.5161290322580645
 40
0.5483870967741935
 40
0.5483870967741935
 40
0.5483870967741935
 40
0.5483870967741935
 40
0.5806451612903226
 40
0.5806451612903226
 40
0.5806451612903226
 40
0.5806451612903226
 40
0.6129032258064516
 40
0.6129032258064516
 40
0.6129032258064516
 40
0.6129032258064516
 40
0.6451612903225806
 40
0.6451612903225806
 40
0.6451612903225806
 40
0.6451612903225806
 40
0.6774193548387096
 40
0.6774193548387096
 40
0.6774193548387096
 40
0.6774193548387096
 40
0.7096774193548387
 40
0.7096774193548387
 40
0.7096774193548387
 40
0.7096774193548387
 40
0.7419354838709677
 40
0.7419354838709677
 40
0.7419354838709677
 40
0.7419354838709677
 40
0.7741935483870968
 40
0.7741935483870968
 40
0.7741935483870968
 40
0.7741935483870968
 40
0.8064516129032258
 40
0.8064516129032258
 40
0.8064516129032258
 40
0.8064516129032258
 40
0.8387096774193549
 40
0.8387096774193549
 40
0.8387096774193549
 40
0.8387096774193549
 40
0.8709677419354839
 40
0.8709677419354839
 40
0.8709677419354839
 40
0.8709677419354839
 40
0.9032258064516129
 40
0.9032258064516129
 40
0.9032258064516129
 40
0.9032258064516129
 40
0.9354838709677419
 40
0.9354838709677419
 40
0.9354838709677419
 40
0.9354838709677419
 40
1.0
 40
1.0
 40
1.0
 40
1.0
 10
-4.34615
 20
-3.24815
 30
0.0
 10
-4.34615
 20
-3.24815
 30
0.0
 10
-4.32869
 20
-3.22528
 30
0.0
 10
-4.32869
 20
-3.22528
 30
0.0
 10
-4.32869
 20
-3.22528
 30
0.0
 10
-4.3149
 20
-3.23437
 30
0.0
 10
-4.30272
 20
-3.23865
 30
0.0
 10
-4.29212
 20
-3.23814
 30
0.0
 10
-4.29212
 20
-3.23814
 30
0.0
 10
-4.28149
 20
-3.23759
 30
0.0
 10
-4.27219
 20
-3.23333
 30
0.0
 10
-4.2642
 20
-3.22532
 30
0.0
 10
-4.2642
 20
-3.22532
 30
0.0
 10
-4.25472
 20
-3.21582
 30
0.0
 10
-4.24999
 20
-3.20449
 30
0.0
 10
-4.25004
 20
-3.19136
 30
0.0
 10
-4.25004
 20
-3.19136
 30
0.0
 10
-4.25013
 20
-3.17827
 30
0.0
 10
-4.25501
 20
-3.16683
 30
0.0
 10
-4.26474
 20
-3.15712
 30
0.0
 10
-4.26474
 20
-3.15712
 30
0.0
 10
-4.27401
 20
-3.14787
 30
0.0
 10
-4.28469
 20
-3.14325
 30
0.0
 10
-4.29675
 20
-3.1433
 30
0.0
 10
-4.29675
 20
-3.1433
 30
0.0
 10
-4.30884
 20
-3.14339
 30
0.0
 10
-4.31955
 20
-3.14808
 30
0.0
 10
-4.32888
 20
-3.15742
 30
0.0
 10
-4.32888
 20
-3.15742
 30
0.0
 10
-4.3327
 20
-3.16126
 30
0.0
 10
-4.33668
 20
-3.16677
 30
0.0
 10
-4.34084
 20
-3.17393
 30
0.0
 10
-4.34084
 20
-3.17393
 30
0.0
 10
-4.34084
 20
-3.17393
 30
0.0
 10
-4.35633
 20
-3.15397
 30
0.0
 10
-4.35633
 20
-3.15397
 30
0.0
 10
-4.35633
 20
-3.15397
 30
0.0
 10
-4.35484
 20
-3.15278
 30
0.0
 10
-4.35369
 20
-3.15179
 30
0.0
 10
-4.35285
 20
-3.15094
 30
0.0
 10
-4.35285
 20
-3.15094
 30
0.0
 10
-4.34428
 20
-3.14236
 30
0.0
 10
-4.33882
 20
-3.13237
 30
0.0
 10
-4.33643
 20
-3.121
 30
0.0
 10
-4.33643
 20
-3.121
 30
0.0
 10
-4.33402
 20
-3.10963
 30
0.0
 10
-4.33751
 20
-3.09926
 30
0.0
 10
-4.34687
 20
-3.08993
 30
0.0
 10
-4.34687
 20
-3.08993
 30
0.0
 10
-4.35427
 20
-3.08255
 30
0.0
 10
-4.36296
 20
-3.07893
 30
0.0
 10
-4.37279
 20
-3.07913
 30
0.0
 10
-4.37279
 20
-3.07913
 30
0.0
 10
-4.38267
 20
-3.0793
 30
0.0
 10
-4.39158
 20
-3.08332
 30
0.0
 10
-4.39949
 20
-3.09126
 30
0.0
 10
-4.39949
 20
-3.09126
 30
0.0
 10
-4.40733
 20
-3.09911
 30
0.0
 10
-4.41138
 20
-3.10815
 30
0.0
 10
-4.41167
 20
-3.11825
 30
0.0
 10
-4.41167
 20
-3.11825
 30
0.0
 10
-4.41197
 20
-3.12843
 30
0.0
 10
-4.4079
 20
-3.13922
 30
0.0
 10
-4.3995
 20
-3.15058
 30
0.0
 10
-4.3995
 20
-3.15058
 30
0.0
 10
-4.3995
 20
-3.15058
 30
0.0
 10
-4.42325
 20
-3.16718
 30
0.0
 10
-4.42325
 20
-3.16718
 30
0.0
 10
-4.42325
 20
-3.16718
 30
0.0
 10
-4.43437
 20
-3.15119
 30
0.0
 10
-4.43925
 20
-3.13509
 30
0.0
 10
-4.43796
 20
-3.11893
 30
0.0
 10
-4.43796
 20
-3.11893
 30
0.0
 10
-4.43664
 20
-3.10274
 30
0.0
 10
-4.42954
 20
-3.08811
 30
0.0
 10
-4.41654
 20
-3.07509
 30
0.0
 10
-4.41654
 20
-3.07509
 30
0.0
 10
-4.4076
 20
-3.06612
 30
0.0
 10
-4.39739
 20
-3.05979
 30
0.0
 10
-4.38602
 20
-3.05607
 30
0.0
 10
-4.38602
 20
-3.05607
 30
0.0
 10
-4.37462
 20
-3.05238
 30
0.0
 10
-4.3636
 20
-3.05183
 30
0.0
 10
-4.35292
 20
-3.05446
 30
0.0
 10
-4.35292
 20
-3.05446
 30
0.0
 10
-4.34228
 20
-3.05713
 30
0.0
 10
-4.3332
 20
-3.06213
 30
0.0
 10
-4.32569
 20
-3.06962
 30
0.0
 10
-4.32569
 20
-3.06962
 30
0.0
 10
-4.3186
 20
-3.0767
 30
0.0
 10
-4.31403
 20
-3.08507
 30
0.0
 10
-4.312
 20
-3.09475
 30
0.0
 10
-4.312
 20
-3.09475
 30
0.0
 10
-4.31
 20
-3.10439
 30
0.0
 10
-4.31098
 20
-3.11465
 30
0.0
 10
-4.31499
 20
-3.12557
 30
0.0
 10
-4.31499
 20
-3.12557
 30
0.0
 10
-4.30305
 20
-3.11805
 30
0.0
 10
-4.29085
 20
-3.11517
 30
0.0
 10
-4.27837
 20
-3.11683
 30
0.0
 10
-4.27837
 20
-3.11683
 30
0.0
 10
-4.26597
 20
-3.11851
 30
0.0
 10
-4.25444
 20
-3.12465
 30
0.0
 10
-4.24383
 20
-3.13524
 30
0.0
 10
-4.24383
 20
-3.13524
 30
0.0
 10
-4.22946
 20
-3.14958
 30
0.0
 10
-4.22247
 20
-3.16695
 30
0.0
 10
-4.22295
 20
-3.18742
 30
0.0
 10
-4.22295
 20
-3.18742
 30
0.0
 10
-4.22338
 20
-3.20786
 30
0.0
 10
-4.23163
 20
-3.22609
 30
0.0
 10
-4.24761
 20
-3.2421
 30
0.0
 10
-4.24761
 20
-3.2421
 30
0.0
 10
-4.26202
 20
-3.25655
 30
0.0
 10
-4.27828
 20
-3.26426
 30
0.0
 10
-4.29642
 20
-3.2652
 30
0.0
 10
-4.29642
 20
-3.2652
 30
0.0
 10
-4.31452
 20
-3.26618
 30
0.0
 10
-4.3311
 20
-3.26049
 30
0.0
 10
-4.34615
 20
-3.24815
 30
0.0
  0
SPLINE
  5
107
330
1F
100
AcDbEntity
  8
layer 2
370
     9
100
AcDbSpline
210
0.0
220
0.0
230
1.0
 70
    27
 71
     3
 72
    12
 73
     8
 74
     0
 42
0.0000000001
 43
0.0000000001
 12
1.0
 22
0.0
 32
0.0
 13
1.0
 23
0.0
 33
0.0
 40
0.0
 40
0.0
 40
0.0
 40
0.0
 40
0.3333333333333333
 40
0.3333333333333333
 40
0.3333333333333333
 40
0.3333333333333333
 40
1.0
 40
1.0
 40
1.0
 40
1.0
 10
-5.38697
 20
-4.56112
 30
0.0
 10
-5.38697
 20
-4.56112
 30
0.0
 10
-5.56529
 20
-4.81137
 30
0.0
 10
-5.56529
 20
-4.81137
 30
0.0
 10
-5.56529
 20
-4.81137
 30
0.0
 10
-5.56529
 20
-4.81137
 30
0.0
 10
-5.38697
 20
-4.56112
 30
0.0
 10
-5.38697
 20
-4.56112
 30
0.0
  0
SPLINE
  5
108
330
1F
100
AcDbEntity
  8
layer 2
370
     9
100
AcDbSpline
210
0.0
220
0.0
230
1.0
 70
    11
 71
     3
 72
    16
 73
    12
 74
     0
 42
0.0000000001
 43
0.0000000001
 12
1.0
 22
0.0
 32
0.0
 13
1.0
 23
0.0
 33
0.0
 40
0.0
 40
0.0
 40
0.0
 40
0.0
 40
0.25
 40
0.25
 40
0.25
 40
0.25
 40
0.5
 40
0.5
 40
0.5
 40
0.5
 40
1.0
 40
1.0
 40
1.0
 40
1.0
 10
-5.56529
 20
-4.81137
 30
0.0
 10
-5.56529
 20
-4.81137
 30
0.0
 10
-5.31545
 20
-4.63248
 30
0.0
 10
-5.31545
 20
-4.63248
 30
0.0
 10
-5.31545
 20
-4.63248
 30
0.0
 10
-5.31545
 20
-4.63248
 30
0.0
 10
-5.38697
 20
-4.56112
 30
0.0
 10
-5.38697
 20
-4.56112
 30
0.0
 10
-5.38697
 20
-4.56112
 30
0.0
 10
-5.38697
 20
-4.56112
 30
0.0
 10
-5.56529
 20
-4.81137
 30
0.0
 10
-5.56529
 20
-4.81137
 30
0.0
  0
SPLINE
  5
109
330
1F
100
AcDbEntity
  8
layer 2
370
    20
100
AcDbSpline
210
0.0
220
0.0
230
1.0
 70
    24
 71
     3
 72
     8
 73
     4
 74
     0
 42
0.0000000001
 43
0.0000000001
 12
1.0
 22
0.0
 32
0.0
 13
1.0
 23
0.0
 33
0.0
 40
0.0
 40
0.0
 40
0.0
 40
0.0
 40
1.0
 40
1.0
 40
1.0
 40
1.0
 10
-5.38697
 20
-4.56112
 30
0.0
 10
-5.38697
 20
-4.56112
 30
0.0
 10
-5.56529
 20
-4.81137
 30
0.0
 10
-5.56529
 20
-4.81137
 30
0.0
  0
SPLINE
  5
10A
330
1F
100
AcDbEntity
  8
layer 2
370
    20
100
AcDbSpline
210
0.0
220
0.0
230
1.0
 70
     8
 71
     3
 72
    12
 73
     8
 74
     0
 42
0.0000000001
 43
0.0000000001
 12
1.0
 22
0.0
 32
0.0
 13
1.0
 23
0.0
 33
0.0
 40
0.0
 40
0.0
 40
0.0
 40
0.0
 40
0.3333333333333333
 40
0.3333333333333333
 40
0.3333333333333333
 40
0.3333333333333333
 40
1.0
 40
1.0
 40
1.0
 40
1.0
 10
-5.56529
 20
-4.81137
 30
0.0
 10
-5.56529
 20
-4.81137
 30
0.0
 10
-5.31545
 20
-4.63248
 30
0.0
 10
-5.31545
 20
-4.63248
 30
0.0
 10
-5.31545
 20
-4.63248
 30
0.0
 10
-5.31545
 20
-4.63248
 30
0.0
 10
-5.38697
 20
-4.56112
 30
0.0
 10
-5.38697
 20
-4.56112
 30
0.0
  0
ENDSEC
  0
SECTION
  2
OBJECTS
  0
DICTIONARY
  5
C
330
0
100
AcDbDictionary
281
     1
  3
ACAD_GROUP
350
D
  3
ACAD_LAYOUT
350
1A
  3
ACAD_MATERIAL
350
3B
  3
ACAD_MLEADERSTYLE
350
12C
  3
ACAD_MLINESTYLE
350
17
  3
ACAD_PLOTSETTINGS
350
19
  3
ACAD_PLOTSTYLENAME
350
E
  3
ACAD_TABLESTYLE
350
12B
  3
ACAD_VISUALSTYLE
350
2A
  0
DICTIONARY
  5
D
102
{ACAD_REACTORS
330
C
102
}
330
C
100
AcDbDictionary
281
     1
  0
DICTIONARY
  5
1A
102
{ACAD_REACTORS
330
C
102
}
330
C
100
AcDbDictionary
281
     1
  3
Layout1
350
1E
  3
Layout2
350
26
  3
Model
350
22
  0
DICTIONARY
  5
3B
102
{ACAD_REACTORS
330
C
102
}
330
C
100
AcDbDictionary
281
     1
  3
ByBlock
350
3D
  3
ByLayer
350
3C
  3
Global
350
3E
  0
DICTIONARY
  5
12C
102
{ACAD_REACTORS
330
C
102
}
330
C
100
AcDbDictionary
281
     1
  0
DICTIONARY
  5
17
102
{ACAD_REACTORS
330
C
102
}
330
C
100
AcDbDictionary
281
     1
  3
Standard
350
18
  0
DICTIONARY
  5
19
102
{ACAD_REACTORS
330
C
102
}
330
C
100
AcDbDictionary
281
     1
  0
ACDBDICTIONARYWDFLT
  5
E
102
{ACAD_REACTORS
330
C
102
}
330
C
100
AcDbDictionary
281
     1
  3
Normal
350
F
100
AcDbDictionaryWithDefault
340
F
  0
DICTIONARY
  5
12B
102
{ACAD_REACTORS
330
C
102
}
330
C
100
AcDbDictionary
281
     1
  0
DICTIONARY
  5
2A
102
{ACAD_REACTORS
330
C
102
}
330
C
100
AcDbDictionary
281
     1
  3
2dWireframe
350
2F
  3
3D Hidden
350
31
  3
3dWireframe
350
30
  3
Basic
350
32
  3
Brighten
350
36
  3
ColorChange
350
3A
  3
Conceptual
350
34
  3
Dim
350
35
  3
Facepattern
350
39
  3
Flat
350
2B
  3
FlatWithEdges
350
2C
  3
Gouraud
350
2D
  3
GouraudWithEdges
350
2E
  3
Linepattern
350
38
  3
Realistic
350
33
  3
Thicken
350
37
  0
LAYOUT
  5
1E
102
{ACAD_REACTORS
330
1A
102
}
330
1A
100
AcDbPlotSettings
  1

  2
none_device
  4

  6

 40
0.0
 41
0.0
 42
0.0
 43
0.0
 44
0.0
 45
0.0
 46
0.0
 47
0.0
 48
0.0
 49
0.0
140
0.0
141
0.0
142
1.0
143
1.0
 70
   688
 72
     0
 73
     0
 74
     5
  7

 75
    16
 76
     0
 77
     2
 78
   300
147
1.0
148
0.0
149
0.0
100
AcDbLayout
  1
Layout1
 70
     1
 71
     1
 10
0.0
 20
0.0
 11
12.0
 21
9.0
 12
0.0
 22
0.0
 32
0.0
 14
1.000000000000000E+20
 24
1.000000000000000E+20
 34
1.000000000000000E+20
 15
-1.000000000000000E+20
 25
-1.000000000000000E+20
 35
-1.000000000000000E+20
146
0.0
 13
0.0
 23
0.0
 33
0.0
 16
1.0
 26
0.0
 36
0.0
 17
0.0
 27
1.0
 37
0.0
 76
     0
330
1B
  0
LAYOUT
  5
26
102
{ACAD_REACTORS
330
1A
102
}
330
1A
100
AcDbPlotSettings
  1

  2
none_device
  4

  6

 40
0.0
 41
0.0
 42
0.0
 43
0.0
 44
0.0
 45
0.0
 46
0.0
 47
0.0
 48
0.0
 49
0.0
140
0.0
141
0.0
142
1.0
143
1.0
 70
   688
 72
     0
 73
     0
 74
     5
  7

 75
    16
 76
     0
 77
     2
 78
   300
147
1.0
148
0.0
149
0.0
100
AcDbLayout
  1
Layout2
 70
     1
 71
     2
 10
0.0
 20
0.0
 11
0.0
 21
0.0
 12
0.0
 22
0.0
 32
0.0
 14
0.0
 24
0.0
 34
0.0
 15
0.0
 25
0.0
 35
0.0
146
0.0
 13
0.0
 23
0.0
 33
0.0
 16
1.0
 26
0.0
 36
0.0
 17
0.0
 27
1.0
 37
0.0
 76
     0
330
23
  0
LAYOUT
  5
22
102
{ACAD_REACTORS
330
1A
102
}
330
1A
100
AcDbPlotSettings
  1

  2
none_device
  4

  6

 40
0.0
 41
0.0
 42
0.0
 43
0.0
 44
0.0
 45
0.0
 46
0.0
 47
0.0
 48
0.0
 49
0.0
140
0.0
141
0.0
142
1.0
143
1.0
 70
  1712
 72
     0
 73
     0
 74
     0
  7

 75
     0
 76
     0
 77
     2
 78
   300
147
1.0
148
0.0
149
0.0
100
AcDbLayout
  1
Model
 70
     1
 71
     0
 10
0.0
 20
0.0
 11
12.0
 21
9.0
 12
0.0
 22
0.0
 32
0.0
 14
-8.25437
 24
-8.01197
 34
0.0
 15
9.07368
 25
8.87178
 35
0.0
146
0.0
 13
0.0
 23
0.0
 33
0.0
 16
1.0
 26
0.0
 36
0.0
 17
0.0
 27
1.0
 37
0.0
 76
     0
330
1F
331
29
  0
MATERIAL
  5
3D
102
{ACAD_REACTORS
330
3B
102
}
330
3B
100
AcDbMaterial
  1
ByBlock
 72
     1
 94
      127
  0
MATERIAL
  5
3C
102
{ACAD_REACTORS
330
3B
102
}
330
3B
100
AcDbMaterial
  1
ByLayer
 72
     1
 94
      127
  0
MATERIAL
  5
3E
102
{ACAD_REACTORS
330
3B
102
}
330
3B
100
AcDbMaterial
  1
Global
 72
     1
 94
      127
  0
MLINESTYLE
  5
18
102
{ACAD_REACTORS
330
17
102
}
330
17
100
AcDbMlineStyle
  2
Standard
 70
     0
  3

 62
   256
 51
90.0
 52
90.0
 71
     2
 49
0.5
 62
   256
  6
BYLAYER
 49
-0.5
 62
   256
  6
BYLAYER
  0
ACDBPLACEHOLDER
  5
F
102
{ACAD_REACTORS
330
E
102
}
330
E
  0
VISUALSTYLE
  5
2F
102
{ACAD_REACTORS
330
2A
102
}
102
{ACAD_XDICTIONARY
360
113
102
}
330
2A
100
AcDbVisualStyle
  2
2dWireframe
 70
     4
 71
     0
 72
     2
 73
     0
 90
        0
 40
-0.6
 41
-30.0
 62
     5
 63
     7
421
 16777215
 74
     1
 91
        4
 64
     7
 65
   257
 75
     1
175
     1
 42
1.0
 92
        0
 66
   257
 43
1.0
 76
     1
 77
     6
 78
     2
 67
     7
 79
     5
170
     0
171
     0
290
     0
174
     0
 93
        1
 44
0.0
173
     0
291
     0
 45
0.0
  0
VISUALSTYLE
  5
31
102
{ACAD_REACTORS
330
2A
102
}
102
{ACAD_XDICTIONARY
360
117
102
}
330
2A
100
AcDbVisualStyle
  2
3D Hidden
 70
     6
 71
     1
 72
     2
 73
     2
 90
        0
 40
-0.6
 41
-30.0
 62
     5
 63
     7
421
 16777215
 74
     2
 91
        2
 64
     7
 65
   257
 75
     2
175
     1
 42
40.0
 92
        0
 66
   257
 43
1.0
 76
     1
 77
     6
 78
     2
 67
     7
 79
     3
170
     0
171
     0
290
     0
174
     0
 93
        1
 44
0.0
173
     0
291
     0
 45
0.0
  0
VISUALSTYLE
  5
30
102
{ACAD_REACTORS
330
2A
102
}
102
{ACAD_XDICTIONARY
360
115
102
}
330
2A
100
AcDbVisualStyle
  2
3dWireframe
 70
     5
 71
     0
 72
     2
 73
     0
 90
        0
 40
-0.6
 41
-30.0
 62
     5
 63
     7
421
 16777215
 74
     1
 91
        4
 64
     7
 65
   257
 75
     1
175
     1
 42
1.0
 92
        0
 66
   257
 43
1.0
 76
     1
 77
     6
 78
     2
 67
     7
 79
     5
170
     0
171
     0
290
     0
174
     0
 93
        1
 44
0.0
173
     0
291
     0
 45
0.0
  0
VISUALSTYLE
  5
32
102
{ACAD_REACTORS
330
2A
102
}
102
{ACAD_XDICTIONARY
360
119
102
}
330
2A
100
AcDbVisualStyle
  2
Basic
 70
     7
 71
     1
 72
     0
 73
     1
 90
        0
 40
-0.6
 41
-30.0
 62
     5
 63
     7
421
 16777215
 74
     0
 91
        4
 64
     7
 65
   257
 75
     1
175
     1
 42
1.0
 92
        8
 66
     7
 43
1.0
 76
     1
 77
     6
 78
     2
 67
     7
 79
     5
170
     0
171
     0
290
     0
174
     0
 93
        1
 44
0.0
173
     0
291
     1
 45
0.0
  0
VISUALSTYLE
  5
36
102
{ACAD_REACTORS
330
2A
102
}
102
{ACAD_XDICTIONARY
360
121
102
}
330
2A
100
AcDbVisualStyle
  2
Brighten
 70
    12
 71
     2
 72
     2
 73
     0
 90
        0
 40
-0.6
 41
-30.0
 62
     5
 63
     7
421
 16777215
 74
     1
 91
        4
 64
     7
 65
   257
 75
     1
175
     1
 42
1.0
 92
        8
 66
     7
 43
1.0
 76
     1
 77
     6
 78
     2
 67
     7
 79
     5
170
     0
171
     0
290
     0
174
     0
 93
        1
 44
50.0
173
     0
291
     1
 45
0.0
  0
VISUALSTYLE
  5
3A
102
{ACAD_REACTORS
330
2A
102
}
102
{ACAD_XDICTIONARY
360
129
102
}
330
2A
100
AcDbVisualStyle
  2
ColorChange
 70
    16
 71
     2
 72
     2
 73
     3
 90
        0
 40
-0.6
 41
-30.0
 62
     5
 63
     8
421
  8421504
 74
     1
 91
        4
 64
     7
 65
   257
 75
     1
175
     1
 42
1.0
 92
        8
 66
     8
424
  8421504
 43
1.0
 76
     1
 77
     6
 78
     2
 67
     7
 79
     5
170
     0
171
     0
290
     0
174
     0
 93
        1
 44
0.0
173
     0
291
     1
 45
0.0
  0
VISUALSTYLE
  5
34
102
{ACAD_REACTORS
330
2A
102
}
102
{ACAD_XDICTIONARY
360
11D
102
}
330
2A
100
AcDbVisualStyle
  2
Conceptual
 70
     9
 71
     3
 72
     2
 73
     0
 90
        0
 40
-0.6
 41
-30.0
 62
     5
 63
     7
421
 16777215
 74
     2
 91
        2
 64
     7
 65
   257
 75
     1
175
     1
 42
40.0
 92
        8
 66
     7
 43
1.0
 76
     1
 77
     6
 78
     2
 67
     7
 79
     3
170
     0
171
     0
290
     0
174
     0
 93
        1
 44
0.0
173
     0
291
     0
 45
0.0
  0
VISUALSTYLE
  5
35
102
{ACAD_REACTORS
330
2A
102
}
102
{ACAD_XDICTIONARY
360
11F
102
}
330
2A
100
AcDbVisualStyle
  2
Dim
 70
    11
 71
     2
 72
     2
 73
     0
 90
        0
 40
-0.6
 41
-30.0
 62
     5
 63
     7
421
 16777215
 74
     1
 91
        4
 64
     7
 65
   257
 75
     1
175
     1
 42
1.0
 92
        8
 66
     7
 43
1.0
 76
     1
 77
     6
 78
     2
 67
     7
 79
     5
170
     0
171
     0
290
     0
174
     0
 93
        1
 44
-50.0
173
     0
291
     1
 45
0.0
  0
VISUALSTYLE
  5
39
102
{ACAD_REACTORS
330
2A
102
}
102
{ACAD_XDICTIONARY
360
127
102
}
330
2A
100
AcDbVisualStyle
  2
Facepattern
 70
    15
 71
     2
 72
     2
 73
     0
 90
        0
 40
-0.6
 41
-30.0
 62
     5
 63
     7
421
 16777215
 74
     1
 91
        4
 64
     7
 65
   257
 75
     1
175
     1
 42
1.0
 92
        8
 66
     7
 43
1.0
 76
     1
 77
     6
 78
     2
 67
     7
 79
     5
170
     0
171
     0
290
     0
174
     0
 93
        1
 44
0.0
173
     0
291
     1
 45
0.0
  0
VISUALSTYLE
  5
2B
102
{ACAD_REACTORS
330
2A
102
}
102
{ACAD_XDICTIONARY
360
10B
102
}
330
2A
100
AcDbVisualStyle
  2
Flat
 70
     0
 71
     2
 72
     1
 73
     1
 90
        2
 40
-0.6
 41
30.0
 62
     5
 63
     7
421
 16777215
 74
     0
 91
        4
 64
     7
 65
   257
 75
     1
175
     1
 42
1.0
 92
        8
 66
     7
 43
1.0
 76
     1
 77
     6
 78
     2
 67
     7
 79
     5
170
     0
171
     0
290
     0
174
     0
 93
       13
 44
0.0
173
     0
291
     1
 45
0.0
  0
VISUALSTYLE
  5
2C
102
{ACAD_REACTORS
330
2A
102
}
102
{ACAD_XDICTIONARY
360
10D
102
}
330
2A
100
AcDbVisualStyle
  2
FlatWithEdges
 70
     1
 71
     2
 72
     1
 73
     1
 90
        2
 40
-0.6
 41
30.0
 62
     5
 63
     7
421
 16777215
 74
     1
 91
        4
 64
     7
 65
   257
 75
     1
175
     1
 42
1.0
 92
        0
 66
   257
 43
1.0
 76
     1
 77
     6
 78
     2
 67
     7
 79
     5
170
     0
171
     0
290
     0
174
     0
 93
       13
 44
0.0
173
     0
291
     1
 45
0.0
  0
VISUALSTYLE
  5
2D
102
{ACAD_REACTORS
330
2A
102
}
102
{ACAD_XDICTIONARY
360
10F
102
}
330
2A
100
AcDbVisualStyle
  2
Gouraud
 70
     2
 71
     2
 72
     2
 73
     1
 90
        2
 40
-0.6
 41
30.0
 62
     5
 63
     7
421
 16777215
 74
     0
 91
        4
 64
     7
 65
   257
 75
     1
175
     1
 42
1.0
 92
        0
 66
     7
 43
1.0
 76
     1
 77
     6
 78
     2
 67
     7
 79
     5
170
     0
171
     0
290
     0
174
     0
 93
       13
 44
0.0
173
     0
291
     1
 45
0.0
  0
VISUALSTYLE
  5
2E
102
{ACAD_REACTORS
330
2A
102
}
102
{ACAD_XDICTIONARY
360
111
102
}
330
2A
100
AcDbVisualStyle
  2
GouraudWithEdges
 70
     3
 71
     2
 72
     2
 73
     1
 90
        2
 40
-0.6
 41
30.0
 62
     5
 63
     7
421
 16777215
 74
     1
 91
        4
 64
     7
 65
   257
 75
     1
175
     1
 42
1.0
 92
        0
 66
   257
 43
1.0
 76
     1
 77
     6
 78
     2
 67
     7
 79
     5
170
     0
171
     0
290
     0
174
     0
 93
       13
 44
0.0
173
     0
291
     1
 45
0.0
  0
VISUALSTYLE
  5
38
102
{ACAD_REACTORS
330
2A
102
}
102
{ACAD_XDICTIONARY
360
125
102
}
330
2A
100
AcDbVisualStyle
  2
Linepattern
 70
    14
 71
     2
 72
     2
 73
     0
 90
        0
 40
-0.6
 41
-30.0
 62
     5
 63
     7
421
 16777215
 74
     1
 91
        4
 64
     7
 65
   257
 75
     7
175
     7
 42
1.0
 92
        8
 66
     7
 43
1.0
 76
     1
 77
     6
 78
     2
 67
     7
 79
     5
170
     0
171
     0
290
     0
174
     0
 93
        1
 44
0.0
173
     0
291
     1
 45
0.0
  0
VISUALSTYLE
  5
33
102
{ACAD_REACTORS
330
2A
102
}
102
{ACAD_XDICTIONARY
360
11B
102
}
330
2A
100
AcDbVisualStyle
  2
Realistic
 70
     8
 71
     2
 72
     2
 73
     0
 90
        0
 40
-0.6
 41
-30.0
 62
     5
 63
     7
421
 16777215
 74
     1
 91
        0
 64
     7
 65
   257
 75
     1
175
     1
 42
1.0
 92
        8
 66
     8
424
  7895160
 43
1.0
 76
     1
 77
     6
 78
     2
 67
     7
 79
     5
170
     0
171
     0
290
     0
174
     0
 93
       13
 44
0.0
173
     0
291
     0
 45
0.0
  0
VISUALSTYLE
  5
37
102
{ACAD_REACTORS
330
2A
102
}
102
{ACAD_XDICTIONARY
360
123
102
}
330
2A
100
AcDbVisualStyle
  2
Thicken
 70
    13
 71
     2
 72
     2
 73
     0
 90
        0
 40
-0.6
 41
-30.0
 62
     5
 63
     7
421
 16777215
 74
     1
 91
        4
 64
     7
 65
   257
 75
     1
175
     1
 42
1.0
 92
       12
 66
     7
 43
1.0
 76
     1
 77
     6
 78
     2
 67
     7
 79
     5
170
     0
171
     0
290
     0
174
     0
 93
        1
 44
0.0
173
     0
291
     1
 45
0.0
  0
DICTIONARY
  5
113
330
2F
100
AcDbDictionary
280
     1
281
     1
  3
ACAD_XREC_ROUNDTRIP
360
114
  0
DICTIONARY
  5
117
330
31
100
AcDbDictionary
280
     1
281
     1
  3
ACAD_XREC_ROUNDTRIP
360
118
  0
DICTIONARY
  5
115
330
30
100
AcDbDictionary
280
     1
281
     1
  3
ACAD_XREC_ROUNDTRIP
360
116
  0
DICTIONARY
  5
119
330
32
100
AcDbDictionary
280
     1
281
     1
  3
ACAD_XREC_ROUNDTRIP
360
11A
  0
DICTIONARY
  5
121
330
36
100
AcDbDictionary
280
     1
281
     1
  3
ACAD_XREC_ROUNDTRIP
360
122
  0
DICTIONARY
  5
129
330
3A
100
AcDbDictionary
280
     1
281
     1
  3
ACAD_XREC_ROUNDTRIP
360
12A
  0
DICTIONARY
  5
11D
330
34
100
AcDbDictionary
280
     1
281
     1
  3
ACAD_XREC_ROUNDTRIP
360
11E
  0
DICTIONARY
  5
11F
330
35
100
AcDbDictionary
280
     1
281
     1
  3
ACAD_XREC_ROUNDTRIP
360
120
  0
DICTIONARY
  5
127
330
39
100
AcDbDictionary
280
     1
281
     1
  3
ACAD_XREC_ROUNDTRIP
360
128
  0
DICTIONARY
  5
10B
330
2B
100
AcDbDictionary
280
     1
281
     1
  3
ACAD_XREC_ROUNDTRIP
360
10C
  0
DICTIONARY
  5
10D
330
2C
100
AcDbDictionary
280
     1
281
     1
  3
ACAD_XREC_ROUNDTRIP
360
10E
  0
DICTIONARY
  5
10F
330
2D
100
AcDbDictionary
280
     1
281
     1
  3
ACAD_XREC_ROUNDTRIP
360
110
  0
DICTIONARY
  5
111
330
2E
100
AcDbDictionary
280
     1
281
     1
  3
ACAD_XREC_ROUNDTRIP
360
112
  0
DICTIONARY
  5
125
330
38
100
AcDbDictionary
280
     1
281
     1
  3
ACAD_XREC_ROUNDTRIP
360
126
  0
DICTIONARY
  5
11B
330
33
100
AcDbDictionary
280
     1
281
     1
  3
ACAD_XREC_ROUNDTRIP
360
11C
  0
DICTIONARY
  5
123
330
37
100
AcDbDictionary
280
     1
281
     1
  3
ACAD_XREC_ROUNDTRIP
360
124
  0
XRECORD
  5
114
102
{ACAD_REACTORS
330
113
102
}
330
113
100
AcDbXrecord
280
     1
102
RTVSPropertyOp0
 70
     1
102
RTVSPropertyOp1
 70
     1
102
RTVSPropertyOp2
 70
     1
102
RTVSPropertyOp3
 70
     1
102
RTVSPropertyOp4
 70
     1
102
RTVSPropertyOp5
 70
     1
102
RTVSPropertyOp6
 70
     1
102
RTVSPropertyOp7
 70
     1
102
RTVSPropertyOp8
 70
     1
102
RTVSPropertyOp9
 70
     1
102
RTVSPropertyOp10
 70
     1
102
RTVSPropertyOp11
 70
     1
102
RTVSPropertyOp12
 70
     1
102
RTVSPropertyOp13
 70
     1
102
RTVSPropertyOp14
 70
     1
102
RTVSPropertyOp15
 70
     1
102
RTVSPropertyOp16
 70
     1
102
RTVSPropertyOp17
 70
     1
102
RTVSPropertyOp18
 70
     1
102
RTVSPropertyOp19
 70
     1
102
RTVSPropertyOp20
 70
     1
102
RTVSPropertyOp21
 70
     1
102
RTVSPropertyOp22
 70
     1
102
RTVSPropertyOp23
 70
     1
102
RTVSPropertyOp24
 70
     1
102
RTVSPropertyOp25
 70
     1
102
RTVSPropertyOp26
 70
     1
102
RTVSPropertyOp27
 70
     1
102
RTVSPropertyOp28
 70
     1
102
RTVSPropertyOp29
 70
     1
102
RTVSPropertyOp30
 70
     1
102
RTVSPropertyOp31
 70
     1
102
RTVSPropertyOp32
 70
     1
  0
XRECORD
  5
118
102
{ACAD_REACTORS
330
117
102
}
330
117
100
AcDbXrecord
280
     1
102
RTVSPropertyOp0
 70
     1
102
RTVSPropertyOp1
 70
     1
102
RTVSPropertyOp2
 70
     1
102
RTVSPropertyOp3
 70
     1
102
RTVSPropertyOp4
 70
     1
102
RTVSPropertyOp5
 70
     1
102
RTVSPropertyOp6
 70
     1
102
RTVSPropertyOp7
 70
     1
102
RTVSPropertyOp8
 70
     1
102
RTVSPropertyOp9
 70
     1
102
RTVSPropertyOp10
 70
     1
102
RTVSPropertyOp11
 70
     1
102
RTVSPropertyOp12
 70
     1
102
RTVSPropertyOp13
 70
     1
102
RTVSPropertyOp14
 70
     1
102
RTVSPropertyOp15
 70
     1
102
RTVSPropertyOp16
 70
     1
102
RTVSPropertyOp17
 70
     1
102
RTVSPropertyOp18
 70
     1
102
RTVSPropertyOp19
 70
     1
102
RTVSPropertyOp20
 70
     1
102
RTVSPropertyOp21
 70
     1
102
RTVSPropertyOp22
 70
     1
102
RTVSPropertyOp23
 70
     1
102
RTVSPropertyOp24
 70
     1
102
RTVSPropertyOp25
 70
     1
102
RTVSPropertyOp26
 70
     1
102
RTVSPropertyOp27
 70
     1
102
RTVSPropertyOp28
 70
     1
102
RTVSPropertyOp29
 70
     1
102
RTVSPropertyOp30
 70
     1
102
RTVSPropertyOp31
 70
     1
102
RTVSPropertyOp32
 70
     1
  0
XRECORD
  5
116
102
{ACAD_REACTORS
330
115
102
}
330
115
100
AcDbXrecord
280
     1
102
RTVSPropertyOp0
 70
     1
102
RTVSPropertyOp1
 70
     1
102
RTVSPropertyOp2
 70
     1
102
RTVSPropertyOp3
 70
     1
102
RTVSPropertyOp4
 70
     1
102
RTVSPropertyOp5
 70
     1
102
RTVSPropertyOp6
 70
     1
102
RTVSPropertyOp7
 70
     1
102
RTVSPropertyOp8
 70
     1
102
RTVSPropertyOp9
 70
     1
102
RTVSPropertyOp10
 70
     1
102
RTVSPropertyOp11
 70
     1
102
RTVSPropertyOp12
 70
     1
102
RTVSPropertyOp13
 70
     1
102
RTVSPropertyOp14
 70
     1
102
RTVSPropertyOp15
 70
     1
102
RTVSPropertyOp16
 70
     1
102
RTVSPropertyOp17
 70
     1
102
RTVSPropertyOp18
 70
     1
102
RTVSPropertyOp19
 70
     1
102
RTVSPropertyOp20
 70
     1
102
RTVSPropertyOp21
 70
     1
102
RTVSPropertyOp22
 70
     1
102
RTVSPropertyOp23
 70
     1
102
RTVSPropertyOp24
 70
     1
102
RTVSPropertyOp25
 70
     1
102
RTVSPropertyOp26
 70
     1
102
RTVSPropertyOp27
 70
     1
102
RTVSPropertyOp28
 70
     1
102
RTVSPropertyOp29
 70
     1
102
RTVSPropertyOp30
 70
     1
102
RTVSPropertyOp31
 70
     1
102
RTVSPropertyOp32
 70
     1
  0
XRECORD
  5
11A
102
{ACAD_REACTORS
330
119
102
}
330
119
100
AcDbXrecord
280
     1
102
RTVSPropertyOp0
 70
     1
102
RTVSPropertyOp1
 70
     1
102
RTVSPropertyOp2
 70
     1
102
RTVSPropertyOp3
 70
     1
102
RTVSPropertyOp4
 70
     1
102
RTVSPropertyOp5
 70
     1
102
RTVSPropertyOp6
 70
     1
102
RTVSPropertyOp7
 70
     1
102
RTVSPropertyOp8
 70
     1
102
RTVSPropertyOp9
 70
     1
102
RTVSPropertyOp10
 70
     1
102
RTVSPropertyOp11
 70
     1
102
RTVSPropertyOp12
 70
     1
102
RTVSPropertyOp13
 70
     1
102
RTVSPropertyOp14
 70
     1
102
RTVSPropertyOp15
 70
     1
102
RTVSPropertyOp16
 70
     1
102
RTVSPropertyOp17
 70
     1
102
RTVSPropertyOp18
 70
     1
102
RTVSPropertyOp19
 70
     1
102
RTVSPropertyOp20
 70
     1
102
RTVSPropertyOp21
 70
     1
102
RTVSPropertyOp22
 70
     1
102
RTVSPropertyOp23
 70
     1
102
RTVSPropertyOp24
 70
     1
102
RTVSPropertyOp25
 70
     1
102
RTVSPropertyOp26
 70
     1
102
RTVSPropertyOp27
 70
     1
102
RTVSPropertyOp28
 70
     1
102
RTVSPropertyOp29
 70
     1
102
RTVSPropertyOp30
 70
     1
102
RTVSPropertyOp31
 70
     1
102
RTVSPropertyOp32
 70
     1
  0
XRECORD
  5
122
102
{ACAD_REACTORS
330
121
102
}
330
121
100
AcDbXrecord
280
     1
102
RTVSPropertyOp0
 70
     1
102
RTVSPropertyOp1
 70
     1
102
RTVSPropertyOp2
 70
     1
102
RTVSPropertyOp3
 70
     1
102
RTVSPropertyOp4
 70
     1
102
RTVSPropertyOp5
 70
     1
102
RTVSPropertyOp6
 70
     1
102
RTVSPropertyOp7
 70
     1
102
RTVSPropertyOp8
 70
     1
102
RTVSPropertyOp9
 70
     1
102
RTVSPropertyOp10
 70
     1
102
RTVSPropertyOp11
 70
     1
102
RTVSPropertyOp12
 70
     1
102
RTVSPropertyOp13
 70
     1
102
RTVSPropertyOp14
 70
     1
102
RTVSPropertyOp15
 70
     1
102
RTVSPropertyOp16
 70
     1
102
RTVSPropertyOp17
 70
     1
102
RTVSPropertyOp18
 70
     1
102
RTVSPropertyOp19
 70
     1
102
RTVSPropertyOp20
 70
     1
102
RTVSPropertyOp21
 70
     1
102
RTVSPropertyOp22
 70
     1
102
RTVSPropertyOp23
 70
     1
102
RTVSPropertyOp24
 70
     1
102
RTVSPropertyOp25
 70
     1
102
RTVSPropertyOp26
 70
     1
102
RTVSPropertyOp27
 70
     1
102
RTVSPropertyOp28
 70
     1
102
RTVSPropertyOp29
 70
     1
102
RTVSPropertyOp30
 70
     1
102
RTVSPropertyOp31
 70
     1
102
RTVSPropertyOp32
 70
     1
  0
XRECORD
  5
12A
102
{ACAD_REACTORS
330
129
102
}
330
129
100
AcDbXrecord
280
     1
102
RTVSPropertyOp0
 70
     1
102
RTVSPropertyOp1
 70
     1
102
RTVSPropertyOp2
 70
     1
102
RTVSPropertyOp3
 70
     1
102
RTVSPropertyOp4
 70
     1
102
RTVSPropertyOp5
 70
     1
102
RTVSPropertyOp6
 70
     1
102
RTVSPropertyOp7
 70
     1
102
RTVSPropertyOp8
 70
     1
102
RTVSPropertyOp9
 70
     1
102
RTVSPropertyOp10
 70
     1
102
RTVSPropertyOp11
 70
     1
102
RTVSPropertyOp12
 70
     1
102
RTVSPropertyOp13
 70
     1
102
RTVSPropertyOp14
 70
     1
102
RTVSPropertyOp15
 70
     1
102
RTVSPropertyOp16
 70
     1
102
RTVSPropertyOp17
 70
     1
102
RTVSPropertyOp18
 70
     1
102
RTVSPropertyOp19
 70
     1
102
RTVSPropertyOp20
 70
     1
102
RTVSPropertyOp21
 70
     1
102
RTVSPropertyOp22
 70
     1
102
RTVSPropertyOp23
 70
     1
102
RTVSPropertyOp24
 70
     1
102
RTVSPropertyOp25
 70
     1
102
RTVSPropertyOp26
 70
     1
102
RTVSPropertyOp27
 70
     1
102
RTVSPropertyOp28
 70
     1
102
RTVSPropertyOp29
 70
     1
102
RTVSPropertyOp30
 70
     1
102
RTVSPropertyOp31
 70
     1
102
RTVSPropertyOp32
 70
     1
  0
XRECORD
  5
11E
102
{ACAD_REACTORS
330
11D
102
}
330
11D
100
AcDbXrecord
280
     1
102
RTVSPropertyOp0
 70
     1
102
RTVSPropertyOp1
 70
     1
102
RTVSPropertyOp2
 70
     1
102
RTVSPropertyOp3
 70
     1
102
RTVSPropertyOp4
 70
     1
102
RTVSPropertyOp5
 70
     1
102
RTVSPropertyOp6
 70
     1
102
RTVSPropertyOp7
 70
     1
102
RTVSPropertyOp8
 70
     1
102
RTVSPropertyOp9
 70
     1
102
RTVSPropertyOp10
 70
     1
102
RTVSPropertyOp11
 70
     1
102
RTVSPropertyOp12
 70
     1
102
RTVSPropertyOp13
 70
     1
102
RTVSPropertyOp14
 70
     1
102
RTVSPropertyOp15
 70
     1
102
RTVSPropertyOp16
 70
     1
102
RTVSPropertyOp17
 70
     1
102
RTVSPropertyOp18
 70
     1
102
RTVSPropertyOp19
 70
     1
102
RTVSPropertyOp20
 70
     1
102
RTVSPropertyOp21
 70
     1
102
RTVSPropertyOp22
 70
     1
102
RTVSPropertyOp23
 70
     1
102
RTVSPropertyOp24
 70
     1
102
RTVSPropertyOp25
 70
     1
102
RTVSPropertyOp26
 70
     1
102
RTVSPropertyOp27
 70
     1
102
RTVSPropertyOp28
 70
     1
102
RTVSPropertyOp29
 70
     1
102
RTVSPropertyOp30
 70
     1
102
RTVSPropertyOp31
 70
     1
102
RTVSPropertyOp32
 70
     1
  0
XRECORD
  5
120
102
{ACAD_REACTORS
330
11F
102
}
330
11F
100
AcDbXrecord
280
     1
102
RTVSPropertyOp0
 70
     1
102
RTVSPropertyOp1
 70
     1
102
RTVSPropertyOp2
 70
     1
102
RTVSPropertyOp3
 70
     1
102
RTVSPropertyOp4
 70
     1
102
RTVSPropertyOp5
 70
     1
102
RTVSPropertyOp6
 70
     1
102
RTVSPropertyOp7
 70
     1
102
RTVSPropertyOp8
 70
     1
102
RTVSPropertyOp9
 70
     1
102
RTVSPropertyOp10
 70
     1
102
RTVSPropertyOp11
 70
     1
102
RTVSPropertyOp12
 70
     1
102
RTVSPropertyOp13
 70
     1
102
RTVSPropertyOp14
 70
     1
102
RTVSPropertyOp15
 70
     1
102
RTVSPropertyOp16
 70
     1
102
RTVSPropertyOp17
 70
     1
102
RTVSPropertyOp18
 70
     1
102
RTVSPropertyOp19
 70
     1
102
RTVSPropertyOp20
 70
     1
102
RTVSPropertyOp21
 70
     1
102
RTVSPropertyOp22
 70
     1
102
RTVSPropertyOp23
 70
     1
102
RTVSPropertyOp24
 70
     1
102
RTVSPropertyOp25
 70
     1
102
RTVSPropertyOp26
 70
     1
102
RTVSPropertyOp27
 70
     1
102
RTVSPropertyOp28
 70
     1
102
RTVSPropertyOp29
 70
     1
102
RTVSPropertyOp30
 70
     1
102
RTVSPropertyOp31
 70
     1
102
RTVSPropertyOp32
 70
     1
  0
XRECORD
  5
128
102
{ACAD_REACTORS
330
127
102
}
330
127
100
AcDbXrecord
280
     1
102
RTVSPropertyOp0
 70
     1
102
RTVSPropertyOp1
 70
     1
102
RTVSPropertyOp2
 70
     1
102
RTVSPropertyOp3
 70
     1
102
RTVSPropertyOp4
 70
     1
102
RTVSPropertyOp5
 70
     1
102
RTVSPropertyOp6
 70
     1
102
RTVSPropertyOp7
 70
     1
102
RTVSPropertyOp8
 70
     1
102
RTVSPropertyOp9
 70
     1
102
RTVSPropertyOp10
 70
     1
102
RTVSPropertyOp11
 70
     1
102
RTVSPropertyOp12
 70
     1
102
RTVSPropertyOp13
 70
     1
102
RTVSPropertyOp14
 70
     1
102
RTVSPropertyOp15
 70
     1
102
RTVSPropertyOp16
 70
     1
102
RTVSPropertyOp17
 70
     1
102
RTVSPropertyOp18
 70
     1
102
RTVSPropertyOp19
 70
     1
102
RTVSPropertyOp20
 70
     1
102
RTVSPropertyOp21
 70
     1
102
RTVSPropertyOp22
 70
     1
102
RTVSPropertyOp23
 70
     1
102
RTVSPropertyOp24
 70
     1
102
RTVSPropertyOp25
 70
     1
102
RTVSPropertyOp26
 70
     1
102
RTVSPropertyOp27
 70
     1
102
RTVSPropertyOp28
 70
     1
102
RTVSPropertyOp29
 70
     1
102
RTVSPropertyOp30
 70
     1
102
RTVSPropertyOp31
 70
     1
102
RTVSPropertyOp32
 70
     1
  0
XRECORD
  5
10C
102
{ACAD_REACTORS
330
10B
102
}
330
10B
100
AcDbXrecord
280
     1
102
RTVSPropertyOp0
 70
     1
102
RTVSPropertyOp1
 70
     1
102
RTVSPropertyOp2
 70
     1
102
RTVSPropertyOp3
 70
     1
102
RTVSPropertyOp4
 70
     1
102
RTVSPropertyOp5
 70
     1
102
RTVSPropertyOp6
 70
     1
102
RTVSPropertyOp7
 70
     1
102
RTVSPropertyOp8
 70
     1
102
RTVSPropertyOp9
 70
     1
102
RTVSPropertyOp10
 70
     1
102
RTVSPropertyOp11
 70
     1
102
RTVSPropertyOp12
 70
     1
102
RTVSPropertyOp13
 70
     1
102
RTVSPropertyOp14
 70
     1
102
RTVSPropertyOp15
 70
     1
102
RTVSPropertyOp16
 70
     1
102
RTVSPropertyOp17
 70
     1
102
RTVSPropertyOp18
 70
     1
102
RTVSPropertyOp19
 70
     1
102
RTVSPropertyOp20
 70
     1
102
RTVSPropertyOp21
 70
     1
102
RTVSPropertyOp22
 70
     1
102
RTVSPropertyOp23
 70
     1
102
RTVSPropertyOp24
 70
     1
102
RTVSPropertyOp25
 70
     1
102
RTVSPropertyOp26
 70
     1
102
RTVSPropertyOp27
 70
     1
102
RTVSPropertyOp28
 70
     1
102
RTVSPropertyOp29
 70
     1
102
RTVSPropertyOp30
 70
     1
102
RTVSPropertyOp31
 70
     1
102
RTVSPropertyOp32
 70
     1
  0
XRECORD
  5
10E
102
{ACAD_REACTORS
330
10D
102
}
330
10D
100
AcDbXrecord
280
     1
102
RTVSPropertyOp0
 70
     1
102
RTVSPropertyOp1
 70
     1
102
RTVSPropertyOp2
 70
     1
102
RTVSPropertyOp3
 70
     1
102
RTVSPropertyOp4
 70
     1
102
RTVSPropertyOp5
 70
     1
102
RTVSPropertyOp6
 70
     1
102
RTVSPropertyOp7
 70
     1
102
RTVSPropertyOp8
 70
     1
102
RTVSPropertyOp9
 70
     1
102
RTVSPropertyOp10
 70
     1
102
RTVSPropertyOp11
 70
     1
102
RTVSPropertyOp12
 70
     1
102
RTVSPropertyOp13
 70
     1
102
RTVSPropertyOp14
 70
     1
102
RTVSPropertyOp15
 70
     1
102
RTVSPropertyOp16
 70
     1
102
RTVSPropertyOp17
 70
     1
102
RTVSPropertyOp18
 70
     1
102
RTVSPropertyOp19
 70
     1
102
RTVSPropertyOp20
 70
     1
102
RTVSPropertyOp21
 70
     1
102
RTVSPropertyOp22
 70
     1
102
RTVSPropertyOp23
 70
     1
102
RTVSPropertyOp24
 70
     1
102
RTVSPropertyOp25
 70
     1
102
RTVSPropertyOp26
 70
     1
102
RTVSPropertyOp27
 70
     1
102
RTVSPropertyOp28
 70
     1
102
RTVSPropertyOp29
 70
     1
102
RTVSPropertyOp30
 70
     1
102
RTVSPropertyOp31
 70
     1
102
RTVSPropertyOp32
 70
     1
  0
XRECORD
  5
110
102
{ACAD_REACTORS
330
10F
102
}
330
10F
100
AcDbXrecord
280
     1
102
RTVSPropertyOp0
 70
     1
102
RTVSPropertyOp1
 70
     1
102
RTVSPropertyOp2
 70
     1
102
RTVSPropertyOp3
 70
     1
102
RTVSPropertyOp4
 70
     1
102
RTVSPropertyOp5
 70
     1
102
RTVSPropertyOp6
 70
     1
102
RTVSPropertyOp7
 70
     1
102
RTVSPropertyOp8
 70
     1
102
RTVSPropertyOp9
 70
     1
102
RTVSPropertyOp10
 70
     1
102
RTVSPropertyOp11
 70
     1
102
RTVSPropertyOp12
 70
     1
102
RTVSPropertyOp13
 70
     1
102
RTVSPropertyOp14
 70
     1
102
RTVSPropertyOp15
 70
     1
102
RTVSPropertyOp16
 70
     1
102
RTVSPropertyOp17
 70
     1
102
RTVSPropertyOp18
 70
     1
102
RTVSPropertyOp19
 70
     1
102
RTVSPropertyOp20
 70
     1
102
RTVSPropertyOp21
 70
     1
102
RTVSPropertyOp22
 70
     1
102
RTVSPropertyOp23
 70
     1
102
RTVSPropertyOp24
 70
     1
102
RTVSPropertyOp25
 70
     1
102
RTVSPropertyOp26
 70
     1
102
RTVSPropertyOp27
 70
     1
102
RTVSPropertyOp28
 70
     1
102
RTVSPropertyOp29
 70
     1
102
RTVSPropertyOp30
 70
     1
102
RTVSPropertyOp31
 70
     1
102
RTVSPropertyOp32
 70
     1
  0
XRECORD
  5
112
102
{ACAD_REACTORS
330
111
102
}
330
111
100
AcDbXrecord
280
     1
102
RTVSPropertyOp0
 70
     1
102
RTVSPropertyOp1
 70
     1
102
RTVSPropertyOp2
 70
     1
102
RTVSPropertyOp3
 70
     1
102
RTVSPropertyOp4
 70
     1
102
RTVSPropertyOp5
 70
     1
102
RTVSPropertyOp6
 70
     1
102
RTVSPropertyOp7
 70
     1
102
RTVSPropertyOp8
 70
     1
102
RTVSPropertyOp9
 70
     1
102
RTVSPropertyOp10
 70
     1
102
RTVSPropertyOp11
 70
     1
102
RTVSPropertyOp12
 70
     1
102
RTVSPropertyOp13
 70
     1
102
RTVSPropertyOp14
 70
     1
102
RTVSPropertyOp15
 70
     1
102
RTVSPropertyOp16
 70
     1
102
RTVSPropertyOp17
 70
     1
102
RTVSPropertyOp18
 70
     1
102
RTVSPropertyOp19
 70
     1
102
RTVSPropertyOp20
 70
     1
102
RTVSPropertyOp21
 70
     1
102
RTVSPropertyOp22
 70
     1
102
RTVSPropertyOp23
 70
     1
102
RTVSPropertyOp24
 70
     1
102
RTVSPropertyOp25
 70
     1
102
RTVSPropertyOp26
 70
     1
102
RTVSPropertyOp27
 70
     1
102
RTVSPropertyOp28
 70
     1
102
RTVSPropertyOp29
 70
     1
102
RTVSPropertyOp30
 70
     1
102
RTVSPropertyOp31
 70
     1
102
RTVSPropertyOp32
 70
     1
  0
XRECORD
  5
126
102
{ACAD_REACTORS
330
125
102
}
330
125
100
AcDbXrecord
280
     1
102
RTVSPropertyOp0
 70
     1
102
RTVSPropertyOp1
 70
     1
102
RTVSPropertyOp2
 70
     1
102
RTVSPropertyOp3
 70
     1
102
RTVSPropertyOp4
 70
     1
102
RTVSPropertyOp5
 70
     1
102
RTVSPropertyOp6
 70
     1
102
RTVSPropertyOp7
 70
     1
102
RTVSPropertyOp8
 70
     1
102
RTVSPropertyOp9
 70
     1
102
RTVSPropertyOp10
 70
     1
102
RTVSPropertyOp11
 70
     1
102
RTVSPropertyOp12
 70
     1
102
RTVSPropertyOp13
 70
     1
102
RTVSPropertyOp14
 70
     1
102
RTVSPropertyOp15
 70
     1
102
RTVSPropertyOp16
 70
     1
102
RTVSPropertyOp17
 70
     1
102
RTVSPropertyOp18
 70
     1
102
RTVSPropertyOp19
 70
     1
102
RTVSPropertyOp20
 70
     1
102
RTVSPropertyOp21
 70
     1
102
RTVSPropertyOp22
 70
     1
102
RTVSPropertyOp23
 70
     1
102
RTVSPropertyOp24
 70
     1
102
RTVSPropertyOp25
 70
     1
102
RTVSPropertyOp26
 70
     1
102
RTVSPropertyOp27
 70
     1
102
RTVSPropertyOp28
 70
     1
102
RTVSPropertyOp29
 70
     1
102
RTVSPropertyOp30
 70
     1
102
RTVSPropertyOp31
 70
     1
102
RTVSPropertyOp32
 70
     1
  0
XRECORD
  5
11C
102
{ACAD_REACTORS
330
11B
102
}
330
11B
100
AcDbXrecord
280
     1
102
RTVSPropertyOp0
 70
     1
102
RTVSPropertyOp1
 70
     1
102
RTVSPropertyOp2
 70
     1
102
RTVSPropertyOp3
 70
     1
102
RTVSPropertyOp4
 70
     1
102
RTVSPropertyOp5
 70
     1
102
RTVSPropertyOp6
 70
     1
102
RTVSPropertyOp7
 70
     1
102
RTVSPropertyOp8
 70
     1
102
RTVSPropertyOp9
 70
     1
102
RTVSPropertyOp10
 70
     1
102
RTVSPropertyOp11
 70
     1
102
RTVSPropertyOp12
 70
     1
102
RTVSPropertyOp13
 70
     1
102
RTVSPropertyOp14
 70
     1
102
RTVSPropertyOp15
 70
     1
102
RTVSPropertyOp16
 70
     1
102
RTVSPropertyOp17
 70
     1
102
RTVSPropertyOp18
 70
     1
102
RTVSPropertyOp19
 70
     1
102
RTVSPropertyOp20
 70
     1
102
RTVSPropertyOp21
 70
     1
102
RTVSPropertyOp22
 70
     1
102
RTVSPropertyOp23
 70
     1
102
RTVSPropertyOp24
 70
     1
102
RTVSPropertyOp25
 70
     1
102
RTVSPropertyOp26
 70
     1
102
RTVSPropertyOp27
 70
     1
102
RTVSPropertyOp28
 70
     1
102
RTVSPropertyOp29
 70
     1
102
RTVSPropertyOp30
 70
     1
102
RTVSPropertyOp31
 70
     1
102
RTVSPropertyOp32
 70
     1
  0
XRECORD
  5
124
102
{ACAD_REACTORS
330
123
102
}
330
123
100
AcDbXrecord
280
     1
102
RTVSPropertyOp0
 70
     1
102
RTVSPropertyOp1
 70
     1
102
RTVSPropertyOp2
 70
     1
102
RTVSPropertyOp3
 70
     1
102
RTVSPropertyOp4
 70
     1
102
RTVSPropertyOp5
 70
     1
102
RTVSPropertyOp6
 70
     1
102
RTVSPropertyOp7
 70
     1
102
RTVSPropertyOp8
 70
     1
102
RTVSPropertyOp9
 70
     1
102
RTVSPropertyOp10
 70
     1
102
RTVSPropertyOp11
 70
     1
102
RTVSPropertyOp12
 70
     1
102
RTVSPropertyOp13
 70
     1
102
RTVSPropertyOp14
 70
     1
102
RTVSPropertyOp15
 70
     1
102
RTVSPropertyOp16
 70
     1
102
RTVSPropertyOp17
 70
     1
102
RTVSPropertyOp18
 70
     1
102
RTVSPropertyOp19
 70
     1
102
RTVSPropertyOp20
 70
     1
102
RTVSPropertyOp21
 70
     1
102
RTVSPropertyOp22
 70
     1
102
RTVSPropertyOp23
 70
     1
102
RTVSPropertyOp24
 70
     1
102
RTVSPropertyOp25
 70
     1
102
RTVSPropertyOp26
 70
     1
102
RTVSPropertyOp27
 70
     1
102
RTVSPropertyOp28
 70
     1
102
RTVSPropertyOp29
 70
     1
102
RTVSPropertyOp30
 70
     1
102
RTVSPropertyOp31
 70
     1
102
RTVSPropertyOp32
 70
     1
  0
ENDSEC
  0
EOF
