  0
SECTION
  2
HEADER
  9
$ACADVER
  1
AC1021
  9
$ACADMAINTVER
 70
    25
  9
$DWGCODEPAGE
  3
ANSI_1252
  9
$INSBASE
 10
0.0
 20
0.0
 30
0.0
  9
$EXTMIN
 10
-7.44737
 20
-9.38365
 30
0.0
  9
$EXTMAX
 10
9.4112
 20
7.73206
 30
0.0
  9
$LIMMIN
 10
0.0
 20
0.0
  9
$LIMMAX
 10
12.0
 20
9.0
  9
$ORTHOMODE
 70
     0
  9
$REGENMODE
 70
     1
  9
$FILLMODE
 70
     1
  9
$QTEXTMODE
 70
     0
  9
$MIRRTEXT
 70
     1
  9
$LTSCALE
 40
1.0
  9
$ATTMODE
 70
     1
  9
$TEXTSIZE
 40
0.2
  9
$TRACEWID
 40
0.05
  9
$TEXTSTYLE
  7
Standard
  9
$CLAYER
  8
0
  9
$CELTYPE
  6
ByLayer
  9
$CECOLOR
 62
   256
  9
$CELTSCALE
 40
1.0
  9
$DISPSILH
 70
     0
  9
$DIMSCALE
 40
1.0
  9
$DIMASZ
 40
0.18
  9
$DIMEXO
 40
0.0625
  9
$DIMDLI
 40
0.38
  9
$DIMRND
 40
0.0
  9
$DIMDLE
 40
0.0
  9
$DIMEXE
 40
0.18
  9
$DIMTP
 40
0.0
  9
$DIMTM
 40
0.0
  9
$DIMTXT
 40
0.18
  9
$DIMCEN
 40
0.09
  9
$DIMTSZ
 40
0.0
  9
$DIMTOL
 70
     0
  9
$DIMLIM
 70
     0
  9
$DIMTIH
 70
     1
  9
$DIMTOH
 70
     1
  9
$DIMSE1
 70
     0
  9
$DIMSE2
 70
     0
  9
$DIMTAD
 70
     0
  9
$DIMZIN
 70
     0
  9
$DIMBLK
  1

  9
$DIMASO
 70
     1
  9
$DIMSHO
 70
     1
  9
$DIMPOST
  1

  9
$DIMAPOST
  1

  9
$DIMALT
 70
     0
  9
$DIMALTD
 70
     2
  9
$DIMALTF
 40
25.4
  9
$DIMLFAC
 40
1.0
  9
$DIMTOFL
 70
     0
  9
$DIMTVP
 40
0.0
  9
$DIMTIX
 70
     0
  9
$DIMSOXD
 70
     0
  9
$DIMSAH
 70
     0
  9
$DIMBLK1
  1

  9
$DIMBLK2
  1

  9
$DIMSTYLE
  2
Standard
  9
$DIMCLRD
 70
     0
  9
$DIMCLRE
 70
     0
  9
$DIMCLRT
 70
     0
  9
$DIMTFAC
 40
1.0
  9
$DIMGAP
 40
0.09
  9
$DIMJUST
 70
     0
  9
$DIMSD1
 70
     0
  9
$DIMSD2
 70
     0
  9
$DIMTOLJ
 70
     1
  9
$DIMTZIN
 70
     0
  9
$DIMALTZ
 70
     0
  9
$DIMALTTZ
 70
     0
  9
$DIMUPT
 70
     0
  9
$DIMDEC
 70
     4
  9
$DIMTDEC
 70
     4
  9
$DIMALTU
 70
     2
  9
$DIMALTTD
 70
     2
  9
$DIMTXSTY
  7
Standard
  9
$DIMAUNIT
 70
     0
  9
$DIMADEC
 70
     0
  9
$DIMALTRND
 40
0.0
  9
$DIMAZIN
 70
     0
  9
$DIMDSEP
 70
    46
  9
$DIMATFIT
 70
     3
  9
$DIMFRAC
 70
     0
  9
$DIMLDRBLK
  1

  9
$DIMLUNIT
 70
     2
  9
$DIMLWD
 70
    -2
  9
$DIMLWE
 70
    -2
  9
$DIMTMOVE
 70
     0
  9
$DIMFXL
 40
1.0
  9
$DIMFXLON
 70
     0
  9
$DIMJOGANG
 40
0.7853981633974483
  9
$DIMTFILL
 70
     0
  9
$DIMTFILLCLR
 70
     0
  9
$DIMARCSYM
 70
     0
  9
$DIMLTYPE
  6

  9
$DIMLTEX1
  6

  9
$DIMLTEX2
  6

  9
$LUNITS
 70
     2
  9
$LUPREC
 70
     4
  9
$SKETCHINC
 40
0.1
  9
$FILLETRAD
 40
0.5
  9
$AUNITS
 70
     0
  9
$AUPREC
 70
     0
  9
$MENU
  1
.
  9
$ELEVATION
 40
0.0
  9
$PELEVATION
 40
0.0
  9
$THICKNESS
 40
0.0
  9
$LIMCHECK
 70
     0
  9
$CHAMFERA
 40
0.5
  9
$CHAMFERB
 40
0.5
  9
$CHAMFERC
 40
1.0
  9
$CHAMFERD
 40
0.0
  9
$SKPOLY
 70
     0
  9
$TDCREATE
 40
2456231.94049765
  9
$TDUCREATE
 40
2456232.107164317
  9
$TDUPDATE
 40
2456231.940497685
  9
$TDUUPDATE
 40
2456232.107164352
  9
$TDINDWG
 40
0.0000000116
  9
$TDUSRTIMER
 40
0.0000000116
  9
$USRTIMER
 70
     1
  9
$ANGBASE
 50
0.0
  9
$ANGDIR
 70
     0
  9
$PDMODE
 70
     0
  9
$PDSIZE
 40
0.0
  9
$PLINEWID
 40
0.0
  9
$SPLFRAME
 70
     0
  9
$SPLINETYPE
 70
     6
  9
$SPLINESEGS
 70
     8
  9
$HANDSEED
  5
9A
  9
$SURFTAB1
 70
     6
  9
$SURFTAB2
 70
     6
  9
$SURFTYPE
 70
     6
  9
$SURFU
 70
     6
  9
$SURFV
 70
     6
  9
$UCSBASE
  2

  9
$UCSNAME
  2

  9
$UCSORG
 10
0.0
 20
0.0
 30
0.0
  9
$UCSXDIR
 10
1.0
 20
0.0
 30
0.0
  9
$UCSYDIR
 10
0.0
 20
1.0
 30
0.0
  9
$UCSORTHOREF
  2

  9
$UCSORTHOVIEW
 70
     0
  9
$UCSORGTOP
 10
0.0
 20
0.0
 30
0.0
  9
$UCSORGBOTTOM
 10
0.0
 20
0.0
 30
0.0
  9
$UCSORGLEFT
 10
0.0
 20
0.0
 30
0.0
  9
$UCSORGRIGHT
 10
0.0
 20
0.0
 30
0.0
  9
$UCSORGFRONT
 10
0.0
 20
0.0
 30
0.0
  9
$UCSORGBACK
 10
0.0
 20
0.0
 30
0.0
  9
$PUCSBASE
  2

  9
$PUCSNAME
  2

  9
$PUCSORG
 10
0.0
 20
0.0
 30
0.0
  9
$PUCSXDIR
 10
1.0
 20
0.0
 30
0.0
  9
$PUCSYDIR
 10
0.0
 20
1.0
 30
0.0
  9
$PUCSORTHOREF
  2

  9
$PUCSORTHOVIEW
 70
     0
  9
$PUCSORGTOP
 10
0.0
 20
0.0
 30
0.0
  9
$PUCSORGBOTTOM
 10
0.0
 20
0.0
 30
0.0
  9
$PUCSORGLEFT
 10
0.0
 20
0.0
 30
0.0
  9
$PUCSORGRIGHT
 10
0.0
 20
0.0
 30
0.0
  9
$PUCSORGFRONT
 10
0.0
 20
0.0
 30
0.0
  9
$PUCSORGBACK
 10
0.0
 20
0.0
 30
0.0
  9
$USERI1
 70
     0
  9
$USERI2
 70
     0
  9
$USERI3
 70
     0
  9
$USERI4
 70
     0
  9
$USERI5
 70
     0
  9
$USERR1
 40
0.0
  9
$USERR2
 40
0.0
  9
$USERR3
 40
0.0
  9
$USERR4
 40
0.0
  9
$USERR5
 40
0.0
  9
$WORLDVIEW
 70
     1
  9
$SHADEDGE
 70
     3
  9
$SHADEDIF
 70
    70
  9
$TILEMODE
 70
     1
  9
$MAXACTVP
 70
    64
  9
$PINSBASE
 10
0.0
 20
0.0
 30
0.0
  9
$PLIMCHECK
 70
     0
  9
$PEXTMIN
 10
1.000000000000000E+20
 20
1.000000000000000E+20
 30
1.000000000000000E+20
  9
$PEXTMAX
 10
-1.000000000000000E+20
 20
-1.000000000000000E+20
 30
-1.000000000000000E+20
  9
$PLIMMIN
 10
0.0
 20
0.0
  9
$PLIMMAX
 10
12.0
 20
9.0
  9
$UNITMODE
 70
     0
  9
$VISRETAIN
 70
     1
  9
$PLINEGEN
 70
     0
  9
$PSLTSCALE
 70
     1
  9
$TREEDEPTH
 70
  3020
  9
$CMLSTYLE
  2
Standard
  9
$CMLJUST
 70
     0
  9
$CMLSCALE
 40
1.0
  9
$PROXYGRAPHICS
 70
     1
  9
$MEASUREMENT
 70
     0
  9
$CELWEIGHT
370
    -1
  9
$ENDCAPS
280
     0
  9
$JOINSTYLE
280
     0
  9
$LWDISPLAY
290
     0
  9
$INSUNITS
 70
     5
  9
$HYPERLINKBASE
  1

  9
$STYLESHEET
  1

  9
$XEDIT
290
     1
  9
$CEPSNTYPE
380
     0
  9
$PSTYLEMODE
290
     1
  9
$FINGERPRINTGUID
  2
{533C70BB-50D1-4DFB-8B76-9332DFCA619D}
  9
$VERSIONGUID
  2
{FAEB1C32-E019-11D5-929B-00C0DF256EC4}
  9
$EXTNAMES
290
     1
  9
$PSVPSCALE
 40
0.0
  9
$OLESTARTUP
290
     0
  9
$SORTENTS
280
   127
  9
$INDEXCTL
280
     0
  9
$HIDETEXT
280
     1
  9
$XCLIPFRAME
290
     0
  9
$HALOGAP
280
     0
  9
$OBSCOLOR
 70
   257
  9
$OBSLTYPE
280
     0
  9
$INTERSECTIONDISPLAY
280
     0
  9
$INTERSECTIONCOLOR
 70
   257
  9
$DIMASSOC
280
     2
  9
$PROJECTNAME
  1

  9
$CAMERADISPLAY
290
     0
  9
$LENSLENGTH
 40
50.0
  9
$CAMERAHEIGHT
 40
0.0
  9
$STEPSPERSEC
 40
2.0
  9
$STEPSIZE
 40
6.0
  9
$3DDWFPREC
 40
2.0
  9
$PSOLWIDTH
 40
0.25
  9
$PSOLHEIGHT
 40
4.0
  9
$LOFTANG1
 40
1.570796326794897
  9
$LOFTANG2
 40
1.570796326794897
  9
$LOFTMAG1
 40
0.0
  9
$LOFTMAG2
 40
0.0
  9
$LOFTPARAM
 70
     7
  9
$LOFTNORMALS
280
     1
  9
$LATITUDE
 40
37.795
  9
$LONGITUDE
 40
-122.394
  9
$NORTHDIRECTION
 40
0.0
  9
$TIMEZONE
 70
 -8000
  9
$LIGHTGLYPHDISPLAY
280
     1
  9
$TILEMODELIGHTSYNCH
280
     1
  9
$SOLIDHIST
280
     1
  9
$SHOWHIST
280
     1
  9
$DWFFRAME
280
     2
  9
$DGNFRAME
280
     2
  9
$REALWORLDSCALE
290
     1
  9
$INTERFERECOLOR
 62
   256
  9
$CSHADOW
280
     0
  9
$SHADOWPLANELOCATION
 40
0.0
  0
ENDSEC
  0
SECTION
  2
CLASSES
  0
CLASS
  1
ACDBDICTIONARYWDFLT
  2
AcDbDictionaryWithDefault
  3
ObjectDBX Classes
 90
        0
 91
        4
280
     0
281
     0
  0
CLASS
  1
VISUALSTYLE
  2
AcDbVisualStyle
  3
ObjectDBX Classes
 90
     4095
 91
        4
280
     0
281
     0
  0
CLASS
  1
MATERIAL
  2
AcDbMaterial
  3
ObjectDBX Classes
 90
     1153
 91
        4
280
     0
281
     0
  0
ENDSEC
  0
SECTION
  2
TABLES
  0
TABLE
  2
VPORT
  5
8
330
0
100
AcDbSymbolTable
 70
     1
  0
VPORT
  5
29
330
8
100
AcDbSymbolTableRecord
100
AcDbViewportTableRecord
  2
*Active
 70
     0
 10
0.0
 20
0.0
 11
1.0
 21
1.0
 12
10.42990654205607
 22
4.5
 13
0.0
 23
0.0
 14
0.5
 24
0.5
 15
0.5
 25
0.5
 16
0.0
 26
0.0
 36
1.0
 17
0.0
 27
0.0
 37
0.0
 40
9.0
 41
1.972972972850329
 42
50.0
 43
0.0
 44
0.0
 50
0.0
 51
0.0
 71
     0
 72
   100
 73
     1
 74
     3
 75
     0
 76
     0
 77
     0
 78
     0
281
     0
 65
     1
110
0.0
120
0.0
130
0.0
111
1.0
121
0.0
131
0.0
112
0.0
122
1.0
132
0.0
 79
     0
146
0.0
 60
     3
 61
     5
292
     1
282
     1
141
0.0
142
0.0
 63
   250
  0
ENDTAB
  0
TABLE
  2
LTYPE
  5
5
330
0
100
AcDbSymbolTable
 70
     1
  0
LTYPE
  5
14
330
5
100
AcDbSymbolTableRecord
100
AcDbLinetypeTableRecord
  2
ByBlock
 70
     0
  3

 72
    65
 73
     0
 40
0.0
  0
LTYPE
  5
15
330
5
100
AcDbSymbolTableRecord
100
AcDbLinetypeTableRecord
  2
ByLayer
 70
     0
  3

 72
    65
 73
     0
 40
0.0
  0
LTYPE
  5
16
330
5
100
AcDbSymbolTableRecord
100
AcDbLinetypeTableRecord
  2
Continuous
 70
     0
  3
Solid line
 72
    65
 73
     0
 40
0.0
  0
ENDTAB
  0
TABLE
  2
LAYER
  5
2
330
0
100
AcDbSymbolTable
 70
     3
  0
LAYER
  5
10
330
2
100
AcDbSymbolTableRecord
100
AcDbLayerTableRecord
  2
0
 70
     0
 62
     7
  6
Continuous
370
    -3
390
F
347
3E
  0
LAYER
  5
40
330
2
100
AcDbSymbolTableRecord
100
AcDbLayerTableRecord
  2
Layer 1
 70
     0
 62
     7
  6
Continuous
370
    -3
390
F
347
3E
  0
LAYER
  5
54
330
2
100
AcDbSymbolTableRecord
100
AcDbLayerTableRecord
  2
layer 2
 70
     0
 62
     7
  6
Continuous
370
    -3
390
F
347
3E
  0
ENDTAB
  0
TABLE
  2
STYLE
  5
3
330
0
100
AcDbSymbolTable
 70
     1
  0
STYLE
  5
11
330
3
100
AcDbSymbolTableRecord
100
AcDbTextStyleTableRecord
  2
Standard
 70
     0
 40
0.0
 41
1.0
 50
0.0
 71
     0
 42
0.2
  3
txt
  4

  0
ENDTAB
  0
TABLE
  2
VIEW
  5
6
330
0
100
AcDbSymbolTable
 70
     0
  0
ENDTAB
  0
TABLE
  2
UCS
  5
7
330
0
100
AcDbSymbolTable
 70
     0
  0
ENDTAB
  0
TABLE
  2
APPID
  5
9
330
0
100
AcDbSymbolTable
 70
     2
  0
APPID
  5
12
330
9
100
AcDbSymbolTableRecord
100
AcDbRegAppTableRecord
  2
ACAD
 70
     0
  0
APPID
  5
3F
330
9
100
AcDbSymbolTableRecord
100
AcDbRegAppTableRecord
  2
ODA
 70
     0
  0
ENDTAB
  0
TABLE
  2
DIMSTYLE
  5
A
330
0
100
AcDbSymbolTable
 70
     1
100
AcDbDimStyleTable
  0
DIMSTYLE
105
27
330
A
100
AcDbSymbolTableRecord
100
AcDbDimStyleTableRecord
  2
Standard
 70
     0
178
     0
340
11
  0
ENDTAB
  0
TABLE
  2
BLOCK_RECORD
  5
1
330
0
100
AcDbSymbolTable
 70
     1
  0
BLOCK_RECORD
  5
1F
330
1
100
AcDbSymbolTableRecord
100
AcDbBlockTableRecord
  2
*Model_Space
340
22
 70
     0
280
     1
281
     0
  0
BLOCK_RECORD
  5
1B
330
1
100
AcDbSymbolTableRecord
100
AcDbBlockTableRecord
  2
*Paper_Space
340
1E
 70
     0
280
     1
281
     0
  0
BLOCK_RECORD
  5
23
330
1
100
AcDbSymbolTableRecord
100
AcDbBlockTableRecord
  2
*Paper_Space0
340
26
 70
     0
280
     1
281
     0
  0
ENDTAB
  0
ENDSEC
  0
SECTION
  2
BLOCKS
  0
BLOCK
  5
20
330
1F
100
AcDbEntity
  8
0
100
AcDbBlockBegin
  2
*Model_Space
 70
     0
 10
0.0
 20
0.0
 30
0.0
  3
*Model_Space
  1

  0
ENDBLK
  5
21
330
1F
100
AcDbEntity
  8
0
100
AcDbBlockEnd
  0
BLOCK
  5
1C
330
1B
100
AcDbEntity
 67
     1
  8
0
100
AcDbBlockBegin
  2
*Paper_Space
 70
     0
 10
0.0
 20
0.0
 30
0.0
  3
*Paper_Space
  1

  0
ENDBLK
  5
1D
330
1B
100
AcDbEntity
 67
     1
  8
0
100
AcDbBlockEnd
  0
BLOCK
  5
24
330
23
100
AcDbEntity
  8
0
100
AcDbBlockBegin
  2
*Paper_Space0
 70
     0
 10
0.0
 20
0.0
 30
0.0
  3
*Paper_Space0
  1

  0
ENDBLK
  5
25
330
23
100
AcDbEntity
  8
0
100
AcDbBlockEnd
  0
ENDSEC
  0
SECTION
  2
ENTITIES
  0
SPLINE
  5
41
330
1F
100
AcDbEntity
  8
Layer 1
 62
   250
100
AcDbSpline
210
0.0
220
0.0
230
1.0
 70
    11
 71
     3
 72
    36
 73
    32
 74
     0
 42
0.0000000001
 43
0.0000000001
 12
1.0
 22
0.0
 32
0.0
 13
1.0
 23
0.0
 33
0.0
 40
0.0
 40
0.0
 40
0.0
 40
0.0
 40
0.1111111111111111
 40
0.1111111111111111
 40
0.1111111111111111
 40
0.1111111111111111
 40
0.2222222222222222
 40
0.2222222222222222
 40
0.2222222222222222
 40
0.2222222222222222
 40
0.3333333333333333
 40
0.3333333333333333
 40
0.3333333333333333
 40
0.3333333333333333
 40
0.4444444444444444
 40
0.4444444444444444
 40
0.4444444444444444
 40
0.4444444444444444
 40
0.5555555555555556
 40
0.5555555555555556
 40
0.5555555555555556
 40
0.5555555555555556
 40
0.6666666666666666
 40
0.6666666666666666
 40
0.6666666666666666
 40
0.6666666666666666
 40
0.7777777777777778
 40
0.7777777777777778
 40
0.7777777777777778
 40
0.7777777777777778
 40
1.0
 40
1.0
 40
1.0
 40
1.0
 10
-3.22779
 20
-9.37349
 30
0.0
 10
-3.22779
 20
-9.37349
 30
0.0
 10
-3.22779
 20
-8.83839
 30
0.0
 10
-3.22779
 20
-8.83839
 30
0.0
 10
-3.22779
 20
-8.83839
 30
0.0
 10
-3.22779
 20
-8.83839
 30
0.0
 10
-3.42761
 20
-8.83839
 30
0.0
 10
-3.42761
 20
-8.83839
 30
0.0
 10
-3.42761
 20
-8.83839
 30
0.0
 10
-3.42761
 20
-8.83839
 30
0.0
 10
-3.42761
 20
-8.76727
 30
0.0
 10
-3.42761
 20
-8.76727
 30
0.0
 10
-3.42761
 20
-8.76727
 30
0.0
 10
-3.42761
 20
-8.76727
 30
0.0
 10
-2.94754
 20
-8.76727
 30
0.0
 10
-2.94754
 20
-8.76727
 30
0.0
 10
-2.94754
 20
-8.76727
 30
0.0
 10
-2.94754
 20
-8.76727
 30
0.0
 10
-2.94754
 20
-8.83839
 30
0.0
 10
-2.94754
 20
-8.83839
 30
0.0
 10
-2.94754
 20
-8.83839
 30
0.0
 10
-2.94754
 20
-8.83839
 30
0.0
 10
-3.14736
 20
-8.83839
 30
0.0
 10
-3.14736
 20
-8.83839
 30
0.0
 10
-3.14736
 20
-8.83839
 30
0.0
 10
-3.14736
 20
-8.83839
 30
0.0
 10
-3.14736
 20
-9.37349
 30
0.0
 10
-3.14736
 20
-9.37349
 30
0.0
 10
-3.14736
 20
-9.37349
 30
0.0
 10
-3.14736
 20
-9.37349
 30
0.0
 10
-3.22779
 20
-9.37349
 30
0.0
 10
-3.22779
 20
-9.37349
 30
0.0
  0
SPLINE
  5
42
330
1F
100
AcDbEntity
  8
Layer 1
 62
   250
100
AcDbSpline
210
0.0
220
0.0
230
1.0
 70
    11
 71
     3
 72
    92
 73
    88
 74
     0
 42
0.0000000001
 43
0.0000000001
 12
1.0
 22
0.0
 32
0.0
 13
1.0
 23
0.0
 33
0.0
 40
0.0
 40
0.0
 40
0.0
 40
0.0
 40
0.0434782608695652
 40
0.0434782608695652
 40
0.0434782608695652
 40
0.0434782608695652
 40
0.0869565217391304
 40
0.0869565217391304
 40
0.0869565217391304
 40
0.0869565217391304
 40
0.1304347826086956
 40
0.1304347826086956
 40
0.1304347826086956
 40
0.1304347826086956
 40
0.1739130434782609
 40
0.1739130434782609
 40
0.1739130434782609
 40
0.1739130434782609
 40
0.2173913043478261
 40
0.2173913043478261
 40
0.2173913043478261
 40
0.2173913043478261
 40
0.2608695652173913
 40
0.2608695652173913
 40
0.2608695652173913
 40
0.2608695652173913
 40
0.3043478260869565
 40
0.3043478260869565
 40
0.3043478260869565
 40
0.3043478260869565
 40
0.3478260869565217
 40
0.3478260869565217
 40
0.3478260869565217
 40
0.3478260869565217
 40
0.391304347826087
 40
0.391304347826087
 40
0.391304347826087
 40
0.391304347826087
 40
0.4347826086956522
 40
0.4347826086956522
 40
0.4347826086956522
 40
0.4347826086956522
 40
0.4782608695652174
 40
0.4782608695652174
 40
0.4782608695652174
 40
0.4782608695652174
 40
0.5217391304347826
 40
0.5217391304347826
 40
0.5217391304347826
 40
0.5217391304347826
 40
0.5652173913043478
 40
0.5652173913043478
 40
0.5652173913043478
 40
0.5652173913043478
 40
0.6086956521739131
 40
0.6086956521739131
 40
0.6086956521739131
 40
0.6086956521739131
 40
0.6521739130434783
 40
0.6521739130434783
 40
0.6521739130434783
 40
0.6521739130434783
 40
0.6956521739130435
 40
0.6956521739130435
 40
0.6956521739130435
 40
0.6956521739130435
 40
0.7391304347826086
 40
0.7391304347826086
 40
0.7391304347826086
 40
0.7391304347826086
 40
0.782608695652174
 40
0.782608695652174
 40
0.782608695652174
 40
0.782608695652174
 40
0.8260869565217391
 40
0.8260869565217391
 40
0.8260869565217391
 40
0.8260869565217391
 40
0.8695652173913043
 40
0.8695652173913043
 40
0.8695652173913043
 40
0.8695652173913043
 40
0.9130434782608695
 40
0.9130434782608695
 40
0.9130434782608695
 40
0.9130434782608695
 40
1.0
 40
1.0
 40
1.0
 40
1.0
 10
-2.50403
 20
-9.30237
 30
0.0
 10
-2.50403
 20
-9.30237
 30
0.0
 10
-2.50403
 20
-9.37349
 30
0.0
 10
-2.50403
 20
-9.37349
 30
0.0
 10
-2.50403
 20
-9.37349
 30
0.0
 10
-2.50403
 20
-9.37349
 30
0.0
 10
-2.90536
 20
-9.37349
 30
0.0
 10
-2.90536
 20
-9.37349
 30
0.0
 10
-2.90536
 20
-9.37349
 30
0.0
 10
-2.90592
 20
-9.35557
 30
0.0
 10
-2.90296
 20
-9.33835
 30
0.0
 10
-2.89661
 20
-9.3217
 30
0.0
 10
-2.89661
 20
-9.3217
 30
0.0
 10
-2.88631
 20
-9.29447
 30
0.0
 10
-2.8698
 20
-9.26752
 30
0.0
 10
-2.84708
 20
-9.24113
 30
0.0
 10
-2.84708
 20
-9.24113
 30
0.0
 10
-2.82436
 20
-9.21474
 30
0.0
 10
-2.7919
 20
-9.18426
 30
0.0
 10
-2.74971
 20
-9.14969
 30
0.0
 10
-2.74971
 20
-9.14969
 30
0.0
 10
-2.68409
 20
-9.09564
 30
0.0
 10
-2.6395
 20
-9.05288
 30
0.0
 10
-2.61622
 20
-9.02128
 30
0.0
 10
-2.61622
 20
-9.02128
 30
0.0
 10
-2.59279
 20
-8.98967
 30
0.0
 10
-2.58108
 20
-8.95975
 30
0.0
 10
-2.58108
 20
-8.93153
 30
0.0
 10
-2.58108
 20
-8.93153
 30
0.0
 10
-2.58108
 20
-8.90204
 30
0.0
 10
-2.59167
 20
-8.8772
 30
0.0
 10
-2.61283
 20
-8.85688
 30
0.0
 10
-2.61283
 20
-8.85688
 30
0.0
 10
-2.634
 20
-8.8367
 30
0.0
 10
-2.66166
 20
-8.82654
 30
0.0
 10
-2.69566
 20
-8.82654
 30
0.0
 10
-2.69566
 20
-8.82654
 30
0.0
 10
-2.73165
 20
-8.82654
 30
0.0
 10
-2.76043
 20
-8.83727
 30
0.0
 10
-2.78202
 20
-8.85871
 30
0.0
 10
-2.78202
 20
-8.85871
 30
0.0
 10
-2.80362
 20
-8.88002
 30
0.0
 10
-2.81448
 20
-8.90966
 30
0.0
 10
-2.81476
 20
-8.94761
 30
0.0
 10
-2.81476
 20
-8.94761
 30
0.0
 10
-2.81476
 20
-8.94761
 30
0.0
 10
-2.89096
 20
-8.93999
 30
0.0
 10
-2.89096
 20
-8.93999
 30
0.0
 10
-2.89096
 20
-8.93999
 30
0.0
 10
-2.88574
 20
-8.88299
 30
0.0
 10
-2.86599
 20
-8.83952
 30
0.0
 10
-2.83184
 20
-8.80961
 30
0.0
 10
-2.83184
 20
-8.80961
 30
0.0
 10
-2.79755
 20
-8.77969
 30
0.0
 10
-2.75169
 20
-8.76473
 30
0.0
 10
-2.69397
 20
-8.76473
 30
0.0
 10
-2.69397
 20
-8.76473
 30
0.0
 10
-2.63583
 20
-8.76473
 30
0.0
 10
-2.58969
 20
-8.78082
 30
0.0
 10
-2.55582
 20
-8.81314
 30
0.0
 10
-2.55582
 20
-8.81314
 30
0.0
 10
-2.52182
 20
-8.84545
 30
0.0
 10
-2.50488
 20
-8.88553
 30
0.0
 10
-2.50488
 20
-8.93322
 30
0.0
 10
-2.50488
 20
-8.93322
 30
0.0
 10
-2.50488
 20
-8.95749
 30
0.0
 10
-2.50982
 20
-8.98134
 30
0.0
 10
-2.51984
 20
-9.00477
 30
0.0
 10
-2.51984
 20
-9.00477
 30
0.0
 10
-2.52972
 20
-9.02833
 30
0.0
 10
-2.54623
 20
-9.05303
 30
0.0
 10
-2.56923
 20
-9.07899
 30
0.0
 10
-2.56923
 20
-9.07899
 30
0.0
 10
-2.59237
 20
-9.10481
 30
0.0
 10
-2.63061
 20
-9.14051
 30
0.0
 10
-2.68395
 20
-9.18567
 30
0.0
 10
-2.68395
 20
-9.18567
 30
0.0
 10
-2.72868
 20
-9.22321
 30
0.0
 10
-2.75747
 20
-9.24861
 30
0.0
 10
-2.77017
 20
-9.26201
 30
0.0
 10
-2.77017
 20
-9.26201
 30
0.0
 10
-2.78287
 20
-9.27542
 30
0.0
 10
-2.79331
 20
-9.28882
 30
0.0
 10
-2.80164
 20
-9.30237
 30
0.0
 10
-2.80164
 20
-9.30237
 30
0.0
 10
-2.80164
 20
-9.30237
 30
0.0
 10
-2.50403
 20
-9.30237
 30
0.0
 10
-2.50403
 20
-9.30237
 30
0.0
  0
SPLINE
  5
43
330
1F
100
AcDbEntity
  8
Layer 1
 62
   250
100
AcDbSpline
210
0.0
220
0.0
230
1.0
 70
    11
 71
     3
 72
    52
 73
    48
 74
     0
 42
0.0000000001
 43
0.0000000001
 12
1.0
 22
0.0
 32
0.0
 13
1.0
 23
0.0
 33
0.0
 40
0.0
 40
0.0
 40
0.0
 40
0.0
 40
0.0769230769230769
 40
0.0769230769230769
 40
0.0769230769230769
 40
0.0769230769230769
 40
0.1538461538461539
 40
0.1538461538461539
 40
0.1538461538461539
 40
0.1538461538461539
 40
0.2307692307692308
 40
0.2307692307692308
 40
0.2307692307692308
 40
0.2307692307692308
 40
0.3076923076923077
 40
0.3076923076923077
 40
0.3076923076923077
 40
0.3076923076923077
 40
0.3846153846153846
 40
0.3846153846153846
 40
0.3846153846153846
 40
0.3846153846153846
 40
0.4615384615384616
 40
0.4615384615384616
 40
0.4615384615384616
 40
0.4615384615384616
 40
0.5384615384615384
 40
0.5384615384615384
 40
0.5384615384615384
 40
0.5384615384615384
 40
0.6153846153846154
 40
0.6153846153846154
 40
0.6153846153846154
 40
0.6153846153846154
 40
0.6923076923076923
 40
0.6923076923076923
 40
0.6923076923076923
 40
0.6923076923076923
 40
0.7692307692307693
 40
0.7692307692307693
 40
0.7692307692307693
 40
0.7692307692307693
 40
0.8461538461538461
 40
0.8461538461538461
 40
0.8461538461538461
 40
0.8461538461538461
 40
1.0
 40
1.0
 40
1.0
 40
1.0
 10
-2.42346
 20
-9.07433
 30
0.0
 10
-2.42346
 20
-9.00279
 30
0.0
 10
-2.41612
 20
-8.94493
 30
0.0
 10
-2.40145
 20
-8.90119
 30
0.0
 10
-2.40145
 20
-8.90119
 30
0.0
 10
-2.38663
 20
-8.8573
 30
0.0
 10
-2.36476
 20
-8.82358
 30
0.0
 10
-2.33569
 20
-8.80001
 30
0.0
 10
-2.33569
 20
-8.80001
 30
0.0
 10
-2.30676
 20
-8.77645
 30
0.0
 10
-2.27021
 20
-8.76473
 30
0.0
 10
-2.22619
 20
-8.76473
 30
0.0
 10
-2.22619
 20
-8.76473
 30
0.0
 10
-2.19373
 20
-8.76473
 30
0.0
 10
-2.16523
 20
-8.77123
 30
0.0
 10
-2.14053
 20
-8.78435
 30
0.0
 10
-2.14053
 20
-8.78435
 30
0.0
 10
-2.11598
 20
-8.79747
 30
0.0
 10
-2.09566
 20
-8.81638
 30
0.0
 10
-2.07985
 20
-8.84108
 30
0.0
 10
-2.07985
 20
-8.84108
 30
0.0
 10
-2.06405
 20
-8.86563
 30
0.0
 10
-2.05163
 20
-8.89569
 30
0.0
 10
-2.0426
 20
-8.9311
 30
0.0
 10
-2.0426
 20
-8.9311
 30
0.0
 10
-2.03343
 20
-8.96652
 30
0.0
 10
-2.02891
 20
-9.01436
 30
0.0
 10
-2.02891
 20
-9.07433
 30
0.0
 10
-2.02891
 20
-9.07433
 30
0.0
 10
-2.02891
 20
-9.14545
 30
0.0
 10
-2.03625
 20
-9.20303
 30
0.0
 10
-2.05078
 20
-9.24677
 30
0.0
 10
-2.05078
 20
-9.24677
 30
0.0
 10
-2.06532
 20
-9.29066
 30
0.0
 10
-2.08719
 20
-9.32438
 30
0.0
 10
-2.11626
 20
-9.34809
 30
0.0
 10
-2.11626
 20
-9.34809
 30
0.0
 10
-2.14519
 20
-9.3718
 30
0.0
 10
-2.18188
 20
-9.38365
 30
0.0
 10
-2.22619
 20
-9.38365
 30
0.0
 10
-2.22619
 20
-9.38365
 30
0.0
 10
-2.28446
 20
-9.38365
 30
0.0
 10
-2.33033
 20
-9.36291
 30
0.0
 10
-2.36363
 20
-9.32128
 30
0.0
 10
-2.36363
 20
-9.32128
 30
0.0
 10
-2.40356
 20
-9.27048
 30
0.0
 10
-2.42346
 20
-9.18821
 30
0.0
 10
-2.42346
 20
-9.07433
 30
0.0
  0
SPLINE
  5
44
330
1F
100
AcDbEntity
  8
Layer 1
 62
   250
100
AcDbSpline
210
0.0
220
0.0
230
1.0
 70
    11
 71
     3
 72
    36
 73
    32
 74
     0
 42
0.0000000001
 43
0.0000000001
 12
1.0
 22
0.0
 32
0.0
 13
1.0
 23
0.0
 33
0.0
 40
0.0
 40
0.0
 40
0.0
 40
0.0
 40
0.1111111111111111
 40
0.1111111111111111
 40
0.1111111111111111
 40
0.1111111111111111
 40
0.2222222222222222
 40
0.2222222222222222
 40
0.2222222222222222
 40
0.2222222222222222
 40
0.3333333333333333
 40
0.3333333333333333
 40
0.3333333333333333
 40
0.3333333333333333
 40
0.4444444444444444
 40
0.4444444444444444
 40
0.4444444444444444
 40
0.4444444444444444
 40
0.5555555555555556
 40
0.5555555555555556
 40
0.5555555555555556
 40
0.5555555555555556
 40
0.6666666666666666
 40
0.6666666666666666
 40
0.6666666666666666
 40
0.6666666666666666
 40
0.7777777777777778
 40
0.7777777777777778
 40
0.7777777777777778
 40
0.7777777777777778
 40
1.0
 40
1.0
 40
1.0
 40
1.0
 10
-2.34726
 20
-9.07462
 30
0.0
 10
-2.34726
 20
-9.17438
 30
0.0
 10
-2.33569
 20
-9.2407
 30
0.0
 10
-2.3124
 20
-9.27344
 30
0.0
 10
-2.3124
 20
-9.27344
 30
0.0
 10
-2.28912
 20
-9.30632
 30
0.0
 10
-2.26033
 20
-9.32269
 30
0.0
 10
-2.22619
 20
-9.32269
 30
0.0
 10
-2.22619
 20
-9.32269
 30
0.0
 10
-2.19204
 20
-9.32269
 30
0.0
 10
-2.16325
 20
-9.30618
 30
0.0
 10
-2.13997
 20
-9.2733
 30
0.0
 10
-2.13997
 20
-9.2733
 30
0.0
 10
-2.11668
 20
-9.24028
 30
0.0
 10
-2.10511
 20
-9.1741
 30
0.0
 10
-2.10511
 20
-9.07462
 30
0.0
 10
-2.10511
 20
-9.07462
 30
0.0
 10
-2.10511
 20
-8.97485
 30
0.0
 10
-2.11668
 20
-8.90853
 30
0.0
 10
-2.13997
 20
-8.87579
 30
0.0
 10
-2.13997
 20
-8.87579
 30
0.0
 10
-2.16311
 20
-8.84291
 30
0.0
 10
-2.19218
 20
-8.82654
 30
0.0
 10
-2.22703
 20
-8.82654
 30
0.0
 10
-2.22703
 20
-8.82654
 30
0.0
 10
-2.26118
 20
-8.82654
 30
0.0
 10
-2.28856
 20
-8.84108
 30
0.0
 10
-2.30902
 20
-8.87
 30
0.0
 10
-2.30902
 20
-8.87
 30
0.0
 10
-2.33456
 20
-8.90683
 30
0.0
 10
-2.34726
 20
-8.97513
 30
0.0
 10
-2.34726
 20
-9.07462
 30
0.0
  0
SPLINE
  5
45
330
1F
100
AcDbEntity
  8
Layer 1
 62
   250
100
AcDbSpline
210
0.0
220
0.0
230
1.0
 70
    11
 71
     3
 72
    92
 73
    88
 74
     0
 42
0.0000000001
 43
0.0000000001
 12
1.0
 22
0.0
 32
0.0
 13
1.0
 23
0.0
 33
0.0
 40
0.0
 40
0.0
 40
0.0
 40
0.0
 40
0.0434782608695652
 40
0.0434782608695652
 40
0.0434782608695652
 40
0.0434782608695652
 40
0.0869565217391304
 40
0.0869565217391304
 40
0.0869565217391304
 40
0.0869565217391304
 40
0.1304347826086956
 40
0.1304347826086956
 40
0.1304347826086956
 40
0.1304347826086956
 40
0.1739130434782609
 40
0.1739130434782609
 40
0.1739130434782609
 40
0.1739130434782609
 40
0.2173913043478261
 40
0.2173913043478261
 40
0.2173913043478261
 40
0.2173913043478261
 40
0.2608695652173913
 40
0.2608695652173913
 40
0.2608695652173913
 40
0.2608695652173913
 40
0.3043478260869565
 40
0.3043478260869565
 40
0.3043478260869565
 40
0.3043478260869565
 40
0.3478260869565217
 40
0.3478260869565217
 40
0.3478260869565217
 40
0.3478260869565217
 40
0.391304347826087
 40
0.391304347826087
 40
0.391304347826087
 40
0.391304347826087
 40
0.4347826086956522
 40
0.4347826086956522
 40
0.4347826086956522
 40
0.4347826086956522
 40
0.4782608695652174
 40
0.4782608695652174
 40
0.4782608695652174
 40
0.4782608695652174
 40
0.5217391304347826
 40
0.5217391304347826
 40
0.5217391304347826
 40
0.5217391304347826
 40
0.5652173913043478
 40
0.5652173913043478
 40
0.5652173913043478
 40
0.5652173913043478
 40
0.6086956521739131
 40
0.6086956521739131
 40
0.6086956521739131
 40
0.6086956521739131
 40
0.6521739130434783
 40
0.6521739130434783
 40
0.6521739130434783
 40
0.6521739130434783
 40
0.6956521739130435
 40
0.6956521739130435
 40
0.6956521739130435
 40
0.6956521739130435
 40
0.7391304347826086
 40
0.7391304347826086
 40
0.7391304347826086
 40
0.7391304347826086
 40
0.782608695652174
 40
0.782608695652174
 40
0.782608695652174
 40
0.782608695652174
 40
0.8260869565217391
 40
0.8260869565217391
 40
0.8260869565217391
 40
0.8260869565217391
 40
0.8695652173913043
 40
0.8695652173913043
 40
0.8695652173913043
 40
0.8695652173913043
 40
0.9130434782608695
 40
0.9130434782608695
 40
0.9130434782608695
 40
0.9130434782608695
 40
1.0
 40
1.0
 40
1.0
 40
1.0
 10
-1.56225
 20
-9.30237
 30
0.0
 10
-1.56225
 20
-9.30237
 30
0.0
 10
-1.56225
 20
-9.37349
 30
0.0
 10
-1.56225
 20
-9.37349
 30
0.0
 10
-1.56225
 20
-9.37349
 30
0.0
 10
-1.56225
 20
-9.37349
 30
0.0
 10
-1.96358
 20
-9.37349
 30
0.0
 10
-1.96358
 20
-9.37349
 30
0.0
 10
-1.96358
 20
-9.37349
 30
0.0
 10
-1.96414
 20
-9.35557
 30
0.0
 10
-1.96118
 20
-9.33835
 30
0.0
 10
-1.95483
 20
-9.3217
 30
0.0
 10
-1.95483
 20
-9.3217
 30
0.0
 10
-1.94453
 20
-9.29447
 30
0.0
 10
-1.92802
 20
-9.26752
 30
0.0
 10
-1.9053
 20
-9.24113
 30
0.0
 10
-1.9053
 20
-9.24113
 30
0.0
 10
-1.88258
 20
-9.21474
 30
0.0
 10
-1.85012
 20
-9.18426
 30
0.0
 10
-1.80793
 20
-9.14969
 30
0.0
 10
-1.80793
 20
-9.14969
 30
0.0
 10
-1.74231
 20
-9.09564
 30
0.0
 10
-1.69772
 20
-9.05288
 30
0.0
 10
-1.67444
 20
-9.02128
 30
0.0
 10
-1.67444
 20
-9.02128
 30
0.0
 10
-1.65101
 20
-8.98967
 30
0.0
 10
-1.6393
 20
-8.95975
 30
0.0
 10
-1.6393
 20
-8.93153
 30
0.0
 10
-1.6393
 20
-8.93153
 30
0.0
 10
-1.6393
 20
-8.90204
 30
0.0
 10
-1.64989
 20
-8.8772
 30
0.0
 10
-1.67105
 20
-8.85688
 30
0.0
 10
-1.67105
 20
-8.85688
 30
0.0
 10
-1.69222
 20
-8.8367
 30
0.0
 10
-1.71988
 20
-8.82654
 30
0.0
 10
-1.75388
 20
-8.82654
 30
0.0
 10
-1.75388
 20
-8.82654
 30
0.0
 10
-1.78987
 20
-8.82654
 30
0.0
 10
-1.81865
 20
-8.83727
 30
0.0
 10
-1.84024
 20
-8.85871
 30
0.0
 10
-1.84024
 20
-8.85871
 30
0.0
 10
-1.86184
 20
-8.88002
 30
0.0
 10
-1.8727
 20
-8.90966
 30
0.0
 10
-1.87298
 20
-8.94761
 30
0.0
 10
-1.87298
 20
-8.94761
 30
0.0
 10
-1.87298
 20
-8.94761
 30
0.0
 10
-1.94918
 20
-8.93999
 30
0.0
 10
-1.94918
 20
-8.93999
 30
0.0
 10
-1.94918
 20
-8.93999
 30
0.0
 10
-1.94396
 20
-8.88299
 30
0.0
 10
-1.92421
 20
-8.83952
 30
0.0
 10
-1.89006
 20
-8.80961
 30
0.0
 10
-1.89006
 20
-8.80961
 30
0.0
 10
-1.85577
 20
-8.77969
 30
0.0
 10
-1.80991
 20
-8.76473
 30
0.0
 10
-1.75219
 20
-8.76473
 30
0.0
 10
-1.75219
 20
-8.76473
 30
0.0
 10
-1.69405
 20
-8.76473
 30
0.0
 10
-1.64791
 20
-8.78082
 30
0.0
 10
-1.61404
 20
-8.81314
 30
0.0
 10
-1.61404
 20
-8.81314
 30
0.0
 10
-1.58004
 20
-8.84545
 30
0.0
 10
-1.5631
 20
-8.88553
 30
0.0
 10
-1.5631
 20
-8.93322
 30
0.0
 10
-1.5631
 20
-8.93322
 30
0.0
 10
-1.5631
 20
-8.95749
 30
0.0
 10
-1.56804
 20
-8.98134
 30
0.0
 10
-1.57806
 20
-9.00477
 30
0.0
 10
-1.57806
 20
-9.00477
 30
0.0
 10
-1.58794
 20
-9.02833
 30
0.0
 10
-1.60445
 20
-9.05303
 30
0.0
 10
-1.62745
 20
-9.07899
 30
0.0
 10
-1.62745
 20
-9.07899
 30
0.0
 10
-1.65059
 20
-9.10481
 30
0.0
 10
-1.68883
 20
-9.14051
 30
0.0
 10
-1.74217
 20
-9.18567
 30
0.0
 10
-1.74217
 20
-9.18567
 30
0.0
 10
-1.7869
 20
-9.22321
 30
0.0
 10
-1.81569
 20
-9.24861
 30
0.0
 10
-1.82839
 20
-9.26201
 30
0.0
 10
-1.82839
 20
-9.26201
 30
0.0
 10
-1.84109
 20
-9.27542
 30
0.0
 10
-1.85153
 20
-9.28882
 30
0.0
 10
-1.85986
 20
-9.30237
 30
0.0
 10
-1.85986
 20
-9.30237
 30
0.0
 10
-1.85986
 20
-9.30237
 30
0.0
 10
-1.56225
 20
-9.30237
 30
0.0
 10
-1.56225
 20
-9.30237
 30
0.0
  0
SPLINE
  5
46
330
1F
100
AcDbEntity
  8
Layer 1
 62
   250
100
AcDbSpline
210
0.0
220
0.0
230
1.0
 70
    11
 71
     3
 72
    92
 73
    88
 74
     0
 42
0.0000000001
 43
0.0000000001
 12
1.0
 22
0.0
 32
0.0
 13
1.0
 23
0.0
 33
0.0
 40
0.0
 40
0.0
 40
0.0
 40
0.0
 40
0.0434782608695652
 40
0.0434782608695652
 40
0.0434782608695652
 40
0.0434782608695652
 40
0.0869565217391304
 40
0.0869565217391304
 40
0.0869565217391304
 40
0.0869565217391304
 40
0.1304347826086956
 40
0.1304347826086956
 40
0.1304347826086956
 40
0.1304347826086956
 40
0.1739130434782609
 40
0.1739130434782609
 40
0.1739130434782609
 40
0.1739130434782609
 40
0.2173913043478261
 40
0.2173913043478261
 40
0.2173913043478261
 40
0.2173913043478261
 40
0.2608695652173913
 40
0.2608695652173913
 40
0.2608695652173913
 40
0.2608695652173913
 40
0.3043478260869565
 40
0.3043478260869565
 40
0.3043478260869565
 40
0.3043478260869565
 40
0.3478260869565217
 40
0.3478260869565217
 40
0.3478260869565217
 40
0.3478260869565217
 40
0.391304347826087
 40
0.391304347826087
 40
0.391304347826087
 40
0.391304347826087
 40
0.4347826086956522
 40
0.4347826086956522
 40
0.4347826086956522
 40
0.4347826086956522
 40
0.4782608695652174
 40
0.4782608695652174
 40
0.4782608695652174
 40
0.4782608695652174
 40
0.5217391304347826
 40
0.5217391304347826
 40
0.5217391304347826
 40
0.5217391304347826
 40
0.5652173913043478
 40
0.5652173913043478
 40
0.5652173913043478
 40
0.5652173913043478
 40
0.6086956521739131
 40
0.6086956521739131
 40
0.6086956521739131
 40
0.6086956521739131
 40
0.6521739130434783
 40
0.6521739130434783
 40
0.6521739130434783
 40
0.6521739130434783
 40
0.6956521739130435
 40
0.6956521739130435
 40
0.6956521739130435
 40
0.6956521739130435
 40
0.7391304347826086
 40
0.7391304347826086
 40
0.7391304347826086
 40
0.7391304347826086
 40
0.782608695652174
 40
0.782608695652174
 40
0.782608695652174
 40
0.782608695652174
 40
0.8260869565217391
 40
0.8260869565217391
 40
0.8260869565217391
 40
0.8260869565217391
 40
0.8695652173913043
 40
0.8695652173913043
 40
0.8695652173913043
 40
0.8695652173913043
 40
0.9130434782608695
 40
0.9130434782608695
 40
0.9130434782608695
 40
0.9130434782608695
 40
1.0
 40
1.0
 40
1.0
 40
1.0
 10
-1.09136
 20
-9.30237
 30
0.0
 10
-1.09136
 20
-9.30237
 30
0.0
 10
-1.09136
 20
-9.37349
 30
0.0
 10
-1.09136
 20
-9.37349
 30
0.0
 10
-1.09136
 20
-9.37349
 30
0.0
 10
-1.09136
 20
-9.37349
 30
0.0
 10
-1.49269
 20
-9.37349
 30
0.0
 10
-1.49269
 20
-9.37349
 30
0.0
 10
-1.49269
 20
-9.37349
 30
0.0
 10
-1.49325
 20
-9.35557
 30
0.0
 10
-1.49029
 20
-9.33835
 30
0.0
 10
-1.48394
 20
-9.3217
 30
0.0
 10
-1.48394
 20
-9.3217
 30
0.0
 10
-1.47364
 20
-9.29447
 30
0.0
 10
-1.45713
 20
-9.26752
 30
0.0
 10
-1.43441
 20
-9.24113
 30
0.0
 10
-1.43441
 20
-9.24113
 30
0.0
 10
-1.41169
 20
-9.21474
 30
0.0
 10
-1.37923
 20
-9.18426
 30
0.0
 10
-1.33704
 20
-9.14969
 30
0.0
 10
-1.33704
 20
-9.14969
 30
0.0
 10
-1.27142
 20
-9.09564
 30
0.0
 10
-1.22683
 20
-9.05288
 30
0.0
 10
-1.20355
 20
-9.02128
 30
0.0
 10
-1.20355
 20
-9.02128
 30
0.0
 10
-1.18012
 20
-8.98967
 30
0.0
 10
-1.16841
 20
-8.95975
 30
0.0
 10
-1.16841
 20
-8.93153
 30
0.0
 10
-1.16841
 20
-8.93153
 30
0.0
 10
-1.16841
 20
-8.90204
 30
0.0
 10
-1.179
 20
-8.8772
 30
0.0
 10
-1.20016
 20
-8.85688
 30
0.0
 10
-1.20016
 20
-8.85688
 30
0.0
 10
-1.22133
 20
-8.8367
 30
0.0
 10
-1.24899
 20
-8.82654
 30
0.0
 10
-1.28299
 20
-8.82654
 30
0.0
 10
-1.28299
 20
-8.82654
 30
0.0
 10
-1.31898
 20
-8.82654
 30
0.0
 10
-1.34776
 20
-8.83727
 30
0.0
 10
-1.36935
 20
-8.85871
 30
0.0
 10
-1.36935
 20
-8.85871
 30
0.0
 10
-1.39095
 20
-8.88002
 30
0.0
 10
-1.40181
 20
-8.90966
 30
0.0
 10
-1.40209
 20
-8.94761
 30
0.0
 10
-1.40209
 20
-8.94761
 30
0.0
 10
-1.40209
 20
-8.94761
 30
0.0
 10
-1.47829
 20
-8.93999
 30
0.0
 10
-1.47829
 20
-8.93999
 30
0.0
 10
-1.47829
 20
-8.93999
 30
0.0
 10
-1.47307
 20
-8.88299
 30
0.0
 10
-1.45332
 20
-8.83952
 30
0.0
 10
-1.41917
 20
-8.80961
 30
0.0
 10
-1.41917
 20
-8.80961
 30
0.0
 10
-1.38488
 20
-8.77969
 30
0.0
 10
-1.33902
 20
-8.76473
 30
0.0
 10
-1.2813
 20
-8.76473
 30
0.0
 10
-1.2813
 20
-8.76473
 30
0.0
 10
-1.22316
 20
-8.76473
 30
0.0
 10
-1.17702
 20
-8.78082
 30
0.0
 10
-1.14315
 20
-8.81314
 30
0.0
 10
-1.14315
 20
-8.81314
 30
0.0
 10
-1.10915
 20
-8.84545
 30
0.0
 10
-1.09221
 20
-8.88553
 30
0.0
 10
-1.09221
 20
-8.93322
 30
0.0
 10
-1.09221
 20
-8.93322
 30
0.0
 10
-1.09221
 20
-8.95749
 30
0.0
 10
-1.09715
 20
-8.98134
 30
0.0
 10
-1.10717
 20
-9.00477
 30
0.0
 10
-1.10717
 20
-9.00477
 30
0.0
 10
-1.11705
 20
-9.02833
 30
0.0
 10
-1.13356
 20
-9.05303
 30
0.0
 10
-1.15656
 20
-9.07899
 30
0.0
 10
-1.15656
 20
-9.07899
 30
0.0
 10
-1.1797
 20
-9.10481
 30
0.0
 10
-1.21794
 20
-9.14051
 30
0.0
 10
-1.27128
 20
-9.18567
 30
0.0
 10
-1.27128
 20
-9.18567
 30
0.0
 10
-1.31601
 20
-9.22321
 30
0.0
 10
-1.3448
 20
-9.24861
 30
0.0
 10
-1.3575
 20
-9.26201
 30
0.0
 10
-1.3575
 20
-9.26201
 30
0.0
 10
-1.3702
 20
-9.27542
 30
0.0
 10
-1.38064
 20
-9.28882
 30
0.0
 10
-1.38897
 20
-9.30237
 30
0.0
 10
-1.38897
 20
-9.30237
 30
0.0
 10
-1.38897
 20
-9.30237
 30
0.0
 10
-1.09136
 20
-9.30237
 30
0.0
 10
-1.09136
 20
-9.30237
 30
0.0
  0
SPLINE
  5
47
330
1F
100
AcDbEntity
  8
Layer 1
 62
   250
100
AcDbSpline
210
0.0
220
0.0
230
1.0
 70
    11
 71
     3
 72
   124
 73
   120
 74
     0
 42
0.0000000001
 43
0.0000000001
 12
1.0
 22
0.0
 32
0.0
 13
1.0
 23
0.0
 33
0.0
 40
0.0
 40
0.0
 40
0.0
 40
0.0
 40
0.032258064516129
 40
0.032258064516129
 40
0.032258064516129
 40
0.032258064516129
 40
0.0645161290322581
 40
0.0645161290322581
 40
0.0645161290322581
 40
0.0645161290322581
 40
0.0967741935483871
 40
0.0967741935483871
 40
0.0967741935483871
 40
0.0967741935483871
 40
0.1290322580645161
 40
0.1290322580645161
 40
0.1290322580645161
 40
0.1290322580645161
 40
0.1612903225806452
 40
0.1612903225806452
 40
0.1612903225806452
 40
0.1612903225806452
 40
0.1935483870967742
 40
0.1935483870967742
 40
0.1935483870967742
 40
0.1935483870967742
 40
0.2258064516129032
 40
0.2258064516129032
 40
0.2258064516129032
 40
0.2258064516129032
 40
0.2580645161290323
 40
0.2580645161290323
 40
0.2580645161290323
 40
0.2580645161290323
 40
0.2903225806451613
 40
0.2903225806451613
 40
0.2903225806451613
 40
0.2903225806451613
 40
0.3225806451612903
 40
0.3225806451612903
 40
0.3225806451612903
 40
0.3225806451612903
 40
0.3548387096774194
 40
0.3548387096774194
 40
0.3548387096774194
 40
0.3548387096774194
 40
0.3870967741935484
 40
0.3870967741935484
 40
0.3870967741935484
 40
0.3870967741935484
 40
0.4193548387096774
 40
0.4193548387096774
 40
0.4193548387096774
 40
0.4193548387096774
 40
0.4516129032258064
 40
0.4516129032258064
 40
0.4516129032258064
 40
0.4516129032258064
 40
0.4838709677419355
 40
0.4838709677419355
 40
0.4838709677419355
 40
0.4838709677419355
 40
0.5161290322580645
 40
0.5161290322580645
 40
0.5161290322580645
 40
0.5161290322580645
 40
0.5483870967741935
 40
0.5483870967741935
 40
0.5483870967741935
 40
0.5483870967741935
 40
0.5806451612903226
 40
0.5806451612903226
 40
0.5806451612903226
 40
0.5806451612903226
 40
0.6129032258064516
 40
0.6129032258064516
 40
0.6129032258064516
 40
0.6129032258064516
 40
0.6451612903225806
 40
0.6451612903225806
 40
0.6451612903225806
 40
0.6451612903225806
 40
0.6774193548387096
 40
0.6774193548387096
 40
0.6774193548387096
 40
0.6774193548387096
 40
0.7096774193548387
 40
0.7096774193548387
 40
0.7096774193548387
 40
0.7096774193548387
 40
0.7419354838709677
 40
0.7419354838709677
 40
0.7419354838709677
 40
0.7419354838709677
 40
0.7741935483870968
 40
0.7741935483870968
 40
0.7741935483870968
 40
0.7741935483870968
 40
0.8064516129032258
 40
0.8064516129032258
 40
0.8064516129032258
 40
0.8064516129032258
 40
0.8387096774193549
 40
0.8387096774193549
 40
0.8387096774193549
 40
0.8387096774193549
 40
0.8709677419354839
 40
0.8709677419354839
 40
0.8709677419354839
 40
0.8709677419354839
 40
0.9032258064516129
 40
0.9032258064516129
 40
0.9032258064516129
 40
0.9032258064516129
 40
0.9354838709677419
 40
0.9354838709677419
 40
0.9354838709677419
 40
0.9354838709677419
 40
1.0
 40
1.0
 40
1.0
 40
1.0
 10
-1.01079
 20
-9.21262
 30
0.0
 10
-1.01079
 20
-9.21262
 30
0.0
 10
-0.93628
 20
-9.20246
 30
0.0
 10
-0.93628
 20
-9.20246
 30
0.0
 10
-0.93628
 20
-9.20246
 30
0.0
 10
-0.92768
 20
-9.2448
 30
0.0
 10
-0.91328
 20
-9.27528
 30
0.0
 10
-0.89282
 20
-9.2939
 30
0.0
 10
-0.89282
 20
-9.2939
 30
0.0
 10
-0.87236
 20
-9.31253
 30
0.0
 10
-0.84724
 20
-9.32184
 30
0.0
 10
-0.81747
 20
-9.32184
 30
0.0
 10
-0.81747
 20
-9.32184
 30
0.0
 10
-0.78219
 20
-9.32184
 30
0.0
 10
-0.75241
 20
-9.30971
 30
0.0
 10
-0.72843
 20
-9.28544
 30
0.0
 10
-0.72843
 20
-9.28544
 30
0.0
 10
-0.70444
 20
-9.26117
 30
0.0
 10
-0.69244
 20
-9.23111
 30
0.0
 10
-0.69244
 20
-9.19527
 30
0.0
 10
-0.69244
 20
-9.19527
 30
0.0
 10
-0.69244
 20
-9.16112
 30
0.0
 10
-0.70359
 20
-9.13289
 30
0.0
 10
-0.72603
 20
-9.1106
 30
0.0
 10
-0.72603
 20
-9.1106
 30
0.0
 10
-0.74832
 20
-9.08844
 30
0.0
 10
-0.77669
 20
-9.0773
 30
0.0
 10
-0.81126
 20
-9.0773
 30
0.0
 10
-0.81126
 20
-9.0773
 30
0.0
 10
-0.82537
 20
-9.0773
 30
0.0
 10
-0.84287
 20
-9.08012
 30
0.0
 10
-0.86389
 20
-9.08562
 30
0.0
 10
-0.86389
 20
-9.08562
 30
0.0
 10
-0.86389
 20
-9.08562
 30
0.0
 10
-0.85557
 20
-9.02043
 30
0.0
 10
-0.85557
 20
-9.02043
 30
0.0
 10
-0.85557
 20
-9.02043
 30
0.0
 10
-0.85063
 20
-9.02099
 30
0.0
 10
-0.84654
 20
-9.02128
 30
0.0
 10
-0.84357
 20
-9.02128
 30
0.0
 10
-0.84357
 20
-9.02128
 30
0.0
 10
-0.81168
 20
-9.02128
 30
0.0
 10
-0.78318
 20
-9.01295
 30
0.0
 10
-0.75764
 20
-8.99644
 30
0.0
 10
-0.75764
 20
-8.99644
 30
0.0
 10
-0.73224
 20
-8.97993
 30
0.0
 10
-0.71954
 20
-8.95453
 30
0.0
 10
-0.71954
 20
-8.92024
 30
0.0
 10
-0.71954
 20
-8.92024
 30
0.0
 10
-0.71954
 20
-8.893
 30
0.0
 10
-0.72885
 20
-8.87043
 30
0.0
 10
-0.74733
 20
-8.85251
 30
0.0
 10
-0.74733
 20
-8.85251
 30
0.0
 10
-0.76582
 20
-8.83458
 30
0.0
 10
-0.78967
 20
-8.82569
 30
0.0
 10
-0.81888
 20
-8.82569
 30
0.0
 10
-0.81888
 20
-8.82569
 30
0.0
 10
-0.84795
 20
-8.82569
 30
0.0
 10
-0.87208
 20
-8.83487
 30
0.0
 10
-0.89141
 20
-8.85321
 30
0.0
 10
-0.89141
 20
-8.85321
 30
0.0
 10
-0.91074
 20
-8.87156
 30
0.0
 10
-0.92316
 20
-8.89907
 30
0.0
 10
-0.92866
 20
-8.93576
 30
0.0
 10
-0.92866
 20
-8.93576
 30
0.0
 10
-0.92866
 20
-8.93576
 30
0.0
 10
-1.00317
 20
-8.92221
 30
0.0
 10
-1.00317
 20
-8.92221
 30
0.0
 10
-1.00317
 20
-8.92221
 30
0.0
 10
-0.994
 20
-8.87226
 30
0.0
 10
-0.9734
 20
-8.83346
 30
0.0
 10
-0.94108
 20
-8.80594
 30
0.0
 10
-0.94108
 20
-8.80594
 30
0.0
 10
-0.90891
 20
-8.77842
 30
0.0
 10
-0.86869
 20
-8.76473
 30
0.0
 10
-0.82071
 20
-8.76473
 30
0.0
 10
-0.82071
 20
-8.76473
 30
0.0
 10
-0.78769
 20
-8.76473
 30
0.0
 10
-0.75721
 20
-8.77179
 30
0.0
 10
-0.72941
 20
-8.78604
 30
0.0
 10
-0.72941
 20
-8.78604
 30
0.0
 10
-0.70147
 20
-8.80015
 30
0.0
 10
-0.68017
 20
-8.81949
 30
0.0
 10
-0.66549
 20
-8.8439
 30
0.0
 10
-0.66549
 20
-8.8439
 30
0.0
 10
-0.65067
 20
-8.86845
 30
0.0
 10
-0.64334
 20
-8.89442
 30
0.0
 10
-0.64334
 20
-8.92193
 30
0.0
 10
-0.64334
 20
-8.92193
 30
0.0
 10
-0.64334
 20
-8.94804
 30
0.0
 10
-0.65039
 20
-8.97175
 30
0.0
 10
-0.66436
 20
-8.99319
 30
0.0
 10
-0.66436
 20
-8.99319
 30
0.0
 10
-0.67847
 20
-9.01464
 30
0.0
 10
-0.69936
 20
-9.03172
 30
0.0
 10
-0.72687
 20
-9.04442
 30
0.0
 10
-0.72687
 20
-9.04442
 30
0.0
 10
-0.69103
 20
-9.0526
 30
0.0
 10
-0.66323
 20
-9.06982
 30
0.0
 10
-0.64334
 20
-9.09592
 30
0.0
 10
-0.64334
 20
-9.09592
 30
0.0
 10
-0.62358
 20
-9.12189
 30
0.0
 10
-0.6137
 20
-9.15463
 30
0.0
 10
-0.6137
 20
-9.19371
 30
0.0
 10
-0.6137
 20
-9.19371
 30
0.0
 10
-0.6137
 20
-9.24663
 30
0.0
 10
-0.63303
 20
-9.29165
 30
0.0
 10
-0.67156
 20
-9.32848
 30
0.0
 10
-0.67156
 20
-9.32848
 30
0.0
 10
-0.71022
 20
-9.36531
 30
0.0
 10
-0.75905
 20
-9.38365
 30
0.0
 10
-0.81803
 20
-9.38365
 30
0.0
 10
-0.81803
 20
-9.38365
 30
0.0
 10
-0.87123
 20
-9.38365
 30
0.0
 10
-0.9154
 20
-9.3677
 30
0.0
 10
-0.95054
 20
-9.33595
 30
0.0
 10
-0.95054
 20
-9.33595
 30
0.0
 10
-0.98581
 20
-9.3042
 30
0.0
 10
-1.00585
 20
-9.26314
 30
0.0
 10
-1.01079
 20
-9.21262
 30
0.0
  0
SPLINE
  5
48
330
1F
100
AcDbEntity
  8
Layer 1
 62
   250
100
AcDbSpline
210
0.0
220
0.0
230
1.0
 70
    11
 71
     3
 72
   124
 73
   120
 74
     0
 42
0.0000000001
 43
0.0000000001
 12
1.0
 22
0.0
 32
0.0
 13
1.0
 23
0.0
 33
0.0
 40
0.0
 40
0.0
 40
0.0
 40
0.0
 40
0.032258064516129
 40
0.032258064516129
 40
0.032258064516129
 40
0.032258064516129
 40
0.0645161290322581
 40
0.0645161290322581
 40
0.0645161290322581
 40
0.0645161290322581
 40
0.0967741935483871
 40
0.0967741935483871
 40
0.0967741935483871
 40
0.0967741935483871
 40
0.1290322580645161
 40
0.1290322580645161
 40
0.1290322580645161
 40
0.1290322580645161
 40
0.1612903225806452
 40
0.1612903225806452
 40
0.1612903225806452
 40
0.1612903225806452
 40
0.1935483870967742
 40
0.1935483870967742
 40
0.1935483870967742
 40
0.1935483870967742
 40
0.2258064516129032
 40
0.2258064516129032
 40
0.2258064516129032
 40
0.2258064516129032
 40
0.2580645161290323
 40
0.2580645161290323
 40
0.2580645161290323
 40
0.2580645161290323
 40
0.2903225806451613
 40
0.2903225806451613
 40
0.2903225806451613
 40
0.2903225806451613
 40
0.3225806451612903
 40
0.3225806451612903
 40
0.3225806451612903
 40
0.3225806451612903
 40
0.3548387096774194
 40
0.3548387096774194
 40
0.3548387096774194
 40
0.3548387096774194
 40
0.3870967741935484
 40
0.3870967741935484
 40
0.3870967741935484
 40
0.3870967741935484
 40
0.4193548387096774
 40
0.4193548387096774
 40
0.4193548387096774
 40
0.4193548387096774
 40
0.4516129032258064
 40
0.4516129032258064
 40
0.4516129032258064
 40
0.4516129032258064
 40
0.4838709677419355
 40
0.4838709677419355
 40
0.4838709677419355
 40
0.4838709677419355
 40
0.5161290322580645
 40
0.5161290322580645
 40
0.5161290322580645
 40
0.5161290322580645
 40
0.5483870967741935
 40
0.5483870967741935
 40
0.5483870967741935
 40
0.5483870967741935
 40
0.5806451612903226
 40
0.5806451612903226
 40
0.5806451612903226
 40
0.5806451612903226
 40
0.6129032258064516
 40
0.6129032258064516
 40
0.6129032258064516
 40
0.6129032258064516
 40
0.6451612903225806
 40
0.6451612903225806
 40
0.6451612903225806
 40
0.6451612903225806
 40
0.6774193548387096
 40
0.6774193548387096
 40
0.6774193548387096
 40
0.6774193548387096
 40
0.7096774193548387
 40
0.7096774193548387
 40
0.7096774193548387
 40
0.7096774193548387
 40
0.7419354838709677
 40
0.7419354838709677
 40
0.7419354838709677
 40
0.7419354838709677
 40
0.7741935483870968
 40
0.7741935483870968
 40
0.7741935483870968
 40
0.7741935483870968
 40
0.8064516129032258
 40
0.8064516129032258
 40
0.8064516129032258
 40
0.8064516129032258
 40
0.8387096774193549
 40
0.8387096774193549
 40
0.8387096774193549
 40
0.8387096774193549
 40
0.8709677419354839
 40
0.8709677419354839
 40
0.8709677419354839
 40
0.8709677419354839
 40
0.9032258064516129
 40
0.9032258064516129
 40
0.9032258064516129
 40
0.9032258064516129
 40
0.9354838709677419
 40
0.9354838709677419
 40
0.9354838709677419
 40
0.9354838709677419
 40
1.0
 40
1.0
 40
1.0
 40
1.0
 10
-0.5399
 20
-9.21262
 30
0.0
 10
-0.5399
 20
-9.21262
 30
0.0
 10
-0.46539
 20
-9.20246
 30
0.0
 10
-0.46539
 20
-9.20246
 30
0.0
 10
-0.46539
 20
-9.20246
 30
0.0
 10
-0.45679
 20
-9.2448
 30
0.0
 10
-0.44239
 20
-9.27528
 30
0.0
 10
-0.42193
 20
-9.2939
 30
0.0
 10
-0.42193
 20
-9.2939
 30
0.0
 10
-0.40147
 20
-9.31253
 30
0.0
 10
-0.37635
 20
-9.32184
 30
0.0
 10
-0.34658
 20
-9.32184
 30
0.0
 10
-0.34658
 20
-9.32184
 30
0.0
 10
-0.3113
 20
-9.32184
 30
0.0
 10
-0.28152
 20
-9.30971
 30
0.0
 10
-0.25754
 20
-9.28544
 30
0.0
 10
-0.25754
 20
-9.28544
 30
0.0
 10
-0.23355
 20
-9.26117
 30
0.0
 10
-0.22155
 20
-9.23111
 30
0.0
 10
-0.22155
 20
-9.19527
 30
0.0
 10
-0.22155
 20
-9.19527
 30
0.0
 10
-0.22155
 20
-9.16112
 30
0.0
 10
-0.2327
 20
-9.13289
 30
0.0
 10
-0.25514
 20
-9.1106
 30
0.0
 10
-0.25514
 20
-9.1106
 30
0.0
 10
-0.27743
 20
-9.08844
 30
0.0
 10
-0.3058
 20
-9.0773
 30
0.0
 10
-0.34037
 20
-9.0773
 30
0.0
 10
-0.34037
 20
-9.0773
 30
0.0
 10
-0.35448
 20
-9.0773
 30
0.0
 10
-0.37198
 20
-9.08012
 30
0.0
 10
-0.393
 20
-9.08562
 30
0.0
 10
-0.393
 20
-9.08562
 30
0.0
 10
-0.393
 20
-9.08562
 30
0.0
 10
-0.38468
 20
-9.02043
 30
0.0
 10
-0.38468
 20
-9.02043
 30
0.0
 10
-0.38468
 20
-9.02043
 30
0.0
 10
-0.37974
 20
-9.02099
 30
0.0
 10
-0.37565
 20
-9.02128
 30
0.0
 10
-0.37268
 20
-9.02128
 30
0.0
 10
-0.37268
 20
-9.02128
 30
0.0
 10
-0.34079
 20
-9.02128
 30
0.0
 10
-0.31229
 20
-9.01295
 30
0.0
 10
-0.28675
 20
-8.99644
 30
0.0
 10
-0.28675
 20
-8.99644
 30
0.0
 10
-0.26135
 20
-8.97993
 30
0.0
 10
-0.24865
 20
-8.95453
 30
0.0
 10
-0.24865
 20
-8.92024
 30
0.0
 10
-0.24865
 20
-8.92024
 30
0.0
 10
-0.24865
 20
-8.893
 30
0.0
 10
-0.25796
 20
-8.87043
 30
0.0
 10
-0.27644
 20
-8.85251
 30
0.0
 10
-0.27644
 20
-8.85251
 30
0.0
 10
-0.29493
 20
-8.83458
 30
0.0
 10
-0.31878
 20
-8.82569
 30
0.0
 10
-0.34799
 20
-8.82569
 30
0.0
 10
-0.34799
 20
-8.82569
 30
0.0
 10
-0.37706
 20
-8.82569
 30
0.0
 10
-0.40119
 20
-8.83487
 30
0.0
 10
-0.42052
 20
-8.85321
 30
0.0
 10
-0.42052
 20
-8.85321
 30
0.0
 10
-0.43985
 20
-8.87156
 30
0.0
 10
-0.45227
 20
-8.89907
 30
0.0
 10
-0.45777
 20
-8.93576
 30
0.0
 10
-0.45777
 20
-8.93576
 30
0.0
 10
-0.45777
 20
-8.93576
 30
0.0
 10
-0.53228
 20
-8.92221
 30
0.0
 10
-0.53228
 20
-8.92221
 30
0.0
 10
-0.53228
 20
-8.92221
 30
0.0
 10
-0.52311
 20
-8.87226
 30
0.0
 10
-0.50251
 20
-8.83346
 30
0.0
 10
-0.47019
 20
-8.80594
 30
0.0
 10
-0.47019
 20
-8.80594
 30
0.0
 10
-0.43802
 20
-8.77842
 30
0.0
 10
-0.3978
 20
-8.76473
 30
0.0
 10
-0.34982
 20
-8.76473
 30
0.0
 10
-0.34982
 20
-8.76473
 30
0.0
 10
-0.3168
 20
-8.76473
 30
0.0
 10
-0.28632
 20
-8.77179
 30
0.0
 10
-0.25852
 20
-8.78604
 30
0.0
 10
-0.25852
 20
-8.78604
 30
0.0
 10
-0.23058
 20
-8.80015
 30
0.0
 10
-0.20928
 20
-8.81949
 30
0.0
 10
-0.1946
 20
-8.8439
 30
0.0
 10
-0.1946
 20
-8.8439
 30
0.0
 10
-0.17978
 20
-8.86845
 30
0.0
 10
-0.17245
 20
-8.89442
 30
0.0
 10
-0.17245
 20
-8.92193
 30
0.0
 10
-0.17245
 20
-8.92193
 30
0.0
 10
-0.17245
 20
-8.94804
 30
0.0
 10
-0.1795
 20
-8.97175
 30
0.0
 10
-0.19347
 20
-8.99319
 30
0.0
 10
-0.19347
 20
-8.99319
 30
0.0
 10
-0.20758
 20
-9.01464
 30
0.0
 10
-0.22847
 20
-9.03172
 30
0.0
 10
-0.25598
 20
-9.04442
 30
0.0
 10
-0.25598
 20
-9.04442
 30
0.0
 10
-0.22014
 20
-9.0526
 30
0.0
 10
-0.19234
 20
-9.06982
 30
0.0
 10
-0.17245
 20
-9.09592
 30
0.0
 10
-0.17245
 20
-9.09592
 30
0.0
 10
-0.15269
 20
-9.12189
 30
0.0
 10
-0.14281
 20
-9.15463
 30
0.0
 10
-0.14281
 20
-9.19371
 30
0.0
 10
-0.14281
 20
-9.19371
 30
0.0
 10
-0.14281
 20
-9.24663
 30
0.0
 10
-0.16214
 20
-9.29165
 30
0.0
 10
-0.20067
 20
-9.32848
 30
0.0
 10
-0.20067
 20
-9.32848
 30
0.0
 10
-0.23933
 20
-9.36531
 30
0.0
 10
-0.28816
 20
-9.38365
 30
0.0
 10
-0.34714
 20
-9.38365
 30
0.0
 10
-0.34714
 20
-9.38365
 30
0.0
 10
-0.40034
 20
-9.38365
 30
0.0
 10
-0.44451
 20
-9.3677
 30
0.0
 10
-0.47965
 20
-9.33595
 30
0.0
 10
-0.47965
 20
-9.33595
 30
0.0
 10
-0.51492
 20
-9.3042
 30
0.0
 10
-0.53496
 20
-9.26314
 30
0.0
 10
-0.5399
 20
-9.21262
 30
0.0
  0
SPLINE
  5
49
330
1F
100
AcDbEntity
  8
Layer 1
 62
   250
100
AcDbSpline
210
0.0
220
0.0
230
1.0
 70
    11
 71
     3
 72
    36
 73
    32
 74
     0
 42
0.0000000001
 43
0.0000000001
 12
1.0
 22
0.0
 32
0.0
 13
1.0
 23
0.0
 33
0.0
 40
0.0
 40
0.0
 40
0.0
 40
0.0
 40
0.1111111111111111
 40
0.1111111111111111
 40
0.1111111111111111
 40
0.1111111111111111
 40
0.2222222222222222
 40
0.2222222222222222
 40
0.2222222222222222
 40
0.2222222222222222
 40
0.3333333333333333
 40
0.3333333333333333
 40
0.3333333333333333
 40
0.3333333333333333
 40
0.4444444444444444
 40
0.4444444444444444
 40
0.4444444444444444
 40
0.4444444444444444
 40
0.5555555555555556
 40
0.5555555555555556
 40
0.5555555555555556
 40
0.5555555555555556
 40
0.6666666666666666
 40
0.6666666666666666
 40
0.6666666666666666
 40
0.6666666666666666
 40
0.7777777777777778
 40
0.7777777777777778
 40
0.7777777777777778
 40
0.7777777777777778
 40
1.0
 40
1.0
 40
1.0
 40
1.0
 10
0.33471
 20
-9.37349
 30
0.0
 10
0.33471
 20
-9.37349
 30
0.0
 10
0.33471
 20
-8.83839
 30
0.0
 10
0.33471
 20
-8.83839
 30
0.0
 10
0.33471
 20
-8.83839
 30
0.0
 10
0.33471
 20
-8.83839
 30
0.0
 10
0.13489
 20
-8.83839
 30
0.0
 10
0.13489
 20
-8.83839
 30
0.0
 10
0.13489
 20
-8.83839
 30
0.0
 10
0.13489
 20
-8.83839
 30
0.0
 10
0.13489
 20
-8.76727
 30
0.0
 10
0.13489
 20
-8.76727
 30
0.0
 10
0.13489
 20
-8.76727
 30
0.0
 10
0.13489
 20
-8.76727
 30
0.0
 10
0.61496
 20
-8.76727
 30
0.0
 10
0.61496
 20
-8.76727
 30
0.0
 10
0.61496
 20
-8.76727
 30
0.0
 10
0.61496
 20
-8.76727
 30
0.0
 10
0.61496
 20
-8.83839
 30
0.0
 10
0.61496
 20
-8.83839
 30
0.0
 10
0.61496
 20
-8.83839
 30
0.0
 10
0.61496
 20
-8.83839
 30
0.0
 10
0.41514
 20
-8.83839
 30
0.0
 10
0.41514
 20
-8.83839
 30
0.0
 10
0.41514
 20
-8.83839
 30
0.0
 10
0.41514
 20
-8.83839
 30
0.0
 10
0.41514
 20
-9.37349
 30
0.0
 10
0.41514
 20
-9.37349
 30
0.0
 10
0.41514
 20
-9.37349
 30
0.0
 10
0.41514
 20
-9.37349
 30
0.0
 10
0.33471
 20
-9.37349
 30
0.0
 10
0.33471
 20
-9.37349
 30
0.0
  0
SPLINE
  5
4A
330
1F
100
AcDbEntity
  8
Layer 1
 62
   250
100
AcDbSpline
210
0.0
220
0.0
230
1.0
 70
    11
 71
     3
 72
    52
 73
    48
 74
     0
 42
0.0000000001
 43
0.0000000001
 12
1.0
 22
0.0
 32
0.0
 13
1.0
 23
0.0
 33
0.0
 40
0.0
 40
0.0
 40
0.0
 40
0.0
 40
0.0769230769230769
 40
0.0769230769230769
 40
0.0769230769230769
 40
0.0769230769230769
 40
0.1538461538461539
 40
0.1538461538461539
 40
0.1538461538461539
 40
0.1538461538461539
 40
0.2307692307692308
 40
0.2307692307692308
 40
0.2307692307692308
 40
0.2307692307692308
 40
0.3076923076923077
 40
0.3076923076923077
 40
0.3076923076923077
 40
0.3076923076923077
 40
0.3846153846153846
 40
0.3846153846153846
 40
0.3846153846153846
 40
0.3846153846153846
 40
0.4615384615384616
 40
0.4615384615384616
 40
0.4615384615384616
 40
0.4615384615384616
 40
0.5384615384615384
 40
0.5384615384615384
 40
0.5384615384615384
 40
0.5384615384615384
 40
0.6153846153846154
 40
0.6153846153846154
 40
0.6153846153846154
 40
0.6153846153846154
 40
0.6923076923076923
 40
0.6923076923076923
 40
0.6923076923076923
 40
0.6923076923076923
 40
0.7692307692307693
 40
0.7692307692307693
 40
0.7692307692307693
 40
0.7692307692307693
 40
0.8461538461538461
 40
0.8461538461538461
 40
0.8461538461538461
 40
0.8461538461538461
 40
1.0
 40
1.0
 40
1.0
 40
1.0
 10
0.69948
 20
-9.37349
 30
0.0
 10
0.69948
 20
-9.37349
 30
0.0
 10
0.69948
 20
-8.76727
 30
0.0
 10
0.69948
 20
-8.76727
 30
0.0
 10
0.69948
 20
-8.76727
 30
0.0
 10
0.69948
 20
-8.76727
 30
0.0
 10
1.13721
 20
-8.76727
 30
0.0
 10
1.13721
 20
-8.76727
 30
0.0
 10
1.13721
 20
-8.76727
 30
0.0
 10
1.13721
 20
-8.76727
 30
0.0
 10
1.13721
 20
-8.83839
 30
0.0
 10
1.13721
 20
-8.83839
 30
0.0
 10
1.13721
 20
-8.83839
 30
0.0
 10
1.13721
 20
-8.83839
 30
0.0
 10
0.77991
 20
-8.83839
 30
0.0
 10
0.77991
 20
-8.83839
 30
0.0
 10
0.77991
 20
-8.83839
 30
0.0
 10
0.77991
 20
-8.83839
 30
0.0
 10
0.77991
 20
-9.02466
 30
0.0
 10
0.77991
 20
-9.02466
 30
0.0
 10
0.77991
 20
-9.02466
 30
0.0
 10
0.77991
 20
-9.02466
 30
0.0
 10
1.11435
 20
-9.02466
 30
0.0
 10
1.11435
 20
-9.02466
 30
0.0
 10
1.11435
 20
-9.02466
 30
0.0
 10
1.11435
 20
-9.02466
 30
0.0
 10
1.11435
 20
-9.09578
 30
0.0
 10
1.11435
 20
-9.09578
 30
0.0
 10
1.11435
 20
-9.09578
 30
0.0
 10
1.11435
 20
-9.09578
 30
0.0
 10
0.77991
 20
-9.09578
 30
0.0
 10
0.77991
 20
-9.09578
 30
0.0
 10
0.77991
 20
-9.09578
 30
0.0
 10
0.77991
 20
-9.09578
 30
0.0
 10
0.77991
 20
-9.30237
 30
0.0
 10
0.77991
 20
-9.30237
 30
0.0
 10
0.77991
 20
-9.30237
 30
0.0
 10
0.77991
 20
-9.30237
 30
0.0
 10
1.1516
 20
-9.30237
 30
0.0
 10
1.1516
 20
-9.30237
 30
0.0
 10
1.1516
 20
-9.30237
 30
0.0
 10
1.1516
 20
-9.30237
 30
0.0
 10
1.1516
 20
-9.37349
 30
0.0
 10
1.1516
 20
-9.37349
 30
0.0
 10
1.1516
 20
-9.37349
 30
0.0
 10
1.1516
 20
-9.37349
 30
0.0
 10
0.69948
 20
-9.37349
 30
0.0
 10
0.69948
 20
-9.37349
 30
0.0
  0
SPLINE
  5
4B
330
1F
100
AcDbEntity
  8
Layer 1
 62
   250
100
AcDbSpline
210
0.0
220
0.0
230
1.0
 70
    11
 71
     3
 72
    64
 73
    60
 74
     0
 42
0.0000000001
 43
0.0000000001
 12
1.0
 22
0.0
 32
0.0
 13
1.0
 23
0.0
 33
0.0
 40
0.0
 40
0.0
 40
0.0
 40
0.0
 40
0.0625
 40
0.0625
 40
0.0625
 40
0.0625
 40
0.125
 40
0.125
 40
0.125
 40
0.125
 40
0.1875
 40
0.1875
 40
0.1875
 40
0.1875
 40
0.25
 40
0.25
 40
0.25
 40
0.25
 40
0.3125
 40
0.3125
 40
0.3125
 40
0.3125
 40
0.375
 40
0.375
 40
0.375
 40
0.375
 40
0.4375
 40
0.4375
 40
0.4375
 40
0.4375
 40
0.5
 40
0.5
 40
0.5
 40
0.5
 40
0.5625
 40
0.5625
 40
0.5625
 40
0.5625
 40
0.625
 40
0.625
 40
0.625
 40
0.625
 40
0.6875
 40
0.6875
 40
0.6875
 40
0.6875
 40
0.75
 40
0.75
 40
0.75
 40
0.75
 40
0.8125
 40
0.8125
 40
0.8125
 40
0.8125
 40
0.875
 40
0.875
 40
0.875
 40
0.875
 40
1.0
 40
1.0
 40
1.0
 40
1.0
 10
1.26082
 20
-9.37349
 30
0.0
 10
1.26082
 20
-9.37349
 30
0.0
 10
1.26082
 20
-8.76727
 30
0.0
 10
1.26082
 20
-8.76727
 30
0.0
 10
1.26082
 20
-8.76727
 30
0.0
 10
1.26082
 20
-8.76727
 30
0.0
 10
1.38105
 20
-8.76727
 30
0.0
 10
1.38105
 20
-8.76727
 30
0.0
 10
1.38105
 20
-8.76727
 30
0.0
 10
1.38105
 20
-8.76727
 30
0.0
 10
1.52442
 20
-9.19639
 30
0.0
 10
1.52442
 20
-9.19639
 30
0.0
 10
1.52442
 20
-9.19639
 30
0.0
 10
1.53768
 20
-9.23633
 30
0.0
 10
1.54728
 20
-9.26625
 30
0.0
 10
1.55334
 20
-9.28614
 30
0.0
 10
1.55334
 20
-9.28614
 30
0.0
 10
1.56026
 20
-9.26413
 30
0.0
 10
1.57112
 20
-9.23167
 30
0.0
 10
1.5858
 20
-9.18892
 30
0.0
 10
1.5858
 20
-9.18892
 30
0.0
 10
1.5858
 20
-9.18892
 30
0.0
 10
1.73171
 20
-8.76727
 30
0.0
 10
1.73171
 20
-8.76727
 30
0.0
 10
1.73171
 20
-8.76727
 30
0.0
 10
1.73171
 20
-8.76727
 30
0.0
 10
1.8391
 20
-8.76727
 30
0.0
 10
1.8391
 20
-8.76727
 30
0.0
 10
1.8391
 20
-8.76727
 30
0.0
 10
1.8391
 20
-8.76727
 30
0.0
 10
1.8391
 20
-9.37349
 30
0.0
 10
1.8391
 20
-9.37349
 30
0.0
 10
1.8391
 20
-9.37349
 30
0.0
 10
1.8391
 20
-9.37349
 30
0.0
 10
1.76205
 20
-9.37349
 30
0.0
 10
1.76205
 20
-9.37349
 30
0.0
 10
1.76205
 20
-9.37349
 30
0.0
 10
1.76205
 20
-9.37349
 30
0.0
 10
1.76205
 20
-8.86633
 30
0.0
 10
1.76205
 20
-8.86633
 30
0.0
 10
1.76205
 20
-8.86633
 30
0.0
 10
1.76205
 20
-8.86633
 30
0.0
 10
1.58509
 20
-9.37349
 30
0.0
 10
1.58509
 20
-9.37349
 30
0.0
 10
1.58509
 20
-9.37349
 30
0.0
 10
1.58509
 20
-9.37349
 30
0.0
 10
1.51285
 20
-9.37349
 30
0.0
 10
1.51285
 20
-9.37349
 30
0.0
 10
1.51285
 20
-9.37349
 30
0.0
 10
1.51285
 20
-9.37349
 30
0.0
 10
1.33787
 20
-8.85702
 30
0.0
 10
1.33787
 20
-8.85702
 30
0.0
 10
1.33787
 20
-8.85702
 30
0.0
 10
1.33787
 20
-8.85702
 30
0.0
 10
1.33787
 20
-9.37349
 30
0.0
 10
1.33787
 20
-9.37349
 30
0.0
 10
1.33787
 20
-9.37349
 30
0.0
 10
1.33787
 20
-9.37349
 30
0.0
 10
1.26082
 20
-9.37349
 30
0.0
 10
1.26082
 20
-9.37349
 30
0.0
  0
SPLINE
  5
4C
330
1F
100
AcDbEntity
  8
Layer 1
 62
   250
100
AcDbSpline
210
0.0
220
0.0
230
1.0
 70
    11
 71
     3
 72
    48
 73
    44
 74
     0
 42
0.0000000001
 43
0.0000000001
 12
1.0
 22
0.0
 32
0.0
 13
1.0
 23
0.0
 33
0.0
 40
0.0
 40
0.0
 40
0.0
 40
0.0
 40
0.0833333333333333
 40
0.0833333333333333
 40
0.0833333333333333
 40
0.0833333333333333
 40
0.1666666666666667
 40
0.1666666666666667
 40
0.1666666666666667
 40
0.1666666666666667
 40
0.25
 40
0.25
 40
0.25
 40
0.25
 40
0.3333333333333333
 40
0.3333333333333333
 40
0.3333333333333333
 40
0.3333333333333333
 40
0.4166666666666667
 40
0.4166666666666667
 40
0.4166666666666667
 40
0.4166666666666667
 40
0.5
 40
0.5
 40
0.5
 40
0.5
 40
0.5833333333333334
 40
0.5833333333333334
 40
0.5833333333333334
 40
0.5833333333333334
 40
0.6666666666666666
 40
0.6666666666666666
 40
0.6666666666666666
 40
0.6666666666666666
 40
0.75
 40
0.75
 40
0.75
 40
0.75
 40
0.8333333333333334
 40
0.8333333333333334
 40
0.8333333333333334
 40
0.8333333333333334
 40
1.0
 40
1.0
 40
1.0
 40
1.0
 10
1.96779
 20
-9.37349
 30
0.0
 10
1.96779
 20
-9.37349
 30
0.0
 10
1.96779
 20
-8.76727
 30
0.0
 10
1.96779
 20
-8.76727
 30
0.0
 10
1.96779
 20
-8.76727
 30
0.0
 10
1.96779
 20
-8.76727
 30
0.0
 10
2.19668
 20
-8.76727
 30
0.0
 10
2.19668
 20
-8.76727
 30
0.0
 10
2.19668
 20
-8.76727
 30
0.0
 10
2.23689
 20
-8.76727
 30
0.0
 10
2.26766
 20
-8.76925
 30
0.0
 10
2.28896
 20
-8.77306
 30
0.0
 10
2.28896
 20
-8.77306
 30
0.0
 10
2.31874
 20
-8.778
 30
0.0
 10
2.34372
 20
-8.78745
 30
0.0
 10
2.36389
 20
-8.80128
 30
0.0
 10
2.36389
 20
-8.80128
 30
0.0
 10
2.38407
 20
-8.81525
 30
0.0
 10
2.4003
 20
-8.83473
 30
0.0
 10
2.41258
 20
-8.8597
 30
0.0
 10
2.41258
 20
-8.8597
 30
0.0
 10
2.42485
 20
-8.88468
 30
0.0
 10
2.43092
 20
-8.9122
 30
0.0
 10
2.43092
 20
-8.94225
 30
0.0
 10
2.43092
 20
-8.94225
 30
0.0
 10
2.43092
 20
-8.99362
 30
0.0
 10
2.41455
 20
-9.03722
 30
0.0
 10
2.38167
 20
-9.07278
 30
0.0
 10
2.38167
 20
-9.07278
 30
0.0
 10
2.34894
 20
-9.10848
 30
0.0
 10
2.28953
 20
-9.12626
 30
0.0
 10
2.20373
 20
-9.12626
 30
0.0
 10
2.20373
 20
-9.12626
 30
0.0
 10
2.20373
 20
-9.12626
 30
0.0
 10
2.04823
 20
-9.12626
 30
0.0
 10
2.04823
 20
-9.12626
 30
0.0
 10
2.04823
 20
-9.12626
 30
0.0
 10
2.04823
 20
-9.12626
 30
0.0
 10
2.04823
 20
-9.37349
 30
0.0
 10
2.04823
 20
-9.37349
 30
0.0
 10
2.04823
 20
-9.37349
 30
0.0
 10
2.04823
 20
-9.37349
 30
0.0
 10
1.96779
 20
-9.37349
 30
0.0
 10
1.96779
 20
-9.37349
 30
0.0
  0
SPLINE
  5
4D
330
1F
100
AcDbEntity
  8
Layer 1
 62
   250
100
AcDbSpline
210
0.0
220
0.0
230
1.0
 70
    11
 71
     3
 72
    36
 73
    32
 74
     0
 42
0.0000000001
 43
0.0000000001
 12
1.0
 22
0.0
 32
0.0
 13
1.0
 23
0.0
 33
0.0
 40
0.0
 40
0.0
 40
0.0
 40
0.0
 40
0.1111111111111111
 40
0.1111111111111111
 40
0.1111111111111111
 40
0.1111111111111111
 40
0.2222222222222222
 40
0.2222222222222222
 40
0.2222222222222222
 40
0.2222222222222222
 40
0.3333333333333333
 40
0.3333333333333333
 40
0.3333333333333333
 40
0.3333333333333333
 40
0.4444444444444444
 40
0.4444444444444444
 40
0.4444444444444444
 40
0.4444444444444444
 40
0.5555555555555556
 40
0.5555555555555556
 40
0.5555555555555556
 40
0.5555555555555556
 40
0.6666666666666666
 40
0.6666666666666666
 40
0.6666666666666666
 40
0.6666666666666666
 40
0.7777777777777778
 40
0.7777777777777778
 40
0.7777777777777778
 40
0.7777777777777778
 40
1.0
 40
1.0
 40
1.0
 40
1.0
 10
2.04823
 20
-9.05514
 30
0.0
 10
2.04823
 20
-9.05514
 30
0.0
 10
2.20486
 20
-9.05514
 30
0.0
 10
2.20486
 20
-9.05514
 30
0.0
 10
2.20486
 20
-9.05514
 30
0.0
 10
2.25679
 20
-9.05514
 30
0.0
 10
2.29348
 20
-9.04555
 30
0.0
 10
2.31535
 20
-9.02621
 30
0.0
 10
2.31535
 20
-9.02621
 30
0.0
 10
2.33708
 20
-9.00688
 30
0.0
 10
2.34795
 20
-8.97979
 30
0.0
 10
2.34795
 20
-8.94465
 30
0.0
 10
2.34795
 20
-8.94465
 30
0.0
 10
2.34795
 20
-8.91939
 30
0.0
 10
2.3416
 20
-8.89766
 30
0.0
 10
2.32876
 20
-8.8796
 30
0.0
 10
2.32876
 20
-8.8796
 30
0.0
 10
2.31592
 20
-8.86154
 30
0.0
 10
2.29898
 20
-8.84954
 30
0.0
 10
2.2781
 20
-8.84376
 30
0.0
 10
2.2781
 20
-8.84376
 30
0.0
 10
2.26455
 20
-8.84023
 30
0.0
 10
2.23957
 20
-8.83839
 30
0.0
 10
2.20331
 20
-8.83839
 30
0.0
 10
2.20331
 20
-8.83839
 30
0.0
 10
2.20331
 20
-8.83839
 30
0.0
 10
2.04823
 20
-8.83839
 30
0.0
 10
2.04823
 20
-8.83839
 30
0.0
 10
2.04823
 20
-8.83839
 30
0.0
 10
2.04823
 20
-8.83839
 30
0.0
 10
2.04823
 20
-9.05514
 30
0.0
 10
2.04823
 20
-9.05514
 30
0.0
  0
SPLINE
  5
4E
330
1F
100
AcDbEntity
  8
Layer 1
 62
   250
100
AcDbSpline
210
0.0
220
0.0
230
1.0
 70
    11
 71
     3
 72
    28
 73
    24
 74
     0
 42
0.0000000001
 43
0.0000000001
 12
1.0
 22
0.0
 32
0.0
 13
1.0
 23
0.0
 33
0.0
 40
0.0
 40
0.0
 40
0.0
 40
0.0
 40
0.1428571428571428
 40
0.1428571428571428
 40
0.1428571428571428
 40
0.1428571428571428
 40
0.2857142857142857
 40
0.2857142857142857
 40
0.2857142857142857
 40
0.2857142857142857
 40
0.4285714285714285
 40
0.4285714285714285
 40
0.4285714285714285
 40
0.4285714285714285
 40
0.5714285714285714
 40
0.5714285714285714
 40
0.5714285714285714
 40
0.5714285714285714
 40
0.7142857142857143
 40
0.7142857142857143
 40
0.7142857142857143
 40
0.7142857142857143
 40
1.0
 40
1.0
 40
1.0
 40
1.0
 10
2.52914
 20
-9.37349
 30
0.0
 10
2.52914
 20
-9.37349
 30
0.0
 10
2.52914
 20
-8.76727
 30
0.0
 10
2.52914
 20
-8.76727
 30
0.0
 10
2.52914
 20
-8.76727
 30
0.0
 10
2.52914
 20
-8.76727
 30
0.0
 10
2.60957
 20
-8.76727
 30
0.0
 10
2.60957
 20
-8.76727
 30
0.0
 10
2.60957
 20
-8.76727
 30
0.0
 10
2.60957
 20
-8.76727
 30
0.0
 10
2.60957
 20
-9.30237
 30
0.0
 10
2.60957
 20
-9.30237
 30
0.0
 10
2.60957
 20
-9.30237
 30
0.0
 10
2.60957
 20
-9.30237
 30
0.0
 10
2.9076
 20
-9.30237
 30
0.0
 10
2.9076
 20
-9.30237
 30
0.0
 10
2.9076
 20
-9.30237
 30
0.0
 10
2.9076
 20
-9.30237
 30
0.0
 10
2.9076
 20
-9.37349
 30
0.0
 10
2.9076
 20
-9.37349
 30
0.0
 10
2.9076
 20
-9.37349
 30
0.0
 10
2.9076
 20
-9.37349
 30
0.0
 10
2.52914
 20
-9.37349
 30
0.0
 10
2.52914
 20
-9.37349
 30
0.0
  0
SPLINE
  5
4F
330
1F
100
AcDbEntity
  8
Layer 1
 62
   250
100
AcDbSpline
210
0.0
220
0.0
230
1.0
 70
    11
 71
     3
 72
    36
 73
    32
 74
     0
 42
0.0000000001
 43
0.0000000001
 12
1.0
 22
0.0
 32
0.0
 13
1.0
 23
0.0
 33
0.0
 40
0.0
 40
0.0
 40
0.0
 40
0.0
 40
0.1111111111111111
 40
0.1111111111111111
 40
0.1111111111111111
 40
0.1111111111111111
 40
0.2222222222222222
 40
0.2222222222222222
 40
0.2222222222222222
 40
0.2222222222222222
 40
0.3333333333333333
 40
0.3333333333333333
 40
0.3333333333333333
 40
0.3333333333333333
 40
0.4444444444444444
 40
0.4444444444444444
 40
0.4444444444444444
 40
0.4444444444444444
 40
0.5555555555555556
 40
0.5555555555555556
 40
0.5555555555555556
 40
0.5555555555555556
 40
0.6666666666666666
 40
0.6666666666666666
 40
0.6666666666666666
 40
0.6666666666666666
 40
0.7777777777777778
 40
0.7777777777777778
 40
0.7777777777777778
 40
0.7777777777777778
 40
1.0
 40
1.0
 40
1.0
 40
1.0
 10
2.93695
 20
-9.37349
 30
0.0
 10
2.93695
 20
-9.37349
 30
0.0
 10
3.1695
 20
-8.76727
 30
0.0
 10
3.1695
 20
-8.76727
 30
0.0
 10
3.1695
 20
-8.76727
 30
0.0
 10
3.1695
 20
-8.76727
 30
0.0
 10
3.2577
 20
-8.76727
 30
0.0
 10
3.2577
 20
-8.76727
 30
0.0
 10
3.2577
 20
-8.76727
 30
0.0
 10
3.2577
 20
-8.76727
 30
0.0
 10
3.5045
 20
-9.37349
 30
0.0
 10
3.5045
 20
-9.37349
 30
0.0
 10
3.5045
 20
-9.37349
 30
0.0
 10
3.5045
 20
-9.37349
 30
0.0
 10
3.4132
 20
-9.37349
 30
0.0
 10
3.4132
 20
-9.37349
 30
0.0
 10
3.4132
 20
-9.37349
 30
0.0
 10
3.4132
 20
-9.37349
 30
0.0
 10
3.34307
 20
-9.18976
 30
0.0
 10
3.34307
 20
-9.18976
 30
0.0
 10
3.34307
 20
-9.18976
 30
0.0
 10
3.34307
 20
-9.18976
 30
0.0
 10
3.0878
 20
-9.18976
 30
0.0
 10
3.0878
 20
-9.18976
 30
0.0
 10
3.0878
 20
-9.18976
 30
0.0
 10
3.0878
 20
-9.18976
 30
0.0
 10
3.02204
 20
-9.37349
 30
0.0
 10
3.02204
 20
-9.37349
 30
0.0
 10
3.02204
 20
-9.37349
 30
0.0
 10
3.02204
 20
-9.37349
 30
0.0
 10
2.93695
 20
-9.37349
 30
0.0
 10
2.93695
 20
-9.37349
 30
0.0
  0
SPLINE
  5
50
330
1F
100
AcDbEntity
  8
Layer 1
 62
   250
100
AcDbSpline
210
0.0
220
0.0
230
1.0
 70
    11
 71
     3
 72
    24
 73
    20
 74
     0
 42
0.0000000001
 43
0.0000000001
 12
1.0
 22
0.0
 32
0.0
 13
1.0
 23
0.0
 33
0.0
 40
0.0
 40
0.0
 40
0.0
 40
0.0
 40
0.1666666666666667
 40
0.1666666666666667
 40
0.1666666666666667
 40
0.1666666666666667
 40
0.3333333333333333
 40
0.3333333333333333
 40
0.3333333333333333
 40
0.3333333333333333
 40
0.5
 40
0.5
 40
0.5
 40
0.5
 40
0.6666666666666666
 40
0.6666666666666666
 40
0.6666666666666666
 40
0.6666666666666666
 40
1.0
 40
1.0
 40
1.0
 40
1.0
 10
3.11136
 20
-9.12457
 30
0.0
 10
3.11136
 20
-9.12457
 30
0.0
 10
3.31795
 20
-9.12457
 30
0.0
 10
3.31795
 20
-9.12457
 30
0.0
 10
3.31795
 20
-9.12457
 30
0.0
 10
3.31795
 20
-9.12457
 30
0.0
 10
3.25473
 20
-8.95651
 30
0.0
 10
3.25473
 20
-8.95651
 30
0.0
 10
3.25473
 20
-8.95651
 30
0.0
 10
3.23568
 20
-8.90542
 30
0.0
 10
3.22129
 20
-8.86323
 30
0.0
 10
3.21127
 20
-8.82993
 30
0.0
 10
3.21127
 20
-8.82993
 30
0.0
 10
3.20295
 20
-8.86944
 30
0.0
 10
3.1918
 20
-8.90824
 30
0.0
 10
3.17783
 20
-8.94663
 30
0.0
 10
3.17783
 20
-8.94663
 30
0.0
 10
3.17783
 20
-8.94663
 30
0.0
 10
3.11136
 20
-9.12457
 30
0.0
 10
3.11136
 20
-9.12457
 30
0.0
  0
SPLINE
  5
51
330
1F
100
AcDbEntity
  8
Layer 1
 62
   250
100
AcDbSpline
210
0.0
220
0.0
230
1.0
 70
    11
 71
     3
 72
    36
 73
    32
 74
     0
 42
0.0000000001
 43
0.0000000001
 12
1.0
 22
0.0
 32
0.0
 13
1.0
 23
0.0
 33
0.0
 40
0.0
 40
0.0
 40
0.0
 40
0.0
 40
0.1111111111111111
 40
0.1111111111111111
 40
0.1111111111111111
 40
0.1111111111111111
 40
0.2222222222222222
 40
0.2222222222222222
 40
0.2222222222222222
 40
0.2222222222222222
 40
0.3333333333333333
 40
0.3333333333333333
 40
0.3333333333333333
 40
0.3333333333333333
 40
0.4444444444444444
 40
0.4444444444444444
 40
0.4444444444444444
 40
0.4444444444444444
 40
0.5555555555555556
 40
0.5555555555555556
 40
0.5555555555555556
 40
0.5555555555555556
 40
0.6666666666666666
 40
0.6666666666666666
 40
0.6666666666666666
 40
0.6666666666666666
 40
0.7777777777777778
 40
0.7777777777777778
 40
0.7777777777777778
 40
0.7777777777777778
 40
1.0
 40
1.0
 40
1.0
 40
1.0
 10
3.65945
 20
-9.37349
 30
0.0
 10
3.65945
 20
-9.37349
 30
0.0
 10
3.65945
 20
-8.83839
 30
0.0
 10
3.65945
 20
-8.83839
 30
0.0
 10
3.65945
 20
-8.83839
 30
0.0
 10
3.65945
 20
-8.83839
 30
0.0
 10
3.45963
 20
-8.83839
 30
0.0
 10
3.45963
 20
-8.83839
 30
0.0
 10
3.45963
 20
-8.83839
 30
0.0
 10
3.45963
 20
-8.83839
 30
0.0
 10
3.45963
 20
-8.76727
 30
0.0
 10
3.45963
 20
-8.76727
 30
0.0
 10
3.45963
 20
-8.76727
 30
0.0
 10
3.45963
 20
-8.76727
 30
0.0
 10
3.9397
 20
-8.76727
 30
0.0
 10
3.9397
 20
-8.76727
 30
0.0
 10
3.9397
 20
-8.76727
 30
0.0
 10
3.9397
 20
-8.76727
 30
0.0
 10
3.9397
 20
-8.83839
 30
0.0
 10
3.9397
 20
-8.83839
 30
0.0
 10
3.9397
 20
-8.83839
 30
0.0
 10
3.9397
 20
-8.83839
 30
0.0
 10
3.73988
 20
-8.83839
 30
0.0
 10
3.73988
 20
-8.83839
 30
0.0
 10
3.73988
 20
-8.83839
 30
0.0
 10
3.73988
 20
-8.83839
 30
0.0
 10
3.73988
 20
-9.37349
 30
0.0
 10
3.73988
 20
-9.37349
 30
0.0
 10
3.73988
 20
-9.37349
 30
0.0
 10
3.73988
 20
-9.37349
 30
0.0
 10
3.65945
 20
-9.37349
 30
0.0
 10
3.65945
 20
-9.37349
 30
0.0
  0
SPLINE
  5
52
330
1F
100
AcDbEntity
  8
Layer 1
 62
   250
100
AcDbSpline
210
0.0
220
0.0
230
1.0
 70
    11
 71
     3
 72
    52
 73
    48
 74
     0
 42
0.0000000001
 43
0.0000000001
 12
1.0
 22
0.0
 32
0.0
 13
1.0
 23
0.0
 33
0.0
 40
0.0
 40
0.0
 40
0.0
 40
0.0
 40
0.0769230769230769
 40
0.0769230769230769
 40
0.0769230769230769
 40
0.0769230769230769
 40
0.1538461538461539
 40
0.1538461538461539
 40
0.1538461538461539
 40
0.1538461538461539
 40
0.2307692307692308
 40
0.2307692307692308
 40
0.2307692307692308
 40
0.2307692307692308
 40
0.3076923076923077
 40
0.3076923076923077
 40
0.3076923076923077
 40
0.3076923076923077
 40
0.3846153846153846
 40
0.3846153846153846
 40
0.3846153846153846
 40
0.3846153846153846
 40
0.4615384615384616
 40
0.4615384615384616
 40
0.4615384615384616
 40
0.4615384615384616
 40
0.5384615384615384
 40
0.5384615384615384
 40
0.5384615384615384
 40
0.5384615384615384
 40
0.6153846153846154
 40
0.6153846153846154
 40
0.6153846153846154
 40
0.6153846153846154
 40
0.6923076923076923
 40
0.6923076923076923
 40
0.6923076923076923
 40
0.6923076923076923
 40
0.7692307692307693
 40
0.7692307692307693
 40
0.7692307692307693
 40
0.7692307692307693
 40
0.8461538461538461
 40
0.8461538461538461
 40
0.8461538461538461
 40
0.8461538461538461
 40
1.0
 40
1.0
 40
1.0
 40
1.0
 10
4.02422
 20
-9.37349
 30
0.0
 10
4.02422
 20
-9.37349
 30
0.0
 10
4.02422
 20
-8.76727
 30
0.0
 10
4.02422
 20
-8.76727
 30
0.0
 10
4.02422
 20
-8.76727
 30
0.0
 10
4.02422
 20
-8.76727
 30
0.0
 10
4.46195
 20
-8.76727
 30
0.0
 10
4.46195
 20
-8.76727
 30
0.0
 10
4.46195
 20
-8.76727
 30
0.0
 10
4.46195
 20
-8.76727
 30
0.0
 10
4.46195
 20
-8.83839
 30
0.0
 10
4.46195
 20
-8.83839
 30
0.0
 10
4.46195
 20
-8.83839
 30
0.0
 10
4.46195
 20
-8.83839
 30
0.0
 10
4.10465
 20
-8.83839
 30
0.0
 10
4.10465
 20
-8.83839
 30
0.0
 10
4.10465
 20
-8.83839
 30
0.0
 10
4.10465
 20
-8.83839
 30
0.0
 10
4.10465
 20
-9.02466
 30
0.0
 10
4.10465
 20
-9.02466
 30
0.0
 10
4.10465
 20
-9.02466
 30
0.0
 10
4.10465
 20
-9.02466
 30
0.0
 10
4.43909
 20
-9.02466
 30
0.0
 10
4.43909
 20
-9.02466
 30
0.0
 10
4.43909
 20
-9.02466
 30
0.0
 10
4.43909
 20
-9.02466
 30
0.0
 10
4.43909
 20
-9.09578
 30
0.0
 10
4.43909
 20
-9.09578
 30
0.0
 10
4.43909
 20
-9.09578
 30
0.0
 10
4.43909
 20
-9.09578
 30
0.0
 10
4.10465
 20
-9.09578
 30
0.0
 10
4.10465
 20
-9.09578
 30
0.0
 10
4.10465
 20
-9.09578
 30
0.0
 10
4.10465
 20
-9.09578
 30
0.0
 10
4.10465
 20
-9.30237
 30
0.0
 10
4.10465
 20
-9.30237
 30
0.0
 10
4.10465
 20
-9.30237
 30
0.0
 10
4.10465
 20
-9.30237
 30
0.0
 10
4.47634
 20
-9.30237
 30
0.0
 10
4.47634
 20
-9.30237
 30
0.0
 10
4.47634
 20
-9.30237
 30
0.0
 10
4.47634
 20
-9.30237
 30
0.0
 10
4.47634
 20
-9.37349
 30
0.0
 10
4.47634
 20
-9.37349
 30
0.0
 10
4.47634
 20
-9.37349
 30
0.0
 10
4.47634
 20
-9.37349
 30
0.0
 10
4.02422
 20
-9.37349
 30
0.0
 10
4.02422
 20
-9.37349
 30
0.0
  0
SPLINE
  5
53
330
1F
100
AcDbEntity
  8
Layer 1
 62
     3
370
     9
100
AcDbSpline
210
0.0
220
0.0
230
1.0
 70
    11
 71
     3
 72
    20
 73
    16
 74
     0
 42
0.0000000001
 43
0.0000000001
 12
1.0
 22
0.0
 32
0.0
 13
1.0
 23
0.0
 33
0.0
 40
0.0
 40
0.0
 40
0.0
 40
0.0
 40
0.2
 40
0.2
 40
0.2
 40
0.2
 40
0.4
 40
0.4
 40
0.4
 40
0.4
 40
0.6
 40
0.6
 40
0.6
 40
0.6
 40
1.0
 40
1.0
 40
1.0
 40
1.0
 10
-7.44356
 20
6.36555
 30
0.0
 10
-7.44356
 20
6.36555
 30
0.0
 10
-7.44356
 20
-7.36088
 30
0.0
 10
-7.44356
 20
-7.36088
 30
0.0
 10
-7.44356
 20
-7.36088
 30
0.0
 10
-7.44356
 20
-7.36088
 30
0.0
 10
7.71739
 20
-7.36088
 30
0.0
 10
7.71739
 20
-7.36088
 30
0.0
 10
7.71739
 20
-7.36088
 30
0.0
 10
7.71739
 20
-7.36088
 30
0.0
 10
7.71739
 20
6.36555
 30
0.0
 10
7.71739
 20
6.36555
 30
0.0
 10
7.71739
 20
6.36555
 30
0.0
 10
7.71739
 20
6.36555
 30
0.0
 10
-7.44356
 20
6.36555
 30
0.0
 10
-7.44356
 20
6.36555
 30
0.0
  0
SPLINE
  5
55
330
1F
100
AcDbEntity
  8
layer 2
 62
     1
370
     0
100
AcDbSpline
210
0.0
220
0.0
230
1.0
 70
    24
 71
     3
 72
     8
 73
     4
 74
     0
 42
0.0000000001
 43
0.0000000001
 12
1.0
 22
0.0
 32
0.0
 13
1.0
 23
0.0
 33
0.0
 40
0.0
 40
0.0
 40
0.0
 40
0.0
 40
1.0
 40
1.0
 40
1.0
 40
1.0
 10
-7.44356
 20
6.50619
 30
0.0
 10
-7.44356
 20
6.50619
 30
0.0
 10
-7.44356
 20
7.40072
 30
0.0
 10
-7.44356
 20
7.40072
 30
0.0
  0
SPLINE
  5
56
330
1F
100
AcDbEntity
  8
layer 2
 62
     1
370
     0
100
AcDbSpline
210
0.0
220
0.0
230
1.0
 70
    24
 71
     3
 72
     8
 73
     4
 74
     0
 42
0.0000000001
 43
0.0000000001
 12
1.0
 22
0.0
 32
0.0
 13
1.0
 23
0.0
 33
0.0
 40
0.0
 40
0.0
 40
0.0
 40
0.0
 40
1.0
 40
1.0
 40
1.0
 40
1.0
 10
7.71739
 20
6.50619
 30
0.0
 10
7.71739
 20
6.50619
 30
0.0
 10
7.71739
 20
7.40072
 30
0.0
 10
7.71739
 20
7.40072
 30
0.0
  0
SPLINE
  5
57
330
1F
100
AcDbEntity
  8
layer 2
 62
     1
370
     0
100
AcDbSpline
210
0.0
220
0.0
230
1.0
 70
    24
 71
     3
 72
     8
 73
     4
 74
     0
 42
0.0000000001
 43
0.0000000001
 12
1.0
 22
0.0
 32
0.0
 13
1.0
 23
0.0
 33
0.0
 40
0.0
 40
0.0
 40
0.0
 40
0.0
 40
1.0
 40
1.0
 40
1.0
 40
1.0
 10
-6.881
 20
7.11945
 30
0.0
 10
-6.881
 20
7.11945
 30
0.0
 10
7.15484
 20
7.11945
 30
0.0
 10
7.15484
 20
7.11945
 30
0.0
  0
SPLINE
  5
58
330
1F
100
AcDbEntity
  8
layer 2
 62
     1
100
AcDbSpline
210
0.0
220
0.0
230
1.0
 70
    27
 71
     3
 72
    12
 73
     8
 74
     0
 42
0.0000000001
 43
0.0000000001
 12
1.0
 22
0.0
 32
0.0
 13
1.0
 23
0.0
 33
0.0
 40
0.0
 40
0.0
 40
0.0
 40
0.0
 40
0.3333333333333333
 40
0.3333333333333333
 40
0.3333333333333333
 40
0.3333333333333333
 40
1.0
 40
1.0
 40
1.0
 40
1.0
 10
-6.881
 20
7.21321
 30
0.0
 10
-6.881
 20
7.21321
 30
0.0
 10
-7.44356
 20
7.11945
 30
0.0
 10
-7.44356
 20
7.11945
 30
0.0
 10
-7.44356
 20
7.11945
 30
0.0
 10
-7.44356
 20
7.11945
 30
0.0
 10
-6.881
 20
7.21321
 30
0.0
 10
-6.881
 20
7.21321
 30
0.0
  0
SPLINE
  5
59
330
1F
100
AcDbEntity
  8
layer 2
 62
     1
100
AcDbSpline
210
0.0
220
0.0
230
1.0
 70
     8
 71
     3
 72
    12
 73
     8
 74
     0
 42
0.0000000001
 43
0.0000000001
 12
1.0
 22
0.0
 32
0.0
 13
1.0
 23
0.0
 33
0.0
 40
0.0
 40
0.0
 40
0.0
 40
0.0
 40
0.3333333333333333
 40
0.3333333333333333
 40
0.3333333333333333
 40
0.3333333333333333
 40
1.0
 40
1.0
 40
1.0
 40
1.0
 10
-7.44356
 20
7.11945
 30
0.0
 10
-7.44356
 20
7.11945
 30
0.0
 10
-6.881
 20
7.02569
 30
0.0
 10
-6.881
 20
7.02569
 30
0.0
 10
-6.881
 20
7.02569
 30
0.0
 10
-6.881
 20
7.02569
 30
0.0
 10
-6.881
 20
7.21321
 30
0.0
 10
-6.881
 20
7.21321
 30
0.0
  0
SPLINE
  5
5A
330
1F
100
AcDbEntity
  8
layer 2
 62
     1
370
     9
100
AcDbSpline
210
0.0
220
0.0
230
1.0
 70
    24
 71
     3
 72
     8
 73
     4
 74
     0
 42
0.0000000001
 43
0.0000000001
 12
1.0
 22
0.0
 32
0.0
 13
1.0
 23
0.0
 33
0.0
 40
0.0
 40
0.0
 40
0.0
 40
0.0
 40
1.0
 40
1.0
 40
1.0
 40
1.0
 10
-6.881
 20
7.21321
 30
0.0
 10
-6.881
 20
7.21321
 30
0.0
 10
-7.44356
 20
7.11945
 30
0.0
 10
-7.44356
 20
7.11945
 30
0.0
  0
SPLINE
  5
5B
330
1F
100
AcDbEntity
  8
layer 2
 62
     1
370
     9
100
AcDbSpline
210
0.0
220
0.0
230
1.0
 70
     8
 71
     3
 72
    12
 73
     8
 74
     0
 42
0.0000000001
 43
0.0000000001
 12
1.0
 22
0.0
 32
0.0
 13
1.0
 23
0.0
 33
0.0
 40
0.0
 40
0.0
 40
0.0
 40
0.0
 40
0.3333333333333333
 40
0.3333333333333333
 40
0.3333333333333333
 40
0.3333333333333333
 40
1.0
 40
1.0
 40
1.0
 40
1.0
 10
-7.44356
 20
7.11945
 30
0.0
 10
-7.44356
 20
7.11945
 30
0.0
 10
-6.881
 20
7.02569
 30
0.0
 10
-6.881
 20
7.02569
 30
0.0
 10
-6.881
 20
7.02569
 30
0.0
 10
-6.881
 20
7.02569
 30
0.0
 10
-6.881
 20
7.21321
 30
0.0
 10
-6.881
 20
7.21321
 30
0.0
  0
SPLINE
  5
5C
330
1F
100
AcDbEntity
  8
layer 2
 62
     1
100
AcDbSpline
210
0.0
220
0.0
230
1.0
 70
    27
 71
     3
 72
    12
 73
     8
 74
     0
 42
0.0000000001
 43
0.0000000001
 12
1.0
 22
0.0
 32
0.0
 13
1.0
 23
0.0
 33
0.0
 40
0.0
 40
0.0
 40
0.0
 40
0.0
 40
0.3333333333333333
 40
0.3333333333333333
 40
0.3333333333333333
 40
0.3333333333333333
 40
1.0
 40
1.0
 40
1.0
 40
1.0
 10
7.15484
 20
7.21321
 30
0.0
 10
7.15484
 20
7.21321
 30
0.0
 10
7.71739
 20
7.11945
 30
0.0
 10
7.71739
 20
7.11945
 30
0.0
 10
7.71739
 20
7.11945
 30
0.0
 10
7.71739
 20
7.11945
 30
0.0
 10
7.15484
 20
7.21321
 30
0.0
 10
7.15484
 20
7.21321
 30
0.0
  0
SPLINE
  5
5D
330
1F
100
AcDbEntity
  8
layer 2
 62
     1
100
AcDbSpline
210
0.0
220
0.0
230
1.0
 70
     8
 71
     3
 72
    12
 73
     8
 74
     0
 42
0.0000000001
 43
0.0000000001
 12
1.0
 22
0.0
 32
0.0
 13
1.0
 23
0.0
 33
0.0
 40
0.0
 40
0.0
 40
0.0
 40
0.0
 40
0.3333333333333333
 40
0.3333333333333333
 40
0.3333333333333333
 40
0.3333333333333333
 40
1.0
 40
1.0
 40
1.0
 40
1.0
 10
7.71739
 20
7.11945
 30
0.0
 10
7.71739
 20
7.11945
 30
0.0
 10
7.15484
 20
7.02569
 30
0.0
 10
7.15484
 20
7.02569
 30
0.0
 10
7.15484
 20
7.02569
 30
0.0
 10
7.15484
 20
7.02569
 30
0.0
 10
7.15484
 20
7.21321
 30
0.0
 10
7.15484
 20
7.21321
 30
0.0
  0
SPLINE
  5
5E
330
1F
100
AcDbEntity
  8
layer 2
 62
     1
370
     9
100
AcDbSpline
210
0.0
220
0.0
230
1.0
 70
    24
 71
     3
 72
     8
 73
     4
 74
     0
 42
0.0000000001
 43
0.0000000001
 12
1.0
 22
0.0
 32
0.0
 13
1.0
 23
0.0
 33
0.0
 40
0.0
 40
0.0
 40
0.0
 40
0.0
 40
1.0
 40
1.0
 40
1.0
 40
1.0
 10
7.15484
 20
7.21321
 30
0.0
 10
7.15484
 20
7.21321
 30
0.0
 10
7.71739
 20
7.11945
 30
0.0
 10
7.71739
 20
7.11945
 30
0.0
  0
SPLINE
  5
5F
330
1F
100
AcDbEntity
  8
layer 2
 62
     1
370
     9
100
AcDbSpline
210
0.0
220
0.0
230
1.0
 70
     8
 71
     3
 72
    12
 73
     8
 74
     0
 42
0.0000000001
 43
0.0000000001
 12
1.0
 22
0.0
 32
0.0
 13
1.0
 23
0.0
 33
0.0
 40
0.0
 40
0.0
 40
0.0
 40
0.0
 40
0.3333333333333333
 40
0.3333333333333333
 40
0.3333333333333333
 40
0.3333333333333333
 40
1.0
 40
1.0
 40
1.0
 40
1.0
 10
7.71739
 20
7.11945
 30
0.0
 10
7.71739
 20
7.11945
 30
0.0
 10
7.15484
 20
7.02569
 30
0.0
 10
7.15484
 20
7.02569
 30
0.0
 10
7.15484
 20
7.02569
 30
0.0
 10
7.15484
 20
7.02569
 30
0.0
 10
7.15484
 20
7.21321
 30
0.0
 10
7.15484
 20
7.21321
 30
0.0
  0
SPLINE
  5
60
330
1F
100
AcDbEntity
  8
layer 2
 62
     1
100
AcDbSpline
210
0.0
220
0.0
230
1.0
 70
    11
 71
     3
 72
    92
 73
    88
 74
     0
 42
0.0000000001
 43
0.0000000001
 12
1.0
 22
0.0
 32
0.0
 13
1.0
 23
0.0
 33
0.0
 40
0.0
 40
0.0
 40
0.0
 40
0.0
 40
0.0434782608695652
 40
0.0434782608695652
 40
0.0434782608695652
 40
0.0434782608695652
 40
0.0869565217391304
 40
0.0869565217391304
 40
0.0869565217391304
 40
0.0869565217391304
 40
0.1304347826086956
 40
0.1304347826086956
 40
0.1304347826086956
 40
0.1304347826086956
 40
0.1739130434782609
 40
0.1739130434782609
 40
0.1739130434782609
 40
0.1739130434782609
 40
0.2173913043478261
 40
0.2173913043478261
 40
0.2173913043478261
 40
0.2173913043478261
 40
0.2608695652173913
 40
0.2608695652173913
 40
0.2608695652173913
 40
0.2608695652173913
 40
0.3043478260869565
 40
0.3043478260869565
 40
0.3043478260869565
 40
0.3043478260869565
 40
0.3478260869565217
 40
0.3478260869565217
 40
0.3478260869565217
 40
0.3478260869565217
 40
0.391304347826087
 40
0.391304347826087
 40
0.391304347826087
 40
0.391304347826087
 40
0.4347826086956522
 40
0.4347826086956522
 40
0.4347826086956522
 40
0.4347826086956522
 40
0.4782608695652174
 40
0.4782608695652174
 40
0.4782608695652174
 40
0.4782608695652174
 40
0.5217391304347826
 40
0.5217391304347826
 40
0.5217391304347826
 40
0.5217391304347826
 40
0.5652173913043478
 40
0.5652173913043478
 40
0.5652173913043478
 40
0.5652173913043478
 40
0.6086956521739131
 40
0.6086956521739131
 40
0.6086956521739131
 40
0.6086956521739131
 40
0.6521739130434783
 40
0.6521739130434783
 40
0.6521739130434783
 40
0.6521739130434783
 40
0.6956521739130435
 40
0.6956521739130435
 40
0.6956521739130435
 40
0.6956521739130435
 40
0.7391304347826086
 40
0.7391304347826086
 40
0.7391304347826086
 40
0.7391304347826086
 40
0.782608695652174
 40
0.782608695652174
 40
0.782608695652174
 40
0.782608695652174
 40
0.8260869565217391
 40
0.8260869565217391
 40
0.8260869565217391
 40
0.8260869565217391
 40
0.8695652173913043
 40
0.8695652173913043
 40
0.8695652173913043
 40
0.8695652173913043
 40
0.9130434782608695
 40
0.9130434782608695
 40
0.9130434782608695
 40
0.9130434782608695
 40
1.0
 40
1.0
 40
1.0
 40
1.0
 10
-0.19829
 20
7.40341
 30
0.0
 10
-0.19829
 20
7.40341
 30
0.0
 10
-0.19829
 20
7.35994
 30
0.0
 10
-0.19829
 20
7.35994
 30
0.0
 10
-0.19829
 20
7.35994
 30
0.0
 10
-0.19829
 20
7.35994
 30
0.0
 10
-0.44361
 20
7.35994
 30
0.0
 10
-0.44361
 20
7.35994
 30
0.0
 10
-0.44361
 20
7.35994
 30
0.0
 10
-0.44395
 20
7.37089
 30
0.0
 10
-0.44214
 20
7.38142
 30
0.0
 10
-0.43826
 20
7.3916
 30
0.0
 10
-0.43826
 20
7.3916
 30
0.0
 10
-0.43196
 20
7.40824
 30
0.0
 10
-0.42187
 20
7.42472
 30
0.0
 10
-0.40798
 20
7.44085
 30
0.0
 10
-0.40798
 20
7.44085
 30
0.0
 10
-0.39409
 20
7.45698
 30
0.0
 10
-0.37425
 20
7.47561
 30
0.0
 10
-0.34846
 20
7.49674
 30
0.0
 10
-0.34846
 20
7.49674
 30
0.0
 10
-0.30835
 20
7.52978
 30
0.0
 10
-0.28109
 20
7.55592
 30
0.0
 10
-0.26686
 20
7.57524
 30
0.0
 10
-0.26686
 20
7.57524
 30
0.0
 10
-0.25254
 20
7.59456
 30
0.0
 10
-0.24538
 20
7.61285
 30
0.0
 10
-0.24538
 20
7.6301
 30
0.0
 10
-0.24538
 20
7.6301
 30
0.0
 10
-0.24538
 20
7.64813
 30
0.0
 10
-0.25185
 20
7.66331
 30
0.0
 10
-0.26479
 20
7.67573
 30
0.0
 10
-0.26479
 20
7.67573
 30
0.0
 10
-0.27773
 20
7.68807
 30
0.0
 10
-0.29464
 20
7.69428
 30
0.0
 10
-0.31542
 20
7.69428
 30
0.0
 10
-0.31542
 20
7.69428
 30
0.0
 10
-0.33742
 20
7.69428
 30
0.0
 10
-0.35502
 20
7.68772
 30
0.0
 10
-0.36822
 20
7.67461
 30
0.0
 10
-0.36822
 20
7.67461
 30
0.0
 10
-0.38141
 20
7.66159
 30
0.0
 10
-0.38806
 20
7.64347
 30
0.0
 10
-0.38823
 20
7.62027
 30
0.0
 10
-0.38823
 20
7.62027
 30
0.0
 10
-0.38823
 20
7.62027
 30
0.0
 10
-0.43481
 20
7.62493
 30
0.0
 10
-0.43481
 20
7.62493
 30
0.0
 10
-0.43481
 20
7.62493
 30
0.0
 10
-0.43162
 20
7.65977
 30
0.0
 10
-0.41954
 20
7.68634
 30
0.0
 10
-0.39867
 20
7.70463
 30
0.0
 10
-0.39867
 20
7.70463
 30
0.0
 10
-0.37771
 20
7.72292
 30
0.0
 10
-0.34967
 20
7.73206
 30
0.0
 10
-0.31439
 20
7.73206
 30
0.0
 10
-0.31439
 20
7.73206
 30
0.0
 10
-0.27885
 20
7.73206
 30
0.0
 10
-0.25065
 20
7.72223
 30
0.0
 10
-0.22994
 20
7.70247
 30
0.0
 10
-0.22994
 20
7.70247
 30
0.0
 10
-0.20915
 20
7.68272
 30
0.0
 10
-0.1988
 20
7.65822
 30
0.0
 10
-0.1988
 20
7.62907
 30
0.0
 10
-0.1988
 20
7.62907
 30
0.0
 10
-0.1988
 20
7.61423
 30
0.0
 10
-0.20182
 20
7.59965
 30
0.0
 10
-0.20795
 20
7.58533
 30
0.0
 10
-0.20795
 20
7.58533
 30
0.0
 10
-0.21398
 20
7.57093
 30
0.0
 10
-0.22408
 20
7.55583
 30
0.0
 10
-0.23814
 20
7.53996
 30
0.0
 10
-0.23814
 20
7.53996
 30
0.0
 10
-0.25228
 20
7.52418
 30
0.0
 10
-0.27566
 20
7.50235
 30
0.0
 10
-0.30827
 20
7.47475
 30
0.0
 10
-0.30827
 20
7.47475
 30
0.0
 10
-0.33561
 20
7.4518
 30
0.0
 10
-0.35321
 20
7.43628
 30
0.0
 10
-0.36097
 20
7.42808
 30
0.0
 10
-0.36097
 20
7.42808
 30
0.0
 10
-0.36873
 20
7.41989
 30
0.0
 10
-0.37512
 20
7.41169
 30
0.0
 10
-0.38021
 20
7.40341
 30
0.0
 10
-0.38021
 20
7.40341
 30
0.0
 10
-0.38021
 20
7.40341
 30
0.0
 10
-0.19829
 20
7.40341
 30
0.0
 10
-0.19829
 20
7.40341
 30
0.0
  0
SPLINE
  5
61
330
1F
100
AcDbEntity
  8
layer 2
 62
     1
100
AcDbSpline
210
0.0
220
0.0
230
1.0
 70
    11
 71
     3
 72
    40
 73
    36
 74
     0
 42
0.0000000001
 43
0.0000000001
 12
1.0
 22
0.0
 32
0.0
 13
1.0
 23
0.0
 33
0.0
 40
0.0
 40
0.0
 40
0.0
 40
0.0
 40
0.1
 40
0.1
 40
0.1
 40
0.1
 40
0.2
 40
0.2
 40
0.2
 40
0.2
 40
0.3
 40
0.3
 40
0.3
 40
0.3
 40
0.4
 40
0.4
 40
0.4
 40
0.4
 40
0.5
 40
0.5
 40
0.5
 40
0.5
 40
0.6
 40
0.6
 40
0.6
 40
0.6
 40
0.7
 40
0.7
 40
0.7
 40
0.7
 40
0.8
 40
0.8
 40
0.8
 40
0.8
 40
1.0
 40
1.0
 40
1.0
 40
1.0
 10
0.02176
 20
7.35994
 30
0.0
 10
0.02176
 20
7.35994
 30
0.0
 10
-0.02378
 20
7.35994
 30
0.0
 10
-0.02378
 20
7.35994
 30
0.0
 10
-0.02378
 20
7.35994
 30
0.0
 10
-0.02378
 20
7.35994
 30
0.0
 10
-0.02378
 20
7.64994
 30
0.0
 10
-0.02378
 20
7.64994
 30
0.0
 10
-0.02378
 20
7.64994
 30
0.0
 10
-0.03474
 20
7.63942
 30
0.0
 10
-0.04914
 20
7.62898
 30
0.0
 10
-0.06691
 20
7.61854
 30
0.0
 10
-0.06691
 20
7.61854
 30
0.0
 10
-0.08468
 20
7.60811
 30
0.0
 10
-0.10073
 20
7.60026
 30
0.0
 10
-0.11487
 20
7.59508
 30
0.0
 10
-0.11487
 20
7.59508
 30
0.0
 10
-0.11487
 20
7.59508
 30
0.0
 10
-0.11487
 20
7.63907
 30
0.0
 10
-0.11487
 20
7.63907
 30
0.0
 10
-0.11487
 20
7.63907
 30
0.0
 10
-0.08943
 20
7.65098
 30
0.0
 10
-0.06717
 20
7.66547
 30
0.0
 10
-0.04811
 20
7.68255
 30
0.0
 10
-0.04811
 20
7.68255
 30
0.0
 10
-0.02905
 20
7.69954
 30
0.0
 10
-0.0155
 20
7.71602
 30
0.0
 10
-0.00757
 20
7.73206
 30
0.0
 10
-0.00757
 20
7.73206
 30
0.0
 10
-0.00757
 20
7.73206
 30
0.0
 10
0.02176
 20
7.73206
 30
0.0
 10
0.02176
 20
7.73206
 30
0.0
 10
0.02176
 20
7.73206
 30
0.0
 10
0.02176
 20
7.73206
 30
0.0
 10
0.02176
 20
7.35994
 30
0.0
 10
0.02176
 20
7.35994
 30
0.0
  0
SPLINE
  5
62
330
1F
100
AcDbEntity
  8
layer 2
 62
     1
100
AcDbSpline
210
0.0
220
0.0
230
1.0
 70
    11
 71
     3
 72
    20
 73
    16
 74
     0
 42
0.0000000001
 43
0.0000000001
 12
1.0
 22
0.0
 32
0.0
 13
1.0
 23
0.0
 33
0.0
 40
0.0
 40
0.0
 40
0.0
 40
0.0
 40
0.2
 40
0.2
 40
0.2
 40
0.2
 40
0.4
 40
0.4
 40
0.4
 40
0.4
 40
0.6
 40
0.6
 40
0.6
 40
0.6
 40
1.0
 40
1.0
 40
1.0
 40
1.0
 10
0.16418
 20
7.35994
 30
0.0
 10
0.16418
 20
7.35994
 30
0.0
 10
0.16418
 20
7.41169
 30
0.0
 10
0.16418
 20
7.41169
 30
0.0
 10
0.16418
 20
7.41169
 30
0.0
 10
0.16418
 20
7.41169
 30
0.0
 10
0.21593
 20
7.41169
 30
0.0
 10
0.21593
 20
7.41169
 30
0.0
 10
0.21593
 20
7.41169
 30
0.0
 10
0.21593
 20
7.41169
 30
0.0
 10
0.21593
 20
7.35994
 30
0.0
 10
0.21593
 20
7.35994
 30
0.0
 10
0.21593
 20
7.35994
 30
0.0
 10
0.21593
 20
7.35994
 30
0.0
 10
0.16418
 20
7.35994
 30
0.0
 10
0.16418
 20
7.35994
 30
0.0
  0
SPLINE
  5
63
330
1F
100
AcDbEntity
  8
layer 2
 62
     1
100
AcDbSpline
210
0.0
220
0.0
230
1.0
 70
    11
 71
     3
 72
    92
 73
    88
 74
     0
 42
0.0000000001
 43
0.0000000001
 12
1.0
 22
0.0
 32
0.0
 13
1.0
 23
0.0
 33
0.0
 40
0.0
 40
0.0
 40
0.0
 40
0.0
 40
0.0434782608695652
 40
0.0434782608695652
 40
0.0434782608695652
 40
0.0434782608695652
 40
0.0869565217391304
 40
0.0869565217391304
 40
0.0869565217391304
 40
0.0869565217391304
 40
0.1304347826086956
 40
0.1304347826086956
 40
0.1304347826086956
 40
0.1304347826086956
 40
0.1739130434782609
 40
0.1739130434782609
 40
0.1739130434782609
 40
0.1739130434782609
 40
0.2173913043478261
 40
0.2173913043478261
 40
0.2173913043478261
 40
0.2173913043478261
 40
0.2608695652173913
 40
0.2608695652173913
 40
0.2608695652173913
 40
0.2608695652173913
 40
0.3043478260869565
 40
0.3043478260869565
 40
0.3043478260869565
 40
0.3043478260869565
 40
0.3478260869565217
 40
0.3478260869565217
 40
0.3478260869565217
 40
0.3478260869565217
 40
0.391304347826087
 40
0.391304347826087
 40
0.391304347826087
 40
0.391304347826087
 40
0.4347826086956522
 40
0.4347826086956522
 40
0.4347826086956522
 40
0.4347826086956522
 40
0.4782608695652174
 40
0.4782608695652174
 40
0.4782608695652174
 40
0.4782608695652174
 40
0.5217391304347826
 40
0.5217391304347826
 40
0.5217391304347826
 40
0.5217391304347826
 40
0.5652173913043478
 40
0.5652173913043478
 40
0.5652173913043478
 40
0.5652173913043478
 40
0.6086956521739131
 40
0.6086956521739131
 40
0.6086956521739131
 40
0.6086956521739131
 40
0.6521739130434783
 40
0.6521739130434783
 40
0.6521739130434783
 40
0.6521739130434783
 40
0.6956521739130435
 40
0.6956521739130435
 40
0.6956521739130435
 40
0.6956521739130435
 40
0.7391304347826086
 40
0.7391304347826086
 40
0.7391304347826086
 40
0.7391304347826086
 40
0.782608695652174
 40
0.782608695652174
 40
0.782608695652174
 40
0.782608695652174
 40
0.8260869565217391
 40
0.8260869565217391
 40
0.8260869565217391
 40
0.8260869565217391
 40
0.8695652173913043
 40
0.8695652173913043
 40
0.8695652173913043
 40
0.8695652173913043
 40
0.9130434782608695
 40
0.9130434782608695
 40
0.9130434782608695
 40
0.9130434782608695
 40
1.0
 40
1.0
 40
1.0
 40
1.0
 10
0.5212
 20
7.40341
 30
0.0
 10
0.5212
 20
7.40341
 30
0.0
 10
0.5212
 20
7.35994
 30
0.0
 10
0.5212
 20
7.35994
 30
0.0
 10
0.5212
 20
7.35994
 30
0.0
 10
0.5212
 20
7.35994
 30
0.0
 10
0.27588
 20
7.35994
 30
0.0
 10
0.27588
 20
7.35994
 30
0.0
 10
0.27588
 20
7.35994
 30
0.0
 10
0.27553
 20
7.37089
 30
0.0
 10
0.27735
 20
7.38142
 30
0.0
 10
0.28123
 20
7.3916
 30
0.0
 10
0.28123
 20
7.3916
 30
0.0
 10
0.28753
 20
7.40824
 30
0.0
 10
0.29762
 20
7.42472
 30
0.0
 10
0.3115
 20
7.44085
 30
0.0
 10
0.3115
 20
7.44085
 30
0.0
 10
0.32539
 20
7.45698
 30
0.0
 10
0.34523
 20
7.47561
 30
0.0
 10
0.37102
 20
7.49674
 30
0.0
 10
0.37102
 20
7.49674
 30
0.0
 10
0.41113
 20
7.52978
 30
0.0
 10
0.43839
 20
7.55592
 30
0.0
 10
0.45263
 20
7.57524
 30
0.0
 10
0.45263
 20
7.57524
 30
0.0
 10
0.46695
 20
7.59456
 30
0.0
 10
0.4741
 20
7.61285
 30
0.0
 10
0.4741
 20
7.6301
 30
0.0
 10
0.4741
 20
7.6301
 30
0.0
 10
0.4741
 20
7.64813
 30
0.0
 10
0.46763
 20
7.66331
 30
0.0
 10
0.4547
 20
7.67573
 30
0.0
 10
0.4547
 20
7.67573
 30
0.0
 10
0.44176
 20
7.68807
 30
0.0
 10
0.42485
 20
7.69428
 30
0.0
 10
0.40406
 20
7.69428
 30
0.0
 10
0.40406
 20
7.69428
 30
0.0
 10
0.38207
 20
7.69428
 30
0.0
 10
0.36447
 20
7.68772
 30
0.0
 10
0.35127
 20
7.67461
 30
0.0
 10
0.35127
 20
7.67461
 30
0.0
 10
0.33807
 20
7.66159
 30
0.0
 10
0.33143
 20
7.64347
 30
0.0
 10
0.33126
 20
7.62027
 30
0.0
 10
0.33126
 20
7.62027
 30
0.0
 10
0.33126
 20
7.62027
 30
0.0
 10
0.28468
 20
7.62493
 30
0.0
 10
0.28468
 20
7.62493
 30
0.0
 10
0.28468
 20
7.62493
 30
0.0
 10
0.28787
 20
7.65977
 30
0.0
 10
0.29995
 20
7.68634
 30
0.0
 10
0.32082
 20
7.70463
 30
0.0
 10
0.32082
 20
7.70463
 30
0.0
 10
0.34178
 20
7.72292
 30
0.0
 10
0.36982
 20
7.73206
 30
0.0
 10
0.4051
 20
7.73206
 30
0.0
 10
0.4051
 20
7.73206
 30
0.0
 10
0.44063
 20
7.73206
 30
0.0
 10
0.46884
 20
7.72223
 30
0.0
 10
0.48954
 20
7.70247
 30
0.0
 10
0.48954
 20
7.70247
 30
0.0
 10
0.51033
 20
7.68272
 30
0.0
 10
0.52068
 20
7.65822
 30
0.0
 10
0.52068
 20
7.62907
 30
0.0
 10
0.52068
 20
7.62907
 30
0.0
 10
0.52068
 20
7.61423
 30
0.0
 10
0.51767
 20
7.59965
 30
0.0
 10
0.51154
 20
7.58533
 30
0.0
 10
0.51154
 20
7.58533
 30
0.0
 10
0.5055
 20
7.57093
 30
0.0
 10
0.49541
 20
7.55583
 30
0.0
 10
0.48135
 20
7.53996
 30
0.0
 10
0.48135
 20
7.53996
 30
0.0
 10
0.4672
 20
7.52418
 30
0.0
 10
0.44383
 20
7.50235
 30
0.0
 10
0.41122
 20
7.47475
 30
0.0
 10
0.41122
 20
7.47475
 30
0.0
 10
0.38388
 20
7.4518
 30
0.0
 10
0.36628
 20
7.43628
 30
0.0
 10
0.35852
 20
7.42808
 30
0.0
 10
0.35852
 20
7.42808
 30
0.0
 10
0.35075
 20
7.41989
 30
0.0
 10
0.34437
 20
7.41169
 30
0.0
 10
0.33928
 20
7.40341
 30
0.0
 10
0.33928
 20
7.40341
 30
0.0
 10
0.33928
 20
7.40341
 30
0.0
 10
0.5212
 20
7.40341
 30
0.0
 10
0.5212
 20
7.40341
 30
0.0
  0
SPLINE
  5
64
330
1F
100
AcDbEntity
  8
layer 2
 62
     1
100
AcDbSpline
210
0.0
220
0.0
230
1.0
 70
    11
 71
     3
 72
    28
 73
    24
 74
     0
 42
0.0000000001
 43
0.0000000001
 12
1.0
 22
0.0
 32
0.0
 13
1.0
 23
0.0
 33
0.0
 40
0.0
 40
0.0
 40
0.0
 40
0.0
 40
0.1428571428571428
 40
0.1428571428571428
 40
0.1428571428571428
 40
0.1428571428571428
 40
0.2857142857142857
 40
0.2857142857142857
 40
0.2857142857142857
 40
0.2857142857142857
 40
0.4285714285714285
 40
0.4285714285714285
 40
0.4285714285714285
 40
0.4285714285714285
 40
0.5714285714285714
 40
0.5714285714285714
 40
0.5714285714285714
 40
0.5714285714285714
 40
0.7142857142857143
 40
0.7142857142857143
 40
0.7142857142857143
 40
0.7142857142857143
 40
1.0
 40
1.0
 40
1.0
 40
1.0
 10
0.58512
 20
7.59957
 30
0.0
 10
0.58512
 20
7.59957
 30
0.0
 10
0.57253
 20
7.66995
 30
0.0
 10
0.57253
 20
7.66995
 30
0.0
 10
0.57253
 20
7.66995
 30
0.0
 10
0.57253
 20
7.66995
 30
0.0
 10
0.57253
 20
7.73051
 30
0.0
 10
0.57253
 20
7.73051
 30
0.0
 10
0.57253
 20
7.73051
 30
0.0
 10
0.57253
 20
7.73051
 30
0.0
 10
0.62428
 20
7.73051
 30
0.0
 10
0.62428
 20
7.73051
 30
0.0
 10
0.62428
 20
7.73051
 30
0.0
 10
0.62428
 20
7.73051
 30
0.0
 10
0.62428
 20
7.66995
 30
0.0
 10
0.62428
 20
7.66995
 30
0.0
 10
0.62428
 20
7.66995
 30
0.0
 10
0.62428
 20
7.66995
 30
0.0
 10
0.6129
 20
7.59957
 30
0.0
 10
0.6129
 20
7.59957
 30
0.0
 10
0.6129
 20
7.59957
 30
0.0
 10
0.6129
 20
7.59957
 30
0.0
 10
0.58512
 20
7.59957
 30
0.0
 10
0.58512
 20
7.59957
 30
0.0
  0
SPLINE
  5
65
330
1F
100
AcDbEntity
  8
layer 2
 62
     1
100
AcDbSpline
210
0.0
220
0.0
230
1.0
 70
    11
 71
     3
 72
    28
 73
    24
 74
     0
 42
0.0000000001
 43
0.0000000001
 12
1.0
 22
0.0
 32
0.0
 13
1.0
 23
0.0
 33
0.0
 40
0.0
 40
0.0
 40
0.0
 40
0.0
 40
0.1428571428571428
 40
0.1428571428571428
 40
0.1428571428571428
 40
0.1428571428571428
 40
0.2857142857142857
 40
0.2857142857142857
 40
0.2857142857142857
 40
0.2857142857142857
 40
0.4285714285714285
 40
0.4285714285714285
 40
0.4285714285714285
 40
0.4285714285714285
 40
0.5714285714285714
 40
0.5714285714285714
 40
0.5714285714285714
 40
0.5714285714285714
 40
0.7142857142857143
 40
0.7142857142857143
 40
0.7142857142857143
 40
0.7142857142857143
 40
1.0
 40
1.0
 40
1.0
 40
1.0
 10
0.6687
 20
7.59957
 30
0.0
 10
0.6687
 20
7.59957
 30
0.0
 10
0.65637
 20
7.66995
 30
0.0
 10
0.65637
 20
7.66995
 30
0.0
 10
0.65637
 20
7.66995
 30
0.0
 10
0.65637
 20
7.66995
 30
0.0
 10
0.65637
 20
7.73051
 30
0.0
 10
0.65637
 20
7.73051
 30
0.0
 10
0.65637
 20
7.73051
 30
0.0
 10
0.65637
 20
7.73051
 30
0.0
 10
0.70813
 20
7.73051
 30
0.0
 10
0.70813
 20
7.73051
 30
0.0
 10
0.70813
 20
7.73051
 30
0.0
 10
0.70813
 20
7.73051
 30
0.0
 10
0.70813
 20
7.66995
 30
0.0
 10
0.70813
 20
7.66995
 30
0.0
 10
0.70813
 20
7.66995
 30
0.0
 10
0.70813
 20
7.66995
 30
0.0
 10
0.69596
 20
7.59957
 30
0.0
 10
0.69596
 20
7.59957
 30
0.0
 10
0.69596
 20
7.59957
 30
0.0
 10
0.69596
 20
7.59957
 30
0.0
 10
0.6687
 20
7.59957
 30
0.0
 10
0.6687
 20
7.59957
 30
0.0
  0
SPLINE
  5
66
330
1F
100
AcDbEntity
  8
layer 2
 62
     1
370
     0
100
AcDbSpline
210
0.0
220
0.0
230
1.0
 70
    24
 71
     3
 72
     8
 73
     4
 74
     0
 42
0.0000000001
 43
0.0000000001
 12
1.0
 22
0.0
 32
0.0
 13
1.0
 23
0.0
 33
0.0
 40
0.0
 40
0.0
 40
0.0
 40
0.0
 40
1.0
 40
1.0
 40
1.0
 40
1.0
 10
7.85803
 20
6.36555
 30
0.0
 10
7.85803
 20
6.36555
 30
0.0
 10
9.4112
 20
6.36555
 30
0.0
 10
9.4112
 20
6.36555
 30
0.0
  0
SPLINE
  5
67
330
1F
100
AcDbEntity
  8
layer 2
 62
     1
370
     0
100
AcDbSpline
210
0.0
220
0.0
230
1.0
 70
    24
 71
     3
 72
     8
 73
     4
 74
     0
 42
0.0000000001
 43
0.0000000001
 12
1.0
 22
0.0
 32
0.0
 13
1.0
 23
0.0
 33
0.0
 40
0.0
 40
0.0
 40
0.0
 40
0.0
 40
1.0
 40
1.0
 40
1.0
 40
1.0
 10
7.85803
 20
-7.36088
 30
0.0
 10
7.85803
 20
-7.36088
 30
0.0
 10
9.4112
 20
-7.36088
 30
0.0
 10
9.4112
 20
-7.36088
 30
0.0
  0
SPLINE
  5
68
330
1F
100
AcDbEntity
  8
layer 2
 62
     1
370
     0
100
AcDbSpline
210
0.0
220
0.0
230
1.0
 70
    24
 71
     3
 72
     8
 73
     4
 74
     0
 42
0.0000000001
 43
0.0000000001
 12
1.0
 22
0.0
 32
0.0
 13
1.0
 23
0.0
 33
0.0
 40
0.0
 40
0.0
 40
0.0
 40
0.0
 40
1.0
 40
1.0
 40
1.0
 40
1.0
 10
9.12992
 20
5.80299
 30
0.0
 10
9.12992
 20
5.80299
 30
0.0
 10
9.12992
 20
-6.79832
 30
0.0
 10
9.12992
 20
-6.79832
 30
0.0
  0
SPLINE
  5
69
330
1F
100
AcDbEntity
  8
layer 2
 62
     1
100
AcDbSpline
210
0.0
220
0.0
230
1.0
 70
    27
 71
     3
 72
    12
 73
     8
 74
     0
 42
0.0000000001
 43
0.0000000001
 12
1.0
 22
0.0
 32
0.0
 13
1.0
 23
0.0
 33
0.0
 40
0.0
 40
0.0
 40
0.0
 40
0.0
 40
0.3333333333333333
 40
0.3333333333333333
 40
0.3333333333333333
 40
0.3333333333333333
 40
1.0
 40
1.0
 40
1.0
 40
1.0
 10
9.03617
 20
5.80299
 30
0.0
 10
9.03617
 20
5.80299
 30
0.0
 10
9.12992
 20
6.36555
 30
0.0
 10
9.12992
 20
6.36555
 30
0.0
 10
9.12992
 20
6.36555
 30
0.0
 10
9.12992
 20
6.36555
 30
0.0
 10
9.03617
 20
5.80299
 30
0.0
 10
9.03617
 20
5.80299
 30
0.0
  0
SPLINE
  5
6A
330
1F
100
AcDbEntity
  8
layer 2
 62
     1
100
AcDbSpline
210
0.0
220
0.0
230
1.0
 70
     8
 71
     3
 72
    12
 73
     8
 74
     0
 42
0.0000000001
 43
0.0000000001
 12
1.0
 22
0.0
 32
0.0
 13
1.0
 23
0.0
 33
0.0
 40
0.0
 40
0.0
 40
0.0
 40
0.0
 40
0.3333333333333333
 40
0.3333333333333333
 40
0.3333333333333333
 40
0.3333333333333333
 40
1.0
 40
1.0
 40
1.0
 40
1.0
 10
9.12992
 20
6.36555
 30
0.0
 10
9.12992
 20
6.36555
 30
0.0
 10
9.22368
 20
5.80299
 30
0.0
 10
9.22368
 20
5.80299
 30
0.0
 10
9.22368
 20
5.80299
 30
0.0
 10
9.22368
 20
5.80299
 30
0.0
 10
9.03617
 20
5.80299
 30
0.0
 10
9.03617
 20
5.80299
 30
0.0
  0
SPLINE
  5
6B
330
1F
100
AcDbEntity
  8
layer 2
 62
     1
370
     9
100
AcDbSpline
210
0.0
220
0.0
230
1.0
 70
    24
 71
     3
 72
     8
 73
     4
 74
     0
 42
0.0000000001
 43
0.0000000001
 12
1.0
 22
0.0
 32
0.0
 13
1.0
 23
0.0
 33
0.0
 40
0.0
 40
0.0
 40
0.0
 40
0.0
 40
1.0
 40
1.0
 40
1.0
 40
1.0
 10
9.03617
 20
5.80299
 30
0.0
 10
9.03617
 20
5.80299
 30
0.0
 10
9.12992
 20
6.36555
 30
0.0
 10
9.12992
 20
6.36555
 30
0.0
  0
SPLINE
  5
6C
330
1F
100
AcDbEntity
  8
layer 2
 62
     1
370
     9
100
AcDbSpline
210
0.0
220
0.0
230
1.0
 70
     8
 71
     3
 72
    12
 73
     8
 74
     0
 42
0.0000000001
 43
0.0000000001
 12
1.0
 22
0.0
 32
0.0
 13
1.0
 23
0.0
 33
0.0
 40
0.0
 40
0.0
 40
0.0
 40
0.0
 40
0.3333333333333333
 40
0.3333333333333333
 40
0.3333333333333333
 40
0.3333333333333333
 40
1.0
 40
1.0
 40
1.0
 40
1.0
 10
9.12992
 20
6.36555
 30
0.0
 10
9.12992
 20
6.36555
 30
0.0
 10
9.22368
 20
5.80299
 30
0.0
 10
9.22368
 20
5.80299
 30
0.0
 10
9.22368
 20
5.80299
 30
0.0
 10
9.22368
 20
5.80299
 30
0.0
 10
9.03617
 20
5.80299
 30
0.0
 10
9.03617
 20
5.80299
 30
0.0
  0
SPLINE
  5
6D
330
1F
100
AcDbEntity
  8
layer 2
 62
     1
100
AcDbSpline
210
0.0
220
0.0
230
1.0
 70
    27
 71
     3
 72
    12
 73
     8
 74
     0
 42
0.0000000001
 43
0.0000000001
 12
1.0
 22
0.0
 32
0.0
 13
1.0
 23
0.0
 33
0.0
 40
0.0
 40
0.0
 40
0.0
 40
0.0
 40
0.3333333333333333
 40
0.3333333333333333
 40
0.3333333333333333
 40
0.3333333333333333
 40
1.0
 40
1.0
 40
1.0
 40
1.0
 10
9.03617
 20
-6.79832
 30
0.0
 10
9.03617
 20
-6.79832
 30
0.0
 10
9.12992
 20
-7.36088
 30
0.0
 10
9.12992
 20
-7.36088
 30
0.0
 10
9.12992
 20
-7.36088
 30
0.0
 10
9.12992
 20
-7.36088
 30
0.0
 10
9.03617
 20
-6.79832
 30
0.0
 10
9.03617
 20
-6.79832
 30
0.0
  0
SPLINE
  5
6E
330
1F
100
AcDbEntity
  8
layer 2
 62
     1
100
AcDbSpline
210
0.0
220
0.0
230
1.0
 70
     8
 71
     3
 72
    12
 73
     8
 74
     0
 42
0.0000000001
 43
0.0000000001
 12
1.0
 22
0.0
 32
0.0
 13
1.0
 23
0.0
 33
0.0
 40
0.0
 40
0.0
 40
0.0
 40
0.0
 40
0.3333333333333333
 40
0.3333333333333333
 40
0.3333333333333333
 40
0.3333333333333333
 40
1.0
 40
1.0
 40
1.0
 40
1.0
 10
9.12992
 20
-7.36088
 30
0.0
 10
9.12992
 20
-7.36088
 30
0.0
 10
9.22368
 20
-6.79832
 30
0.0
 10
9.22368
 20
-6.79832
 30
0.0
 10
9.22368
 20
-6.79832
 30
0.0
 10
9.22368
 20
-6.79832
 30
0.0
 10
9.03617
 20
-6.79832
 30
0.0
 10
9.03617
 20
-6.79832
 30
0.0
  0
SPLINE
  5
6F
330
1F
100
AcDbEntity
  8
layer 2
 62
     1
370
     9
100
AcDbSpline
210
0.0
220
0.0
230
1.0
 70
    24
 71
     3
 72
     8
 73
     4
 74
     0
 42
0.0000000001
 43
0.0000000001
 12
1.0
 22
0.0
 32
0.0
 13
1.0
 23
0.0
 33
0.0
 40
0.0
 40
0.0
 40
0.0
 40
0.0
 40
1.0
 40
1.0
 40
1.0
 40
1.0
 10
9.03617
 20
-6.79832
 30
0.0
 10
9.03617
 20
-6.79832
 30
0.0
 10
9.12992
 20
-7.36088
 30
0.0
 10
9.12992
 20
-7.36088
 30
0.0
  0
SPLINE
  5
70
330
1F
100
AcDbEntity
  8
layer 2
 62
     1
370
     9
100
AcDbSpline
210
0.0
220
0.0
230
1.0
 70
     8
 71
     3
 72
    12
 73
     8
 74
     0
 42
0.0000000001
 43
0.0000000001
 12
1.0
 22
0.0
 32
0.0
 13
1.0
 23
0.0
 33
0.0
 40
0.0
 40
0.0
 40
0.0
 40
0.0
 40
0.3333333333333333
 40
0.3333333333333333
 40
0.3333333333333333
 40
0.3333333333333333
 40
1.0
 40
1.0
 40
1.0
 40
1.0
 10
9.12992
 20
-7.36088
 30
0.0
 10
9.12992
 20
-7.36088
 30
0.0
 10
9.22368
 20
-6.79832
 30
0.0
 10
9.22368
 20
-6.79832
 30
0.0
 10
9.22368
 20
-6.79832
 30
0.0
 10
9.22368
 20
-6.79832
 30
0.0
 10
9.03617
 20
-6.79832
 30
0.0
 10
9.03617
 20
-6.79832
 30
0.0
  0
SPLINE
  5
71
330
1F
100
AcDbEntity
  8
layer 2
 62
     1
100
AcDbSpline
210
0.0
220
0.0
230
1.0
 70
    11
 71
     3
 72
    40
 73
    36
 74
     0
 42
0.0000000001
 43
0.0000000001
 12
1.0
 22
0.0
 32
0.0
 13
1.0
 23
0.0
 33
0.0
 40
0.0
 40
0.0
 40
0.0
 40
0.0
 40
0.1
 40
0.1
 40
0.1
 40
0.1
 40
0.2
 40
0.2
 40
0.2
 40
0.2
 40
0.3
 40
0.3
 40
0.3
 40
0.3
 40
0.4
 40
0.4
 40
0.4
 40
0.4
 40
0.5
 40
0.5
 40
0.5
 40
0.5
 40
0.6
 40
0.6
 40
0.6
 40
0.6
 40
0.7
 40
0.7
 40
0.7
 40
0.7
 40
0.8
 40
0.8
 40
0.8
 40
0.8
 40
1.0
 40
1.0
 40
1.0
 40
1.0
 10
8.88943
 20
0.97238
 30
0.0
 10
8.88943
 20
0.97238
 30
0.0
 10
8.88943
 20
0.92684
 30
0.0
 10
8.88943
 20
0.92684
 30
0.0
 10
8.88943
 20
0.92684
 30
0.0
 10
8.88943
 20
0.92684
 30
0.0
 10
8.59943
 20
0.92684
 30
0.0
 10
8.59943
 20
0.92684
 30
0.0
 10
8.59943
 20
0.92684
 30
0.0
 10
8.60995
 20
0.91588
 30
0.0
 10
8.62039
 20
0.90148
 30
0.0
 10
8.63083
 20
0.88371
 30
0.0
 10
8.63083
 20
0.88371
 30
0.0
 10
8.64127
 20
0.86594
 30
0.0
 10
8.64912
 20
0.84989
 30
0.0
 10
8.65429
 20
0.83575
 30
0.0
 10
8.65429
 20
0.83575
 30
0.0
 10
8.65429
 20
0.83575
 30
0.0
 10
8.6103
 20
0.83575
 30
0.0
 10
8.6103
 20
0.83575
 30
0.0
 10
8.6103
 20
0.83575
 30
0.0
 10
8.5984
 20
0.8612
 30
0.0
 10
8.58391
 20
0.88345
 30
0.0
 10
8.56683
 20
0.90251
 30
0.0
 10
8.56683
 20
0.90251
 30
0.0
 10
8.54983
 20
0.92157
 30
0.0
 10
8.53336
 20
0.93512
 30
0.0
 10
8.51731
 20
0.94305
 30
0.0
 10
8.51731
 20
0.94305
 30
0.0
 10
8.51731
 20
0.94305
 30
0.0
 10
8.51731
 20
0.97238
 30
0.0
 10
8.51731
 20
0.97238
 30
0.0
 10
8.51731
 20
0.97238
 30
0.0
 10
8.51731
 20
0.97238
 30
0.0
 10
8.88943
 20
0.97238
 30
0.0
 10
8.88943
 20
0.97238
 30
0.0
  0
SPLINE
  5
72
330
1F
100
AcDbEntity
  8
layer 2
 62
     1
100
AcDbSpline
210
0.0
220
0.0
230
1.0
 70
    11
 71
     3
 72
    92
 73
    88
 74
     0
 42
0.0000000001
 43
0.0000000001
 12
1.0
 22
0.0
 32
0.0
 13
1.0
 23
0.0
 33
0.0
 40
0.0
 40
0.0
 40
0.0
 40
0.0
 40
0.0434782608695652
 40
0.0434782608695652
 40
0.0434782608695652
 40
0.0434782608695652
 40
0.0869565217391304
 40
0.0869565217391304
 40
0.0869565217391304
 40
0.0869565217391304
 40
0.1304347826086956
 40
0.1304347826086956
 40
0.1304347826086956
 40
0.1304347826086956
 40
0.1739130434782609
 40
0.1739130434782609
 40
0.1739130434782609
 40
0.1739130434782609
 40
0.2173913043478261
 40
0.2173913043478261
 40
0.2173913043478261
 40
0.2173913043478261
 40
0.2608695652173913
 40
0.2608695652173913
 40
0.2608695652173913
 40
0.2608695652173913
 40
0.3043478260869565
 40
0.3043478260869565
 40
0.3043478260869565
 40
0.3043478260869565
 40
0.3478260869565217
 40
0.3478260869565217
 40
0.3478260869565217
 40
0.3478260869565217
 40
0.391304347826087
 40
0.391304347826087
 40
0.391304347826087
 40
0.391304347826087
 40
0.4347826086956522
 40
0.4347826086956522
 40
0.4347826086956522
 40
0.4347826086956522
 40
0.4782608695652174
 40
0.4782608695652174
 40
0.4782608695652174
 40
0.4782608695652174
 40
0.5217391304347826
 40
0.5217391304347826
 40
0.5217391304347826
 40
0.5217391304347826
 40
0.5652173913043478
 40
0.5652173913043478
 40
0.5652173913043478
 40
0.5652173913043478
 40
0.6086956521739131
 40
0.6086956521739131
 40
0.6086956521739131
 40
0.6086956521739131
 40
0.6521739130434783
 40
0.6521739130434783
 40
0.6521739130434783
 40
0.6521739130434783
 40
0.6956521739130435
 40
0.6956521739130435
 40
0.6956521739130435
 40
0.6956521739130435
 40
0.7391304347826086
 40
0.7391304347826086
 40
0.7391304347826086
 40
0.7391304347826086
 40
0.782608695652174
 40
0.782608695652174
 40
0.782608695652174
 40
0.782608695652174
 40
0.8260869565217391
 40
0.8260869565217391
 40
0.8260869565217391
 40
0.8260869565217391
 40
0.8695652173913043
 40
0.8695652173913043
 40
0.8695652173913043
 40
0.8695652173913043
 40
0.9130434782608695
 40
0.9130434782608695
 40
0.9130434782608695
 40
0.9130434782608695
 40
1.0
 40
1.0
 40
1.0
 40
1.0
 10
8.80352
 20
1.09616
 30
0.0
 10
8.80352
 20
1.09616
 30
0.0
 10
8.7999
 20
1.13964
 30
0.0
 10
8.7999
 20
1.13964
 30
0.0
 10
8.7999
 20
1.13964
 30
0.0
 10
8.82043
 20
1.14335
 30
0.0
 10
8.83526
 20
1.15042
 30
0.0
 10
8.84449
 20
1.16086
 30
0.0
 10
8.84449
 20
1.16086
 30
0.0
 10
8.85372
 20
1.1713
 30
0.0
 10
8.85838
 20
1.18467
 30
0.0
 10
8.85838
 20
1.20106
 30
0.0
 10
8.85838
 20
1.20106
 30
0.0
 10
8.85838
 20
1.21503
 30
0.0
 10
8.85519
 20
1.22728
 30
0.0
 10
8.84872
 20
1.23789
 30
0.0
 10
8.84872
 20
1.23789
 30
0.0
 10
8.84234
 20
1.2485
 30
0.0
 10
8.8338
 20
1.25712
 30
0.0
 10
8.82302
 20
1.26377
 30
0.0
 10
8.82302
 20
1.26377
 30
0.0
 10
8.81232
 20
1.27041
 30
0.0
 10
8.79783
 20
1.27601
 30
0.0
 10
8.77963
 20
1.28059
 30
0.0
 10
8.77963
 20
1.28059
 30
0.0
 10
8.76143
 20
1.28516
 30
0.0
 10
8.74288
 20
1.2874
 30
0.0
 10
8.72399
 20
1.2874
 30
0.0
 10
8.72399
 20
1.2874
 30
0.0
 10
8.72201
 20
1.2874
 30
0.0
 10
8.7189
 20
1.28731
 30
0.0
 10
8.71485
 20
1.28714
 30
0.0
 10
8.71485
 20
1.28714
 30
0.0
 10
8.72934
 20
1.27809
 30
0.0
 10
8.74115
 20
1.26566
 30
0.0
 10
8.75012
 20
1.24997
 30
0.0
 10
8.75012
 20
1.24997
 30
0.0
 10
8.75918
 20
1.23426
 30
0.0
 10
8.76367
 20
1.21719
 30
0.0
 10
8.76367
 20
1.1989
 30
0.0
 10
8.76367
 20
1.1989
 30
0.0
 10
8.76367
 20
1.16828
 30
0.0
 10
8.75254
 20
1.1424
 30
0.0
 10
8.73029
 20
1.12118
 30
0.0
 10
8.73029
 20
1.12118
 30
0.0
 10
8.70812
 20
1.10005
 30
0.0
 10
8.67879
 20
1.08944
 30
0.0
 10
8.64239
 20
1.08944
 30
0.0
 10
8.64239
 20
1.08944
 30
0.0
 10
8.60478
 20
1.08944
 30
0.0
 10
8.57459
 20
1.10048
 30
0.0
 10
8.55164
 20
1.12265
 30
0.0
 10
8.55164
 20
1.12265
 30
0.0
 10
8.52879
 20
1.14473
 30
0.0
 10
8.51731
 20
1.17242
 30
0.0
 10
8.51731
 20
1.2058
 30
0.0
 10
8.51731
 20
1.2058
 30
0.0
 10
8.51731
 20
1.22978
 30
0.0
 10
8.52378
 20
1.25178
 30
0.0
 10
8.53681
 20
1.27179
 30
0.0
 10
8.53681
 20
1.27179
 30
0.0
 10
8.54975
 20
1.29171
 30
0.0
 10
8.5682
 20
1.30681
 30
0.0
 10
8.59227
 20
1.31716
 30
0.0
 10
8.59227
 20
1.31716
 30
0.0
 10
8.61625
 20
1.32751
 30
0.0
 10
8.65101
 20
1.33269
 30
0.0
 10
8.69647
 20
1.33269
 30
0.0
 10
8.69647
 20
1.33269
 30
0.0
 10
8.74383
 20
1.33269
 30
0.0
 10
8.78152
 20
1.3276
 30
0.0
 10
8.80956
 20
1.31733
 30
0.0
 10
8.80956
 20
1.31733
 30
0.0
 10
8.83768
 20
1.30707
 30
0.0
 10
8.85899
 20
1.29171
 30
0.0
 10
8.87365
 20
1.27144
 30
0.0
 10
8.87365
 20
1.27144
 30
0.0
 10
8.88831
 20
1.25117
 30
0.0
 10
8.89564
 20
1.22745
 30
0.0
 10
8.89564
 20
1.20019
 30
0.0
 10
8.89564
 20
1.20019
 30
0.0
 10
8.89564
 20
1.17121
 30
0.0
 10
8.88762
 20
1.14757
 30
0.0
 10
8.87149
 20
1.1292
 30
0.0
 10
8.87149
 20
1.1292
 30
0.0
 10
8.85536
 20
1.11092
 30
0.0
 10
8.83267
 20
1.09988
 30
0.0
 10
8.80352
 20
1.09616
 30
0.0
  0
SPLINE
  5
73
330
1F
100
AcDbEntity
  8
layer 2
 62
     1
100
AcDbSpline
210
0.0
220
0.0
230
1.0
 70
    11
 71
     3
 72
    36
 73
    32
 74
     0
 42
0.0000000001
 43
0.0000000001
 12
1.0
 22
0.0
 32
0.0
 13
1.0
 23
0.0
 33
0.0
 40
0.0
 40
0.0
 40
0.0
 40
0.0
 40
0.1111111111111111
 40
0.1111111111111111
 40
0.1111111111111111
 40
0.1111111111111111
 40
0.2222222222222222
 40
0.2222222222222222
 40
0.2222222222222222
 40
0.2222222222222222
 40
0.3333333333333333
 40
0.3333333333333333
 40
0.3333333333333333
 40
0.3333333333333333
 40
0.4444444444444444
 40
0.4444444444444444
 40
0.4444444444444444
 40
0.4444444444444444
 40
0.5555555555555556
 40
0.5555555555555556
 40
0.5555555555555556
 40
0.5555555555555556
 40
0.6666666666666666
 40
0.6666666666666666
 40
0.6666666666666666
 40
0.6666666666666666
 40
0.7777777777777778
 40
0.7777777777777778
 40
0.7777777777777778
 40
0.7777777777777778
 40
1.0
 40
1.0
 40
1.0
 40
1.0
 10
8.64006
 20
1.28197
 30
0.0
 10
8.61401
 20
1.28197
 30
0.0
 10
8.59331
 20
1.27507
 30
0.0
 10
8.57804
 20
1.26126
 30
0.0
 10
8.57804
 20
1.26126
 30
0.0
 10
8.56277
 20
1.24755
 30
0.0
 10
8.55509
 20
1.23082
 30
0.0
 10
8.55509
 20
1.21115
 30
0.0
 10
8.55509
 20
1.21115
 30
0.0
 10
8.55509
 20
1.19079
 30
0.0
 10
8.56329
 20
1.17319
 30
0.0
 10
8.57976
 20
1.15836
 30
0.0
 10
8.57976
 20
1.15836
 30
0.0
 10
8.59624
 20
1.14343
 30
0.0
 10
8.61763
 20
1.13602
 30
0.0
 10
8.64385
 20
1.13602
 30
0.0
 10
8.64385
 20
1.13602
 30
0.0
 10
8.6674
 20
1.13602
 30
0.0
 10
8.68655
 20
1.14309
 30
0.0
 10
8.70122
 20
1.15715
 30
0.0
 10
8.70122
 20
1.15715
 30
0.0
 10
8.71597
 20
1.1713
 30
0.0
 10
8.7233
 20
1.18889
 30
0.0
 10
8.7233
 20
1.20986
 30
0.0
 10
8.7233
 20
1.20986
 30
0.0
 10
8.7233
 20
1.2309
 30
0.0
 10
8.71597
 20
1.24815
 30
0.0
 10
8.70122
 20
1.26169
 30
0.0
 10
8.70122
 20
1.26169
 30
0.0
 10
8.68655
 20
1.27524
 30
0.0
 10
8.66611
 20
1.28197
 30
0.0
 10
8.64006
 20
1.28197
 30
0.0
  0
SPLINE
  5
74
330
1F
100
AcDbEntity
  8
layer 2
 62
     1
100
AcDbSpline
210
0.0
220
0.0
230
1.0
 70
    11
 71
     3
 72
    20
 73
    16
 74
     0
 42
0.0000000001
 43
0.0000000001
 12
1.0
 22
0.0
 32
0.0
 13
1.0
 23
0.0
 33
0.0
 40
0.0
 40
0.0
 40
0.0
 40
0.0
 40
0.2
 40
0.2
 40
0.2
 40
0.2
 40
0.4
 40
0.4
 40
0.4
 40
0.4
 40
0.6
 40
0.6
 40
0.6
 40
0.6
 40
1.0
 40
1.0
 40
1.0
 40
1.0
 10
8.88943
 20
1.40264
 30
0.0
 10
8.88943
 20
1.40264
 30
0.0
 10
8.83768
 20
1.40264
 30
0.0
 10
8.83768
 20
1.40264
 30
0.0
 10
8.83768
 20
1.40264
 30
0.0
 10
8.83768
 20
1.40264
 30
0.0
 10
8.83768
 20
1.4544
 30
0.0
 10
8.83768
 20
1.4544
 30
0.0
 10
8.83768
 20
1.4544
 30
0.0
 10
8.83768
 20
1.4544
 30
0.0
 10
8.88943
 20
1.4544
 30
0.0
 10
8.88943
 20
1.4544
 30
0.0
 10
8.88943
 20
1.4544
 30
0.0
 10
8.88943
 20
1.4544
 30
0.0
 10
8.88943
 20
1.40264
 30
0.0
 10
8.88943
 20
1.40264
 30
0.0
  0
SPLINE
  5
75
330
1F
100
AcDbEntity
  8
layer 2
 62
     1
100
AcDbSpline
210
0.0
220
0.0
230
1.0
 70
    11
 71
     3
 72
    92
 73
    88
 74
     0
 42
0.0000000001
 43
0.0000000001
 12
1.0
 22
0.0
 32
0.0
 13
1.0
 23
0.0
 33
0.0
 40
0.0
 40
0.0
 40
0.0
 40
0.0
 40
0.0434782608695652
 40
0.0434782608695652
 40
0.0434782608695652
 40
0.0434782608695652
 40
0.0869565217391304
 40
0.0869565217391304
 40
0.0869565217391304
 40
0.0869565217391304
 40
0.1304347826086956
 40
0.1304347826086956
 40
0.1304347826086956
 40
0.1304347826086956
 40
0.1739130434782609
 40
0.1739130434782609
 40
0.1739130434782609
 40
0.1739130434782609
 40
0.2173913043478261
 40
0.2173913043478261
 40
0.2173913043478261
 40
0.2173913043478261
 40
0.2608695652173913
 40
0.2608695652173913
 40
0.2608695652173913
 40
0.2608695652173913
 40
0.3043478260869565
 40
0.3043478260869565
 40
0.3043478260869565
 40
0.3043478260869565
 40
0.3478260869565217
 40
0.3478260869565217
 40
0.3478260869565217
 40
0.3478260869565217
 40
0.391304347826087
 40
0.391304347826087
 40
0.391304347826087
 40
0.391304347826087
 40
0.4347826086956522
 40
0.4347826086956522
 40
0.4347826086956522
 40
0.4347826086956522
 40
0.4782608695652174
 40
0.4782608695652174
 40
0.4782608695652174
 40
0.4782608695652174
 40
0.5217391304347826
 40
0.5217391304347826
 40
0.5217391304347826
 40
0.5217391304347826
 40
0.5652173913043478
 40
0.5652173913043478
 40
0.5652173913043478
 40
0.5652173913043478
 40
0.6086956521739131
 40
0.6086956521739131
 40
0.6086956521739131
 40
0.6086956521739131
 40
0.6521739130434783
 40
0.6521739130434783
 40
0.6521739130434783
 40
0.6521739130434783
 40
0.6956521739130435
 40
0.6956521739130435
 40
0.6956521739130435
 40
0.6956521739130435
 40
0.7391304347826086
 40
0.7391304347826086
 40
0.7391304347826086
 40
0.7391304347826086
 40
0.782608695652174
 40
0.782608695652174
 40
0.782608695652174
 40
0.782608695652174
 40
0.8260869565217391
 40
0.8260869565217391
 40
0.8260869565217391
 40
0.8260869565217391
 40
0.8695652173913043
 40
0.8695652173913043
 40
0.8695652173913043
 40
0.8695652173913043
 40
0.9130434782608695
 40
0.9130434782608695
 40
0.9130434782608695
 40
0.9130434782608695
 40
1.0
 40
1.0
 40
1.0
 40
1.0
 10
8.84596
 20
1.75967
 30
0.0
 10
8.84596
 20
1.75967
 30
0.0
 10
8.88943
 20
1.75967
 30
0.0
 10
8.88943
 20
1.75967
 30
0.0
 10
8.88943
 20
1.75967
 30
0.0
 10
8.88943
 20
1.75967
 30
0.0
 10
8.88943
 20
1.51435
 30
0.0
 10
8.88943
 20
1.51435
 30
0.0
 10
8.88943
 20
1.51435
 30
0.0
 10
8.87848
 20
1.514
 30
0.0
 10
8.86796
 20
1.51581
 30
0.0
 10
8.85778
 20
1.5197
 30
0.0
 10
8.85778
 20
1.5197
 30
0.0
 10
8.84113
 20
1.52599
 30
0.0
 10
8.82465
 20
1.53609
 30
0.0
 10
8.80852
 20
1.54997
 30
0.0
 10
8.80852
 20
1.54997
 30
0.0
 10
8.79239
 20
1.56386
 30
0.0
 10
8.77376
 20
1.5837
 30
0.0
 10
8.75263
 20
1.60949
 30
0.0
 10
8.75263
 20
1.60949
 30
0.0
 10
8.71959
 20
1.6496
 30
0.0
 10
8.69345
 20
1.67686
 30
0.0
 10
8.67413
 20
1.69109
 30
0.0
 10
8.67413
 20
1.69109
 30
0.0
 10
8.65481
 20
1.70541
 30
0.0
 10
8.63652
 20
1.71257
 30
0.0
 10
8.61927
 20
1.71257
 30
0.0
 10
8.61927
 20
1.71257
 30
0.0
 10
8.60124
 20
1.71257
 30
0.0
 10
8.58606
 20
1.7061
 30
0.0
 10
8.57364
 20
1.69316
 30
0.0
 10
8.57364
 20
1.69316
 30
0.0
 10
8.5613
 20
1.68022
 30
0.0
 10
8.55509
 20
1.66332
 30
0.0
 10
8.55509
 20
1.64253
 30
0.0
 10
8.55509
 20
1.64253
 30
0.0
 10
8.55509
 20
1.62053
 30
0.0
 10
8.56165
 20
1.60294
 30
0.0
 10
8.57476
 20
1.58974
 30
0.0
 10
8.57476
 20
1.58974
 30
0.0
 10
8.58779
 20
1.57654
 30
0.0
 10
8.6059
 20
1.5699
 30
0.0
 10
8.6291
 20
1.56973
 30
0.0
 10
8.6291
 20
1.56973
 30
0.0
 10
8.6291
 20
1.56973
 30
0.0
 10
8.62445
 20
1.52315
 30
0.0
 10
8.62445
 20
1.52315
 30
0.0
 10
8.62445
 20
1.52315
 30
0.0
 10
8.5896
 20
1.52634
 30
0.0
 10
8.56303
 20
1.53841
 30
0.0
 10
8.54474
 20
1.55929
 30
0.0
 10
8.54474
 20
1.55929
 30
0.0
 10
8.52646
 20
1.58025
 30
0.0
 10
8.51731
 20
1.60828
 30
0.0
 10
8.51731
 20
1.64357
 30
0.0
 10
8.51731
 20
1.64357
 30
0.0
 10
8.51731
 20
1.6791
 30
0.0
 10
8.52715
 20
1.70731
 30
0.0
 10
8.5469
 20
1.72801
 30
0.0
 10
8.5469
 20
1.72801
 30
0.0
 10
8.56665
 20
1.7488
 30
0.0
 10
8.59115
 20
1.75915
 30
0.0
 10
8.62031
 20
1.75915
 30
0.0
 10
8.62031
 20
1.75915
 30
0.0
 10
8.63514
 20
1.75915
 30
0.0
 10
8.64972
 20
1.75613
 30
0.0
 10
8.66404
 20
1.75001
 30
0.0
 10
8.66404
 20
1.75001
 30
0.0
 10
8.67844
 20
1.74397
 30
0.0
 10
8.69354
 20
1.73388
 30
0.0
 10
8.70941
 20
1.71982
 30
0.0
 10
8.70941
 20
1.71982
 30
0.0
 10
8.7252
 20
1.70567
 30
0.0
 10
8.74702
 20
1.68229
 30
0.0
 10
8.77462
 20
1.64969
 30
0.0
 10
8.77462
 20
1.64969
 30
0.0
 10
8.79757
 20
1.62235
 30
0.0
 10
8.81309
 20
1.60475
 30
0.0
 10
8.82129
 20
1.59699
 30
0.0
 10
8.82129
 20
1.59699
 30
0.0
 10
8.82948
 20
1.58922
 30
0.0
 10
8.83768
 20
1.58284
 30
0.0
 10
8.84596
 20
1.57775
 30
0.0
 10
8.84596
 20
1.57775
 30
0.0
 10
8.84596
 20
1.57775
 30
0.0
 10
8.84596
 20
1.75967
 30
0.0
 10
8.84596
 20
1.75967
 30
0.0
  0
SPLINE
  5
76
330
1F
100
AcDbEntity
  8
layer 2
 62
     1
100
AcDbSpline
210
0.0
220
0.0
230
1.0
 70
    11
 71
     3
 72
    28
 73
    24
 74
     0
 42
0.0000000001
 43
0.0000000001
 12
1.0
 22
0.0
 32
0.0
 13
1.0
 23
0.0
 33
0.0
 40
0.0
 40
0.0
 40
0.0
 40
0.0
 40
0.1428571428571428
 40
0.1428571428571428
 40
0.1428571428571428
 40
0.1428571428571428
 40
0.2857142857142857
 40
0.2857142857142857
 40
0.2857142857142857
 40
0.2857142857142857
 40
0.4285714285714285
 40
0.4285714285714285
 40
0.4285714285714285
 40
0.4285714285714285
 40
0.5714285714285714
 40
0.5714285714285714
 40
0.5714285714285714
 40
0.5714285714285714
 40
0.7142857142857143
 40
0.7142857142857143
 40
0.7142857142857143
 40
0.7142857142857143
 40
1.0
 40
1.0
 40
1.0
 40
1.0
 10
8.64981
 20
1.82359
 30
0.0
 10
8.64981
 20
1.82359
 30
0.0
 10
8.57942
 20
1.81099
 30
0.0
 10
8.57942
 20
1.81099
 30
0.0
 10
8.57942
 20
1.81099
 30
0.0
 10
8.57942
 20
1.81099
 30
0.0
 10
8.51887
 20
1.81099
 30
0.0
 10
8.51887
 20
1.81099
 30
0.0
 10
8.51887
 20
1.81099
 30
0.0
 10
8.51887
 20
1.81099
 30
0.0
 10
8.51887
 20
1.86275
 30
0.0
 10
8.51887
 20
1.86275
 30
0.0
 10
8.51887
 20
1.86275
 30
0.0
 10
8.51887
 20
1.86275
 30
0.0
 10
8.57942
 20
1.86275
 30
0.0
 10
8.57942
 20
1.86275
 30
0.0
 10
8.57942
 20
1.86275
 30
0.0
 10
8.57942
 20
1.86275
 30
0.0
 10
8.64981
 20
1.85136
 30
0.0
 10
8.64981
 20
1.85136
 30
0.0
 10
8.64981
 20
1.85136
 30
0.0
 10
8.64981
 20
1.85136
 30
0.0
 10
8.64981
 20
1.82359
 30
0.0
 10
8.64981
 20
1.82359
 30
0.0
  0
SPLINE
  5
77
330
1F
100
AcDbEntity
  8
layer 2
 62
     1
100
AcDbSpline
210
0.0
220
0.0
230
1.0
 70
    11
 71
     3
 72
    28
 73
    24
 74
     0
 42
0.0000000001
 43
0.0000000001
 12
1.0
 22
0.0
 32
0.0
 13
1.0
 23
0.0
 33
0.0
 40
0.0
 40
0.0
 40
0.0
 40
0.0
 40
0.1428571428571428
 40
0.1428571428571428
 40
0.1428571428571428
 40
0.1428571428571428
 40
0.2857142857142857
 40
0.2857142857142857
 40
0.2857142857142857
 40
0.2857142857142857
 40
0.4285714285714285
 40
0.4285714285714285
 40
0.4285714285714285
 40
0.4285714285714285
 40
0.5714285714285714
 40
0.5714285714285714
 40
0.5714285714285714
 40
0.5714285714285714
 40
0.7142857142857143
 40
0.7142857142857143
 40
0.7142857142857143
 40
0.7142857142857143
 40
1.0
 40
1.0
 40
1.0
 40
1.0
 10
8.64981
 20
1.90717
 30
0.0
 10
8.64981
 20
1.90717
 30
0.0
 10
8.57942
 20
1.89484
 30
0.0
 10
8.57942
 20
1.89484
 30
0.0
 10
8.57942
 20
1.89484
 30
0.0
 10
8.57942
 20
1.89484
 30
0.0
 10
8.51887
 20
1.89484
 30
0.0
 10
8.51887
 20
1.89484
 30
0.0
 10
8.51887
 20
1.89484
 30
0.0
 10
8.51887
 20
1.89484
 30
0.0
 10
8.51887
 20
1.94659
 30
0.0
 10
8.51887
 20
1.94659
 30
0.0
 10
8.51887
 20
1.94659
 30
0.0
 10
8.51887
 20
1.94659
 30
0.0
 10
8.57942
 20
1.94659
 30
0.0
 10
8.57942
 20
1.94659
 30
0.0
 10
8.57942
 20
1.94659
 30
0.0
 10
8.57942
 20
1.94659
 30
0.0
 10
8.64981
 20
1.93443
 30
0.0
 10
8.64981
 20
1.93443
 30
0.0
 10
8.64981
 20
1.93443
 30
0.0
 10
8.64981
 20
1.93443
 30
0.0
 10
8.64981
 20
1.90717
 30
0.0
 10
8.64981
 20
1.90717
 30
0.0
  0
ENDSEC
  0
SECTION
  2
OBJECTS
  0
DICTIONARY
  5
C
330
0
100
AcDbDictionary
281
     1
  3
ACAD_GROUP
350
D
  3
ACAD_LAYOUT
350
1A
  3
ACAD_MATERIAL
350
3B
  3
ACAD_MLEADERSTYLE
350
99
  3
ACAD_MLINESTYLE
350
17
  3
ACAD_PLOTSETTINGS
350
19
  3
ACAD_PLOTSTYLENAME
350
E
  3
ACAD_TABLESTYLE
350
98
  3
ACAD_VISUALSTYLE
350
2A
  0
DICTIONARY
  5
D
102
{ACAD_REACTORS
330
C
102
}
330
C
100
AcDbDictionary
281
     1
  0
DICTIONARY
  5
1A
102
{ACAD_REACTORS
330
C
102
}
330
C
100
AcDbDictionary
281
     1
  3
Layout1
350
1E
  3
Layout2
350
26
  3
Model
350
22
  0
DICTIONARY
  5
3B
102
{ACAD_REACTORS
330
C
102
}
330
C
100
AcDbDictionary
281
     1
  3
ByBlock
350
3D
  3
ByLayer
350
3C
  3
Global
350
3E
  0
DICTIONARY
  5
99
102
{ACAD_REACTORS
330
C
102
}
330
C
100
AcDbDictionary
281
     1
  0
DICTIONARY
  5
17
102
{ACAD_REACTORS
330
C
102
}
330
C
100
AcDbDictionary
281
     1
  3
Standard
350
18
  0
DICTIONARY
  5
19
102
{ACAD_REACTORS
330
C
102
}
330
C
100
AcDbDictionary
281
     1
  0
ACDBDICTIONARYWDFLT
  5
E
102
{ACAD_REACTORS
330
C
102
}
330
C
100
AcDbDictionary
281
     1
  3
Normal
350
F
100
AcDbDictionaryWithDefault
340
F
  0
DICTIONARY
  5
98
102
{ACAD_REACTORS
330
C
102
}
330
C
100
AcDbDictionary
281
     1
  0
DICTIONARY
  5
2A
102
{ACAD_REACTORS
330
C
102
}
330
C
100
AcDbDictionary
281
     1
  3
2dWireframe
350
2F
  3
3D Hidden
350
31
  3
3dWireframe
350
30
  3
Basic
350
32
  3
Brighten
350
36
  3
ColorChange
350
3A
  3
Conceptual
350
34
  3
Dim
350
35
  3
Facepattern
350
39
  3
Flat
350
2B
  3
FlatWithEdges
350
2C
  3
Gouraud
350
2D
  3
GouraudWithEdges
350
2E
  3
Linepattern
350
38
  3
Realistic
350
33
  3
Thicken
350
37
  0
LAYOUT
  5
1E
102
{ACAD_REACTORS
330
1A
102
}
330
1A
100
AcDbPlotSettings
  1

  2
none_device
  4

  6

 40
0.0
 41
0.0
 42
0.0
 43
0.0
 44
0.0
 45
0.0
 46
0.0
 47
0.0
 48
0.0
 49
0.0
140
0.0
141
0.0
142
1.0
143
1.0
 70
   688
 72
     0
 73
     0
 74
     5
  7

 75
    16
 76
     0
 77
     2
 78
   300
147
1.0
148
0.0
149
0.0
100
AcDbLayout
  1
Layout1
 70
     1
 71
     1
 10
0.0
 20
0.0
 11
12.0
 21
9.0
 12
0.0
 22
0.0
 32
0.0
 14
1.000000000000000E+20
 24
1.000000000000000E+20
 34
1.000000000000000E+20
 15
-1.000000000000000E+20
 25
-1.000000000000000E+20
 35
-1.000000000000000E+20
146
0.0
 13
0.0
 23
0.0
 33
0.0
 16
1.0
 26
0.0
 36
0.0
 17
0.0
 27
1.0
 37
0.0
 76
     0
330
1B
  0
LAYOUT
  5
26
102
{ACAD_REACTORS
330
1A
102
}
330
1A
100
AcDbPlotSettings
  1

  2
none_device
  4

  6

 40
0.0
 41
0.0
 42
0.0
 43
0.0
 44
0.0
 45
0.0
 46
0.0
 47
0.0
 48
0.0
 49
0.0
140
0.0
141
0.0
142
1.0
143
1.0
 70
   688
 72
     0
 73
     0
 74
     5
  7

 75
    16
 76
     0
 77
     2
 78
   300
147
1.0
148
0.0
149
0.0
100
AcDbLayout
  1
Layout2
 70
     1
 71
     2
 10
0.0
 20
0.0
 11
0.0
 21
0.0
 12
0.0
 22
0.0
 32
0.0
 14
0.0
 24
0.0
 34
0.0
 15
0.0
 25
0.0
 35
0.0
146
0.0
 13
0.0
 23
0.0
 33
0.0
 16
1.0
 26
0.0
 36
0.0
 17
0.0
 27
1.0
 37
0.0
 76
     0
330
23
  0
LAYOUT
  5
22
102
{ACAD_REACTORS
330
1A
102
}
330
1A
100
AcDbPlotSettings
  1

  2
none_device
  4

  6

 40
0.0
 41
0.0
 42
0.0
 43
0.0
 44
0.0
 45
0.0
 46
0.0
 47
0.0
 48
0.0
 49
0.0
140
0.0
141
0.0
142
1.0
143
1.0
 70
  1712
 72
     0
 73
     0
 74
     0
  7

 75
     0
 76
     0
 77
     2
 78
   300
147
1.0
148
0.0
149
0.0
100
AcDbLayout
  1
Model
 70
     1
 71
     0
 10
0.0
 20
0.0
 11
12.0
 21
9.0
 12
0.0
 22
0.0
 32
0.0
 14
-7.44737
 24
-9.38365
 34
0.0
 15
9.4112
 25
7.73206
 35
0.0
146
0.0
 13
0.0
 23
0.0
 33
0.0
 16
1.0
 26
0.0
 36
0.0
 17
0.0
 27
1.0
 37
0.0
 76
     0
330
1F
331
29
  0
MATERIAL
  5
3D
102
{ACAD_REACTORS
330
3B
102
}
330
3B
100
AcDbMaterial
  1
ByBlock
 72
     1
 94
      127
  0
MATERIAL
  5
3C
102
{ACAD_REACTORS
330
3B
102
}
330
3B
100
AcDbMaterial
  1
ByLayer
 72
     1
 94
      127
  0
MATERIAL
  5
3E
102
{ACAD_REACTORS
330
3B
102
}
330
3B
100
AcDbMaterial
  1
Global
 72
     1
 94
      127
  0
MLINESTYLE
  5
18
102
{ACAD_REACTORS
330
17
102
}
330
17
100
AcDbMlineStyle
  2
Standard
 70
     0
  3

 62
   256
 51
90.0
 52
90.0
 71
     2
 49
0.5
 62
   256
  6
BYLAYER
 49
-0.5
 62
   256
  6
BYLAYER
  0
ACDBPLACEHOLDER
  5
F
102
{ACAD_REACTORS
330
E
102
}
330
E
  0
VISUALSTYLE
  5
2F
102
{ACAD_REACTORS
330
2A
102
}
102
{ACAD_XDICTIONARY
360
80
102
}
330
2A
100
AcDbVisualStyle
  2
2dWireframe
 70
     4
 71
     0
 72
     2
 73
     0
 90
        0
 40
-0.6
 41
-30.0
 62
     5
 63
     7
421
 16777215
 74
     1
 91
        4
 64
     7
 65
   257
 75
     1
175
     1
 42
1.0
 92
        0
 66
   257
 43
1.0
 76
     1
 77
     6
 78
     2
 67
     7
 79
     5
170
     0
171
     0
290
     0
174
     0
 93
        1
 44
0.0
173
     0
291
     0
 45
0.0
  0
VISUALSTYLE
  5
31
102
{ACAD_REACTORS
330
2A
102
}
102
{ACAD_XDICTIONARY
360
84
102
}
330
2A
100
AcDbVisualStyle
  2
3D Hidden
 70
     6
 71
     1
 72
     2
 73
     2
 90
        0
 40
-0.6
 41
-30.0
 62
     5
 63
     7
421
 16777215
 74
     2
 91
        2
 64
     7
 65
   257
 75
     2
175
     1
 42
40.0
 92
        0
 66
   257
 43
1.0
 76
     1
 77
     6
 78
     2
 67
     7
 79
     3
170
     0
171
     0
290
     0
174
     0
 93
        1
 44
0.0
173
     0
291
     0
 45
0.0
  0
VISUALSTYLE
  5
30
102
{ACAD_REACTORS
330
2A
102
}
102
{ACAD_XDICTIONARY
360
82
102
}
330
2A
100
AcDbVisualStyle
  2
3dWireframe
 70
     5
 71
     0
 72
     2
 73
     0
 90
        0
 40
-0.6
 41
-30.0
 62
     5
 63
     7
421
 16777215
 74
     1
 91
        4
 64
     7
 65
   257
 75
     1
175
     1
 42
1.0
 92
        0
 66
   257
 43
1.0
 76
     1
 77
     6
 78
     2
 67
     7
 79
     5
170
     0
171
     0
290
     0
174
     0
 93
        1
 44
0.0
173
     0
291
     0
 45
0.0
  0
VISUALSTYLE
  5
32
102
{ACAD_REACTORS
330
2A
102
}
102
{ACAD_XDICTIONARY
360
86
102
}
330
2A
100
AcDbVisualStyle
  2
Basic
 70
     7
 71
     1
 72
     0
 73
     1
 90
        0
 40
-0.6
 41
-30.0
 62
     5
 63
     7
421
 16777215
 74
     0
 91
        4
 64
     7
 65
   257
 75
     1
175
     1
 42
1.0
 92
        8
 66
     7
 43
1.0
 76
     1
 77
     6
 78
     2
 67
     7
 79
     5
170
     0
171
     0
290
     0
174
     0
 93
        1
 44
0.0
173
     0
291
     1
 45
0.0
  0
VISUALSTYLE
  5
36
102
{ACAD_REACTORS
330
2A
102
}
102
{ACAD_XDICTIONARY
360
8E
102
}
330
2A
100
AcDbVisualStyle
  2
Brighten
 70
    12
 71
     2
 72
     2
 73
     0
 90
        0
 40
-0.6
 41
-30.0
 62
     5
 63
     7
421
 16777215
 74
     1
 91
        4
 64
     7
 65
   257
 75
     1
175
     1
 42
1.0
 92
        8
 66
     7
 43
1.0
 76
     1
 77
     6
 78
     2
 67
     7
 79
     5
170
     0
171
     0
290
     0
174
     0
 93
        1
 44
50.0
173
     0
291
     1
 45
0.0
  0
VISUALSTYLE
  5
3A
102
{ACAD_REACTORS
330
2A
102
}
102
{ACAD_XDICTIONARY
360
96
102
}
330
2A
100
AcDbVisualStyle
  2
ColorChange
 70
    16
 71
     2
 72
     2
 73
     3
 90
        0
 40
-0.6
 41
-30.0
 62
     5
 63
     8
421
  8421504
 74
     1
 91
        4
 64
     7
 65
   257
 75
     1
175
     1
 42
1.0
 92
        8
 66
     8
424
  8421504
 43
1.0
 76
     1
 77
     6
 78
     2
 67
     7
 79
     5
170
     0
171
     0
290
     0
174
     0
 93
        1
 44
0.0
173
     0
291
     1
 45
0.0
  0
VISUALSTYLE
  5
34
102
{ACAD_REACTORS
330
2A
102
}
102
{ACAD_XDICTIONARY
360
8A
102
}
330
2A
100
AcDbVisualStyle
  2
Conceptual
 70
     9
 71
     3
 72
     2
 73
     0
 90
        0
 40
-0.6
 41
-30.0
 62
     5
 63
     7
421
 16777215
 74
     2
 91
        2
 64
     7
 65
   257
 75
     1
175
     1
 42
40.0
 92
        8
 66
     7
 43
1.0
 76
     1
 77
     6
 78
     2
 67
     7
 79
     3
170
     0
171
     0
290
     0
174
     0
 93
        1
 44
0.0
173
     0
291
     0
 45
0.0
  0
VISUALSTYLE
  5
35
102
{ACAD_REACTORS
330
2A
102
}
102
{ACAD_XDICTIONARY
360
8C
102
}
330
2A
100
AcDbVisualStyle
  2
Dim
 70
    11
 71
     2
 72
     2
 73
     0
 90
        0
 40
-0.6
 41
-30.0
 62
     5
 63
     7
421
 16777215
 74
     1
 91
        4
 64
     7
 65
   257
 75
     1
175
     1
 42
1.0
 92
        8
 66
     7
 43
1.0
 76
     1
 77
     6
 78
     2
 67
     7
 79
     5
170
     0
171
     0
290
     0
174
     0
 93
        1
 44
-50.0
173
     0
291
     1
 45
0.0
  0
VISUALSTYLE
  5
39
102
{ACAD_REACTORS
330
2A
102
}
102
{ACAD_XDICTIONARY
360
94
102
}
330
2A
100
AcDbVisualStyle
  2
Facepattern
 70
    15
 71
     2
 72
     2
 73
     0
 90
        0
 40
-0.6
 41
-30.0
 62
     5
 63
     7
421
 16777215
 74
     1
 91
        4
 64
     7
 65
   257
 75
     1
175
     1
 42
1.0
 92
        8
 66
     7
 43
1.0
 76
     1
 77
     6
 78
     2
 67
     7
 79
     5
170
     0
171
     0
290
     0
174
     0
 93
        1
 44
0.0
173
     0
291
     1
 45
0.0
  0
VISUALSTYLE
  5
2B
102
{ACAD_REACTORS
330
2A
102
}
102
{ACAD_XDICTIONARY
360
78
102
}
330
2A
100
AcDbVisualStyle
  2
Flat
 70
     0
 71
     2
 72
     1
 73
     1
 90
        2
 40
-0.6
 41
30.0
 62
     5
 63
     7
421
 16777215
 74
     0
 91
        4
 64
     7
 65
   257
 75
     1
175
     1
 42
1.0
 92
        8
 66
     7
 43
1.0
 76
     1
 77
     6
 78
     2
 67
     7
 79
     5
170
     0
171
     0
290
     0
174
     0
 93
       13
 44
0.0
173
     0
291
     1
 45
0.0
  0
VISUALSTYLE
  5
2C
102
{ACAD_REACTORS
330
2A
102
}
102
{ACAD_XDICTIONARY
360
7A
102
}
330
2A
100
AcDbVisualStyle
  2
FlatWithEdges
 70
     1
 71
     2
 72
     1
 73
     1
 90
        2
 40
-0.6
 41
30.0
 62
     5
 63
     7
421
 16777215
 74
     1
 91
        4
 64
     7
 65
   257
 75
     1
175
     1
 42
1.0
 92
        0
 66
   257
 43
1.0
 76
     1
 77
     6
 78
     2
 67
     7
 79
     5
170
     0
171
     0
290
     0
174
     0
 93
       13
 44
0.0
173
     0
291
     1
 45
0.0
  0
VISUALSTYLE
  5
2D
102
{ACAD_REACTORS
330
2A
102
}
102
{ACAD_XDICTIONARY
360
7C
102
}
330
2A
100
AcDbVisualStyle
  2
Gouraud
 70
     2
 71
     2
 72
     2
 73
     1
 90
        2
 40
-0.6
 41
30.0
 62
     5
 63
     7
421
 16777215
 74
     0
 91
        4
 64
     7
 65
   257
 75
     1
175
     1
 42
1.0
 92
        0
 66
     7
 43
1.0
 76
     1
 77
     6
 78
     2
 67
     7
 79
     5
170
     0
171
     0
290
     0
174
     0
 93
       13
 44
0.0
173
     0
291
     1
 45
0.0
  0
VISUALSTYLE
  5
2E
102
{ACAD_REACTORS
330
2A
102
}
102
{ACAD_XDICTIONARY
360
7E
102
}
330
2A
100
AcDbVisualStyle
  2
GouraudWithEdges
 70
     3
 71
     2
 72
     2
 73
     1
 90
        2
 40
-0.6
 41
30.0
 62
     5
 63
     7
421
 16777215
 74
     1
 91
        4
 64
     7
 65
   257
 75
     1
175
     1
 42
1.0
 92
        0
 66
   257
 43
1.0
 76
     1
 77
     6
 78
     2
 67
     7
 79
     5
170
     0
171
     0
290
     0
174
     0
 93
       13
 44
0.0
173
     0
291
     1
 45
0.0
  0
VISUALSTYLE
  5
38
102
{ACAD_REACTORS
330
2A
102
}
102
{ACAD_XDICTIONARY
360
92
102
}
330
2A
100
AcDbVisualStyle
  2
Linepattern
 70
    14
 71
     2
 72
     2
 73
     0
 90
        0
 40
-0.6
 41
-30.0
 62
     5
 63
     7
421
 16777215
 74
     1
 91
        4
 64
     7
 65
   257
 75
     7
175
     7
 42
1.0
 92
        8
 66
     7
 43
1.0
 76
     1
 77
     6
 78
     2
 67
     7
 79
     5
170
     0
171
     0
290
     0
174
     0
 93
        1
 44
0.0
173
     0
291
     1
 45
0.0
  0
VISUALSTYLE
  5
33
102
{ACAD_REACTORS
330
2A
102
}
102
{ACAD_XDICTIONARY
360
88
102
}
330
2A
100
AcDbVisualStyle
  2
Realistic
 70
     8
 71
     2
 72
     2
 73
     0
 90
        0
 40
-0.6
 41
-30.0
 62
     5
 63
     7
421
 16777215
 74
     1
 91
        0
 64
     7
 65
   257
 75
     1
175
     1
 42
1.0
 92
        8
 66
     8
424
  7895160
 43
1.0
 76
     1
 77
     6
 78
     2
 67
     7
 79
     5
170
     0
171
     0
290
     0
174
     0
 93
       13
 44
0.0
173
     0
291
     0
 45
0.0
  0
VISUALSTYLE
  5
37
102
{ACAD_REACTORS
330
2A
102
}
102
{ACAD_XDICTIONARY
360
90
102
}
330
2A
100
AcDbVisualStyle
  2
Thicken
 70
    13
 71
     2
 72
     2
 73
     0
 90
        0
 40
-0.6
 41
-30.0
 62
     5
 63
     7
421
 16777215
 74
     1
 91
        4
 64
     7
 65
   257
 75
     1
175
     1
 42
1.0
 92
       12
 66
     7
 43
1.0
 76
     1
 77
     6
 78
     2
 67
     7
 79
     5
170
     0
171
     0
290
     0
174
     0
 93
        1
 44
0.0
173
     0
291
     1
 45
0.0
  0
DICTIONARY
  5
80
330
2F
100
AcDbDictionary
280
     1
281
     1
  3
ACAD_XREC_ROUNDTRIP
360
81
  0
DICTIONARY
  5
84
330
31
100
AcDbDictionary
280
     1
281
     1
  3
ACAD_XREC_ROUNDTRIP
360
85
  0
DICTIONARY
  5
82
330
30
100
AcDbDictionary
280
     1
281
     1
  3
ACAD_XREC_ROUNDTRIP
360
83
  0
DICTIONARY
  5
86
330
32
100
AcDbDictionary
280
     1
281
     1
  3
ACAD_XREC_ROUNDTRIP
360
87
  0
DICTIONARY
  5
8E
330
36
100
AcDbDictionary
280
     1
281
     1
  3
ACAD_XREC_ROUNDTRIP
360
8F
  0
DICTIONARY
  5
96
330
3A
100
AcDbDictionary
280
     1
281
     1
  3
ACAD_XREC_ROUNDTRIP
360
97
  0
DICTIONARY
  5
8A
330
34
100
AcDbDictionary
280
     1
281
     1
  3
ACAD_XREC_ROUNDTRIP
360
8B
  0
DICTIONARY
  5
8C
330
35
100
AcDbDictionary
280
     1
281
     1
  3
ACAD_XREC_ROUNDTRIP
360
8D
  0
DICTIONARY
  5
94
330
39
100
AcDbDictionary
280
     1
281
     1
  3
ACAD_XREC_ROUNDTRIP
360
95
  0
DICTIONARY
  5
78
330
2B
100
AcDbDictionary
280
     1
281
     1
  3
ACAD_XREC_ROUNDTRIP
360
79
  0
DICTIONARY
  5
7A
330
2C
100
AcDbDictionary
280
     1
281
     1
  3
ACAD_XREC_ROUNDTRIP
360
7B
  0
DICTIONARY
  5
7C
330
2D
100
AcDbDictionary
280
     1
281
     1
  3
ACAD_XREC_ROUNDTRIP
360
7D
  0
DICTIONARY
  5
7E
330
2E
100
AcDbDictionary
280
     1
281
     1
  3
ACAD_XREC_ROUNDTRIP
360
7F
  0
DICTIONARY
  5
92
330
38
100
AcDbDictionary
280
     1
281
     1
  3
ACAD_XREC_ROUNDTRIP
360
93
  0
DICTIONARY
  5
88
330
33
100
AcDbDictionary
280
     1
281
     1
  3
ACAD_XREC_ROUNDTRIP
360
89
  0
DICTIONARY
  5
90
330
37
100
AcDbDictionary
280
     1
281
     1
  3
ACAD_XREC_ROUNDTRIP
360
91
  0
XRECORD
  5
81
102
{ACAD_REACTORS
330
80
102
}
330
80
100
AcDbXrecord
280
     1
102
RTVSPropertyOp0
 70
     1
102
RTVSPropertyOp1
 70
     1
102
RTVSPropertyOp2
 70
     1
102
RTVSPropertyOp3
 70
     1
102
RTVSPropertyOp4
 70
     1
102
RTVSPropertyOp5
 70
     1
102
RTVSPropertyOp6
 70
     1
102
RTVSPropertyOp7
 70
     1
102
RTVSPropertyOp8
 70
     1
102
RTVSPropertyOp9
 70
     1
102
RTVSPropertyOp10
 70
     1
102
RTVSPropertyOp11
 70
     1
102
RTVSPropertyOp12
 70
     1
102
RTVSPropertyOp13
 70
     1
102
RTVSPropertyOp14
 70
     1
102
RTVSPropertyOp15
 70
     1
102
RTVSPropertyOp16
 70
     1
102
RTVSPropertyOp17
 70
     1
102
RTVSPropertyOp18
 70
     1
102
RTVSPropertyOp19
 70
     1
102
RTVSPropertyOp20
 70
     1
102
RTVSPropertyOp21
 70
     1
102
RTVSPropertyOp22
 70
     1
102
RTVSPropertyOp23
 70
     1
102
RTVSPropertyOp24
 70
     1
102
RTVSPropertyOp25
 70
     1
102
RTVSPropertyOp26
 70
     1
102
RTVSPropertyOp27
 70
     1
102
RTVSPropertyOp28
 70
     1
102
RTVSPropertyOp29
 70
     1
102
RTVSPropertyOp30
 70
     1
102
RTVSPropertyOp31
 70
     1
102
RTVSPropertyOp32
 70
     1
  0
XRECORD
  5
85
102
{ACAD_REACTORS
330
84
102
}
330
84
100
AcDbXrecord
280
     1
102
RTVSPropertyOp0
 70
     1
102
RTVSPropertyOp1
 70
     1
102
RTVSPropertyOp2
 70
     1
102
RTVSPropertyOp3
 70
     1
102
RTVSPropertyOp4
 70
     1
102
RTVSPropertyOp5
 70
     1
102
RTVSPropertyOp6
 70
     1
102
RTVSPropertyOp7
 70
     1
102
RTVSPropertyOp8
 70
     1
102
RTVSPropertyOp9
 70
     1
102
RTVSPropertyOp10
 70
     1
102
RTVSPropertyOp11
 70
     1
102
RTVSPropertyOp12
 70
     1
102
RTVSPropertyOp13
 70
     1
102
RTVSPropertyOp14
 70
     1
102
RTVSPropertyOp15
 70
     1
102
RTVSPropertyOp16
 70
     1
102
RTVSPropertyOp17
 70
     1
102
RTVSPropertyOp18
 70
     1
102
RTVSPropertyOp19
 70
     1
102
RTVSPropertyOp20
 70
     1
102
RTVSPropertyOp21
 70
     1
102
RTVSPropertyOp22
 70
     1
102
RTVSPropertyOp23
 70
     1
102
RTVSPropertyOp24
 70
     1
102
RTVSPropertyOp25
 70
     1
102
RTVSPropertyOp26
 70
     1
102
RTVSPropertyOp27
 70
     1
102
RTVSPropertyOp28
 70
     1
102
RTVSPropertyOp29
 70
     1
102
RTVSPropertyOp30
 70
     1
102
RTVSPropertyOp31
 70
     1
102
RTVSPropertyOp32
 70
     1
  0
XRECORD
  5
83
102
{ACAD_REACTORS
330
82
102
}
330
82
100
AcDbXrecord
280
     1
102
RTVSPropertyOp0
 70
     1
102
RTVSPropertyOp1
 70
     1
102
RTVSPropertyOp2
 70
     1
102
RTVSPropertyOp3
 70
     1
102
RTVSPropertyOp4
 70
     1
102
RTVSPropertyOp5
 70
     1
102
RTVSPropertyOp6
 70
     1
102
RTVSPropertyOp7
 70
     1
102
RTVSPropertyOp8
 70
     1
102
RTVSPropertyOp9
 70
     1
102
RTVSPropertyOp10
 70
     1
102
RTVSPropertyOp11
 70
     1
102
RTVSPropertyOp12
 70
     1
102
RTVSPropertyOp13
 70
     1
102
RTVSPropertyOp14
 70
     1
102
RTVSPropertyOp15
 70
     1
102
RTVSPropertyOp16
 70
     1
102
RTVSPropertyOp17
 70
     1
102
RTVSPropertyOp18
 70
     1
102
RTVSPropertyOp19
 70
     1
102
RTVSPropertyOp20
 70
     1
102
RTVSPropertyOp21
 70
     1
102
RTVSPropertyOp22
 70
     1
102
RTVSPropertyOp23
 70
     1
102
RTVSPropertyOp24
 70
     1
102
RTVSPropertyOp25
 70
     1
102
RTVSPropertyOp26
 70
     1
102
RTVSPropertyOp27
 70
     1
102
RTVSPropertyOp28
 70
     1
102
RTVSPropertyOp29
 70
     1
102
RTVSPropertyOp30
 70
     1
102
RTVSPropertyOp31
 70
     1
102
RTVSPropertyOp32
 70
     1
  0
XRECORD
  5
87
102
{ACAD_REACTORS
330
86
102
}
330
86
100
AcDbXrecord
280
     1
102
RTVSPropertyOp0
 70
     1
102
RTVSPropertyOp1
 70
     1
102
RTVSPropertyOp2
 70
     1
102
RTVSPropertyOp3
 70
     1
102
RTVSPropertyOp4
 70
     1
102
RTVSPropertyOp5
 70
     1
102
RTVSPropertyOp6
 70
     1
102
RTVSPropertyOp7
 70
     1
102
RTVSPropertyOp8
 70
     1
102
RTVSPropertyOp9
 70
     1
102
RTVSPropertyOp10
 70
     1
102
RTVSPropertyOp11
 70
     1
102
RTVSPropertyOp12
 70
     1
102
RTVSPropertyOp13
 70
     1
102
RTVSPropertyOp14
 70
     1
102
RTVSPropertyOp15
 70
     1
102
RTVSPropertyOp16
 70
     1
102
RTVSPropertyOp17
 70
     1
102
RTVSPropertyOp18
 70
     1
102
RTVSPropertyOp19
 70
     1
102
RTVSPropertyOp20
 70
     1
102
RTVSPropertyOp21
 70
     1
102
RTVSPropertyOp22
 70
     1
102
RTVSPropertyOp23
 70
     1
102
RTVSPropertyOp24
 70
     1
102
RTVSPropertyOp25
 70
     1
102
RTVSPropertyOp26
 70
     1
102
RTVSPropertyOp27
 70
     1
102
RTVSPropertyOp28
 70
     1
102
RTVSPropertyOp29
 70
     1
102
RTVSPropertyOp30
 70
     1
102
RTVSPropertyOp31
 70
     1
102
RTVSPropertyOp32
 70
     1
  0
XRECORD
  5
8F
102
{ACAD_REACTORS
330
8E
102
}
330
8E
100
AcDbXrecord
280
     1
102
RTVSPropertyOp0
 70
     1
102
RTVSPropertyOp1
 70
     1
102
RTVSPropertyOp2
 70
     1
102
RTVSPropertyOp3
 70
     1
102
RTVSPropertyOp4
 70
     1
102
RTVSPropertyOp5
 70
     1
102
RTVSPropertyOp6
 70
     1
102
RTVSPropertyOp7
 70
     1
102
RTVSPropertyOp8
 70
     1
102
RTVSPropertyOp9
 70
     1
102
RTVSPropertyOp10
 70
     1
102
RTVSPropertyOp11
 70
     1
102
RTVSPropertyOp12
 70
     1
102
RTVSPropertyOp13
 70
     1
102
RTVSPropertyOp14
 70
     1
102
RTVSPropertyOp15
 70
     1
102
RTVSPropertyOp16
 70
     1
102
RTVSPropertyOp17
 70
     1
102
RTVSPropertyOp18
 70
     1
102
RTVSPropertyOp19
 70
     1
102
RTVSPropertyOp20
 70
     1
102
RTVSPropertyOp21
 70
     1
102
RTVSPropertyOp22
 70
     1
102
RTVSPropertyOp23
 70
     1
102
RTVSPropertyOp24
 70
     1
102
RTVSPropertyOp25
 70
     1
102
RTVSPropertyOp26
 70
     1
102
RTVSPropertyOp27
 70
     1
102
RTVSPropertyOp28
 70
     1
102
RTVSPropertyOp29
 70
     1
102
RTVSPropertyOp30
 70
     1
102
RTVSPropertyOp31
 70
     1
102
RTVSPropertyOp32
 70
     1
  0
XRECORD
  5
97
102
{ACAD_REACTORS
330
96
102
}
330
96
100
AcDbXrecord
280
     1
102
RTVSPropertyOp0
 70
     1
102
RTVSPropertyOp1
 70
     1
102
RTVSPropertyOp2
 70
     1
102
RTVSPropertyOp3
 70
     1
102
RTVSPropertyOp4
 70
     1
102
RTVSPropertyOp5
 70
     1
102
RTVSPropertyOp6
 70
     1
102
RTVSPropertyOp7
 70
     1
102
RTVSPropertyOp8
 70
     1
102
RTVSPropertyOp9
 70
     1
102
RTVSPropertyOp10
 70
     1
102
RTVSPropertyOp11
 70
     1
102
RTVSPropertyOp12
 70
     1
102
RTVSPropertyOp13
 70
     1
102
RTVSPropertyOp14
 70
     1
102
RTVSPropertyOp15
 70
     1
102
RTVSPropertyOp16
 70
     1
102
RTVSPropertyOp17
 70
     1
102
RTVSPropertyOp18
 70
     1
102
RTVSPropertyOp19
 70
     1
102
RTVSPropertyOp20
 70
     1
102
RTVSPropertyOp21
 70
     1
102
RTVSPropertyOp22
 70
     1
102
RTVSPropertyOp23
 70
     1
102
RTVSPropertyOp24
 70
     1
102
RTVSPropertyOp25
 70
     1
102
RTVSPropertyOp26
 70
     1
102
RTVSPropertyOp27
 70
     1
102
RTVSPropertyOp28
 70
     1
102
RTVSPropertyOp29
 70
     1
102
RTVSPropertyOp30
 70
     1
102
RTVSPropertyOp31
 70
     1
102
RTVSPropertyOp32
 70
     1
  0
XRECORD
  5
8B
102
{ACAD_REACTORS
330
8A
102
}
330
8A
100
AcDbXrecord
280
     1
102
RTVSPropertyOp0
 70
     1
102
RTVSPropertyOp1
 70
     1
102
RTVSPropertyOp2
 70
     1
102
RTVSPropertyOp3
 70
     1
102
RTVSPropertyOp4
 70
     1
102
RTVSPropertyOp5
 70
     1
102
RTVSPropertyOp6
 70
     1
102
RTVSPropertyOp7
 70
     1
102
RTVSPropertyOp8
 70
     1
102
RTVSPropertyOp9
 70
     1
102
RTVSPropertyOp10
 70
     1
102
RTVSPropertyOp11
 70
     1
102
RTVSPropertyOp12
 70
     1
102
RTVSPropertyOp13
 70
     1
102
RTVSPropertyOp14
 70
     1
102
RTVSPropertyOp15
 70
     1
102
RTVSPropertyOp16
 70
     1
102
RTVSPropertyOp17
 70
     1
102
RTVSPropertyOp18
 70
     1
102
RTVSPropertyOp19
 70
     1
102
RTVSPropertyOp20
 70
     1
102
RTVSPropertyOp21
 70
     1
102
RTVSPropertyOp22
 70
     1
102
RTVSPropertyOp23
 70
     1
102
RTVSPropertyOp24
 70
     1
102
RTVSPropertyOp25
 70
     1
102
RTVSPropertyOp26
 70
     1
102
RTVSPropertyOp27
 70
     1
102
RTVSPropertyOp28
 70
     1
102
RTVSPropertyOp29
 70
     1
102
RTVSPropertyOp30
 70
     1
102
RTVSPropertyOp31
 70
     1
102
RTVSPropertyOp32
 70
     1
  0
XRECORD
  5
8D
102
{ACAD_REACTORS
330
8C
102
}
330
8C
100
AcDbXrecord
280
     1
102
RTVSPropertyOp0
 70
     1
102
RTVSPropertyOp1
 70
     1
102
RTVSPropertyOp2
 70
     1
102
RTVSPropertyOp3
 70
     1
102
RTVSPropertyOp4
 70
     1
102
RTVSPropertyOp5
 70
     1
102
RTVSPropertyOp6
 70
     1
102
RTVSPropertyOp7
 70
     1
102
RTVSPropertyOp8
 70
     1
102
RTVSPropertyOp9
 70
     1
102
RTVSPropertyOp10
 70
     1
102
RTVSPropertyOp11
 70
     1
102
RTVSPropertyOp12
 70
     1
102
RTVSPropertyOp13
 70
     1
102
RTVSPropertyOp14
 70
     1
102
RTVSPropertyOp15
 70
     1
102
RTVSPropertyOp16
 70
     1
102
RTVSPropertyOp17
 70
     1
102
RTVSPropertyOp18
 70
     1
102
RTVSPropertyOp19
 70
     1
102
RTVSPropertyOp20
 70
     1
102
RTVSPropertyOp21
 70
     1
102
RTVSPropertyOp22
 70
     1
102
RTVSPropertyOp23
 70
     1
102
RTVSPropertyOp24
 70
     1
102
RTVSPropertyOp25
 70
     1
102
RTVSPropertyOp26
 70
     1
102
RTVSPropertyOp27
 70
     1
102
RTVSPropertyOp28
 70
     1
102
RTVSPropertyOp29
 70
     1
102
RTVSPropertyOp30
 70
     1
102
RTVSPropertyOp31
 70
     1
102
RTVSPropertyOp32
 70
     1
  0
XRECORD
  5
95
102
{ACAD_REACTORS
330
94
102
}
330
94
100
AcDbXrecord
280
     1
102
RTVSPropertyOp0
 70
     1
102
RTVSPropertyOp1
 70
     1
102
RTVSPropertyOp2
 70
     1
102
RTVSPropertyOp3
 70
     1
102
RTVSPropertyOp4
 70
     1
102
RTVSPropertyOp5
 70
     1
102
RTVSPropertyOp6
 70
     1
102
RTVSPropertyOp7
 70
     1
102
RTVSPropertyOp8
 70
     1
102
RTVSPropertyOp9
 70
     1
102
RTVSPropertyOp10
 70
     1
102
RTVSPropertyOp11
 70
     1
102
RTVSPropertyOp12
 70
     1
102
RTVSPropertyOp13
 70
     1
102
RTVSPropertyOp14
 70
     1
102
RTVSPropertyOp15
 70
     1
102
RTVSPropertyOp16
 70
     1
102
RTVSPropertyOp17
 70
     1
102
RTVSPropertyOp18
 70
     1
102
RTVSPropertyOp19
 70
     1
102
RTVSPropertyOp20
 70
     1
102
RTVSPropertyOp21
 70
     1
102
RTVSPropertyOp22
 70
     1
102
RTVSPropertyOp23
 70
     1
102
RTVSPropertyOp24
 70
     1
102
RTVSPropertyOp25
 70
     1
102
RTVSPropertyOp26
 70
     1
102
RTVSPropertyOp27
 70
     1
102
RTVSPropertyOp28
 70
     1
102
RTVSPropertyOp29
 70
     1
102
RTVSPropertyOp30
 70
     1
102
RTVSPropertyOp31
 70
     1
102
RTVSPropertyOp32
 70
     1
  0
XRECORD
  5
79
102
{ACAD_REACTORS
330
78
102
}
330
78
100
AcDbXrecord
280
     1
102
RTVSPropertyOp0
 70
     1
102
RTVSPropertyOp1
 70
     1
102
RTVSPropertyOp2
 70
     1
102
RTVSPropertyOp3
 70
     1
102
RTVSPropertyOp4
 70
     1
102
RTVSPropertyOp5
 70
     1
102
RTVSPropertyOp6
 70
     1
102
RTVSPropertyOp7
 70
     1
102
RTVSPropertyOp8
 70
     1
102
RTVSPropertyOp9
 70
     1
102
RTVSPropertyOp10
 70
     1
102
RTVSPropertyOp11
 70
     1
102
RTVSPropertyOp12
 70
     1
102
RTVSPropertyOp13
 70
     1
102
RTVSPropertyOp14
 70
     1
102
RTVSPropertyOp15
 70
     1
102
RTVSPropertyOp16
 70
     1
102
RTVSPropertyOp17
 70
     1
102
RTVSPropertyOp18
 70
     1
102
RTVSPropertyOp19
 70
     1
102
RTVSPropertyOp20
 70
     1
102
RTVSPropertyOp21
 70
     1
102
RTVSPropertyOp22
 70
     1
102
RTVSPropertyOp23
 70
     1
102
RTVSPropertyOp24
 70
     1
102
RTVSPropertyOp25
 70
     1
102
RTVSPropertyOp26
 70
     1
102
RTVSPropertyOp27
 70
     1
102
RTVSPropertyOp28
 70
     1
102
RTVSPropertyOp29
 70
     1
102
RTVSPropertyOp30
 70
     1
102
RTVSPropertyOp31
 70
     1
102
RTVSPropertyOp32
 70
     1
  0
XRECORD
  5
7B
102
{ACAD_REACTORS
330
7A
102
}
330
7A
100
AcDbXrecord
280
     1
102
RTVSPropertyOp0
 70
     1
102
RTVSPropertyOp1
 70
     1
102
RTVSPropertyOp2
 70
     1
102
RTVSPropertyOp3
 70
     1
102
RTVSPropertyOp4
 70
     1
102
RTVSPropertyOp5
 70
     1
102
RTVSPropertyOp6
 70
     1
102
RTVSPropertyOp7
 70
     1
102
RTVSPropertyOp8
 70
     1
102
RTVSPropertyOp9
 70
     1
102
RTVSPropertyOp10
 70
     1
102
RTVSPropertyOp11
 70
     1
102
RTVSPropertyOp12
 70
     1
102
RTVSPropertyOp13
 70
     1
102
RTVSPropertyOp14
 70
     1
102
RTVSPropertyOp15
 70
     1
102
RTVSPropertyOp16
 70
     1
102
RTVSPropertyOp17
 70
     1
102
RTVSPropertyOp18
 70
     1
102
RTVSPropertyOp19
 70
     1
102
RTVSPropertyOp20
 70
     1
102
RTVSPropertyOp21
 70
     1
102
RTVSPropertyOp22
 70
     1
102
RTVSPropertyOp23
 70
     1
102
RTVSPropertyOp24
 70
     1
102
RTVSPropertyOp25
 70
     1
102
RTVSPropertyOp26
 70
     1
102
RTVSPropertyOp27
 70
     1
102
RTVSPropertyOp28
 70
     1
102
RTVSPropertyOp29
 70
     1
102
RTVSPropertyOp30
 70
     1
102
RTVSPropertyOp31
 70
     1
102
RTVSPropertyOp32
 70
     1
  0
XRECORD
  5
7D
102
{ACAD_REACTORS
330
7C
102
}
330
7C
100
AcDbXrecord
280
     1
102
RTVSPropertyOp0
 70
     1
102
RTVSPropertyOp1
 70
     1
102
RTVSPropertyOp2
 70
     1
102
RTVSPropertyOp3
 70
     1
102
RTVSPropertyOp4
 70
     1
102
RTVSPropertyOp5
 70
     1
102
RTVSPropertyOp6
 70
     1
102
RTVSPropertyOp7
 70
     1
102
RTVSPropertyOp8
 70
     1
102
RTVSPropertyOp9
 70
     1
102
RTVSPropertyOp10
 70
     1
102
RTVSPropertyOp11
 70
     1
102
RTVSPropertyOp12
 70
     1
102
RTVSPropertyOp13
 70
     1
102
RTVSPropertyOp14
 70
     1
102
RTVSPropertyOp15
 70
     1
102
RTVSPropertyOp16
 70
     1
102
RTVSPropertyOp17
 70
     1
102
RTVSPropertyOp18
 70
     1
102
RTVSPropertyOp19
 70
     1
102
RTVSPropertyOp20
 70
     1
102
RTVSPropertyOp21
 70
     1
102
RTVSPropertyOp22
 70
     1
102
RTVSPropertyOp23
 70
     1
102
RTVSPropertyOp24
 70
     1
102
RTVSPropertyOp25
 70
     1
102
RTVSPropertyOp26
 70
     1
102
RTVSPropertyOp27
 70
     1
102
RTVSPropertyOp28
 70
     1
102
RTVSPropertyOp29
 70
     1
102
RTVSPropertyOp30
 70
     1
102
RTVSPropertyOp31
 70
     1
102
RTVSPropertyOp32
 70
     1
  0
XRECORD
  5
7F
102
{ACAD_REACTORS
330
7E
102
}
330
7E
100
AcDbXrecord
280
     1
102
RTVSPropertyOp0
 70
     1
102
RTVSPropertyOp1
 70
     1
102
RTVSPropertyOp2
 70
     1
102
RTVSPropertyOp3
 70
     1
102
RTVSPropertyOp4
 70
     1
102
RTVSPropertyOp5
 70
     1
102
RTVSPropertyOp6
 70
     1
102
RTVSPropertyOp7
 70
     1
102
RTVSPropertyOp8
 70
     1
102
RTVSPropertyOp9
 70
     1
102
RTVSPropertyOp10
 70
     1
102
RTVSPropertyOp11
 70
     1
102
RTVSPropertyOp12
 70
     1
102
RTVSPropertyOp13
 70
     1
102
RTVSPropertyOp14
 70
     1
102
RTVSPropertyOp15
 70
     1
102
RTVSPropertyOp16
 70
     1
102
RTVSPropertyOp17
 70
     1
102
RTVSPropertyOp18
 70
     1
102
RTVSPropertyOp19
 70
     1
102
RTVSPropertyOp20
 70
     1
102
RTVSPropertyOp21
 70
     1
102
RTVSPropertyOp22
 70
     1
102
RTVSPropertyOp23
 70
     1
102
RTVSPropertyOp24
 70
     1
102
RTVSPropertyOp25
 70
     1
102
RTVSPropertyOp26
 70
     1
102
RTVSPropertyOp27
 70
     1
102
RTVSPropertyOp28
 70
     1
102
RTVSPropertyOp29
 70
     1
102
RTVSPropertyOp30
 70
     1
102
RTVSPropertyOp31
 70
     1
102
RTVSPropertyOp32
 70
     1
  0
XRECORD
  5
93
102
{ACAD_REACTORS
330
92
102
}
330
92
100
AcDbXrecord
280
     1
102
RTVSPropertyOp0
 70
     1
102
RTVSPropertyOp1
 70
     1
102
RTVSPropertyOp2
 70
     1
102
RTVSPropertyOp3
 70
     1
102
RTVSPropertyOp4
 70
     1
102
RTVSPropertyOp5
 70
     1
102
RTVSPropertyOp6
 70
     1
102
RTVSPropertyOp7
 70
     1
102
RTVSPropertyOp8
 70
     1
102
RTVSPropertyOp9
 70
     1
102
RTVSPropertyOp10
 70
     1
102
RTVSPropertyOp11
 70
     1
102
RTVSPropertyOp12
 70
     1
102
RTVSPropertyOp13
 70
     1
102
RTVSPropertyOp14
 70
     1
102
RTVSPropertyOp15
 70
     1
102
RTVSPropertyOp16
 70
     1
102
RTVSPropertyOp17
 70
     1
102
RTVSPropertyOp18
 70
     1
102
RTVSPropertyOp19
 70
     1
102
RTVSPropertyOp20
 70
     1
102
RTVSPropertyOp21
 70
     1
102
RTVSPropertyOp22
 70
     1
102
RTVSPropertyOp23
 70
     1
102
RTVSPropertyOp24
 70
     1
102
RTVSPropertyOp25
 70
     1
102
RTVSPropertyOp26
 70
     1
102
RTVSPropertyOp27
 70
     1
102
RTVSPropertyOp28
 70
     1
102
RTVSPropertyOp29
 70
     1
102
RTVSPropertyOp30
 70
     1
102
RTVSPropertyOp31
 70
     1
102
RTVSPropertyOp32
 70
     1
  0
XRECORD
  5
89
102
{ACAD_REACTORS
330
88
102
}
330
88
100
AcDbXrecord
280
     1
102
RTVSPropertyOp0
 70
     1
102
RTVSPropertyOp1
 70
     1
102
RTVSPropertyOp2
 70
     1
102
RTVSPropertyOp3
 70
     1
102
RTVSPropertyOp4
 70
     1
102
RTVSPropertyOp5
 70
     1
102
RTVSPropertyOp6
 70
     1
102
RTVSPropertyOp7
 70
     1
102
RTVSPropertyOp8
 70
     1
102
RTVSPropertyOp9
 70
     1
102
RTVSPropertyOp10
 70
     1
102
RTVSPropertyOp11
 70
     1
102
RTVSPropertyOp12
 70
     1
102
RTVSPropertyOp13
 70
     1
102
RTVSPropertyOp14
 70
     1
102
RTVSPropertyOp15
 70
     1
102
RTVSPropertyOp16
 70
     1
102
RTVSPropertyOp17
 70
     1
102
RTVSPropertyOp18
 70
     1
102
RTVSPropertyOp19
 70
     1
102
RTVSPropertyOp20
 70
     1
102
RTVSPropertyOp21
 70
     1
102
RTVSPropertyOp22
 70
     1
102
RTVSPropertyOp23
 70
     1
102
RTVSPropertyOp24
 70
     1
102
RTVSPropertyOp25
 70
     1
102
RTVSPropertyOp26
 70
     1
102
RTVSPropertyOp27
 70
     1
102
RTVSPropertyOp28
 70
     1
102
RTVSPropertyOp29
 70
     1
102
RTVSPropertyOp30
 70
     1
102
RTVSPropertyOp31
 70
     1
102
RTVSPropertyOp32
 70
     1
  0
XRECORD
  5
91
102
{ACAD_REACTORS
330
90
102
}
330
90
100
AcDbXrecord
280
     1
102
RTVSPropertyOp0
 70
     1
102
RTVSPropertyOp1
 70
     1
102
RTVSPropertyOp2
 70
     1
102
RTVSPropertyOp3
 70
     1
102
RTVSPropertyOp4
 70
     1
102
RTVSPropertyOp5
 70
     1
102
RTVSPropertyOp6
 70
     1
102
RTVSPropertyOp7
 70
     1
102
RTVSPropertyOp8
 70
     1
102
RTVSPropertyOp9
 70
     1
102
RTVSPropertyOp10
 70
     1
102
RTVSPropertyOp11
 70
     1
102
RTVSPropertyOp12
 70
     1
102
RTVSPropertyOp13
 70
     1
102
RTVSPropertyOp14
 70
     1
102
RTVSPropertyOp15
 70
     1
102
RTVSPropertyOp16
 70
     1
102
RTVSPropertyOp17
 70
     1
102
RTVSPropertyOp18
 70
     1
102
RTVSPropertyOp19
 70
     1
102
RTVSPropertyOp20
 70
     1
102
RTVSPropertyOp21
 70
     1
102
RTVSPropertyOp22
 70
     1
102
RTVSPropertyOp23
 70
     1
102
RTVSPropertyOp24
 70
     1
102
RTVSPropertyOp25
 70
     1
102
RTVSPropertyOp26
 70
     1
102
RTVSPropertyOp27
 70
     1
102
RTVSPropertyOp28
 70
     1
102
RTVSPropertyOp29
 70
     1
102
RTVSPropertyOp30
 70
     1
102
RTVSPropertyOp31
 70
     1
102
RTVSPropertyOp32
 70
     1
  0
ENDSEC
  0
EOF
