  0
SECTION
  2
HEADER
  9
$ACADVER
  1
AC1021
  9
$ACADMAINTVER
 70
    25
  9
$DWGCODEPAGE
  3
ANSI_1252
  9
$INSBASE
 10
0.0
 20
0.0
 30
0.0
  9
$EXTMIN
 10
-10.46724
 20
-9.69741
 30
0.0
  9
$EXTMAX
 10
10.23347
 20
9.56826
 30
0.0
  9
$LIMMIN
 10
0.0
 20
0.0
  9
$LIMMAX
 10
12.0
 20
9.0
  9
$ORTHOMODE
 70
     0
  9
$REGENMODE
 70
     1
  9
$FILLMODE
 70
     1
  9
$QTEXTMODE
 70
     0
  9
$MIRRTEXT
 70
     1
  9
$LTSCALE
 40
1.0
  9
$ATTMODE
 70
     1
  9
$TEXTSIZE
 40
0.2
  9
$TRACEWID
 40
0.05
  9
$TEXTSTYLE
  7
Standard
  9
$CLAYER
  8
0
  9
$CELTYPE
  6
ByLayer
  9
$CECOLOR
 62
   256
  9
$CELTSCALE
 40
1.0
  9
$DISPSILH
 70
     0
  9
$DIMSCALE
 40
1.0
  9
$DIMASZ
 40
0.18
  9
$DIMEXO
 40
0.0625
  9
$DIMDLI
 40
0.38
  9
$DIMRND
 40
0.0
  9
$DIMDLE
 40
0.0
  9
$DIMEXE
 40
0.18
  9
$DIMTP
 40
0.0
  9
$DIMTM
 40
0.0
  9
$DIMTXT
 40
0.18
  9
$DIMCEN
 40
0.09
  9
$DIMTSZ
 40
0.0
  9
$DIMTOL
 70
     0
  9
$DIMLIM
 70
     0
  9
$DIMTIH
 70
     1
  9
$DIMTOH
 70
     1
  9
$DIMSE1
 70
     0
  9
$DIMSE2
 70
     0
  9
$DIMTAD
 70
     0
  9
$DIMZIN
 70
     0
  9
$DIMBLK
  1

  9
$DIMASO
 70
     1
  9
$DIMSHO
 70
     1
  9
$DIMPOST
  1

  9
$DIMAPOST
  1

  9
$DIMALT
 70
     0
  9
$DIMALTD
 70
     2
  9
$DIMALTF
 40
25.4
  9
$DIMLFAC
 40
1.0
  9
$DIMTOFL
 70
     0
  9
$DIMTVP
 40
0.0
  9
$DIMTIX
 70
     0
  9
$DIMSOXD
 70
     0
  9
$DIMSAH
 70
     0
  9
$DIMBLK1
  1

  9
$DIMBLK2
  1

  9
$DIMSTYLE
  2
Standard
  9
$DIMCLRD
 70
     0
  9
$DIMCLRE
 70
     0
  9
$DIMCLRT
 70
     0
  9
$DIMTFAC
 40
1.0
  9
$DIMGAP
 40
0.09
  9
$DIMJUST
 70
     0
  9
$DIMSD1
 70
     0
  9
$DIMSD2
 70
     0
  9
$DIMTOLJ
 70
     1
  9
$DIMTZIN
 70
     0
  9
$DIMALTZ
 70
     0
  9
$DIMALTTZ
 70
     0
  9
$DIMUPT
 70
     0
  9
$DIMDEC
 70
     4
  9
$DIMTDEC
 70
     4
  9
$DIMALTU
 70
     2
  9
$DIMALTTD
 70
     2
  9
$DIMTXSTY
  7
Standard
  9
$DIMAUNIT
 70
     0
  9
$DIMADEC
 70
     0
  9
$DIMALTRND
 40
0.0
  9
$DIMAZIN
 70
     0
  9
$DIMDSEP
 70
    46
  9
$DIMATFIT
 70
     3
  9
$DIMFRAC
 70
     0
  9
$DIMLDRBLK
  1

  9
$DIMLUNIT
 70
     2
  9
$DIMLWD
 70
    -2
  9
$DIMLWE
 70
    -2
  9
$DIMTMOVE
 70
     0
  9
$DIMFXL
 40
1.0
  9
$DIMFXLON
 70
     0
  9
$DIMJOGANG
 40
0.7853981633974483
  9
$DIMTFILL
 70
     0
  9
$DIMTFILLCLR
 70
     0
  9
$DIMARCSYM
 70
     0
  9
$DIMLTYPE
  6

  9
$DIMLTEX1
  6

  9
$DIMLTEX2
  6

  9
$LUNITS
 70
     2
  9
$LUPREC
 70
     4
  9
$SKETCHINC
 40
0.1
  9
$FILLETRAD
 40
0.5
  9
$AUNITS
 70
     0
  9
$AUPREC
 70
     0
  9
$MENU
  1
.
  9
$ELEVATION
 40
0.0
  9
$PELEVATION
 40
0.0
  9
$THICKNESS
 40
0.0
  9
$LIMCHECK
 70
     0
  9
$CHAMFERA
 40
0.5
  9
$CHAMFERB
 40
0.5
  9
$CHAMFERC
 40
1.0
  9
$CHAMFERD
 40
0.0
  9
$SKPOLY
 70
     0
  9
$TDCREATE
 40
2456231.941040625
  9
$TDUCREATE
 40
2456232.107707292
  9
$TDUPDATE
 40
2456231.941040683
  9
$TDUUPDATE
 40
2456232.10770735
  9
$TDINDWG
 40
0.0000000116
  9
$TDUSRTIMER
 40
0.0000000116
  9
$USRTIMER
 70
     1
  9
$ANGBASE
 50
0.0
  9
$ANGDIR
 70
     0
  9
$PDMODE
 70
     0
  9
$PDSIZE
 40
0.0
  9
$PLINEWID
 40
0.0
  9
$SPLFRAME
 70
     0
  9
$SPLINETYPE
 70
     6
  9
$SPLINESEGS
 70
     8
  9
$HANDSEED
  5
9B
  9
$SURFTAB1
 70
     6
  9
$SURFTAB2
 70
     6
  9
$SURFTYPE
 70
     6
  9
$SURFU
 70
     6
  9
$SURFV
 70
     6
  9
$UCSBASE
  2

  9
$UCSNAME
  2

  9
$UCSORG
 10
0.0
 20
0.0
 30
0.0
  9
$UCSXDIR
 10
1.0
 20
0.0
 30
0.0
  9
$UCSYDIR
 10
0.0
 20
1.0
 30
0.0
  9
$UCSORTHOREF
  2

  9
$UCSORTHOVIEW
 70
     0
  9
$UCSORGTOP
 10
0.0
 20
0.0
 30
0.0
  9
$UCSORGBOTTOM
 10
0.0
 20
0.0
 30
0.0
  9
$UCSORGLEFT
 10
0.0
 20
0.0
 30
0.0
  9
$UCSORGRIGHT
 10
0.0
 20
0.0
 30
0.0
  9
$UCSORGFRONT
 10
0.0
 20
0.0
 30
0.0
  9
$UCSORGBACK
 10
0.0
 20
0.0
 30
0.0
  9
$PUCSBASE
  2

  9
$PUCSNAME
  2

  9
$PUCSORG
 10
0.0
 20
0.0
 30
0.0
  9
$PUCSXDIR
 10
1.0
 20
0.0
 30
0.0
  9
$PUCSYDIR
 10
0.0
 20
1.0
 30
0.0
  9
$PUCSORTHOREF
  2

  9
$PUCSORTHOVIEW
 70
     0
  9
$PUCSORGTOP
 10
0.0
 20
0.0
 30
0.0
  9
$PUCSORGBOTTOM
 10
0.0
 20
0.0
 30
0.0
  9
$PUCSORGLEFT
 10
0.0
 20
0.0
 30
0.0
  9
$PUCSORGRIGHT
 10
0.0
 20
0.0
 30
0.0
  9
$PUCSORGFRONT
 10
0.0
 20
0.0
 30
0.0
  9
$PUCSORGBACK
 10
0.0
 20
0.0
 30
0.0
  9
$USERI1
 70
     0
  9
$USERI2
 70
     0
  9
$USERI3
 70
     0
  9
$USERI4
 70
     0
  9
$USERI5
 70
     0
  9
$USERR1
 40
0.0
  9
$USERR2
 40
0.0
  9
$USERR3
 40
0.0
  9
$USERR4
 40
0.0
  9
$USERR5
 40
0.0
  9
$WORLDVIEW
 70
     1
  9
$SHADEDGE
 70
     3
  9
$SHADEDIF
 70
    70
  9
$TILEMODE
 70
     1
  9
$MAXACTVP
 70
    64
  9
$PINSBASE
 10
0.0
 20
0.0
 30
0.0
  9
$PLIMCHECK
 70
     0
  9
$PEXTMIN
 10
1.000000000000000E+20
 20
1.000000000000000E+20
 30
1.000000000000000E+20
  9
$PEXTMAX
 10
-1.000000000000000E+20
 20
-1.000000000000000E+20
 30
-1.000000000000000E+20
  9
$PLIMMIN
 10
0.0
 20
0.0
  9
$PLIMMAX
 10
12.0
 20
9.0
  9
$UNITMODE
 70
     0
  9
$VISRETAIN
 70
     1
  9
$PLINEGEN
 70
     0
  9
$PSLTSCALE
 70
     1
  9
$TREEDEPTH
 70
  3020
  9
$CMLSTYLE
  2
Standard
  9
$CMLJUST
 70
     0
  9
$CMLSCALE
 40
1.0
  9
$PROXYGRAPHICS
 70
     1
  9
$MEASUREMENT
 70
     0
  9
$CELWEIGHT
370
    -1
  9
$ENDCAPS
280
     0
  9
$JOINSTYLE
280
     0
  9
$LWDISPLAY
290
     0
  9
$INSUNITS
 70
     5
  9
$HYPERLINKBASE
  1

  9
$STYLESHEET
  1

  9
$XEDIT
290
     1
  9
$CEPSNTYPE
380
     0
  9
$PSTYLEMODE
290
     1
  9
$FINGERPRINTGUID
  2
{6921B98D-7A4D-45F7-85E4-000FF9381870}
  9
$VERSIONGUID
  2
{FAEB1C32-E019-11D5-929B-00C0DF256EC4}
  9
$EXTNAMES
290
     1
  9
$PSVPSCALE
 40
0.0
  9
$OLESTARTUP
290
     0
  9
$SORTENTS
280
   127
  9
$INDEXCTL
280
     0
  9
$HIDETEXT
280
     1
  9
$XCLIPFRAME
290
     0
  9
$HALOGAP
280
     0
  9
$OBSCOLOR
 70
   257
  9
$OBSLTYPE
280
     0
  9
$INTERSECTIONDISPLAY
280
     0
  9
$INTERSECTIONCOLOR
 70
   257
  9
$DIMASSOC
280
     2
  9
$PROJECTNAME
  1

  9
$CAMERADISPLAY
290
     0
  9
$LENSLENGTH
 40
50.0
  9
$CAMERAHEIGHT
 40
0.0
  9
$STEPSPERSEC
 40
2.0
  9
$STEPSIZE
 40
6.0
  9
$3DDWFPREC
 40
2.0
  9
$PSOLWIDTH
 40
0.25
  9
$PSOLHEIGHT
 40
4.0
  9
$LOFTANG1
 40
1.570796326794897
  9
$LOFTANG2
 40
1.570796326794897
  9
$LOFTMAG1
 40
0.0
  9
$LOFTMAG2
 40
0.0
  9
$LOFTPARAM
 70
     7
  9
$LOFTNORMALS
280
     1
  9
$LATITUDE
 40
37.795
  9
$LONGITUDE
 40
-122.394
  9
$NORTHDIRECTION
 40
0.0
  9
$TIMEZONE
 70
 -8000
  9
$LIGHTGLYPHDISPLAY
280
     1
  9
$TILEMODELIGHTSYNCH
280
     1
  9
$SOLIDHIST
280
     1
  9
$SHOWHIST
280
     1
  9
$DWFFRAME
280
     2
  9
$DGNFRAME
280
     2
  9
$REALWORLDSCALE
290
     1
  9
$INTERFERECOLOR
 62
   256
  9
$CSHADOW
280
     0
  9
$SHADOWPLANELOCATION
 40
0.0
  0
ENDSEC
  0
SECTION
  2
CLASSES
  0
CLASS
  1
ACDBDICTIONARYWDFLT
  2
AcDbDictionaryWithDefault
  3
ObjectDBX Classes
 90
        0
 91
        4
280
     0
281
     0
  0
CLASS
  1
VISUALSTYLE
  2
AcDbVisualStyle
  3
ObjectDBX Classes
 90
     4095
 91
        4
280
     0
281
     0
  0
CLASS
  1
MATERIAL
  2
AcDbMaterial
  3
ObjectDBX Classes
 90
     1153
 91
        4
280
     0
281
     0
  0
ENDSEC
  0
SECTION
  2
TABLES
  0
TABLE
  2
VPORT
  5
8
330
0
100
AcDbSymbolTable
 70
     1
  0
VPORT
  5
29
330
8
100
AcDbSymbolTableRecord
100
AcDbViewportTableRecord
  2
*Active
 70
     0
 10
0.0
 20
0.0
 11
1.0
 21
1.0
 12
10.42990654205607
 22
4.5
 13
0.0
 23
0.0
 14
0.5
 24
0.5
 15
0.5
 25
0.5
 16
0.0
 26
0.0
 36
1.0
 17
0.0
 27
0.0
 37
0.0
 40
9.0
 41
1.972972972850329
 42
50.0
 43
0.0
 44
0.0
 50
0.0
 51
0.0
 71
     0
 72
   100
 73
     1
 74
     3
 75
     0
 76
     0
 77
     0
 78
     0
281
     0
 65
     1
110
0.0
120
0.0
130
0.0
111
1.0
121
0.0
131
0.0
112
0.0
122
1.0
132
0.0
 79
     0
146
0.0
 60
     3
 61
     5
292
     1
282
     1
141
0.0
142
0.0
 63
   250
  0
ENDTAB
  0
TABLE
  2
LTYPE
  5
5
330
0
100
AcDbSymbolTable
 70
     1
  0
LTYPE
  5
14
330
5
100
AcDbSymbolTableRecord
100
AcDbLinetypeTableRecord
  2
ByBlock
 70
     0
  3

 72
    65
 73
     0
 40
0.0
  0
LTYPE
  5
15
330
5
100
AcDbSymbolTableRecord
100
AcDbLinetypeTableRecord
  2
ByLayer
 70
     0
  3

 72
    65
 73
     0
 40
0.0
  0
LTYPE
  5
16
330
5
100
AcDbSymbolTableRecord
100
AcDbLinetypeTableRecord
  2
Continuous
 70
     0
  3
Solid line
 72
    65
 73
     0
 40
0.0
  0
ENDTAB
  0
TABLE
  2
LAYER
  5
2
330
0
100
AcDbSymbolTable
 70
     3
  0
LAYER
  5
10
330
2
100
AcDbSymbolTableRecord
100
AcDbLayerTableRecord
  2
0
 70
     0
 62
     7
  6
Continuous
370
    -3
390
F
347
3E
  0
LAYER
  5
40
330
2
100
AcDbSymbolTableRecord
100
AcDbLayerTableRecord
  2
Layer 1
 70
     0
 62
     7
  6
Continuous
370
    -3
390
F
347
3E
  0
LAYER
  5
54
330
2
100
AcDbSymbolTableRecord
100
AcDbLayerTableRecord
  2
layer 2
 70
     0
 62
     7
  6
Continuous
370
    -3
390
F
347
3E
  0
ENDTAB
  0
TABLE
  2
STYLE
  5
3
330
0
100
AcDbSymbolTable
 70
     1
  0
STYLE
  5
11
330
3
100
AcDbSymbolTableRecord
100
AcDbTextStyleTableRecord
  2
Standard
 70
     0
 40
0.0
 41
1.0
 50
0.0
 71
     0
 42
0.2
  3
txt
  4

  0
ENDTAB
  0
TABLE
  2
VIEW
  5
6
330
0
100
AcDbSymbolTable
 70
     0
  0
ENDTAB
  0
TABLE
  2
UCS
  5
7
330
0
100
AcDbSymbolTable
 70
     0
  0
ENDTAB
  0
TABLE
  2
APPID
  5
9
330
0
100
AcDbSymbolTable
 70
     2
  0
APPID
  5
12
330
9
100
AcDbSymbolTableRecord
100
AcDbRegAppTableRecord
  2
ACAD
 70
     0
  0
APPID
  5
3F
330
9
100
AcDbSymbolTableRecord
100
AcDbRegAppTableRecord
  2
ODA
 70
     0
  0
ENDTAB
  0
TABLE
  2
DIMSTYLE
  5
A
330
0
100
AcDbSymbolTable
 70
     1
100
AcDbDimStyleTable
  0
DIMSTYLE
105
27
330
A
100
AcDbSymbolTableRecord
100
AcDbDimStyleTableRecord
  2
Standard
 70
     0
178
     0
340
11
  0
ENDTAB
  0
TABLE
  2
BLOCK_RECORD
  5
1
330
0
100
AcDbSymbolTable
 70
     1
  0
BLOCK_RECORD
  5
1F
330
1
100
AcDbSymbolTableRecord
100
AcDbBlockTableRecord
  2
*Model_Space
340
22
 70
     0
280
     1
281
     0
  0
BLOCK_RECORD
  5
1B
330
1
100
AcDbSymbolTableRecord
100
AcDbBlockTableRecord
  2
*Paper_Space
340
1E
 70
     0
280
     1
281
     0
  0
BLOCK_RECORD
  5
23
330
1
100
AcDbSymbolTableRecord
100
AcDbBlockTableRecord
  2
*Paper_Space0
340
26
 70
     0
280
     1
281
     0
  0
ENDTAB
  0
ENDSEC
  0
SECTION
  2
BLOCKS
  0
BLOCK
  5
20
330
1F
100
AcDbEntity
  8
0
100
AcDbBlockBegin
  2
*Model_Space
 70
     0
 10
0.0
 20
0.0
 30
0.0
  3
*Model_Space
  1

  0
ENDBLK
  5
21
330
1F
100
AcDbEntity
  8
0
100
AcDbBlockEnd
  0
BLOCK
  5
1C
330
1B
100
AcDbEntity
 67
     1
  8
0
100
AcDbBlockBegin
  2
*Paper_Space
 70
     0
 10
0.0
 20
0.0
 30
0.0
  3
*Paper_Space
  1

  0
ENDBLK
  5
1D
330
1B
100
AcDbEntity
 67
     1
  8
0
100
AcDbBlockEnd
  0
BLOCK
  5
24
330
23
100
AcDbEntity
  8
0
100
AcDbBlockBegin
  2
*Paper_Space0
 70
     0
 10
0.0
 20
0.0
 30
0.0
  3
*Paper_Space0
  1

  0
ENDBLK
  5
25
330
23
100
AcDbEntity
  8
0
100
AcDbBlockEnd
  0
ENDSEC
  0
SECTION
  2
ENTITIES
  0
SPLINE
  5
41
330
1F
100
AcDbEntity
  8
Layer 1
 62
   250
100
AcDbSpline
210
0.0
220
0.0
230
1.0
 70
    11
 71
     3
 72
    36
 73
    32
 74
     0
 42
0.0000000001
 43
0.0000000001
 12
1.0
 22
0.0
 32
0.0
 13
1.0
 23
0.0
 33
0.0
 40
0.0
 40
0.0
 40
0.0
 40
0.0
 40
0.1111111111111111
 40
0.1111111111111111
 40
0.1111111111111111
 40
0.1111111111111111
 40
0.2222222222222222
 40
0.2222222222222222
 40
0.2222222222222222
 40
0.2222222222222222
 40
0.3333333333333333
 40
0.3333333333333333
 40
0.3333333333333333
 40
0.3333333333333333
 40
0.4444444444444444
 40
0.4444444444444444
 40
0.4444444444444444
 40
0.4444444444444444
 40
0.5555555555555556
 40
0.5555555555555556
 40
0.5555555555555556
 40
0.5555555555555556
 40
0.6666666666666666
 40
0.6666666666666666
 40
0.6666666666666666
 40
0.6666666666666666
 40
0.7777777777777778
 40
0.7777777777777778
 40
0.7777777777777778
 40
0.7777777777777778
 40
1.0
 40
1.0
 40
1.0
 40
1.0
 10
-3.02816
 20
-9.68725
 30
0.0
 10
-3.02816
 20
-9.68725
 30
0.0
 10
-3.02816
 20
-9.15215
 30
0.0
 10
-3.02816
 20
-9.15215
 30
0.0
 10
-3.02816
 20
-9.15215
 30
0.0
 10
-3.02816
 20
-9.15215
 30
0.0
 10
-3.22798
 20
-9.15215
 30
0.0
 10
-3.22798
 20
-9.15215
 30
0.0
 10
-3.22798
 20
-9.15215
 30
0.0
 10
-3.22798
 20
-9.15215
 30
0.0
 10
-3.22798
 20
-9.08103
 30
0.0
 10
-3.22798
 20
-9.08103
 30
0.0
 10
-3.22798
 20
-9.08103
 30
0.0
 10
-3.22798
 20
-9.08103
 30
0.0
 10
-2.74791
 20
-9.08103
 30
0.0
 10
-2.74791
 20
-9.08103
 30
0.0
 10
-2.74791
 20
-9.08103
 30
0.0
 10
-2.74791
 20
-9.08103
 30
0.0
 10
-2.74791
 20
-9.15215
 30
0.0
 10
-2.74791
 20
-9.15215
 30
0.0
 10
-2.74791
 20
-9.15215
 30
0.0
 10
-2.74791
 20
-9.15215
 30
0.0
 10
-2.94773
 20
-9.15215
 30
0.0
 10
-2.94773
 20
-9.15215
 30
0.0
 10
-2.94773
 20
-9.15215
 30
0.0
 10
-2.94773
 20
-9.15215
 30
0.0
 10
-2.94773
 20
-9.68725
 30
0.0
 10
-2.94773
 20
-9.68725
 30
0.0
 10
-2.94773
 20
-9.68725
 30
0.0
 10
-2.94773
 20
-9.68725
 30
0.0
 10
-3.02816
 20
-9.68725
 30
0.0
 10
-3.02816
 20
-9.68725
 30
0.0
  0
SPLINE
  5
42
330
1F
100
AcDbEntity
  8
Layer 1
 62
   250
100
AcDbSpline
210
0.0
220
0.0
230
1.0
 70
    11
 71
     3
 72
    92
 73
    88
 74
     0
 42
0.0000000001
 43
0.0000000001
 12
1.0
 22
0.0
 32
0.0
 13
1.0
 23
0.0
 33
0.0
 40
0.0
 40
0.0
 40
0.0
 40
0.0
 40
0.0434782608695652
 40
0.0434782608695652
 40
0.0434782608695652
 40
0.0434782608695652
 40
0.0869565217391304
 40
0.0869565217391304
 40
0.0869565217391304
 40
0.0869565217391304
 40
0.1304347826086956
 40
0.1304347826086956
 40
0.1304347826086956
 40
0.1304347826086956
 40
0.1739130434782609
 40
0.1739130434782609
 40
0.1739130434782609
 40
0.1739130434782609
 40
0.2173913043478261
 40
0.2173913043478261
 40
0.2173913043478261
 40
0.2173913043478261
 40
0.2608695652173913
 40
0.2608695652173913
 40
0.2608695652173913
 40
0.2608695652173913
 40
0.3043478260869565
 40
0.3043478260869565
 40
0.3043478260869565
 40
0.3043478260869565
 40
0.3478260869565217
 40
0.3478260869565217
 40
0.3478260869565217
 40
0.3478260869565217
 40
0.391304347826087
 40
0.391304347826087
 40
0.391304347826087
 40
0.391304347826087
 40
0.4347826086956522
 40
0.4347826086956522
 40
0.4347826086956522
 40
0.4347826086956522
 40
0.4782608695652174
 40
0.4782608695652174
 40
0.4782608695652174
 40
0.4782608695652174
 40
0.5217391304347826
 40
0.5217391304347826
 40
0.5217391304347826
 40
0.5217391304347826
 40
0.5652173913043478
 40
0.5652173913043478
 40
0.5652173913043478
 40
0.5652173913043478
 40
0.6086956521739131
 40
0.6086956521739131
 40
0.6086956521739131
 40
0.6086956521739131
 40
0.6521739130434783
 40
0.6521739130434783
 40
0.6521739130434783
 40
0.6521739130434783
 40
0.6956521739130435
 40
0.6956521739130435
 40
0.6956521739130435
 40
0.6956521739130435
 40
0.7391304347826086
 40
0.7391304347826086
 40
0.7391304347826086
 40
0.7391304347826086
 40
0.782608695652174
 40
0.782608695652174
 40
0.782608695652174
 40
0.782608695652174
 40
0.8260869565217391
 40
0.8260869565217391
 40
0.8260869565217391
 40
0.8260869565217391
 40
0.8695652173913043
 40
0.8695652173913043
 40
0.8695652173913043
 40
0.8695652173913043
 40
0.9130434782608695
 40
0.9130434782608695
 40
0.9130434782608695
 40
0.9130434782608695
 40
1.0
 40
1.0
 40
1.0
 40
1.0
 10
-2.3044
 20
-9.61613
 30
0.0
 10
-2.3044
 20
-9.61613
 30
0.0
 10
-2.3044
 20
-9.68725
 30
0.0
 10
-2.3044
 20
-9.68725
 30
0.0
 10
-2.3044
 20
-9.68725
 30
0.0
 10
-2.3044
 20
-9.68725
 30
0.0
 10
-2.70573
 20
-9.68725
 30
0.0
 10
-2.70573
 20
-9.68725
 30
0.0
 10
-2.70573
 20
-9.68725
 30
0.0
 10
-2.70629
 20
-9.66933
 30
0.0
 10
-2.70333
 20
-9.65211
 30
0.0
 10
-2.69698
 20
-9.63546
 30
0.0
 10
-2.69698
 20
-9.63546
 30
0.0
 10
-2.68668
 20
-9.60823
 30
0.0
 10
-2.67017
 20
-9.58128
 30
0.0
 10
-2.64745
 20
-9.55489
 30
0.0
 10
-2.64745
 20
-9.55489
 30
0.0
 10
-2.62473
 20
-9.5285
 30
0.0
 10
-2.59227
 20
-9.49802
 30
0.0
 10
-2.55008
 20
-9.46345
 30
0.0
 10
-2.55008
 20
-9.46345
 30
0.0
 10
-2.48446
 20
-9.4094
 30
0.0
 10
-2.43987
 20
-9.36664
 30
0.0
 10
-2.41659
 20
-9.33504
 30
0.0
 10
-2.41659
 20
-9.33504
 30
0.0
 10
-2.39316
 20
-9.30343
 30
0.0
 10
-2.38145
 20
-9.27351
 30
0.0
 10
-2.38145
 20
-9.24529
 30
0.0
 10
-2.38145
 20
-9.24529
 30
0.0
 10
-2.38145
 20
-9.2158
 30
0.0
 10
-2.39204
 20
-9.19096
 30
0.0
 10
-2.4132
 20
-9.17064
 30
0.0
 10
-2.4132
 20
-9.17064
 30
0.0
 10
-2.43437
 20
-9.15046
 30
0.0
 10
-2.46203
 20
-9.1403
 30
0.0
 10
-2.49603
 20
-9.1403
 30
0.0
 10
-2.49603
 20
-9.1403
 30
0.0
 10
-2.53202
 20
-9.1403
 30
0.0
 10
-2.5608
 20
-9.15103
 30
0.0
 10
-2.58239
 20
-9.17247
 30
0.0
 10
-2.58239
 20
-9.17247
 30
0.0
 10
-2.60399
 20
-9.19378
 30
0.0
 10
-2.61485
 20
-9.22342
 30
0.0
 10
-2.61513
 20
-9.26137
 30
0.0
 10
-2.61513
 20
-9.26137
 30
0.0
 10
-2.61513
 20
-9.26137
 30
0.0
 10
-2.69133
 20
-9.25375
 30
0.0
 10
-2.69133
 20
-9.25375
 30
0.0
 10
-2.69133
 20
-9.25375
 30
0.0
 10
-2.68611
 20
-9.19675
 30
0.0
 10
-2.66636
 20
-9.15328
 30
0.0
 10
-2.63221
 20
-9.12337
 30
0.0
 10
-2.63221
 20
-9.12337
 30
0.0
 10
-2.59792
 20
-9.09345
 30
0.0
 10
-2.55206
 20
-9.07849
 30
0.0
 10
-2.49434
 20
-9.07849
 30
0.0
 10
-2.49434
 20
-9.07849
 30
0.0
 10
-2.4362
 20
-9.07849
 30
0.0
 10
-2.39006
 20
-9.09458
 30
0.0
 10
-2.35619
 20
-9.1269
 30
0.0
 10
-2.35619
 20
-9.1269
 30
0.0
 10
-2.32219
 20
-9.15921
 30
0.0
 10
-2.30525
 20
-9.19929
 30
0.0
 10
-2.30525
 20
-9.24698
 30
0.0
 10
-2.30525
 20
-9.24698
 30
0.0
 10
-2.30525
 20
-9.27125
 30
0.0
 10
-2.31019
 20
-9.2951
 30
0.0
 10
-2.32021
 20
-9.31853
 30
0.0
 10
-2.32021
 20
-9.31853
 30
0.0
 10
-2.33009
 20
-9.34209
 30
0.0
 10
-2.3466
 20
-9.36679
 30
0.0
 10
-2.3696
 20
-9.39275
 30
0.0
 10
-2.3696
 20
-9.39275
 30
0.0
 10
-2.39274
 20
-9.41857
 30
0.0
 10
-2.43098
 20
-9.45427
 30
0.0
 10
-2.48432
 20
-9.49943
 30
0.0
 10
-2.48432
 20
-9.49943
 30
0.0
 10
-2.52905
 20
-9.53697
 30
0.0
 10
-2.55784
 20
-9.56237
 30
0.0
 10
-2.57054
 20
-9.57577
 30
0.0
 10
-2.57054
 20
-9.57577
 30
0.0
 10
-2.58324
 20
-9.58918
 30
0.0
 10
-2.59368
 20
-9.60258
 30
0.0
 10
-2.60201
 20
-9.61613
 30
0.0
 10
-2.60201
 20
-9.61613
 30
0.0
 10
-2.60201
 20
-9.61613
 30
0.0
 10
-2.3044
 20
-9.61613
 30
0.0
 10
-2.3044
 20
-9.61613
 30
0.0
  0
SPLINE
  5
43
330
1F
100
AcDbEntity
  8
Layer 1
 62
   250
100
AcDbSpline
210
0.0
220
0.0
230
1.0
 70
    11
 71
     3
 72
    52
 73
    48
 74
     0
 42
0.0000000001
 43
0.0000000001
 12
1.0
 22
0.0
 32
0.0
 13
1.0
 23
0.0
 33
0.0
 40
0.0
 40
0.0
 40
0.0
 40
0.0
 40
0.0769230769230769
 40
0.0769230769230769
 40
0.0769230769230769
 40
0.0769230769230769
 40
0.1538461538461539
 40
0.1538461538461539
 40
0.1538461538461539
 40
0.1538461538461539
 40
0.2307692307692308
 40
0.2307692307692308
 40
0.2307692307692308
 40
0.2307692307692308
 40
0.3076923076923077
 40
0.3076923076923077
 40
0.3076923076923077
 40
0.3076923076923077
 40
0.3846153846153846
 40
0.3846153846153846
 40
0.3846153846153846
 40
0.3846153846153846
 40
0.4615384615384616
 40
0.4615384615384616
 40
0.4615384615384616
 40
0.4615384615384616
 40
0.5384615384615384
 40
0.5384615384615384
 40
0.5384615384615384
 40
0.5384615384615384
 40
0.6153846153846154
 40
0.6153846153846154
 40
0.6153846153846154
 40
0.6153846153846154
 40
0.6923076923076923
 40
0.6923076923076923
 40
0.6923076923076923
 40
0.6923076923076923
 40
0.7692307692307693
 40
0.7692307692307693
 40
0.7692307692307693
 40
0.7692307692307693
 40
0.8461538461538461
 40
0.8461538461538461
 40
0.8461538461538461
 40
0.8461538461538461
 40
1.0
 40
1.0
 40
1.0
 40
1.0
 10
-2.22383
 20
-9.38809
 30
0.0
 10
-2.22383
 20
-9.31655
 30
0.0
 10
-2.21649
 20
-9.25869
 30
0.0
 10
-2.20182
 20
-9.21495
 30
0.0
 10
-2.20182
 20
-9.21495
 30
0.0
 10
-2.187
 20
-9.17106
 30
0.0
 10
-2.16513
 20
-9.13734
 30
0.0
 10
-2.13606
 20
-9.11377
 30
0.0
 10
-2.13606
 20
-9.11377
 30
0.0
 10
-2.10713
 20
-9.09021
 30
0.0
 10
-2.07058
 20
-9.07849
 30
0.0
 10
-2.02656
 20
-9.07849
 30
0.0
 10
-2.02656
 20
-9.07849
 30
0.0
 10
-1.9941
 20
-9.07849
 30
0.0
 10
-1.9656
 20
-9.08499
 30
0.0
 10
-1.9409
 20
-9.09811
 30
0.0
 10
-1.9409
 20
-9.09811
 30
0.0
 10
-1.91635
 20
-9.11123
 30
0.0
 10
-1.89603
 20
-9.13014
 30
0.0
 10
-1.88022
 20
-9.15484
 30
0.0
 10
-1.88022
 20
-9.15484
 30
0.0
 10
-1.86442
 20
-9.17939
 30
0.0
 10
-1.852
 20
-9.20945
 30
0.0
 10
-1.84297
 20
-9.24486
 30
0.0
 10
-1.84297
 20
-9.24486
 30
0.0
 10
-1.8338
 20
-9.28028
 30
0.0
 10
-1.82928
 20
-9.32812
 30
0.0
 10
-1.82928
 20
-9.38809
 30
0.0
 10
-1.82928
 20
-9.38809
 30
0.0
 10
-1.82928
 20
-9.45921
 30
0.0
 10
-1.83662
 20
-9.51679
 30
0.0
 10
-1.85115
 20
-9.56053
 30
0.0
 10
-1.85115
 20
-9.56053
 30
0.0
 10
-1.86569
 20
-9.60442
 30
0.0
 10
-1.88756
 20
-9.63814
 30
0.0
 10
-1.91663
 20
-9.66185
 30
0.0
 10
-1.91663
 20
-9.66185
 30
0.0
 10
-1.94556
 20
-9.68556
 30
0.0
 10
-1.98225
 20
-9.69741
 30
0.0
 10
-2.02656
 20
-9.69741
 30
0.0
 10
-2.02656
 20
-9.69741
 30
0.0
 10
-2.08483
 20
-9.69741
 30
0.0
 10
-2.1307
 20
-9.67667
 30
0.0
 10
-2.164
 20
-9.63504
 30
0.0
 10
-2.164
 20
-9.63504
 30
0.0
 10
-2.20393
 20
-9.58424
 30
0.0
 10
-2.22383
 20
-9.50197
 30
0.0
 10
-2.22383
 20
-9.38809
 30
0.0
  0
SPLINE
  5
44
330
1F
100
AcDbEntity
  8
Layer 1
 62
   250
100
AcDbSpline
210
0.0
220
0.0
230
1.0
 70
    11
 71
     3
 72
    36
 73
    32
 74
     0
 42
0.0000000001
 43
0.0000000001
 12
1.0
 22
0.0
 32
0.0
 13
1.0
 23
0.0
 33
0.0
 40
0.0
 40
0.0
 40
0.0
 40
0.0
 40
0.1111111111111111
 40
0.1111111111111111
 40
0.1111111111111111
 40
0.1111111111111111
 40
0.2222222222222222
 40
0.2222222222222222
 40
0.2222222222222222
 40
0.2222222222222222
 40
0.3333333333333333
 40
0.3333333333333333
 40
0.3333333333333333
 40
0.3333333333333333
 40
0.4444444444444444
 40
0.4444444444444444
 40
0.4444444444444444
 40
0.4444444444444444
 40
0.5555555555555556
 40
0.5555555555555556
 40
0.5555555555555556
 40
0.5555555555555556
 40
0.6666666666666666
 40
0.6666666666666666
 40
0.6666666666666666
 40
0.6666666666666666
 40
0.7777777777777778
 40
0.7777777777777778
 40
0.7777777777777778
 40
0.7777777777777778
 40
1.0
 40
1.0
 40
1.0
 40
1.0
 10
-2.14763
 20
-9.38838
 30
0.0
 10
-2.14763
 20
-9.48814
 30
0.0
 10
-2.13606
 20
-9.55446
 30
0.0
 10
-2.11277
 20
-9.5872
 30
0.0
 10
-2.11277
 20
-9.5872
 30
0.0
 10
-2.08949
 20
-9.62008
 30
0.0
 10
-2.0607
 20
-9.63645
 30
0.0
 10
-2.02656
 20
-9.63645
 30
0.0
 10
-2.02656
 20
-9.63645
 30
0.0
 10
-1.99241
 20
-9.63645
 30
0.0
 10
-1.96362
 20
-9.61994
 30
0.0
 10
-1.94034
 20
-9.58706
 30
0.0
 10
-1.94034
 20
-9.58706
 30
0.0
 10
-1.91705
 20
-9.55404
 30
0.0
 10
-1.90548
 20
-9.48786
 30
0.0
 10
-1.90548
 20
-9.38838
 30
0.0
 10
-1.90548
 20
-9.38838
 30
0.0
 10
-1.90548
 20
-9.28861
 30
0.0
 10
-1.91705
 20
-9.22229
 30
0.0
 10
-1.94034
 20
-9.18955
 30
0.0
 10
-1.94034
 20
-9.18955
 30
0.0
 10
-1.96348
 20
-9.15667
 30
0.0
 10
-1.99255
 20
-9.1403
 30
0.0
 10
-2.0274
 20
-9.1403
 30
0.0
 10
-2.0274
 20
-9.1403
 30
0.0
 10
-2.06155
 20
-9.1403
 30
0.0
 10
-2.08893
 20
-9.15484
 30
0.0
 10
-2.10939
 20
-9.18376
 30
0.0
 10
-2.10939
 20
-9.18376
 30
0.0
 10
-2.13493
 20
-9.22059
 30
0.0
 10
-2.14763
 20
-9.28889
 30
0.0
 10
-2.14763
 20
-9.38838
 30
0.0
  0
SPLINE
  5
45
330
1F
100
AcDbEntity
  8
Layer 1
 62
   250
100
AcDbSpline
210
0.0
220
0.0
230
1.0
 70
    11
 71
     3
 72
    92
 73
    88
 74
     0
 42
0.0000000001
 43
0.0000000001
 12
1.0
 22
0.0
 32
0.0
 13
1.0
 23
0.0
 33
0.0
 40
0.0
 40
0.0
 40
0.0
 40
0.0
 40
0.0434782608695652
 40
0.0434782608695652
 40
0.0434782608695652
 40
0.0434782608695652
 40
0.0869565217391304
 40
0.0869565217391304
 40
0.0869565217391304
 40
0.0869565217391304
 40
0.1304347826086956
 40
0.1304347826086956
 40
0.1304347826086956
 40
0.1304347826086956
 40
0.1739130434782609
 40
0.1739130434782609
 40
0.1739130434782609
 40
0.1739130434782609
 40
0.2173913043478261
 40
0.2173913043478261
 40
0.2173913043478261
 40
0.2173913043478261
 40
0.2608695652173913
 40
0.2608695652173913
 40
0.2608695652173913
 40
0.2608695652173913
 40
0.3043478260869565
 40
0.3043478260869565
 40
0.3043478260869565
 40
0.3043478260869565
 40
0.3478260869565217
 40
0.3478260869565217
 40
0.3478260869565217
 40
0.3478260869565217
 40
0.391304347826087
 40
0.391304347826087
 40
0.391304347826087
 40
0.391304347826087
 40
0.4347826086956522
 40
0.4347826086956522
 40
0.4347826086956522
 40
0.4347826086956522
 40
0.4782608695652174
 40
0.4782608695652174
 40
0.4782608695652174
 40
0.4782608695652174
 40
0.5217391304347826
 40
0.5217391304347826
 40
0.5217391304347826
 40
0.5217391304347826
 40
0.5652173913043478
 40
0.5652173913043478
 40
0.5652173913043478
 40
0.5652173913043478
 40
0.6086956521739131
 40
0.6086956521739131
 40
0.6086956521739131
 40
0.6086956521739131
 40
0.6521739130434783
 40
0.6521739130434783
 40
0.6521739130434783
 40
0.6521739130434783
 40
0.6956521739130435
 40
0.6956521739130435
 40
0.6956521739130435
 40
0.6956521739130435
 40
0.7391304347826086
 40
0.7391304347826086
 40
0.7391304347826086
 40
0.7391304347826086
 40
0.782608695652174
 40
0.782608695652174
 40
0.782608695652174
 40
0.782608695652174
 40
0.8260869565217391
 40
0.8260869565217391
 40
0.8260869565217391
 40
0.8260869565217391
 40
0.8695652173913043
 40
0.8695652173913043
 40
0.8695652173913043
 40
0.8695652173913043
 40
0.9130434782608695
 40
0.9130434782608695
 40
0.9130434782608695
 40
0.9130434782608695
 40
1.0
 40
1.0
 40
1.0
 40
1.0
 10
-1.36262
 20
-9.61613
 30
0.0
 10
-1.36262
 20
-9.61613
 30
0.0
 10
-1.36262
 20
-9.68725
 30
0.0
 10
-1.36262
 20
-9.68725
 30
0.0
 10
-1.36262
 20
-9.68725
 30
0.0
 10
-1.36262
 20
-9.68725
 30
0.0
 10
-1.76395
 20
-9.68725
 30
0.0
 10
-1.76395
 20
-9.68725
 30
0.0
 10
-1.76395
 20
-9.68725
 30
0.0
 10
-1.76451
 20
-9.66933
 30
0.0
 10
-1.76155
 20
-9.65211
 30
0.0
 10
-1.7552
 20
-9.63546
 30
0.0
 10
-1.7552
 20
-9.63546
 30
0.0
 10
-1.7449
 20
-9.60823
 30
0.0
 10
-1.72839
 20
-9.58128
 30
0.0
 10
-1.70567
 20
-9.55489
 30
0.0
 10
-1.70567
 20
-9.55489
 30
0.0
 10
-1.68295
 20
-9.5285
 30
0.0
 10
-1.65049
 20
-9.49802
 30
0.0
 10
-1.6083
 20
-9.46345
 30
0.0
 10
-1.6083
 20
-9.46345
 30
0.0
 10
-1.54268
 20
-9.4094
 30
0.0
 10
-1.49809
 20
-9.36664
 30
0.0
 10
-1.47481
 20
-9.33504
 30
0.0
 10
-1.47481
 20
-9.33504
 30
0.0
 10
-1.45138
 20
-9.30343
 30
0.0
 10
-1.43967
 20
-9.27351
 30
0.0
 10
-1.43967
 20
-9.24529
 30
0.0
 10
-1.43967
 20
-9.24529
 30
0.0
 10
-1.43967
 20
-9.2158
 30
0.0
 10
-1.45026
 20
-9.19096
 30
0.0
 10
-1.47142
 20
-9.17064
 30
0.0
 10
-1.47142
 20
-9.17064
 30
0.0
 10
-1.49259
 20
-9.15046
 30
0.0
 10
-1.52025
 20
-9.1403
 30
0.0
 10
-1.55425
 20
-9.1403
 30
0.0
 10
-1.55425
 20
-9.1403
 30
0.0
 10
-1.59024
 20
-9.1403
 30
0.0
 10
-1.61902
 20
-9.15103
 30
0.0
 10
-1.64061
 20
-9.17247
 30
0.0
 10
-1.64061
 20
-9.17247
 30
0.0
 10
-1.66221
 20
-9.19378
 30
0.0
 10
-1.67307
 20
-9.22342
 30
0.0
 10
-1.67335
 20
-9.26137
 30
0.0
 10
-1.67335
 20
-9.26137
 30
0.0
 10
-1.67335
 20
-9.26137
 30
0.0
 10
-1.74955
 20
-9.25375
 30
0.0
 10
-1.74955
 20
-9.25375
 30
0.0
 10
-1.74955
 20
-9.25375
 30
0.0
 10
-1.74433
 20
-9.19675
 30
0.0
 10
-1.72458
 20
-9.15328
 30
0.0
 10
-1.69043
 20
-9.12337
 30
0.0
 10
-1.69043
 20
-9.12337
 30
0.0
 10
-1.65614
 20
-9.09345
 30
0.0
 10
-1.61028
 20
-9.07849
 30
0.0
 10
-1.55256
 20
-9.07849
 30
0.0
 10
-1.55256
 20
-9.07849
 30
0.0
 10
-1.49442
 20
-9.07849
 30
0.0
 10
-1.44828
 20
-9.09458
 30
0.0
 10
-1.41441
 20
-9.1269
 30
0.0
 10
-1.41441
 20
-9.1269
 30
0.0
 10
-1.38041
 20
-9.15921
 30
0.0
 10
-1.36347
 20
-9.19929
 30
0.0
 10
-1.36347
 20
-9.24698
 30
0.0
 10
-1.36347
 20
-9.24698
 30
0.0
 10
-1.36347
 20
-9.27125
 30
0.0
 10
-1.36841
 20
-9.2951
 30
0.0
 10
-1.37843
 20
-9.31853
 30
0.0
 10
-1.37843
 20
-9.31853
 30
0.0
 10
-1.38831
 20
-9.34209
 30
0.0
 10
-1.40482
 20
-9.36679
 30
0.0
 10
-1.42782
 20
-9.39275
 30
0.0
 10
-1.42782
 20
-9.39275
 30
0.0
 10
-1.45096
 20
-9.41857
 30
0.0
 10
-1.4892
 20
-9.45427
 30
0.0
 10
-1.54254
 20
-9.49943
 30
0.0
 10
-1.54254
 20
-9.49943
 30
0.0
 10
-1.58727
 20
-9.53697
 30
0.0
 10
-1.61606
 20
-9.56237
 30
0.0
 10
-1.62876
 20
-9.57577
 30
0.0
 10
-1.62876
 20
-9.57577
 30
0.0
 10
-1.64146
 20
-9.58918
 30
0.0
 10
-1.6519
 20
-9.60258
 30
0.0
 10
-1.66023
 20
-9.61613
 30
0.0
 10
-1.66023
 20
-9.61613
 30
0.0
 10
-1.66023
 20
-9.61613
 30
0.0
 10
-1.36262
 20
-9.61613
 30
0.0
 10
-1.36262
 20
-9.61613
 30
0.0
  0
SPLINE
  5
46
330
1F
100
AcDbEntity
  8
Layer 1
 62
   250
100
AcDbSpline
210
0.0
220
0.0
230
1.0
 70
    11
 71
     3
 72
    92
 73
    88
 74
     0
 42
0.0000000001
 43
0.0000000001
 12
1.0
 22
0.0
 32
0.0
 13
1.0
 23
0.0
 33
0.0
 40
0.0
 40
0.0
 40
0.0
 40
0.0
 40
0.0434782608695652
 40
0.0434782608695652
 40
0.0434782608695652
 40
0.0434782608695652
 40
0.0869565217391304
 40
0.0869565217391304
 40
0.0869565217391304
 40
0.0869565217391304
 40
0.1304347826086956
 40
0.1304347826086956
 40
0.1304347826086956
 40
0.1304347826086956
 40
0.1739130434782609
 40
0.1739130434782609
 40
0.1739130434782609
 40
0.1739130434782609
 40
0.2173913043478261
 40
0.2173913043478261
 40
0.2173913043478261
 40
0.2173913043478261
 40
0.2608695652173913
 40
0.2608695652173913
 40
0.2608695652173913
 40
0.2608695652173913
 40
0.3043478260869565
 40
0.3043478260869565
 40
0.3043478260869565
 40
0.3043478260869565
 40
0.3478260869565217
 40
0.3478260869565217
 40
0.3478260869565217
 40
0.3478260869565217
 40
0.391304347826087
 40
0.391304347826087
 40
0.391304347826087
 40
0.391304347826087
 40
0.4347826086956522
 40
0.4347826086956522
 40
0.4347826086956522
 40
0.4347826086956522
 40
0.4782608695652174
 40
0.4782608695652174
 40
0.4782608695652174
 40
0.4782608695652174
 40
0.5217391304347826
 40
0.5217391304347826
 40
0.5217391304347826
 40
0.5217391304347826
 40
0.5652173913043478
 40
0.5652173913043478
 40
0.5652173913043478
 40
0.5652173913043478
 40
0.6086956521739131
 40
0.6086956521739131
 40
0.6086956521739131
 40
0.6086956521739131
 40
0.6521739130434783
 40
0.6521739130434783
 40
0.6521739130434783
 40
0.6521739130434783
 40
0.6956521739130435
 40
0.6956521739130435
 40
0.6956521739130435
 40
0.6956521739130435
 40
0.7391304347826086
 40
0.7391304347826086
 40
0.7391304347826086
 40
0.7391304347826086
 40
0.782608695652174
 40
0.782608695652174
 40
0.782608695652174
 40
0.782608695652174
 40
0.8260869565217391
 40
0.8260869565217391
 40
0.8260869565217391
 40
0.8260869565217391
 40
0.8695652173913043
 40
0.8695652173913043
 40
0.8695652173913043
 40
0.8695652173913043
 40
0.9130434782608695
 40
0.9130434782608695
 40
0.9130434782608695
 40
0.9130434782608695
 40
1.0
 40
1.0
 40
1.0
 40
1.0
 10
-0.89173
 20
-9.61613
 30
0.0
 10
-0.89173
 20
-9.61613
 30
0.0
 10
-0.89173
 20
-9.68725
 30
0.0
 10
-0.89173
 20
-9.68725
 30
0.0
 10
-0.89173
 20
-9.68725
 30
0.0
 10
-0.89173
 20
-9.68725
 30
0.0
 10
-1.29306
 20
-9.68725
 30
0.0
 10
-1.29306
 20
-9.68725
 30
0.0
 10
-1.29306
 20
-9.68725
 30
0.0
 10
-1.29362
 20
-9.66933
 30
0.0
 10
-1.29066
 20
-9.65211
 30
0.0
 10
-1.28431
 20
-9.63546
 30
0.0
 10
-1.28431
 20
-9.63546
 30
0.0
 10
-1.27401
 20
-9.60823
 30
0.0
 10
-1.2575
 20
-9.58128
 30
0.0
 10
-1.23478
 20
-9.55489
 30
0.0
 10
-1.23478
 20
-9.55489
 30
0.0
 10
-1.21206
 20
-9.5285
 30
0.0
 10
-1.1796
 20
-9.49802
 30
0.0
 10
-1.13741
 20
-9.46345
 30
0.0
 10
-1.13741
 20
-9.46345
 30
0.0
 10
-1.07179
 20
-9.4094
 30
0.0
 10
-1.0272
 20
-9.36664
 30
0.0
 10
-1.00392
 20
-9.33504
 30
0.0
 10
-1.00392
 20
-9.33504
 30
0.0
 10
-0.98049
 20
-9.30343
 30
0.0
 10
-0.96878
 20
-9.27351
 30
0.0
 10
-0.96878
 20
-9.24529
 30
0.0
 10
-0.96878
 20
-9.24529
 30
0.0
 10
-0.96878
 20
-9.2158
 30
0.0
 10
-0.97937
 20
-9.19096
 30
0.0
 10
-1.00053
 20
-9.17064
 30
0.0
 10
-1.00053
 20
-9.17064
 30
0.0
 10
-1.0217
 20
-9.15046
 30
0.0
 10
-1.04936
 20
-9.1403
 30
0.0
 10
-1.08336
 20
-9.1403
 30
0.0
 10
-1.08336
 20
-9.1403
 30
0.0
 10
-1.11935
 20
-9.1403
 30
0.0
 10
-1.14813
 20
-9.15103
 30
0.0
 10
-1.16972
 20
-9.17247
 30
0.0
 10
-1.16972
 20
-9.17247
 30
0.0
 10
-1.19132
 20
-9.19378
 30
0.0
 10
-1.20218
 20
-9.22342
 30
0.0
 10
-1.20246
 20
-9.26137
 30
0.0
 10
-1.20246
 20
-9.26137
 30
0.0
 10
-1.20246
 20
-9.26137
 30
0.0
 10
-1.27866
 20
-9.25375
 30
0.0
 10
-1.27866
 20
-9.25375
 30
0.0
 10
-1.27866
 20
-9.25375
 30
0.0
 10
-1.27344
 20
-9.19675
 30
0.0
 10
-1.25369
 20
-9.15328
 30
0.0
 10
-1.21954
 20
-9.12337
 30
0.0
 10
-1.21954
 20
-9.12337
 30
0.0
 10
-1.18525
 20
-9.09345
 30
0.0
 10
-1.13939
 20
-9.07849
 30
0.0
 10
-1.08167
 20
-9.07849
 30
0.0
 10
-1.08167
 20
-9.07849
 30
0.0
 10
-1.02353
 20
-9.07849
 30
0.0
 10
-0.97739
 20
-9.09458
 30
0.0
 10
-0.94352
 20
-9.1269
 30
0.0
 10
-0.94352
 20
-9.1269
 30
0.0
 10
-0.90952
 20
-9.15921
 30
0.0
 10
-0.89258
 20
-9.19929
 30
0.0
 10
-0.89258
 20
-9.24698
 30
0.0
 10
-0.89258
 20
-9.24698
 30
0.0
 10
-0.89258
 20
-9.27125
 30
0.0
 10
-0.89752
 20
-9.2951
 30
0.0
 10
-0.90754
 20
-9.31853
 30
0.0
 10
-0.90754
 20
-9.31853
 30
0.0
 10
-0.91742
 20
-9.34209
 30
0.0
 10
-0.93393
 20
-9.36679
 30
0.0
 10
-0.95693
 20
-9.39275
 30
0.0
 10
-0.95693
 20
-9.39275
 30
0.0
 10
-0.98007
 20
-9.41857
 30
0.0
 10
-1.01831
 20
-9.45427
 30
0.0
 10
-1.07165
 20
-9.49943
 30
0.0
 10
-1.07165
 20
-9.49943
 30
0.0
 10
-1.11638
 20
-9.53697
 30
0.0
 10
-1.14517
 20
-9.56237
 30
0.0
 10
-1.15787
 20
-9.57577
 30
0.0
 10
-1.15787
 20
-9.57577
 30
0.0
 10
-1.17057
 20
-9.58918
 30
0.0
 10
-1.18101
 20
-9.60258
 30
0.0
 10
-1.18934
 20
-9.61613
 30
0.0
 10
-1.18934
 20
-9.61613
 30
0.0
 10
-1.18934
 20
-9.61613
 30
0.0
 10
-0.89173
 20
-9.61613
 30
0.0
 10
-0.89173
 20
-9.61613
 30
0.0
  0
SPLINE
  5
47
330
1F
100
AcDbEntity
  8
Layer 1
 62
   250
100
AcDbSpline
210
0.0
220
0.0
230
1.0
 70
    11
 71
     3
 72
    92
 73
    88
 74
     0
 42
0.0000000001
 43
0.0000000001
 12
1.0
 22
0.0
 32
0.0
 13
1.0
 23
0.0
 33
0.0
 40
0.0
 40
0.0
 40
0.0
 40
0.0
 40
0.0434782608695652
 40
0.0434782608695652
 40
0.0434782608695652
 40
0.0434782608695652
 40
0.0869565217391304
 40
0.0869565217391304
 40
0.0869565217391304
 40
0.0869565217391304
 40
0.1304347826086956
 40
0.1304347826086956
 40
0.1304347826086956
 40
0.1304347826086956
 40
0.1739130434782609
 40
0.1739130434782609
 40
0.1739130434782609
 40
0.1739130434782609
 40
0.2173913043478261
 40
0.2173913043478261
 40
0.2173913043478261
 40
0.2173913043478261
 40
0.2608695652173913
 40
0.2608695652173913
 40
0.2608695652173913
 40
0.2608695652173913
 40
0.3043478260869565
 40
0.3043478260869565
 40
0.3043478260869565
 40
0.3043478260869565
 40
0.3478260869565217
 40
0.3478260869565217
 40
0.3478260869565217
 40
0.3478260869565217
 40
0.391304347826087
 40
0.391304347826087
 40
0.391304347826087
 40
0.391304347826087
 40
0.4347826086956522
 40
0.4347826086956522
 40
0.4347826086956522
 40
0.4347826086956522
 40
0.4782608695652174
 40
0.4782608695652174
 40
0.4782608695652174
 40
0.4782608695652174
 40
0.5217391304347826
 40
0.5217391304347826
 40
0.5217391304347826
 40
0.5217391304347826
 40
0.5652173913043478
 40
0.5652173913043478
 40
0.5652173913043478
 40
0.5652173913043478
 40
0.6086956521739131
 40
0.6086956521739131
 40
0.6086956521739131
 40
0.6086956521739131
 40
0.6521739130434783
 40
0.6521739130434783
 40
0.6521739130434783
 40
0.6521739130434783
 40
0.6956521739130435
 40
0.6956521739130435
 40
0.6956521739130435
 40
0.6956521739130435
 40
0.7391304347826086
 40
0.7391304347826086
 40
0.7391304347826086
 40
0.7391304347826086
 40
0.782608695652174
 40
0.782608695652174
 40
0.782608695652174
 40
0.782608695652174
 40
0.8260869565217391
 40
0.8260869565217391
 40
0.8260869565217391
 40
0.8260869565217391
 40
0.8695652173913043
 40
0.8695652173913043
 40
0.8695652173913043
 40
0.8695652173913043
 40
0.9130434782608695
 40
0.9130434782608695
 40
0.9130434782608695
 40
0.9130434782608695
 40
1.0
 40
1.0
 40
1.0
 40
1.0
 10
-0.42084
 20
-9.61613
 30
0.0
 10
-0.42084
 20
-9.61613
 30
0.0
 10
-0.42084
 20
-9.68725
 30
0.0
 10
-0.42084
 20
-9.68725
 30
0.0
 10
-0.42084
 20
-9.68725
 30
0.0
 10
-0.42084
 20
-9.68725
 30
0.0
 10
-0.82217
 20
-9.68725
 30
0.0
 10
-0.82217
 20
-9.68725
 30
0.0
 10
-0.82217
 20
-9.68725
 30
0.0
 10
-0.82273
 20
-9.66933
 30
0.0
 10
-0.81977
 20
-9.65211
 30
0.0
 10
-0.81342
 20
-9.63546
 30
0.0
 10
-0.81342
 20
-9.63546
 30
0.0
 10
-0.80312
 20
-9.60823
 30
0.0
 10
-0.78661
 20
-9.58128
 30
0.0
 10
-0.76389
 20
-9.55489
 30
0.0
 10
-0.76389
 20
-9.55489
 30
0.0
 10
-0.74117
 20
-9.5285
 30
0.0
 10
-0.70871
 20
-9.49802
 30
0.0
 10
-0.66652
 20
-9.46345
 30
0.0
 10
-0.66652
 20
-9.46345
 30
0.0
 10
-0.6009
 20
-9.4094
 30
0.0
 10
-0.55631
 20
-9.36664
 30
0.0
 10
-0.53303
 20
-9.33504
 30
0.0
 10
-0.53303
 20
-9.33504
 30
0.0
 10
-0.5096
 20
-9.30343
 30
0.0
 10
-0.49789
 20
-9.27351
 30
0.0
 10
-0.49789
 20
-9.24529
 30
0.0
 10
-0.49789
 20
-9.24529
 30
0.0
 10
-0.49789
 20
-9.2158
 30
0.0
 10
-0.50848
 20
-9.19096
 30
0.0
 10
-0.52964
 20
-9.17064
 30
0.0
 10
-0.52964
 20
-9.17064
 30
0.0
 10
-0.55081
 20
-9.15046
 30
0.0
 10
-0.57847
 20
-9.1403
 30
0.0
 10
-0.61247
 20
-9.1403
 30
0.0
 10
-0.61247
 20
-9.1403
 30
0.0
 10
-0.64846
 20
-9.1403
 30
0.0
 10
-0.67724
 20
-9.15103
 30
0.0
 10
-0.69883
 20
-9.17247
 30
0.0
 10
-0.69883
 20
-9.17247
 30
0.0
 10
-0.72043
 20
-9.19378
 30
0.0
 10
-0.73129
 20
-9.22342
 30
0.0
 10
-0.73157
 20
-9.26137
 30
0.0
 10
-0.73157
 20
-9.26137
 30
0.0
 10
-0.73157
 20
-9.26137
 30
0.0
 10
-0.80777
 20
-9.25375
 30
0.0
 10
-0.80777
 20
-9.25375
 30
0.0
 10
-0.80777
 20
-9.25375
 30
0.0
 10
-0.80255
 20
-9.19675
 30
0.0
 10
-0.7828
 20
-9.15328
 30
0.0
 10
-0.74865
 20
-9.12337
 30
0.0
 10
-0.74865
 20
-9.12337
 30
0.0
 10
-0.71436
 20
-9.09345
 30
0.0
 10
-0.6685
 20
-9.07849
 30
0.0
 10
-0.61078
 20
-9.07849
 30
0.0
 10
-0.61078
 20
-9.07849
 30
0.0
 10
-0.55264
 20
-9.07849
 30
0.0
 10
-0.5065
 20
-9.09458
 30
0.0
 10
-0.47263
 20
-9.1269
 30
0.0
 10
-0.47263
 20
-9.1269
 30
0.0
 10
-0.43863
 20
-9.15921
 30
0.0
 10
-0.42169
 20
-9.19929
 30
0.0
 10
-0.42169
 20
-9.24698
 30
0.0
 10
-0.42169
 20
-9.24698
 30
0.0
 10
-0.42169
 20
-9.27125
 30
0.0
 10
-0.42663
 20
-9.2951
 30
0.0
 10
-0.43665
 20
-9.31853
 30
0.0
 10
-0.43665
 20
-9.31853
 30
0.0
 10
-0.44653
 20
-9.34209
 30
0.0
 10
-0.46304
 20
-9.36679
 30
0.0
 10
-0.48604
 20
-9.39275
 30
0.0
 10
-0.48604
 20
-9.39275
 30
0.0
 10
-0.50918
 20
-9.41857
 30
0.0
 10
-0.54742
 20
-9.45427
 30
0.0
 10
-0.60076
 20
-9.49943
 30
0.0
 10
-0.60076
 20
-9.49943
 30
0.0
 10
-0.64549
 20
-9.53697
 30
0.0
 10
-0.67428
 20
-9.56237
 30
0.0
 10
-0.68698
 20
-9.57577
 30
0.0
 10
-0.68698
 20
-9.57577
 30
0.0
 10
-0.69968
 20
-9.58918
 30
0.0
 10
-0.71012
 20
-9.60258
 30
0.0
 10
-0.71845
 20
-9.61613
 30
0.0
 10
-0.71845
 20
-9.61613
 30
0.0
 10
-0.71845
 20
-9.61613
 30
0.0
 10
-0.42084
 20
-9.61613
 30
0.0
 10
-0.42084
 20
-9.61613
 30
0.0
  0
SPLINE
  5
48
330
1F
100
AcDbEntity
  8
Layer 1
 62
   250
100
AcDbSpline
210
0.0
220
0.0
230
1.0
 70
    11
 71
     3
 72
    92
 73
    88
 74
     0
 42
0.0000000001
 43
0.0000000001
 12
1.0
 22
0.0
 32
0.0
 13
1.0
 23
0.0
 33
0.0
 40
0.0
 40
0.0
 40
0.0
 40
0.0
 40
0.0434782608695652
 40
0.0434782608695652
 40
0.0434782608695652
 40
0.0434782608695652
 40
0.0869565217391304
 40
0.0869565217391304
 40
0.0869565217391304
 40
0.0869565217391304
 40
0.1304347826086956
 40
0.1304347826086956
 40
0.1304347826086956
 40
0.1304347826086956
 40
0.1739130434782609
 40
0.1739130434782609
 40
0.1739130434782609
 40
0.1739130434782609
 40
0.2173913043478261
 40
0.2173913043478261
 40
0.2173913043478261
 40
0.2173913043478261
 40
0.2608695652173913
 40
0.2608695652173913
 40
0.2608695652173913
 40
0.2608695652173913
 40
0.3043478260869565
 40
0.3043478260869565
 40
0.3043478260869565
 40
0.3043478260869565
 40
0.3478260869565217
 40
0.3478260869565217
 40
0.3478260869565217
 40
0.3478260869565217
 40
0.391304347826087
 40
0.391304347826087
 40
0.391304347826087
 40
0.391304347826087
 40
0.4347826086956522
 40
0.4347826086956522
 40
0.4347826086956522
 40
0.4347826086956522
 40
0.4782608695652174
 40
0.4782608695652174
 40
0.4782608695652174
 40
0.4782608695652174
 40
0.5217391304347826
 40
0.5217391304347826
 40
0.5217391304347826
 40
0.5217391304347826
 40
0.5652173913043478
 40
0.5652173913043478
 40
0.5652173913043478
 40
0.5652173913043478
 40
0.6086956521739131
 40
0.6086956521739131
 40
0.6086956521739131
 40
0.6086956521739131
 40
0.6521739130434783
 40
0.6521739130434783
 40
0.6521739130434783
 40
0.6521739130434783
 40
0.6956521739130435
 40
0.6956521739130435
 40
0.6956521739130435
 40
0.6956521739130435
 40
0.7391304347826086
 40
0.7391304347826086
 40
0.7391304347826086
 40
0.7391304347826086
 40
0.782608695652174
 40
0.782608695652174
 40
0.782608695652174
 40
0.782608695652174
 40
0.8260869565217391
 40
0.8260869565217391
 40
0.8260869565217391
 40
0.8260869565217391
 40
0.8695652173913043
 40
0.8695652173913043
 40
0.8695652173913043
 40
0.8695652173913043
 40
0.9130434782608695
 40
0.9130434782608695
 40
0.9130434782608695
 40
0.9130434782608695
 40
1.0
 40
1.0
 40
1.0
 40
1.0
 10
0.05005
 20
-9.61613
 30
0.0
 10
0.05005
 20
-9.61613
 30
0.0
 10
0.05005
 20
-9.68725
 30
0.0
 10
0.05005
 20
-9.68725
 30
0.0
 10
0.05005
 20
-9.68725
 30
0.0
 10
0.05005
 20
-9.68725
 30
0.0
 10
-0.35128
 20
-9.68725
 30
0.0
 10
-0.35128
 20
-9.68725
 30
0.0
 10
-0.35128
 20
-9.68725
 30
0.0
 10
-0.35184
 20
-9.66933
 30
0.0
 10
-0.34888
 20
-9.65211
 30
0.0
 10
-0.34253
 20
-9.63546
 30
0.0
 10
-0.34253
 20
-9.63546
 30
0.0
 10
-0.33223
 20
-9.60823
 30
0.0
 10
-0.31572
 20
-9.58128
 30
0.0
 10
-0.293
 20
-9.55489
 30
0.0
 10
-0.293
 20
-9.55489
 30
0.0
 10
-0.27028
 20
-9.5285
 30
0.0
 10
-0.23782
 20
-9.49802
 30
0.0
 10
-0.19563
 20
-9.46345
 30
0.0
 10
-0.19563
 20
-9.46345
 30
0.0
 10
-0.13001
 20
-9.4094
 30
0.0
 10
-0.08542
 20
-9.36664
 30
0.0
 10
-0.06214
 20
-9.33504
 30
0.0
 10
-0.06214
 20
-9.33504
 30
0.0
 10
-0.03871
 20
-9.30343
 30
0.0
 10
-0.027
 20
-9.27351
 30
0.0
 10
-0.027
 20
-9.24529
 30
0.0
 10
-0.027
 20
-9.24529
 30
0.0
 10
-0.027
 20
-9.2158
 30
0.0
 10
-0.03759
 20
-9.19096
 30
0.0
 10
-0.05875
 20
-9.17064
 30
0.0
 10
-0.05875
 20
-9.17064
 30
0.0
 10
-0.07992
 20
-9.15046
 30
0.0
 10
-0.10758
 20
-9.1403
 30
0.0
 10
-0.14158
 20
-9.1403
 30
0.0
 10
-0.14158
 20
-9.1403
 30
0.0
 10
-0.17757
 20
-9.1403
 30
0.0
 10
-0.20635
 20
-9.15103
 30
0.0
 10
-0.22794
 20
-9.17247
 30
0.0
 10
-0.22794
 20
-9.17247
 30
0.0
 10
-0.24954
 20
-9.19378
 30
0.0
 10
-0.2604
 20
-9.22342
 30
0.0
 10
-0.26068
 20
-9.26137
 30
0.0
 10
-0.26068
 20
-9.26137
 30
0.0
 10
-0.26068
 20
-9.26137
 30
0.0
 10
-0.33688
 20
-9.25375
 30
0.0
 10
-0.33688
 20
-9.25375
 30
0.0
 10
-0.33688
 20
-9.25375
 30
0.0
 10
-0.33166
 20
-9.19675
 30
0.0
 10
-0.31191
 20
-9.15328
 30
0.0
 10
-0.27776
 20
-9.12337
 30
0.0
 10
-0.27776
 20
-9.12337
 30
0.0
 10
-0.24347
 20
-9.09345
 30
0.0
 10
-0.19761
 20
-9.07849
 30
0.0
 10
-0.13989
 20
-9.07849
 30
0.0
 10
-0.13989
 20
-9.07849
 30
0.0
 10
-0.08175
 20
-9.07849
 30
0.0
 10
-0.03561
 20
-9.09458
 30
0.0
 10
-0.00174
 20
-9.1269
 30
0.0
 10
-0.00174
 20
-9.1269
 30
0.0
 10
0.03226
 20
-9.15921
 30
0.0
 10
0.0492
 20
-9.19929
 30
0.0
 10
0.0492
 20
-9.24698
 30
0.0
 10
0.0492
 20
-9.24698
 30
0.0
 10
0.0492
 20
-9.27125
 30
0.0
 10
0.04426
 20
-9.2951
 30
0.0
 10
0.03424
 20
-9.31853
 30
0.0
 10
0.03424
 20
-9.31853
 30
0.0
 10
0.02436
 20
-9.34209
 30
0.0
 10
0.00785
 20
-9.36679
 30
0.0
 10
-0.01515
 20
-9.39275
 30
0.0
 10
-0.01515
 20
-9.39275
 30
0.0
 10
-0.03829
 20
-9.41857
 30
0.0
 10
-0.07653
 20
-9.45427
 30
0.0
 10
-0.12987
 20
-9.49943
 30
0.0
 10
-0.12987
 20
-9.49943
 30
0.0
 10
-0.1746
 20
-9.53697
 30
0.0
 10
-0.20339
 20
-9.56237
 30
0.0
 10
-0.21609
 20
-9.57577
 30
0.0
 10
-0.21609
 20
-9.57577
 30
0.0
 10
-0.22879
 20
-9.58918
 30
0.0
 10
-0.23923
 20
-9.60258
 30
0.0
 10
-0.24756
 20
-9.61613
 30
0.0
 10
-0.24756
 20
-9.61613
 30
0.0
 10
-0.24756
 20
-9.61613
 30
0.0
 10
0.05005
 20
-9.61613
 30
0.0
 10
0.05005
 20
-9.61613
 30
0.0
  0
SPLINE
  5
49
330
1F
100
AcDbEntity
  8
Layer 1
 62
   250
100
AcDbSpline
210
0.0
220
0.0
230
1.0
 70
    11
 71
     3
 72
    36
 73
    32
 74
     0
 42
0.0000000001
 43
0.0000000001
 12
1.0
 22
0.0
 32
0.0
 13
1.0
 23
0.0
 33
0.0
 40
0.0
 40
0.0
 40
0.0
 40
0.0
 40
0.1111111111111111
 40
0.1111111111111111
 40
0.1111111111111111
 40
0.1111111111111111
 40
0.2222222222222222
 40
0.2222222222222222
 40
0.2222222222222222
 40
0.2222222222222222
 40
0.3333333333333333
 40
0.3333333333333333
 40
0.3333333333333333
 40
0.3333333333333333
 40
0.4444444444444444
 40
0.4444444444444444
 40
0.4444444444444444
 40
0.4444444444444444
 40
0.5555555555555556
 40
0.5555555555555556
 40
0.5555555555555556
 40
0.5555555555555556
 40
0.6666666666666666
 40
0.6666666666666666
 40
0.6666666666666666
 40
0.6666666666666666
 40
0.7777777777777778
 40
0.7777777777777778
 40
0.7777777777777778
 40
0.7777777777777778
 40
1.0
 40
1.0
 40
1.0
 40
1.0
 10
0.53434
 20
-9.68725
 30
0.0
 10
0.53434
 20
-9.68725
 30
0.0
 10
0.53434
 20
-9.15215
 30
0.0
 10
0.53434
 20
-9.15215
 30
0.0
 10
0.53434
 20
-9.15215
 30
0.0
 10
0.53434
 20
-9.15215
 30
0.0
 10
0.33452
 20
-9.15215
 30
0.0
 10
0.33452
 20
-9.15215
 30
0.0
 10
0.33452
 20
-9.15215
 30
0.0
 10
0.33452
 20
-9.15215
 30
0.0
 10
0.33452
 20
-9.08103
 30
0.0
 10
0.33452
 20
-9.08103
 30
0.0
 10
0.33452
 20
-9.08103
 30
0.0
 10
0.33452
 20
-9.08103
 30
0.0
 10
0.81459
 20
-9.08103
 30
0.0
 10
0.81459
 20
-9.08103
 30
0.0
 10
0.81459
 20
-9.08103
 30
0.0
 10
0.81459
 20
-9.08103
 30
0.0
 10
0.81459
 20
-9.15215
 30
0.0
 10
0.81459
 20
-9.15215
 30
0.0
 10
0.81459
 20
-9.15215
 30
0.0
 10
0.81459
 20
-9.15215
 30
0.0
 10
0.61477
 20
-9.15215
 30
0.0
 10
0.61477
 20
-9.15215
 30
0.0
 10
0.61477
 20
-9.15215
 30
0.0
 10
0.61477
 20
-9.15215
 30
0.0
 10
0.61477
 20
-9.68725
 30
0.0
 10
0.61477
 20
-9.68725
 30
0.0
 10
0.61477
 20
-9.68725
 30
0.0
 10
0.61477
 20
-9.68725
 30
0.0
 10
0.53434
 20
-9.68725
 30
0.0
 10
0.53434
 20
-9.68725
 30
0.0
  0
SPLINE
  5
4A
330
1F
100
AcDbEntity
  8
Layer 1
 62
   250
100
AcDbSpline
210
0.0
220
0.0
230
1.0
 70
    11
 71
     3
 72
    52
 73
    48
 74
     0
 42
0.0000000001
 43
0.0000000001
 12
1.0
 22
0.0
 32
0.0
 13
1.0
 23
0.0
 33
0.0
 40
0.0
 40
0.0
 40
0.0
 40
0.0
 40
0.0769230769230769
 40
0.0769230769230769
 40
0.0769230769230769
 40
0.0769230769230769
 40
0.1538461538461539
 40
0.1538461538461539
 40
0.1538461538461539
 40
0.1538461538461539
 40
0.2307692307692308
 40
0.2307692307692308
 40
0.2307692307692308
 40
0.2307692307692308
 40
0.3076923076923077
 40
0.3076923076923077
 40
0.3076923076923077
 40
0.3076923076923077
 40
0.3846153846153846
 40
0.3846153846153846
 40
0.3846153846153846
 40
0.3846153846153846
 40
0.4615384615384616
 40
0.4615384615384616
 40
0.4615384615384616
 40
0.4615384615384616
 40
0.5384615384615384
 40
0.5384615384615384
 40
0.5384615384615384
 40
0.5384615384615384
 40
0.6153846153846154
 40
0.6153846153846154
 40
0.6153846153846154
 40
0.6153846153846154
 40
0.6923076923076923
 40
0.6923076923076923
 40
0.6923076923076923
 40
0.6923076923076923
 40
0.7692307692307693
 40
0.7692307692307693
 40
0.7692307692307693
 40
0.7692307692307693
 40
0.8461538461538461
 40
0.8461538461538461
 40
0.8461538461538461
 40
0.8461538461538461
 40
1.0
 40
1.0
 40
1.0
 40
1.0
 10
0.89911
 20
-9.68725
 30
0.0
 10
0.89911
 20
-9.68725
 30
0.0
 10
0.89911
 20
-9.08103
 30
0.0
 10
0.89911
 20
-9.08103
 30
0.0
 10
0.89911
 20
-9.08103
 30
0.0
 10
0.89911
 20
-9.08103
 30
0.0
 10
1.33684
 20
-9.08103
 30
0.0
 10
1.33684
 20
-9.08103
 30
0.0
 10
1.33684
 20
-9.08103
 30
0.0
 10
1.33684
 20
-9.08103
 30
0.0
 10
1.33684
 20
-9.15215
 30
0.0
 10
1.33684
 20
-9.15215
 30
0.0
 10
1.33684
 20
-9.15215
 30
0.0
 10
1.33684
 20
-9.15215
 30
0.0
 10
0.97954
 20
-9.15215
 30
0.0
 10
0.97954
 20
-9.15215
 30
0.0
 10
0.97954
 20
-9.15215
 30
0.0
 10
0.97954
 20
-9.15215
 30
0.0
 10
0.97954
 20
-9.33842
 30
0.0
 10
0.97954
 20
-9.33842
 30
0.0
 10
0.97954
 20
-9.33842
 30
0.0
 10
0.97954
 20
-9.33842
 30
0.0
 10
1.31398
 20
-9.33842
 30
0.0
 10
1.31398
 20
-9.33842
 30
0.0
 10
1.31398
 20
-9.33842
 30
0.0
 10
1.31398
 20
-9.33842
 30
0.0
 10
1.31398
 20
-9.40954
 30
0.0
 10
1.31398
 20
-9.40954
 30
0.0
 10
1.31398
 20
-9.40954
 30
0.0
 10
1.31398
 20
-9.40954
 30
0.0
 10
0.97954
 20
-9.40954
 30
0.0
 10
0.97954
 20
-9.40954
 30
0.0
 10
0.97954
 20
-9.40954
 30
0.0
 10
0.97954
 20
-9.40954
 30
0.0
 10
0.97954
 20
-9.61613
 30
0.0
 10
0.97954
 20
-9.61613
 30
0.0
 10
0.97954
 20
-9.61613
 30
0.0
 10
0.97954
 20
-9.61613
 30
0.0
 10
1.35123
 20
-9.61613
 30
0.0
 10
1.35123
 20
-9.61613
 30
0.0
 10
1.35123
 20
-9.61613
 30
0.0
 10
1.35123
 20
-9.61613
 30
0.0
 10
1.35123
 20
-9.68725
 30
0.0
 10
1.35123
 20
-9.68725
 30
0.0
 10
1.35123
 20
-9.68725
 30
0.0
 10
1.35123
 20
-9.68725
 30
0.0
 10
0.89911
 20
-9.68725
 30
0.0
 10
0.89911
 20
-9.68725
 30
0.0
  0
SPLINE
  5
4B
330
1F
100
AcDbEntity
  8
Layer 1
 62
   250
100
AcDbSpline
210
0.0
220
0.0
230
1.0
 70
    11
 71
     3
 72
    64
 73
    60
 74
     0
 42
0.0000000001
 43
0.0000000001
 12
1.0
 22
0.0
 32
0.0
 13
1.0
 23
0.0
 33
0.0
 40
0.0
 40
0.0
 40
0.0
 40
0.0
 40
0.0625
 40
0.0625
 40
0.0625
 40
0.0625
 40
0.125
 40
0.125
 40
0.125
 40
0.125
 40
0.1875
 40
0.1875
 40
0.1875
 40
0.1875
 40
0.25
 40
0.25
 40
0.25
 40
0.25
 40
0.3125
 40
0.3125
 40
0.3125
 40
0.3125
 40
0.375
 40
0.375
 40
0.375
 40
0.375
 40
0.4375
 40
0.4375
 40
0.4375
 40
0.4375
 40
0.5
 40
0.5
 40
0.5
 40
0.5
 40
0.5625
 40
0.5625
 40
0.5625
 40
0.5625
 40
0.625
 40
0.625
 40
0.625
 40
0.625
 40
0.6875
 40
0.6875
 40
0.6875
 40
0.6875
 40
0.75
 40
0.75
 40
0.75
 40
0.75
 40
0.8125
 40
0.8125
 40
0.8125
 40
0.8125
 40
0.875
 40
0.875
 40
0.875
 40
0.875
 40
1.0
 40
1.0
 40
1.0
 40
1.0
 10
1.46045
 20
-9.68725
 30
0.0
 10
1.46045
 20
-9.68725
 30
0.0
 10
1.46045
 20
-9.08103
 30
0.0
 10
1.46045
 20
-9.08103
 30
0.0
 10
1.46045
 20
-9.08103
 30
0.0
 10
1.46045
 20
-9.08103
 30
0.0
 10
1.58068
 20
-9.08103
 30
0.0
 10
1.58068
 20
-9.08103
 30
0.0
 10
1.58068
 20
-9.08103
 30
0.0
 10
1.58068
 20
-9.08103
 30
0.0
 10
1.72405
 20
-9.51015
 30
0.0
 10
1.72405
 20
-9.51015
 30
0.0
 10
1.72405
 20
-9.51015
 30
0.0
 10
1.73731
 20
-9.55009
 30
0.0
 10
1.74691
 20
-9.58001
 30
0.0
 10
1.75297
 20
-9.5999
 30
0.0
 10
1.75297
 20
-9.5999
 30
0.0
 10
1.75989
 20
-9.57789
 30
0.0
 10
1.77075
 20
-9.54543
 30
0.0
 10
1.78543
 20
-9.50268
 30
0.0
 10
1.78543
 20
-9.50268
 30
0.0
 10
1.78543
 20
-9.50268
 30
0.0
 10
1.93134
 20
-9.08103
 30
0.0
 10
1.93134
 20
-9.08103
 30
0.0
 10
1.93134
 20
-9.08103
 30
0.0
 10
1.93134
 20
-9.08103
 30
0.0
 10
2.03873
 20
-9.08103
 30
0.0
 10
2.03873
 20
-9.08103
 30
0.0
 10
2.03873
 20
-9.08103
 30
0.0
 10
2.03873
 20
-9.08103
 30
0.0
 10
2.03873
 20
-9.68725
 30
0.0
 10
2.03873
 20
-9.68725
 30
0.0
 10
2.03873
 20
-9.68725
 30
0.0
 10
2.03873
 20
-9.68725
 30
0.0
 10
1.96168
 20
-9.68725
 30
0.0
 10
1.96168
 20
-9.68725
 30
0.0
 10
1.96168
 20
-9.68725
 30
0.0
 10
1.96168
 20
-9.68725
 30
0.0
 10
1.96168
 20
-9.18009
 30
0.0
 10
1.96168
 20
-9.18009
 30
0.0
 10
1.96168
 20
-9.18009
 30
0.0
 10
1.96168
 20
-9.18009
 30
0.0
 10
1.78472
 20
-9.68725
 30
0.0
 10
1.78472
 20
-9.68725
 30
0.0
 10
1.78472
 20
-9.68725
 30
0.0
 10
1.78472
 20
-9.68725
 30
0.0
 10
1.71248
 20
-9.68725
 30
0.0
 10
1.71248
 20
-9.68725
 30
0.0
 10
1.71248
 20
-9.68725
 30
0.0
 10
1.71248
 20
-9.68725
 30
0.0
 10
1.5375
 20
-9.17078
 30
0.0
 10
1.5375
 20
-9.17078
 30
0.0
 10
1.5375
 20
-9.17078
 30
0.0
 10
1.5375
 20
-9.17078
 30
0.0
 10
1.5375
 20
-9.68725
 30
0.0
 10
1.5375
 20
-9.68725
 30
0.0
 10
1.5375
 20
-9.68725
 30
0.0
 10
1.5375
 20
-9.68725
 30
0.0
 10
1.46045
 20
-9.68725
 30
0.0
 10
1.46045
 20
-9.68725
 30
0.0
  0
SPLINE
  5
4C
330
1F
100
AcDbEntity
  8
Layer 1
 62
   250
100
AcDbSpline
210
0.0
220
0.0
230
1.0
 70
    11
 71
     3
 72
    48
 73
    44
 74
     0
 42
0.0000000001
 43
0.0000000001
 12
1.0
 22
0.0
 32
0.0
 13
1.0
 23
0.0
 33
0.0
 40
0.0
 40
0.0
 40
0.0
 40
0.0
 40
0.0833333333333333
 40
0.0833333333333333
 40
0.0833333333333333
 40
0.0833333333333333
 40
0.1666666666666667
 40
0.1666666666666667
 40
0.1666666666666667
 40
0.1666666666666667
 40
0.25
 40
0.25
 40
0.25
 40
0.25
 40
0.3333333333333333
 40
0.3333333333333333
 40
0.3333333333333333
 40
0.3333333333333333
 40
0.4166666666666667
 40
0.4166666666666667
 40
0.4166666666666667
 40
0.4166666666666667
 40
0.5
 40
0.5
 40
0.5
 40
0.5
 40
0.5833333333333334
 40
0.5833333333333334
 40
0.5833333333333334
 40
0.5833333333333334
 40
0.6666666666666666
 40
0.6666666666666666
 40
0.6666666666666666
 40
0.6666666666666666
 40
0.75
 40
0.75
 40
0.75
 40
0.75
 40
0.8333333333333334
 40
0.8333333333333334
 40
0.8333333333333334
 40
0.8333333333333334
 40
1.0
 40
1.0
 40
1.0
 40
1.0
 10
2.16742
 20
-9.68725
 30
0.0
 10
2.16742
 20
-9.68725
 30
0.0
 10
2.16742
 20
-9.08103
 30
0.0
 10
2.16742
 20
-9.08103
 30
0.0
 10
2.16742
 20
-9.08103
 30
0.0
 10
2.16742
 20
-9.08103
 30
0.0
 10
2.39631
 20
-9.08103
 30
0.0
 10
2.39631
 20
-9.08103
 30
0.0
 10
2.39631
 20
-9.08103
 30
0.0
 10
2.43652
 20
-9.08103
 30
0.0
 10
2.46729
 20
-9.08301
 30
0.0
 10
2.48859
 20
-9.08682
 30
0.0
 10
2.48859
 20
-9.08682
 30
0.0
 10
2.51837
 20
-9.09176
 30
0.0
 10
2.54335
 20
-9.10121
 30
0.0
 10
2.56352
 20
-9.11504
 30
0.0
 10
2.56352
 20
-9.11504
 30
0.0
 10
2.5837
 20
-9.12901
 30
0.0
 10
2.59993
 20
-9.14849
 30
0.0
 10
2.61221
 20
-9.17346
 30
0.0
 10
2.61221
 20
-9.17346
 30
0.0
 10
2.62448
 20
-9.19844
 30
0.0
 10
2.63055
 20
-9.22596
 30
0.0
 10
2.63055
 20
-9.25601
 30
0.0
 10
2.63055
 20
-9.25601
 30
0.0
 10
2.63055
 20
-9.30738
 30
0.0
 10
2.61418
 20
-9.35098
 30
0.0
 10
2.5813
 20
-9.38654
 30
0.0
 10
2.5813
 20
-9.38654
 30
0.0
 10
2.54857
 20
-9.42224
 30
0.0
 10
2.48916
 20
-9.44002
 30
0.0
 10
2.40336
 20
-9.44002
 30
0.0
 10
2.40336
 20
-9.44002
 30
0.0
 10
2.40336
 20
-9.44002
 30
0.0
 10
2.24786
 20
-9.44002
 30
0.0
 10
2.24786
 20
-9.44002
 30
0.0
 10
2.24786
 20
-9.44002
 30
0.0
 10
2.24786
 20
-9.44002
 30
0.0
 10
2.24786
 20
-9.68725
 30
0.0
 10
2.24786
 20
-9.68725
 30
0.0
 10
2.24786
 20
-9.68725
 30
0.0
 10
2.24786
 20
-9.68725
 30
0.0
 10
2.16742
 20
-9.68725
 30
0.0
 10
2.16742
 20
-9.68725
 30
0.0
  0
SPLINE
  5
4D
330
1F
100
AcDbEntity
  8
Layer 1
 62
   250
100
AcDbSpline
210
0.0
220
0.0
230
1.0
 70
    11
 71
     3
 72
    36
 73
    32
 74
     0
 42
0.0000000001
 43
0.0000000001
 12
1.0
 22
0.0
 32
0.0
 13
1.0
 23
0.0
 33
0.0
 40
0.0
 40
0.0
 40
0.0
 40
0.0
 40
0.1111111111111111
 40
0.1111111111111111
 40
0.1111111111111111
 40
0.1111111111111111
 40
0.2222222222222222
 40
0.2222222222222222
 40
0.2222222222222222
 40
0.2222222222222222
 40
0.3333333333333333
 40
0.3333333333333333
 40
0.3333333333333333
 40
0.3333333333333333
 40
0.4444444444444444
 40
0.4444444444444444
 40
0.4444444444444444
 40
0.4444444444444444
 40
0.5555555555555556
 40
0.5555555555555556
 40
0.5555555555555556
 40
0.5555555555555556
 40
0.6666666666666666
 40
0.6666666666666666
 40
0.6666666666666666
 40
0.6666666666666666
 40
0.7777777777777778
 40
0.7777777777777778
 40
0.7777777777777778
 40
0.7777777777777778
 40
1.0
 40
1.0
 40
1.0
 40
1.0
 10
2.24786
 20
-9.3689
 30
0.0
 10
2.24786
 20
-9.3689
 30
0.0
 10
2.40449
 20
-9.3689
 30
0.0
 10
2.40449
 20
-9.3689
 30
0.0
 10
2.40449
 20
-9.3689
 30
0.0
 10
2.45642
 20
-9.3689
 30
0.0
 10
2.49311
 20
-9.35931
 30
0.0
 10
2.51498
 20
-9.33997
 30
0.0
 10
2.51498
 20
-9.33997
 30
0.0
 10
2.53671
 20
-9.32064
 30
0.0
 10
2.54758
 20
-9.29355
 30
0.0
 10
2.54758
 20
-9.25841
 30
0.0
 10
2.54758
 20
-9.25841
 30
0.0
 10
2.54758
 20
-9.23315
 30
0.0
 10
2.54123
 20
-9.21142
 30
0.0
 10
2.52839
 20
-9.19336
 30
0.0
 10
2.52839
 20
-9.19336
 30
0.0
 10
2.51555
 20
-9.1753
 30
0.0
 10
2.49861
 20
-9.1633
 30
0.0
 10
2.47773
 20
-9.15752
 30
0.0
 10
2.47773
 20
-9.15752
 30
0.0
 10
2.46418
 20
-9.15399
 30
0.0
 10
2.4392
 20
-9.15215
 30
0.0
 10
2.40294
 20
-9.15215
 30
0.0
 10
2.40294
 20
-9.15215
 30
0.0
 10
2.40294
 20
-9.15215
 30
0.0
 10
2.24786
 20
-9.15215
 30
0.0
 10
2.24786
 20
-9.15215
 30
0.0
 10
2.24786
 20
-9.15215
 30
0.0
 10
2.24786
 20
-9.15215
 30
0.0
 10
2.24786
 20
-9.3689
 30
0.0
 10
2.24786
 20
-9.3689
 30
0.0
  0
SPLINE
  5
4E
330
1F
100
AcDbEntity
  8
Layer 1
 62
   250
100
AcDbSpline
210
0.0
220
0.0
230
1.0
 70
    11
 71
     3
 72
    28
 73
    24
 74
     0
 42
0.0000000001
 43
0.0000000001
 12
1.0
 22
0.0
 32
0.0
 13
1.0
 23
0.0
 33
0.0
 40
0.0
 40
0.0
 40
0.0
 40
0.0
 40
0.1428571428571428
 40
0.1428571428571428
 40
0.1428571428571428
 40
0.1428571428571428
 40
0.2857142857142857
 40
0.2857142857142857
 40
0.2857142857142857
 40
0.2857142857142857
 40
0.4285714285714285
 40
0.4285714285714285
 40
0.4285714285714285
 40
0.4285714285714285
 40
0.5714285714285714
 40
0.5714285714285714
 40
0.5714285714285714
 40
0.5714285714285714
 40
0.7142857142857143
 40
0.7142857142857143
 40
0.7142857142857143
 40
0.7142857142857143
 40
1.0
 40
1.0
 40
1.0
 40
1.0
 10
2.72877
 20
-9.68725
 30
0.0
 10
2.72877
 20
-9.68725
 30
0.0
 10
2.72877
 20
-9.08103
 30
0.0
 10
2.72877
 20
-9.08103
 30
0.0
 10
2.72877
 20
-9.08103
 30
0.0
 10
2.72877
 20
-9.08103
 30
0.0
 10
2.8092
 20
-9.08103
 30
0.0
 10
2.8092
 20
-9.08103
 30
0.0
 10
2.8092
 20
-9.08103
 30
0.0
 10
2.8092
 20
-9.08103
 30
0.0
 10
2.8092
 20
-9.61613
 30
0.0
 10
2.8092
 20
-9.61613
 30
0.0
 10
2.8092
 20
-9.61613
 30
0.0
 10
2.8092
 20
-9.61613
 30
0.0
 10
3.10723
 20
-9.61613
 30
0.0
 10
3.10723
 20
-9.61613
 30
0.0
 10
3.10723
 20
-9.61613
 30
0.0
 10
3.10723
 20
-9.61613
 30
0.0
 10
3.10723
 20
-9.68725
 30
0.0
 10
3.10723
 20
-9.68725
 30
0.0
 10
3.10723
 20
-9.68725
 30
0.0
 10
3.10723
 20
-9.68725
 30
0.0
 10
2.72877
 20
-9.68725
 30
0.0
 10
2.72877
 20
-9.68725
 30
0.0
  0
SPLINE
  5
4F
330
1F
100
AcDbEntity
  8
Layer 1
 62
   250
100
AcDbSpline
210
0.0
220
0.0
230
1.0
 70
    11
 71
     3
 72
    36
 73
    32
 74
     0
 42
0.0000000001
 43
0.0000000001
 12
1.0
 22
0.0
 32
0.0
 13
1.0
 23
0.0
 33
0.0
 40
0.0
 40
0.0
 40
0.0
 40
0.0
 40
0.1111111111111111
 40
0.1111111111111111
 40
0.1111111111111111
 40
0.1111111111111111
 40
0.2222222222222222
 40
0.2222222222222222
 40
0.2222222222222222
 40
0.2222222222222222
 40
0.3333333333333333
 40
0.3333333333333333
 40
0.3333333333333333
 40
0.3333333333333333
 40
0.4444444444444444
 40
0.4444444444444444
 40
0.4444444444444444
 40
0.4444444444444444
 40
0.5555555555555556
 40
0.5555555555555556
 40
0.5555555555555556
 40
0.5555555555555556
 40
0.6666666666666666
 40
0.6666666666666666
 40
0.6666666666666666
 40
0.6666666666666666
 40
0.7777777777777778
 40
0.7777777777777778
 40
0.7777777777777778
 40
0.7777777777777778
 40
1.0
 40
1.0
 40
1.0
 40
1.0
 10
3.13658
 20
-9.68725
 30
0.0
 10
3.13658
 20
-9.68725
 30
0.0
 10
3.36913
 20
-9.08103
 30
0.0
 10
3.36913
 20
-9.08103
 30
0.0
 10
3.36913
 20
-9.08103
 30
0.0
 10
3.36913
 20
-9.08103
 30
0.0
 10
3.45733
 20
-9.08103
 30
0.0
 10
3.45733
 20
-9.08103
 30
0.0
 10
3.45733
 20
-9.08103
 30
0.0
 10
3.45733
 20
-9.08103
 30
0.0
 10
3.70413
 20
-9.68725
 30
0.0
 10
3.70413
 20
-9.68725
 30
0.0
 10
3.70413
 20
-9.68725
 30
0.0
 10
3.70413
 20
-9.68725
 30
0.0
 10
3.61283
 20
-9.68725
 30
0.0
 10
3.61283
 20
-9.68725
 30
0.0
 10
3.61283
 20
-9.68725
 30
0.0
 10
3.61283
 20
-9.68725
 30
0.0
 10
3.5427
 20
-9.50352
 30
0.0
 10
3.5427
 20
-9.50352
 30
0.0
 10
3.5427
 20
-9.50352
 30
0.0
 10
3.5427
 20
-9.50352
 30
0.0
 10
3.28743
 20
-9.50352
 30
0.0
 10
3.28743
 20
-9.50352
 30
0.0
 10
3.28743
 20
-9.50352
 30
0.0
 10
3.28743
 20
-9.50352
 30
0.0
 10
3.22167
 20
-9.68725
 30
0.0
 10
3.22167
 20
-9.68725
 30
0.0
 10
3.22167
 20
-9.68725
 30
0.0
 10
3.22167
 20
-9.68725
 30
0.0
 10
3.13658
 20
-9.68725
 30
0.0
 10
3.13658
 20
-9.68725
 30
0.0
  0
SPLINE
  5
50
330
1F
100
AcDbEntity
  8
Layer 1
 62
   250
100
AcDbSpline
210
0.0
220
0.0
230
1.0
 70
    11
 71
     3
 72
    24
 73
    20
 74
     0
 42
0.0000000001
 43
0.0000000001
 12
1.0
 22
0.0
 32
0.0
 13
1.0
 23
0.0
 33
0.0
 40
0.0
 40
0.0
 40
0.0
 40
0.0
 40
0.1666666666666667
 40
0.1666666666666667
 40
0.1666666666666667
 40
0.1666666666666667
 40
0.3333333333333333
 40
0.3333333333333333
 40
0.3333333333333333
 40
0.3333333333333333
 40
0.5
 40
0.5
 40
0.5
 40
0.5
 40
0.6666666666666666
 40
0.6666666666666666
 40
0.6666666666666666
 40
0.6666666666666666
 40
1.0
 40
1.0
 40
1.0
 40
1.0
 10
3.31099
 20
-9.43833
 30
0.0
 10
3.31099
 20
-9.43833
 30
0.0
 10
3.51758
 20
-9.43833
 30
0.0
 10
3.51758
 20
-9.43833
 30
0.0
 10
3.51758
 20
-9.43833
 30
0.0
 10
3.51758
 20
-9.43833
 30
0.0
 10
3.45436
 20
-9.27027
 30
0.0
 10
3.45436
 20
-9.27027
 30
0.0
 10
3.45436
 20
-9.27027
 30
0.0
 10
3.43531
 20
-9.21918
 30
0.0
 10
3.42092
 20
-9.17699
 30
0.0
 10
3.4109
 20
-9.14369
 30
0.0
 10
3.4109
 20
-9.14369
 30
0.0
 10
3.40258
 20
-9.1832
 30
0.0
 10
3.39143
 20
-9.222
 30
0.0
 10
3.37746
 20
-9.26039
 30
0.0
 10
3.37746
 20
-9.26039
 30
0.0
 10
3.37746
 20
-9.26039
 30
0.0
 10
3.31099
 20
-9.43833
 30
0.0
 10
3.31099
 20
-9.43833
 30
0.0
  0
SPLINE
  5
51
330
1F
100
AcDbEntity
  8
Layer 1
 62
   250
100
AcDbSpline
210
0.0
220
0.0
230
1.0
 70
    11
 71
     3
 72
    36
 73
    32
 74
     0
 42
0.0000000001
 43
0.0000000001
 12
1.0
 22
0.0
 32
0.0
 13
1.0
 23
0.0
 33
0.0
 40
0.0
 40
0.0
 40
0.0
 40
0.0
 40
0.1111111111111111
 40
0.1111111111111111
 40
0.1111111111111111
 40
0.1111111111111111
 40
0.2222222222222222
 40
0.2222222222222222
 40
0.2222222222222222
 40
0.2222222222222222
 40
0.3333333333333333
 40
0.3333333333333333
 40
0.3333333333333333
 40
0.3333333333333333
 40
0.4444444444444444
 40
0.4444444444444444
 40
0.4444444444444444
 40
0.4444444444444444
 40
0.5555555555555556
 40
0.5555555555555556
 40
0.5555555555555556
 40
0.5555555555555556
 40
0.6666666666666666
 40
0.6666666666666666
 40
0.6666666666666666
 40
0.6666666666666666
 40
0.7777777777777778
 40
0.7777777777777778
 40
0.7777777777777778
 40
0.7777777777777778
 40
1.0
 40
1.0
 40
1.0
 40
1.0
 10
3.85908
 20
-9.68725
 30
0.0
 10
3.85908
 20
-9.68725
 30
0.0
 10
3.85908
 20
-9.15215
 30
0.0
 10
3.85908
 20
-9.15215
 30
0.0
 10
3.85908
 20
-9.15215
 30
0.0
 10
3.85908
 20
-9.15215
 30
0.0
 10
3.65926
 20
-9.15215
 30
0.0
 10
3.65926
 20
-9.15215
 30
0.0
 10
3.65926
 20
-9.15215
 30
0.0
 10
3.65926
 20
-9.15215
 30
0.0
 10
3.65926
 20
-9.08103
 30
0.0
 10
3.65926
 20
-9.08103
 30
0.0
 10
3.65926
 20
-9.08103
 30
0.0
 10
3.65926
 20
-9.08103
 30
0.0
 10
4.13933
 20
-9.08103
 30
0.0
 10
4.13933
 20
-9.08103
 30
0.0
 10
4.13933
 20
-9.08103
 30
0.0
 10
4.13933
 20
-9.08103
 30
0.0
 10
4.13933
 20
-9.15215
 30
0.0
 10
4.13933
 20
-9.15215
 30
0.0
 10
4.13933
 20
-9.15215
 30
0.0
 10
4.13933
 20
-9.15215
 30
0.0
 10
3.93951
 20
-9.15215
 30
0.0
 10
3.93951
 20
-9.15215
 30
0.0
 10
3.93951
 20
-9.15215
 30
0.0
 10
3.93951
 20
-9.15215
 30
0.0
 10
3.93951
 20
-9.68725
 30
0.0
 10
3.93951
 20
-9.68725
 30
0.0
 10
3.93951
 20
-9.68725
 30
0.0
 10
3.93951
 20
-9.68725
 30
0.0
 10
3.85908
 20
-9.68725
 30
0.0
 10
3.85908
 20
-9.68725
 30
0.0
  0
SPLINE
  5
52
330
1F
100
AcDbEntity
  8
Layer 1
 62
   250
100
AcDbSpline
210
0.0
220
0.0
230
1.0
 70
    11
 71
     3
 72
    52
 73
    48
 74
     0
 42
0.0000000001
 43
0.0000000001
 12
1.0
 22
0.0
 32
0.0
 13
1.0
 23
0.0
 33
0.0
 40
0.0
 40
0.0
 40
0.0
 40
0.0
 40
0.0769230769230769
 40
0.0769230769230769
 40
0.0769230769230769
 40
0.0769230769230769
 40
0.1538461538461539
 40
0.1538461538461539
 40
0.1538461538461539
 40
0.1538461538461539
 40
0.2307692307692308
 40
0.2307692307692308
 40
0.2307692307692308
 40
0.2307692307692308
 40
0.3076923076923077
 40
0.3076923076923077
 40
0.3076923076923077
 40
0.3076923076923077
 40
0.3846153846153846
 40
0.3846153846153846
 40
0.3846153846153846
 40
0.3846153846153846
 40
0.4615384615384616
 40
0.4615384615384616
 40
0.4615384615384616
 40
0.4615384615384616
 40
0.5384615384615384
 40
0.5384615384615384
 40
0.5384615384615384
 40
0.5384615384615384
 40
0.6153846153846154
 40
0.6153846153846154
 40
0.6153846153846154
 40
0.6153846153846154
 40
0.6923076923076923
 40
0.6923076923076923
 40
0.6923076923076923
 40
0.6923076923076923
 40
0.7692307692307693
 40
0.7692307692307693
 40
0.7692307692307693
 40
0.7692307692307693
 40
0.8461538461538461
 40
0.8461538461538461
 40
0.8461538461538461
 40
0.8461538461538461
 40
1.0
 40
1.0
 40
1.0
 40
1.0
 10
4.22385
 20
-9.68725
 30
0.0
 10
4.22385
 20
-9.68725
 30
0.0
 10
4.22385
 20
-9.08103
 30
0.0
 10
4.22385
 20
-9.08103
 30
0.0
 10
4.22385
 20
-9.08103
 30
0.0
 10
4.22385
 20
-9.08103
 30
0.0
 10
4.66158
 20
-9.08103
 30
0.0
 10
4.66158
 20
-9.08103
 30
0.0
 10
4.66158
 20
-9.08103
 30
0.0
 10
4.66158
 20
-9.08103
 30
0.0
 10
4.66158
 20
-9.15215
 30
0.0
 10
4.66158
 20
-9.15215
 30
0.0
 10
4.66158
 20
-9.15215
 30
0.0
 10
4.66158
 20
-9.15215
 30
0.0
 10
4.30428
 20
-9.15215
 30
0.0
 10
4.30428
 20
-9.15215
 30
0.0
 10
4.30428
 20
-9.15215
 30
0.0
 10
4.30428
 20
-9.15215
 30
0.0
 10
4.30428
 20
-9.33842
 30
0.0
 10
4.30428
 20
-9.33842
 30
0.0
 10
4.30428
 20
-9.33842
 30
0.0
 10
4.30428
 20
-9.33842
 30
0.0
 10
4.63872
 20
-9.33842
 30
0.0
 10
4.63872
 20
-9.33842
 30
0.0
 10
4.63872
 20
-9.33842
 30
0.0
 10
4.63872
 20
-9.33842
 30
0.0
 10
4.63872
 20
-9.40954
 30
0.0
 10
4.63872
 20
-9.40954
 30
0.0
 10
4.63872
 20
-9.40954
 30
0.0
 10
4.63872
 20
-9.40954
 30
0.0
 10
4.30428
 20
-9.40954
 30
0.0
 10
4.30428
 20
-9.40954
 30
0.0
 10
4.30428
 20
-9.40954
 30
0.0
 10
4.30428
 20
-9.40954
 30
0.0
 10
4.30428
 20
-9.61613
 30
0.0
 10
4.30428
 20
-9.61613
 30
0.0
 10
4.30428
 20
-9.61613
 30
0.0
 10
4.30428
 20
-9.61613
 30
0.0
 10
4.67597
 20
-9.61613
 30
0.0
 10
4.67597
 20
-9.61613
 30
0.0
 10
4.67597
 20
-9.61613
 30
0.0
 10
4.67597
 20
-9.61613
 30
0.0
 10
4.67597
 20
-9.68725
 30
0.0
 10
4.67597
 20
-9.68725
 30
0.0
 10
4.67597
 20
-9.68725
 30
0.0
 10
4.67597
 20
-9.68725
 30
0.0
 10
4.22385
 20
-9.68725
 30
0.0
 10
4.22385
 20
-9.68725
 30
0.0
  0
SPLINE
  5
53
330
1F
100
AcDbEntity
  8
Layer 1
 62
     3
370
     9
100
AcDbSpline
210
0.0
220
0.0
230
1.0
 70
    11
 71
     3
 72
    20
 73
    16
 74
     0
 42
0.0000000001
 43
0.0000000001
 12
1.0
 22
0.0
 32
0.0
 13
1.0
 23
0.0
 33
0.0
 40
0.0
 40
0.0
 40
0.0
 40
0.0
 40
0.2
 40
0.2
 40
0.2
 40
0.2
 40
0.4
 40
0.4
 40
0.4
 40
0.4
 40
0.6
 40
0.6
 40
0.6
 40
0.6
 40
1.0
 40
1.0
 40
1.0
 40
1.0
 10
-10.46343
 20
7.31186
 30
0.0
 10
-10.46343
 20
7.31186
 30
0.0
 10
-10.46343
 20
-7.43883
 30
0.0
 10
-10.46343
 20
-7.43883
 30
0.0
 10
-10.46343
 20
-7.43883
 30
0.0
 10
-10.46343
 20
-7.43883
 30
0.0
 10
8.12607
 20
-7.43883
 30
0.0
 10
8.12607
 20
-7.43883
 30
0.0
 10
8.12607
 20
-7.43883
 30
0.0
 10
8.12607
 20
-7.43883
 30
0.0
 10
8.12607
 20
7.31186
 30
0.0
 10
8.12607
 20
7.31186
 30
0.0
 10
8.12607
 20
7.31186
 30
0.0
 10
8.12607
 20
7.31186
 30
0.0
 10
-10.46343
 20
7.31186
 30
0.0
 10
-10.46343
 20
7.31186
 30
0.0
  0
SPLINE
  5
55
330
1F
100
AcDbEntity
  8
layer 2
 62
     1
370
     0
100
AcDbSpline
210
0.0
220
0.0
230
1.0
 70
    24
 71
     3
 72
     8
 73
     4
 74
     0
 42
0.0000000001
 43
0.0000000001
 12
1.0
 22
0.0
 32
0.0
 13
1.0
 23
0.0
 33
0.0
 40
0.0
 40
0.0
 40
0.0
 40
0.0
 40
1.0
 40
1.0
 40
1.0
 40
1.0
 10
-10.46343
 20
7.463
 30
0.0
 10
-10.46343
 20
7.463
 30
0.0
 10
-10.46343
 20
9.2122
 30
0.0
 10
-10.46343
 20
9.2122
 30
0.0
  0
SPLINE
  5
56
330
1F
100
AcDbEntity
  8
layer 2
 62
     1
370
     0
100
AcDbSpline
210
0.0
220
0.0
230
1.0
 70
    24
 71
     3
 72
     8
 73
     4
 74
     0
 42
0.0000000001
 43
0.0000000001
 12
1.0
 22
0.0
 32
0.0
 13
1.0
 23
0.0
 33
0.0
 40
0.0
 40
0.0
 40
0.0
 40
0.0
 40
1.0
 40
1.0
 40
1.0
 40
1.0
 10
8.12607
 20
7.463
 30
0.0
 10
8.12607
 20
7.463
 30
0.0
 10
8.12607
 20
9.2122
 30
0.0
 10
8.12607
 20
9.2122
 30
0.0
  0
SPLINE
  5
57
330
1F
100
AcDbEntity
  8
layer 2
 62
     1
370
     0
100
AcDbSpline
210
0.0
220
0.0
230
1.0
 70
    24
 71
     3
 72
     8
 73
     4
 74
     0
 42
0.0000000001
 43
0.0000000001
 12
1.0
 22
0.0
 32
0.0
 13
1.0
 23
0.0
 33
0.0
 40
0.0
 40
0.0
 40
0.0
 40
0.0
 40
1.0
 40
1.0
 40
1.0
 40
1.0
 10
-9.85889
 20
8.90993
 30
0.0
 10
-9.85889
 20
8.90993
 30
0.0
 10
7.52153
 20
8.90993
 30
0.0
 10
7.52153
 20
8.90993
 30
0.0
  0
SPLINE
  5
58
330
1F
100
AcDbEntity
  8
layer 2
 62
     1
100
AcDbSpline
210
0.0
220
0.0
230
1.0
 70
    27
 71
     3
 72
    12
 73
     8
 74
     0
 42
0.0000000001
 43
0.0000000001
 12
1.0
 22
0.0
 32
0.0
 13
1.0
 23
0.0
 33
0.0
 40
0.0
 40
0.0
 40
0.0
 40
0.0
 40
0.3333333333333333
 40
0.3333333333333333
 40
0.3333333333333333
 40
0.3333333333333333
 40
1.0
 40
1.0
 40
1.0
 40
1.0
 10
-9.85889
 20
9.01068
 30
0.0
 10
-9.85889
 20
9.01068
 30
0.0
 10
-10.46343
 20
8.90993
 30
0.0
 10
-10.46343
 20
8.90993
 30
0.0
 10
-10.46343
 20
8.90993
 30
0.0
 10
-10.46343
 20
8.90993
 30
0.0
 10
-9.85889
 20
9.01068
 30
0.0
 10
-9.85889
 20
9.01068
 30
0.0
  0
SPLINE
  5
59
330
1F
100
AcDbEntity
  8
layer 2
 62
     1
100
AcDbSpline
210
0.0
220
0.0
230
1.0
 70
     8
 71
     3
 72
    12
 73
     8
 74
     0
 42
0.0000000001
 43
0.0000000001
 12
1.0
 22
0.0
 32
0.0
 13
1.0
 23
0.0
 33
0.0
 40
0.0
 40
0.0
 40
0.0
 40
0.0
 40
0.3333333333333333
 40
0.3333333333333333
 40
0.3333333333333333
 40
0.3333333333333333
 40
1.0
 40
1.0
 40
1.0
 40
1.0
 10
-10.46343
 20
8.90993
 30
0.0
 10
-10.46343
 20
8.90993
 30
0.0
 10
-9.85889
 20
8.80917
 30
0.0
 10
-9.85889
 20
8.80917
 30
0.0
 10
-9.85889
 20
8.80917
 30
0.0
 10
-9.85889
 20
8.80917
 30
0.0
 10
-9.85889
 20
9.01068
 30
0.0
 10
-9.85889
 20
9.01068
 30
0.0
  0
SPLINE
  5
5A
330
1F
100
AcDbEntity
  8
layer 2
 62
     1
370
     9
100
AcDbSpline
210
0.0
220
0.0
230
1.0
 70
    24
 71
     3
 72
     8
 73
     4
 74
     0
 42
0.0000000001
 43
0.0000000001
 12
1.0
 22
0.0
 32
0.0
 13
1.0
 23
0.0
 33
0.0
 40
0.0
 40
0.0
 40
0.0
 40
0.0
 40
1.0
 40
1.0
 40
1.0
 40
1.0
 10
-9.85889
 20
9.01068
 30
0.0
 10
-9.85889
 20
9.01068
 30
0.0
 10
-10.46343
 20
8.90993
 30
0.0
 10
-10.46343
 20
8.90993
 30
0.0
  0
SPLINE
  5
5B
330
1F
100
AcDbEntity
  8
layer 2
 62
     1
370
     9
100
AcDbSpline
210
0.0
220
0.0
230
1.0
 70
     8
 71
     3
 72
    12
 73
     8
 74
     0
 42
0.0000000001
 43
0.0000000001
 12
1.0
 22
0.0
 32
0.0
 13
1.0
 23
0.0
 33
0.0
 40
0.0
 40
0.0
 40
0.0
 40
0.0
 40
0.3333333333333333
 40
0.3333333333333333
 40
0.3333333333333333
 40
0.3333333333333333
 40
1.0
 40
1.0
 40
1.0
 40
1.0
 10
-10.46343
 20
8.90993
 30
0.0
 10
-10.46343
 20
8.90993
 30
0.0
 10
-9.85889
 20
8.80917
 30
0.0
 10
-9.85889
 20
8.80917
 30
0.0
 10
-9.85889
 20
8.80917
 30
0.0
 10
-9.85889
 20
8.80917
 30
0.0
 10
-9.85889
 20
9.01068
 30
0.0
 10
-9.85889
 20
9.01068
 30
0.0
  0
SPLINE
  5
5C
330
1F
100
AcDbEntity
  8
layer 2
 62
     1
100
AcDbSpline
210
0.0
220
0.0
230
1.0
 70
    27
 71
     3
 72
    12
 73
     8
 74
     0
 42
0.0000000001
 43
0.0000000001
 12
1.0
 22
0.0
 32
0.0
 13
1.0
 23
0.0
 33
0.0
 40
0.0
 40
0.0
 40
0.0
 40
0.0
 40
0.3333333333333333
 40
0.3333333333333333
 40
0.3333333333333333
 40
0.3333333333333333
 40
1.0
 40
1.0
 40
1.0
 40
1.0
 10
7.52153
 20
9.01068
 30
0.0
 10
7.52153
 20
9.01068
 30
0.0
 10
8.12607
 20
8.90993
 30
0.0
 10
8.12607
 20
8.90993
 30
0.0
 10
8.12607
 20
8.90993
 30
0.0
 10
8.12607
 20
8.90993
 30
0.0
 10
7.52153
 20
9.01068
 30
0.0
 10
7.52153
 20
9.01068
 30
0.0
  0
SPLINE
  5
5D
330
1F
100
AcDbEntity
  8
layer 2
 62
     1
100
AcDbSpline
210
0.0
220
0.0
230
1.0
 70
     8
 71
     3
 72
    12
 73
     8
 74
     0
 42
0.0000000001
 43
0.0000000001
 12
1.0
 22
0.0
 32
0.0
 13
1.0
 23
0.0
 33
0.0
 40
0.0
 40
0.0
 40
0.0
 40
0.0
 40
0.3333333333333333
 40
0.3333333333333333
 40
0.3333333333333333
 40
0.3333333333333333
 40
1.0
 40
1.0
 40
1.0
 40
1.0
 10
8.12607
 20
8.90993
 30
0.0
 10
8.12607
 20
8.90993
 30
0.0
 10
7.52153
 20
8.80917
 30
0.0
 10
7.52153
 20
8.80917
 30
0.0
 10
7.52153
 20
8.80917
 30
0.0
 10
7.52153
 20
8.80917
 30
0.0
 10
7.52153
 20
9.01068
 30
0.0
 10
7.52153
 20
9.01068
 30
0.0
  0
SPLINE
  5
5E
330
1F
100
AcDbEntity
  8
layer 2
 62
     1
370
     9
100
AcDbSpline
210
0.0
220
0.0
230
1.0
 70
    24
 71
     3
 72
     8
 73
     4
 74
     0
 42
0.0000000001
 43
0.0000000001
 12
1.0
 22
0.0
 32
0.0
 13
1.0
 23
0.0
 33
0.0
 40
0.0
 40
0.0
 40
0.0
 40
0.0
 40
1.0
 40
1.0
 40
1.0
 40
1.0
 10
7.52153
 20
9.01068
 30
0.0
 10
7.52153
 20
9.01068
 30
0.0
 10
8.12607
 20
8.90993
 30
0.0
 10
8.12607
 20
8.90993
 30
0.0
  0
SPLINE
  5
5F
330
1F
100
AcDbEntity
  8
layer 2
 62
     1
370
     9
100
AcDbSpline
210
0.0
220
0.0
230
1.0
 70
     8
 71
     3
 72
    12
 73
     8
 74
     0
 42
0.0000000001
 43
0.0000000001
 12
1.0
 22
0.0
 32
0.0
 13
1.0
 23
0.0
 33
0.0
 40
0.0
 40
0.0
 40
0.0
 40
0.0
 40
0.3333333333333333
 40
0.3333333333333333
 40
0.3333333333333333
 40
0.3333333333333333
 40
1.0
 40
1.0
 40
1.0
 40
1.0
 10
8.12607
 20
8.90993
 30
0.0
 10
8.12607
 20
8.90993
 30
0.0
 10
7.52153
 20
8.80917
 30
0.0
 10
7.52153
 20
8.80917
 30
0.0
 10
7.52153
 20
8.80917
 30
0.0
 10
7.52153
 20
8.80917
 30
0.0
 10
7.52153
 20
9.01068
 30
0.0
 10
7.52153
 20
9.01068
 30
0.0
  0
SPLINE
  5
60
330
1F
100
AcDbEntity
  8
layer 2
 62
     1
100
AcDbSpline
210
0.0
220
0.0
230
1.0
 70
    11
 71
     3
 72
    92
 73
    88
 74
     0
 42
0.0000000001
 43
0.0000000001
 12
1.0
 22
0.0
 32
0.0
 13
1.0
 23
0.0
 33
0.0
 40
0.0
 40
0.0
 40
0.0
 40
0.0
 40
0.0434782608695652
 40
0.0434782608695652
 40
0.0434782608695652
 40
0.0434782608695652
 40
0.0869565217391304
 40
0.0869565217391304
 40
0.0869565217391304
 40
0.0869565217391304
 40
0.1304347826086956
 40
0.1304347826086956
 40
0.1304347826086956
 40
0.1304347826086956
 40
0.1739130434782609
 40
0.1739130434782609
 40
0.1739130434782609
 40
0.1739130434782609
 40
0.2173913043478261
 40
0.2173913043478261
 40
0.2173913043478261
 40
0.2173913043478261
 40
0.2608695652173913
 40
0.2608695652173913
 40
0.2608695652173913
 40
0.2608695652173913
 40
0.3043478260869565
 40
0.3043478260869565
 40
0.3043478260869565
 40
0.3043478260869565
 40
0.3478260869565217
 40
0.3478260869565217
 40
0.3478260869565217
 40
0.3478260869565217
 40
0.391304347826087
 40
0.391304347826087
 40
0.391304347826087
 40
0.391304347826087
 40
0.4347826086956522
 40
0.4347826086956522
 40
0.4347826086956522
 40
0.4347826086956522
 40
0.4782608695652174
 40
0.4782608695652174
 40
0.4782608695652174
 40
0.4782608695652174
 40
0.5217391304347826
 40
0.5217391304347826
 40
0.5217391304347826
 40
0.5217391304347826
 40
0.5652173913043478
 40
0.5652173913043478
 40
0.5652173913043478
 40
0.5652173913043478
 40
0.6086956521739131
 40
0.6086956521739131
 40
0.6086956521739131
 40
0.6086956521739131
 40
0.6521739130434783
 40
0.6521739130434783
 40
0.6521739130434783
 40
0.6521739130434783
 40
0.6956521739130435
 40
0.6956521739130435
 40
0.6956521739130435
 40
0.6956521739130435
 40
0.7391304347826086
 40
0.7391304347826086
 40
0.7391304347826086
 40
0.7391304347826086
 40
0.782608695652174
 40
0.782608695652174
 40
0.782608695652174
 40
0.782608695652174
 40
0.8260869565217391
 40
0.8260869565217391
 40
0.8260869565217391
 40
0.8260869565217391
 40
0.8695652173913043
 40
0.8695652173913043
 40
0.8695652173913043
 40
0.8695652173913043
 40
0.9130434782608695
 40
0.9130434782608695
 40
0.9130434782608695
 40
0.9130434782608695
 40
1.0
 40
1.0
 40
1.0
 40
1.0
 10
-1.52889
 20
9.21508
 30
0.0
 10
-1.52889
 20
9.21508
 30
0.0
 10
-1.52889
 20
9.16836
 30
0.0
 10
-1.52889
 20
9.16836
 30
0.0
 10
-1.52889
 20
9.16836
 30
0.0
 10
-1.52889
 20
9.16836
 30
0.0
 10
-1.79252
 20
9.16836
 30
0.0
 10
-1.79252
 20
9.16836
 30
0.0
 10
-1.79252
 20
9.16836
 30
0.0
 10
-1.79289
 20
9.18014
 30
0.0
 10
-1.79094
 20
9.19145
 30
0.0
 10
-1.78678
 20
9.20239
 30
0.0
 10
-1.78678
 20
9.20239
 30
0.0
 10
-1.78001
 20
9.22028
 30
0.0
 10
-1.76916
 20
9.23797
 30
0.0
 10
-1.75424
 20
9.25531
 30
0.0
 10
-1.75424
 20
9.25531
 30
0.0
 10
-1.73931
 20
9.27265
 30
0.0
 10
-1.71799
 20
9.29267
 30
0.0
 10
-1.69028
 20
9.31538
 30
0.0
 10
-1.69028
 20
9.31538
 30
0.0
 10
-1.64718
 20
9.35088
 30
0.0
 10
-1.61789
 20
9.37896
 30
0.0
 10
-1.60259
 20
9.39973
 30
0.0
 10
-1.60259
 20
9.39973
 30
0.0
 10
-1.5872
 20
9.42049
 30
0.0
 10
-1.5795
 20
9.44015
 30
0.0
 10
-1.5795
 20
9.45869
 30
0.0
 10
-1.5795
 20
9.45869
 30
0.0
 10
-1.5795
 20
9.47806
 30
0.0
 10
-1.58646
 20
9.49438
 30
0.0
 10
-1.60036
 20
9.50772
 30
0.0
 10
-1.60036
 20
9.50772
 30
0.0
 10
-1.61427
 20
9.52098
 30
0.0
 10
-1.63244
 20
9.52765
 30
0.0
 10
-1.65477
 20
9.52765
 30
0.0
 10
-1.65477
 20
9.52765
 30
0.0
 10
-1.67841
 20
9.52765
 30
0.0
 10
-1.69732
 20
9.52061
 30
0.0
 10
-1.71151
 20
9.50652
 30
0.0
 10
-1.71151
 20
9.50652
 30
0.0
 10
-1.72569
 20
9.49253
 30
0.0
 10
-1.73283
 20
9.47305
 30
0.0
 10
-1.73301
 20
9.44812
 30
0.0
 10
-1.73301
 20
9.44812
 30
0.0
 10
-1.73301
 20
9.44812
 30
0.0
 10
-1.78307
 20
9.45313
 30
0.0
 10
-1.78307
 20
9.45313
 30
0.0
 10
-1.78307
 20
9.45313
 30
0.0
 10
-1.77964
 20
9.49058
 30
0.0
 10
-1.76666
 20
9.51913
 30
0.0
 10
-1.74423
 20
9.53877
 30
0.0
 10
-1.74423
 20
9.53877
 30
0.0
 10
-1.72171
 20
9.55843
 30
0.0
 10
-1.69157
 20
9.56826
 30
0.0
 10
-1.65367
 20
9.56826
 30
0.0
 10
-1.65367
 20
9.56826
 30
0.0
 10
-1.61548
 20
9.56826
 30
0.0
 10
-1.58516
 20
9.55769
 30
0.0
 10
-1.56292
 20
9.53646
 30
0.0
 10
-1.56292
 20
9.53646
 30
0.0
 10
-1.54058
 20
9.51524
 30
0.0
 10
-1.52946
 20
9.4889
 30
0.0
 10
-1.52946
 20
9.45757
 30
0.0
 10
-1.52946
 20
9.45757
 30
0.0
 10
-1.52946
 20
9.44163
 30
0.0
 10
-1.53269
 20
9.42597
 30
0.0
 10
-1.53928
 20
9.41058
 30
0.0
 10
-1.53928
 20
9.41058
 30
0.0
 10
-1.54576
 20
9.3951
 30
0.0
 10
-1.55661
 20
9.37887
 30
0.0
 10
-1.57172
 20
9.36182
 30
0.0
 10
-1.57172
 20
9.36182
 30
0.0
 10
-1.58693
 20
9.34486
 30
0.0
 10
-1.61205
 20
9.3214
 30
0.0
 10
-1.64708
 20
9.29175
 30
0.0
 10
-1.64708
 20
9.29175
 30
0.0
 10
-1.67647
 20
9.26709
 30
0.0
 10
-1.69537
 20
9.2504
 30
0.0
 10
-1.70371
 20
9.2416
 30
0.0
 10
-1.70371
 20
9.2416
 30
0.0
 10
-1.71206
 20
9.23279
 30
0.0
 10
-1.71892
 20
9.22398
 30
0.0
 10
-1.72439
 20
9.21508
 30
0.0
 10
-1.72439
 20
9.21508
 30
0.0
 10
-1.72439
 20
9.21508
 30
0.0
 10
-1.52889
 20
9.21508
 30
0.0
 10
-1.52889
 20
9.21508
 30
0.0
  0
SPLINE
  5
61
330
1F
100
AcDbEntity
  8
layer 2
 62
     1
100
AcDbSpline
210
0.0
220
0.0
230
1.0
 70
    11
 71
     3
 72
    48
 73
    44
 74
     0
 42
0.0000000001
 43
0.0000000001
 12
1.0
 22
0.0
 32
0.0
 13
1.0
 23
0.0
 33
0.0
 40
0.0
 40
0.0
 40
0.0
 40
0.0
 40
0.0833333333333333
 40
0.0833333333333333
 40
0.0833333333333333
 40
0.0833333333333333
 40
0.1666666666666667
 40
0.1666666666666667
 40
0.1666666666666667
 40
0.1666666666666667
 40
0.25
 40
0.25
 40
0.25
 40
0.25
 40
0.3333333333333333
 40
0.3333333333333333
 40
0.3333333333333333
 40
0.3333333333333333
 40
0.4166666666666667
 40
0.4166666666666667
 40
0.4166666666666667
 40
0.4166666666666667
 40
0.5
 40
0.5
 40
0.5
 40
0.5
 40
0.5833333333333334
 40
0.5833333333333334
 40
0.5833333333333334
 40
0.5833333333333334
 40
0.6666666666666666
 40
0.6666666666666666
 40
0.6666666666666666
 40
0.6666666666666666
 40
0.75
 40
0.75
 40
0.75
 40
0.75
 40
0.8333333333333334
 40
0.8333333333333334
 40
0.8333333333333334
 40
0.8333333333333334
 40
1.0
 40
1.0
 40
1.0
 40
1.0
 10
-1.31968
 20
9.16836
 30
0.0
 10
-1.31968
 20
9.16836
 30
0.0
 10
-1.31968
 20
9.26347
 30
0.0
 10
-1.31968
 20
9.26347
 30
0.0
 10
-1.31968
 20
9.26347
 30
0.0
 10
-1.31968
 20
9.26347
 30
0.0
 10
-1.49265
 20
9.26347
 30
0.0
 10
-1.49265
 20
9.26347
 30
0.0
 10
-1.49265
 20
9.26347
 30
0.0
 10
-1.49265
 20
9.26347
 30
0.0
 10
-1.49265
 20
9.30851
 30
0.0
 10
-1.49265
 20
9.30851
 30
0.0
 10
-1.49265
 20
9.30851
 30
0.0
 10
-1.49265
 20
9.30851
 30
0.0
 10
-1.31079
 20
9.56658
 30
0.0
 10
-1.31079
 20
9.56658
 30
0.0
 10
-1.31079
 20
9.56658
 30
0.0
 10
-1.31079
 20
9.56658
 30
0.0
 10
-1.27074
 20
9.56658
 30
0.0
 10
-1.27074
 20
9.56658
 30
0.0
 10
-1.27074
 20
9.56658
 30
0.0
 10
-1.27074
 20
9.56658
 30
0.0
 10
-1.27074
 20
9.30851
 30
0.0
 10
-1.27074
 20
9.30851
 30
0.0
 10
-1.27074
 20
9.30851
 30
0.0
 10
-1.27074
 20
9.30851
 30
0.0
 10
-1.21679
 20
9.30851
 30
0.0
 10
-1.21679
 20
9.30851
 30
0.0
 10
-1.21679
 20
9.30851
 30
0.0
 10
-1.21679
 20
9.30851
 30
0.0
 10
-1.21679
 20
9.26347
 30
0.0
 10
-1.21679
 20
9.26347
 30
0.0
 10
-1.21679
 20
9.26347
 30
0.0
 10
-1.21679
 20
9.26347
 30
0.0
 10
-1.27074
 20
9.26347
 30
0.0
 10
-1.27074
 20
9.26347
 30
0.0
 10
-1.27074
 20
9.26347
 30
0.0
 10
-1.27074
 20
9.26347
 30
0.0
 10
-1.27074
 20
9.16836
 30
0.0
 10
-1.27074
 20
9.16836
 30
0.0
 10
-1.27074
 20
9.16836
 30
0.0
 10
-1.27074
 20
9.16836
 30
0.0
 10
-1.31968
 20
9.16836
 30
0.0
 10
-1.31968
 20
9.16836
 30
0.0
  0
SPLINE
  5
62
330
1F
100
AcDbEntity
  8
layer 2
 62
     1
100
AcDbSpline
210
0.0
220
0.0
230
1.0
 70
    11
 71
     3
 72
    16
 73
    12
 74
     0
 42
0.0000000001
 43
0.0000000001
 12
1.0
 22
0.0
 32
0.0
 13
1.0
 23
0.0
 33
0.0
 40
0.0
 40
0.0
 40
0.0
 40
0.0
 40
0.25
 40
0.25
 40
0.25
 40
0.25
 40
0.5
 40
0.5
 40
0.5
 40
0.5
 40
1.0
 40
1.0
 40
1.0
 40
1.0
 10
-1.31968
 20
9.30851
 30
0.0
 10
-1.31968
 20
9.30851
 30
0.0
 10
-1.31968
 20
9.48771
 30
0.0
 10
-1.31968
 20
9.48771
 30
0.0
 10
-1.31968
 20
9.48771
 30
0.0
 10
-1.31968
 20
9.48771
 30
0.0
 10
-1.44455
 20
9.30851
 30
0.0
 10
-1.44455
 20
9.30851
 30
0.0
 10
-1.44455
 20
9.30851
 30
0.0
 10
-1.44455
 20
9.30851
 30
0.0
 10
-1.31968
 20
9.30851
 30
0.0
 10
-1.31968
 20
9.30851
 30
0.0
  0
SPLINE
  5
63
330
1F
100
AcDbEntity
  8
layer 2
 62
     1
100
AcDbSpline
210
0.0
220
0.0
230
1.0
 70
    11
 71
     3
 72
    20
 73
    16
 74
     0
 42
0.0000000001
 43
0.0000000001
 12
1.0
 22
0.0
 32
0.0
 13
1.0
 23
0.0
 33
0.0
 40
0.0
 40
0.0
 40
0.0
 40
0.0
 40
0.2
 40
0.2
 40
0.2
 40
0.2
 40
0.4
 40
0.4
 40
0.4
 40
0.4
 40
0.6
 40
0.6
 40
0.6
 40
0.6
 40
1.0
 40
1.0
 40
1.0
 40
1.0
 10
-1.13938
 20
9.16836
 30
0.0
 10
-1.13938
 20
9.16836
 30
0.0
 10
-1.13938
 20
9.22398
 30
0.0
 10
-1.13938
 20
9.22398
 30
0.0
 10
-1.13938
 20
9.22398
 30
0.0
 10
-1.13938
 20
9.22398
 30
0.0
 10
-1.08377
 20
9.22398
 30
0.0
 10
-1.08377
 20
9.22398
 30
0.0
 10
-1.08377
 20
9.22398
 30
0.0
 10
-1.08377
 20
9.22398
 30
0.0
 10
-1.08377
 20
9.16836
 30
0.0
 10
-1.08377
 20
9.16836
 30
0.0
 10
-1.08377
 20
9.16836
 30
0.0
 10
-1.08377
 20
9.16836
 30
0.0
 10
-1.13938
 20
9.16836
 30
0.0
 10
-1.13938
 20
9.16836
 30
0.0
  0
SPLINE
  5
64
330
1F
100
AcDbEntity
  8
layer 2
 62
     1
100
AcDbSpline
210
0.0
220
0.0
230
1.0
 70
    11
 71
     3
 72
    92
 73
    88
 74
     0
 42
0.0000000001
 43
0.0000000001
 12
1.0
 22
0.0
 32
0.0
 13
1.0
 23
0.0
 33
0.0
 40
0.0
 40
0.0
 40
0.0
 40
0.0
 40
0.0434782608695652
 40
0.0434782608695652
 40
0.0434782608695652
 40
0.0434782608695652
 40
0.0869565217391304
 40
0.0869565217391304
 40
0.0869565217391304
 40
0.0869565217391304
 40
0.1304347826086956
 40
0.1304347826086956
 40
0.1304347826086956
 40
0.1304347826086956
 40
0.1739130434782609
 40
0.1739130434782609
 40
0.1739130434782609
 40
0.1739130434782609
 40
0.2173913043478261
 40
0.2173913043478261
 40
0.2173913043478261
 40
0.2173913043478261
 40
0.2608695652173913
 40
0.2608695652173913
 40
0.2608695652173913
 40
0.2608695652173913
 40
0.3043478260869565
 40
0.3043478260869565
 40
0.3043478260869565
 40
0.3043478260869565
 40
0.3478260869565217
 40
0.3478260869565217
 40
0.3478260869565217
 40
0.3478260869565217
 40
0.391304347826087
 40
0.391304347826087
 40
0.391304347826087
 40
0.391304347826087
 40
0.4347826086956522
 40
0.4347826086956522
 40
0.4347826086956522
 40
0.4347826086956522
 40
0.4782608695652174
 40
0.4782608695652174
 40
0.4782608695652174
 40
0.4782608695652174
 40
0.5217391304347826
 40
0.5217391304347826
 40
0.5217391304347826
 40
0.5217391304347826
 40
0.5652173913043478
 40
0.5652173913043478
 40
0.5652173913043478
 40
0.5652173913043478
 40
0.6086956521739131
 40
0.6086956521739131
 40
0.6086956521739131
 40
0.6086956521739131
 40
0.6521739130434783
 40
0.6521739130434783
 40
0.6521739130434783
 40
0.6521739130434783
 40
0.6956521739130435
 40
0.6956521739130435
 40
0.6956521739130435
 40
0.6956521739130435
 40
0.7391304347826086
 40
0.7391304347826086
 40
0.7391304347826086
 40
0.7391304347826086
 40
0.782608695652174
 40
0.782608695652174
 40
0.782608695652174
 40
0.782608695652174
 40
0.8260869565217391
 40
0.8260869565217391
 40
0.8260869565217391
 40
0.8260869565217391
 40
0.8695652173913043
 40
0.8695652173913043
 40
0.8695652173913043
 40
0.8695652173913043
 40
0.9130434782608695
 40
0.9130434782608695
 40
0.9130434782608695
 40
0.9130434782608695
 40
1.0
 40
1.0
 40
1.0
 40
1.0
 10
-0.75572
 20
9.21508
 30
0.0
 10
-0.75572
 20
9.21508
 30
0.0
 10
-0.75572
 20
9.16836
 30
0.0
 10
-0.75572
 20
9.16836
 30
0.0
 10
-0.75572
 20
9.16836
 30
0.0
 10
-0.75572
 20
9.16836
 30
0.0
 10
-1.01935
 20
9.16836
 30
0.0
 10
-1.01935
 20
9.16836
 30
0.0
 10
-1.01935
 20
9.16836
 30
0.0
 10
-1.01972
 20
9.18014
 30
0.0
 10
-1.01778
 20
9.19145
 30
0.0
 10
-1.0136
 20
9.20239
 30
0.0
 10
-1.0136
 20
9.20239
 30
0.0
 10
-1.00683
 20
9.22028
 30
0.0
 10
-0.99598
 20
9.23797
 30
0.0
 10
-0.98107
 20
9.25531
 30
0.0
 10
-0.98107
 20
9.25531
 30
0.0
 10
-0.96614
 20
9.27265
 30
0.0
 10
-0.94481
 20
9.29267
 30
0.0
 10
-0.9171
 20
9.31538
 30
0.0
 10
-0.9171
 20
9.31538
 30
0.0
 10
-0.874
 20
9.35088
 30
0.0
 10
-0.84471
 20
9.37896
 30
0.0
 10
-0.82941
 20
9.39973
 30
0.0
 10
-0.82941
 20
9.39973
 30
0.0
 10
-0.81402
 20
9.42049
 30
0.0
 10
-0.80634
 20
9.44015
 30
0.0
 10
-0.80634
 20
9.45869
 30
0.0
 10
-0.80634
 20
9.45869
 30
0.0
 10
-0.80634
 20
9.47806
 30
0.0
 10
-0.81328
 20
9.49438
 30
0.0
 10
-0.82719
 20
9.50772
 30
0.0
 10
-0.82719
 20
9.50772
 30
0.0
 10
-0.8411
 20
9.52098
 30
0.0
 10
-0.85926
 20
9.52765
 30
0.0
 10
-0.88159
 20
9.52765
 30
0.0
 10
-0.88159
 20
9.52765
 30
0.0
 10
-0.90523
 20
9.52765
 30
0.0
 10
-0.92415
 20
9.52061
 30
0.0
 10
-0.93833
 20
9.50652
 30
0.0
 10
-0.93833
 20
9.50652
 30
0.0
 10
-0.95251
 20
9.49253
 30
0.0
 10
-0.95965
 20
9.47305
 30
0.0
 10
-0.95984
 20
9.44812
 30
0.0
 10
-0.95984
 20
9.44812
 30
0.0
 10
-0.95984
 20
9.44812
 30
0.0
 10
-1.00989
 20
9.45313
 30
0.0
 10
-1.00989
 20
9.45313
 30
0.0
 10
-1.00989
 20
9.45313
 30
0.0
 10
-1.00646
 20
9.49058
 30
0.0
 10
-0.99348
 20
9.51913
 30
0.0
 10
-0.97106
 20
9.53877
 30
0.0
 10
-0.97106
 20
9.53877
 30
0.0
 10
-0.94853
 20
9.55843
 30
0.0
 10
-0.9184
 20
9.56826
 30
0.0
 10
-0.88049
 20
9.56826
 30
0.0
 10
-0.88049
 20
9.56826
 30
0.0
 10
-0.8423
 20
9.56826
 30
0.0
 10
-0.81198
 20
9.55769
 30
0.0
 10
-0.78974
 20
9.53646
 30
0.0
 10
-0.78974
 20
9.53646
 30
0.0
 10
-0.7674
 20
9.51524
 30
0.0
 10
-0.75628
 20
9.4889
 30
0.0
 10
-0.75628
 20
9.45757
 30
0.0
 10
-0.75628
 20
9.45757
 30
0.0
 10
-0.75628
 20
9.44163
 30
0.0
 10
-0.75953
 20
9.42597
 30
0.0
 10
-0.7661
 20
9.41058
 30
0.0
 10
-0.7661
 20
9.41058
 30
0.0
 10
-0.77259
 20
9.3951
 30
0.0
 10
-0.78343
 20
9.37887
 30
0.0
 10
-0.79854
 20
9.36182
 30
0.0
 10
-0.79854
 20
9.36182
 30
0.0
 10
-0.81375
 20
9.34486
 30
0.0
 10
-0.83887
 20
9.3214
 30
0.0
 10
-0.87391
 20
9.29175
 30
0.0
 10
-0.87391
 20
9.29175
 30
0.0
 10
-0.90329
 20
9.26709
 30
0.0
 10
-0.92221
 20
9.2504
 30
0.0
 10
-0.93055
 20
9.2416
 30
0.0
 10
-0.93055
 20
9.2416
 30
0.0
 10
-0.93888
 20
9.23279
 30
0.0
 10
-0.94574
 20
9.22398
 30
0.0
 10
-0.95122
 20
9.21508
 30
0.0
 10
-0.95122
 20
9.21508
 30
0.0
 10
-0.95122
 20
9.21508
 30
0.0
 10
-0.75572
 20
9.21508
 30
0.0
 10
-0.75572
 20
9.21508
 30
0.0
  0
SPLINE
  5
65
330
1F
100
AcDbEntity
  8
layer 2
 62
     1
100
AcDbSpline
210
0.0
220
0.0
230
1.0
 70
    11
 71
     3
 72
    28
 73
    24
 74
     0
 42
0.0000000001
 43
0.0000000001
 12
1.0
 22
0.0
 32
0.0
 13
1.0
 23
0.0
 33
0.0
 40
0.0
 40
0.0
 40
0.0
 40
0.0
 40
0.1428571428571428
 40
0.1428571428571428
 40
0.1428571428571428
 40
0.1428571428571428
 40
0.2857142857142857
 40
0.2857142857142857
 40
0.2857142857142857
 40
0.2857142857142857
 40
0.4285714285714285
 40
0.4285714285714285
 40
0.4285714285714285
 40
0.4285714285714285
 40
0.5714285714285714
 40
0.5714285714285714
 40
0.5714285714285714
 40
0.5714285714285714
 40
0.7142857142857143
 40
0.7142857142857143
 40
0.7142857142857143
 40
0.7142857142857143
 40
1.0
 40
1.0
 40
1.0
 40
1.0
 10
-0.68704
 20
9.42588
 30
0.0
 10
-0.68704
 20
9.42588
 30
0.0
 10
-0.70056
 20
9.50151
 30
0.0
 10
-0.70056
 20
9.50151
 30
0.0
 10
-0.70056
 20
9.50151
 30
0.0
 10
-0.70056
 20
9.50151
 30
0.0
 10
-0.70056
 20
9.56658
 30
0.0
 10
-0.70056
 20
9.56658
 30
0.0
 10
-0.70056
 20
9.56658
 30
0.0
 10
-0.70056
 20
9.56658
 30
0.0
 10
-0.64495
 20
9.56658
 30
0.0
 10
-0.64495
 20
9.56658
 30
0.0
 10
-0.64495
 20
9.56658
 30
0.0
 10
-0.64495
 20
9.56658
 30
0.0
 10
-0.64495
 20
9.50151
 30
0.0
 10
-0.64495
 20
9.50151
 30
0.0
 10
-0.64495
 20
9.50151
 30
0.0
 10
-0.64495
 20
9.50151
 30
0.0
 10
-0.65719
 20
9.42588
 30
0.0
 10
-0.65719
 20
9.42588
 30
0.0
 10
-0.65719
 20
9.42588
 30
0.0
 10
-0.65719
 20
9.42588
 30
0.0
 10
-0.68704
 20
9.42588
 30
0.0
 10
-0.68704
 20
9.42588
 30
0.0
  0
SPLINE
  5
66
330
1F
100
AcDbEntity
  8
layer 2
 62
     1
100
AcDbSpline
210
0.0
220
0.0
230
1.0
 70
    11
 71
     3
 72
    28
 73
    24
 74
     0
 42
0.0000000001
 43
0.0000000001
 12
1.0
 22
0.0
 32
0.0
 13
1.0
 23
0.0
 33
0.0
 40
0.0
 40
0.0
 40
0.0
 40
0.0
 40
0.1428571428571428
 40
0.1428571428571428
 40
0.1428571428571428
 40
0.1428571428571428
 40
0.2857142857142857
 40
0.2857142857142857
 40
0.2857142857142857
 40
0.2857142857142857
 40
0.4285714285714285
 40
0.4285714285714285
 40
0.4285714285714285
 40
0.4285714285714285
 40
0.5714285714285714
 40
0.5714285714285714
 40
0.5714285714285714
 40
0.5714285714285714
 40
0.7142857142857143
 40
0.7142857142857143
 40
0.7142857142857143
 40
0.7142857142857143
 40
1.0
 40
1.0
 40
1.0
 40
1.0
 10
-0.59721
 20
9.42588
 30
0.0
 10
-0.59721
 20
9.42588
 30
0.0
 10
-0.61047
 20
9.50151
 30
0.0
 10
-0.61047
 20
9.50151
 30
0.0
 10
-0.61047
 20
9.50151
 30
0.0
 10
-0.61047
 20
9.50151
 30
0.0
 10
-0.61047
 20
9.56658
 30
0.0
 10
-0.61047
 20
9.56658
 30
0.0
 10
-0.61047
 20
9.56658
 30
0.0
 10
-0.61047
 20
9.56658
 30
0.0
 10
-0.55485
 20
9.56658
 30
0.0
 10
-0.55485
 20
9.56658
 30
0.0
 10
-0.55485
 20
9.56658
 30
0.0
 10
-0.55485
 20
9.56658
 30
0.0
 10
-0.55485
 20
9.50151
 30
0.0
 10
-0.55485
 20
9.50151
 30
0.0
 10
-0.55485
 20
9.50151
 30
0.0
 10
-0.55485
 20
9.50151
 30
0.0
 10
-0.56792
 20
9.42588
 30
0.0
 10
-0.56792
 20
9.42588
 30
0.0
 10
-0.56792
 20
9.42588
 30
0.0
 10
-0.56792
 20
9.42588
 30
0.0
 10
-0.59721
 20
9.42588
 30
0.0
 10
-0.59721
 20
9.42588
 30
0.0
  0
SPLINE
  5
67
330
1F
100
AcDbEntity
  8
layer 2
 62
     1
370
     0
100
AcDbSpline
210
0.0
220
0.0
230
1.0
 70
    24
 71
     3
 72
     8
 73
     4
 74
     0
 42
0.0000000001
 43
0.0000000001
 12
1.0
 22
0.0
 32
0.0
 13
1.0
 23
0.0
 33
0.0
 40
0.0
 40
0.0
 40
0.0
 40
0.0
 40
1.0
 40
1.0
 40
1.0
 40
1.0
 10
8.2772
 20
7.31186
 30
0.0
 10
8.2772
 20
7.31186
 30
0.0
 10
10.23347
 20
7.31186
 30
0.0
 10
10.23347
 20
7.31186
 30
0.0
  0
SPLINE
  5
68
330
1F
100
AcDbEntity
  8
layer 2
 62
     1
370
     0
100
AcDbSpline
210
0.0
220
0.0
230
1.0
 70
    24
 71
     3
 72
     8
 73
     4
 74
     0
 42
0.0000000001
 43
0.0000000001
 12
1.0
 22
0.0
 32
0.0
 13
1.0
 23
0.0
 33
0.0
 40
0.0
 40
0.0
 40
0.0
 40
0.0
 40
1.0
 40
1.0
 40
1.0
 40
1.0
 10
8.2772
 20
-7.43883
 30
0.0
 10
8.2772
 20
-7.43883
 30
0.0
 10
10.23347
 20
-7.43883
 30
0.0
 10
10.23347
 20
-7.43883
 30
0.0
  0
SPLINE
  5
69
330
1F
100
AcDbEntity
  8
layer 2
 62
     1
370
     0
100
AcDbSpline
210
0.0
220
0.0
230
1.0
 70
    24
 71
     3
 72
     8
 73
     4
 74
     0
 42
0.0000000001
 43
0.0000000001
 12
1.0
 22
0.0
 32
0.0
 13
1.0
 23
0.0
 33
0.0
 40
0.0
 40
0.0
 40
0.0
 40
0.0
 40
1.0
 40
1.0
 40
1.0
 40
1.0
 10
9.9312
 20
6.70732
 30
0.0
 10
9.9312
 20
6.70732
 30
0.0
 10
9.9312
 20
-6.8343
 30
0.0
 10
9.9312
 20
-6.8343
 30
0.0
  0
SPLINE
  5
6A
330
1F
100
AcDbEntity
  8
layer 2
 62
     1
100
AcDbSpline
210
0.0
220
0.0
230
1.0
 70
    27
 71
     3
 72
    12
 73
     8
 74
     0
 42
0.0000000001
 43
0.0000000001
 12
1.0
 22
0.0
 32
0.0
 13
1.0
 23
0.0
 33
0.0
 40
0.0
 40
0.0
 40
0.0
 40
0.0
 40
0.3333333333333333
 40
0.3333333333333333
 40
0.3333333333333333
 40
0.3333333333333333
 40
1.0
 40
1.0
 40
1.0
 40
1.0
 10
9.83044
 20
6.70732
 30
0.0
 10
9.83044
 20
6.70732
 30
0.0
 10
9.9312
 20
7.31186
 30
0.0
 10
9.9312
 20
7.31186
 30
0.0
 10
9.9312
 20
7.31186
 30
0.0
 10
9.9312
 20
7.31186
 30
0.0
 10
9.83044
 20
6.70732
 30
0.0
 10
9.83044
 20
6.70732
 30
0.0
  0
SPLINE
  5
6B
330
1F
100
AcDbEntity
  8
layer 2
 62
     1
100
AcDbSpline
210
0.0
220
0.0
230
1.0
 70
     8
 71
     3
 72
    12
 73
     8
 74
     0
 42
0.0000000001
 43
0.0000000001
 12
1.0
 22
0.0
 32
0.0
 13
1.0
 23
0.0
 33
0.0
 40
0.0
 40
0.0
 40
0.0
 40
0.0
 40
0.3333333333333333
 40
0.3333333333333333
 40
0.3333333333333333
 40
0.3333333333333333
 40
1.0
 40
1.0
 40
1.0
 40
1.0
 10
9.9312
 20
7.31186
 30
0.0
 10
9.9312
 20
7.31186
 30
0.0
 10
10.03196
 20
6.70732
 30
0.0
 10
10.03196
 20
6.70732
 30
0.0
 10
10.03196
 20
6.70732
 30
0.0
 10
10.03196
 20
6.70732
 30
0.0
 10
9.83044
 20
6.70732
 30
0.0
 10
9.83044
 20
6.70732
 30
0.0
  0
SPLINE
  5
6C
330
1F
100
AcDbEntity
  8
layer 2
 62
     1
370
     9
100
AcDbSpline
210
0.0
220
0.0
230
1.0
 70
    24
 71
     3
 72
     8
 73
     4
 74
     0
 42
0.0000000001
 43
0.0000000001
 12
1.0
 22
0.0
 32
0.0
 13
1.0
 23
0.0
 33
0.0
 40
0.0
 40
0.0
 40
0.0
 40
0.0
 40
1.0
 40
1.0
 40
1.0
 40
1.0
 10
9.83044
 20
6.70732
 30
0.0
 10
9.83044
 20
6.70732
 30
0.0
 10
9.9312
 20
7.31186
 30
0.0
 10
9.9312
 20
7.31186
 30
0.0
  0
SPLINE
  5
6D
330
1F
100
AcDbEntity
  8
layer 2
 62
     1
370
     9
100
AcDbSpline
210
0.0
220
0.0
230
1.0
 70
     8
 71
     3
 72
    12
 73
     8
 74
     0
 42
0.0000000001
 43
0.0000000001
 12
1.0
 22
0.0
 32
0.0
 13
1.0
 23
0.0
 33
0.0
 40
0.0
 40
0.0
 40
0.0
 40
0.0
 40
0.3333333333333333
 40
0.3333333333333333
 40
0.3333333333333333
 40
0.3333333333333333
 40
1.0
 40
1.0
 40
1.0
 40
1.0
 10
9.9312
 20
7.31186
 30
0.0
 10
9.9312
 20
7.31186
 30
0.0
 10
10.03196
 20
6.70732
 30
0.0
 10
10.03196
 20
6.70732
 30
0.0
 10
10.03196
 20
6.70732
 30
0.0
 10
10.03196
 20
6.70732
 30
0.0
 10
9.83044
 20
6.70732
 30
0.0
 10
9.83044
 20
6.70732
 30
0.0
  0
SPLINE
  5
6E
330
1F
100
AcDbEntity
  8
layer 2
 62
     1
100
AcDbSpline
210
0.0
220
0.0
230
1.0
 70
    27
 71
     3
 72
    12
 73
     8
 74
     0
 42
0.0000000001
 43
0.0000000001
 12
1.0
 22
0.0
 32
0.0
 13
1.0
 23
0.0
 33
0.0
 40
0.0
 40
0.0
 40
0.0
 40
0.0
 40
0.3333333333333333
 40
0.3333333333333333
 40
0.3333333333333333
 40
0.3333333333333333
 40
1.0
 40
1.0
 40
1.0
 40
1.0
 10
9.83044
 20
-6.8343
 30
0.0
 10
9.83044
 20
-6.8343
 30
0.0
 10
9.9312
 20
-7.43883
 30
0.0
 10
9.9312
 20
-7.43883
 30
0.0
 10
9.9312
 20
-7.43883
 30
0.0
 10
9.9312
 20
-7.43883
 30
0.0
 10
9.83044
 20
-6.8343
 30
0.0
 10
9.83044
 20
-6.8343
 30
0.0
  0
SPLINE
  5
6F
330
1F
100
AcDbEntity
  8
layer 2
 62
     1
100
AcDbSpline
210
0.0
220
0.0
230
1.0
 70
     8
 71
     3
 72
    12
 73
     8
 74
     0
 42
0.0000000001
 43
0.0000000001
 12
1.0
 22
0.0
 32
0.0
 13
1.0
 23
0.0
 33
0.0
 40
0.0
 40
0.0
 40
0.0
 40
0.0
 40
0.3333333333333333
 40
0.3333333333333333
 40
0.3333333333333333
 40
0.3333333333333333
 40
1.0
 40
1.0
 40
1.0
 40
1.0
 10
9.9312
 20
-7.43883
 30
0.0
 10
9.9312
 20
-7.43883
 30
0.0
 10
10.03196
 20
-6.8343
 30
0.0
 10
10.03196
 20
-6.8343
 30
0.0
 10
10.03196
 20
-6.8343
 30
0.0
 10
10.03196
 20
-6.8343
 30
0.0
 10
9.83044
 20
-6.8343
 30
0.0
 10
9.83044
 20
-6.8343
 30
0.0
  0
SPLINE
  5
70
330
1F
100
AcDbEntity
  8
layer 2
 62
     1
370
     9
100
AcDbSpline
210
0.0
220
0.0
230
1.0
 70
    24
 71
     3
 72
     8
 73
     4
 74
     0
 42
0.0000000001
 43
0.0000000001
 12
1.0
 22
0.0
 32
0.0
 13
1.0
 23
0.0
 33
0.0
 40
0.0
 40
0.0
 40
0.0
 40
0.0
 40
1.0
 40
1.0
 40
1.0
 40
1.0
 10
9.83044
 20
-6.8343
 30
0.0
 10
9.83044
 20
-6.8343
 30
0.0
 10
9.9312
 20
-7.43883
 30
0.0
 10
9.9312
 20
-7.43883
 30
0.0
  0
SPLINE
  5
71
330
1F
100
AcDbEntity
  8
layer 2
 62
     1
370
     9
100
AcDbSpline
210
0.0
220
0.0
230
1.0
 70
     8
 71
     3
 72
    12
 73
     8
 74
     0
 42
0.0000000001
 43
0.0000000001
 12
1.0
 22
0.0
 32
0.0
 13
1.0
 23
0.0
 33
0.0
 40
0.0
 40
0.0
 40
0.0
 40
0.0
 40
0.3333333333333333
 40
0.3333333333333333
 40
0.3333333333333333
 40
0.3333333333333333
 40
1.0
 40
1.0
 40
1.0
 40
1.0
 10
9.9312
 20
-7.43883
 30
0.0
 10
9.9312
 20
-7.43883
 30
0.0
 10
10.03196
 20
-6.8343
 30
0.0
 10
10.03196
 20
-6.8343
 30
0.0
 10
10.03196
 20
-6.8343
 30
0.0
 10
10.03196
 20
-6.8343
 30
0.0
 10
9.83044
 20
-6.8343
 30
0.0
 10
9.83044
 20
-6.8343
 30
0.0
  0
SPLINE
  5
72
330
1F
100
AcDbEntity
  8
layer 2
 62
     1
100
AcDbSpline
210
0.0
220
0.0
230
1.0
 70
    11
 71
     3
 72
    40
 73
    36
 74
     0
 42
0.0000000001
 43
0.0000000001
 12
1.0
 22
0.0
 32
0.0
 13
1.0
 23
0.0
 33
0.0
 40
0.0
 40
0.0
 40
0.0
 40
0.0
 40
0.1
 40
0.1
 40
0.1
 40
0.1
 40
0.2
 40
0.2
 40
0.2
 40
0.2
 40
0.3
 40
0.3
 40
0.3
 40
0.3
 40
0.4
 40
0.4
 40
0.4
 40
0.4
 40
0.5
 40
0.5
 40
0.5
 40
0.5
 40
0.6
 40
0.6
 40
0.6
 40
0.6
 40
0.7
 40
0.7
 40
0.7
 40
0.7
 40
0.8
 40
0.8
 40
0.8
 40
0.8
 40
1.0
 40
1.0
 40
1.0
 40
1.0
 10
9.67276
 20
1.51626
 30
0.0
 10
9.67276
 20
1.51626
 30
0.0
 10
9.67276
 20
1.46731
 30
0.0
 10
9.67276
 20
1.46731
 30
0.0
 10
9.67276
 20
1.46731
 30
0.0
 10
9.67276
 20
1.46731
 30
0.0
 10
9.36112
 20
1.46731
 30
0.0
 10
9.36112
 20
1.46731
 30
0.0
 10
9.36112
 20
1.46731
 30
0.0
 10
9.37243
 20
1.45554
 30
0.0
 10
9.38364
 20
1.44006
 30
0.0
 10
9.39485
 20
1.42096
 30
0.0
 10
9.39485
 20
1.42096
 30
0.0
 10
9.40608
 20
1.40187
 30
0.0
 10
9.41451
 20
1.38462
 30
0.0
 10
9.42008
 20
1.36943
 30
0.0
 10
9.42008
 20
1.36943
 30
0.0
 10
9.42008
 20
1.36943
 30
0.0
 10
9.3728
 20
1.36943
 30
0.0
 10
9.3728
 20
1.36943
 30
0.0
 10
9.3728
 20
1.36943
 30
0.0
 10
9.36
 20
1.39677
 30
0.0
 10
9.34443
 20
1.42069
 30
0.0
 10
9.32608
 20
1.44117
 30
0.0
 10
9.32608
 20
1.44117
 30
0.0
 10
9.30782
 20
1.46166
 30
0.0
 10
9.29012
 20
1.47621
 30
0.0
 10
9.27288
 20
1.48473
 30
0.0
 10
9.27288
 20
1.48473
 30
0.0
 10
9.27288
 20
1.48473
 30
0.0
 10
9.27288
 20
1.51626
 30
0.0
 10
9.27288
 20
1.51626
 30
0.0
 10
9.27288
 20
1.51626
 30
0.0
 10
9.27288
 20
1.51626
 30
0.0
 10
9.67276
 20
1.51626
 30
0.0
 10
9.67276
 20
1.51626
 30
0.0
  0
SPLINE
  5
73
330
1F
100
AcDbEntity
  8
layer 2
 62
     1
100
AcDbSpline
210
0.0
220
0.0
230
1.0
 70
    11
 71
     3
 72
    92
 73
    88
 74
     0
 42
0.0000000001
 43
0.0000000001
 12
1.0
 22
0.0
 32
0.0
 13
1.0
 23
0.0
 33
0.0
 40
0.0
 40
0.0
 40
0.0
 40
0.0
 40
0.0434782608695652
 40
0.0434782608695652
 40
0.0434782608695652
 40
0.0434782608695652
 40
0.0869565217391304
 40
0.0869565217391304
 40
0.0869565217391304
 40
0.0869565217391304
 40
0.1304347826086956
 40
0.1304347826086956
 40
0.1304347826086956
 40
0.1304347826086956
 40
0.1739130434782609
 40
0.1739130434782609
 40
0.1739130434782609
 40
0.1739130434782609
 40
0.2173913043478261
 40
0.2173913043478261
 40
0.2173913043478261
 40
0.2173913043478261
 40
0.2608695652173913
 40
0.2608695652173913
 40
0.2608695652173913
 40
0.2608695652173913
 40
0.3043478260869565
 40
0.3043478260869565
 40
0.3043478260869565
 40
0.3043478260869565
 40
0.3478260869565217
 40
0.3478260869565217
 40
0.3478260869565217
 40
0.3478260869565217
 40
0.391304347826087
 40
0.391304347826087
 40
0.391304347826087
 40
0.391304347826087
 40
0.4347826086956522
 40
0.4347826086956522
 40
0.4347826086956522
 40
0.4347826086956522
 40
0.4782608695652174
 40
0.4782608695652174
 40
0.4782608695652174
 40
0.4782608695652174
 40
0.5217391304347826
 40
0.5217391304347826
 40
0.5217391304347826
 40
0.5217391304347826
 40
0.5652173913043478
 40
0.5652173913043478
 40
0.5652173913043478
 40
0.5652173913043478
 40
0.6086956521739131
 40
0.6086956521739131
 40
0.6086956521739131
 40
0.6086956521739131
 40
0.6521739130434783
 40
0.6521739130434783
 40
0.6521739130434783
 40
0.6521739130434783
 40
0.6956521739130435
 40
0.6956521739130435
 40
0.6956521739130435
 40
0.6956521739130435
 40
0.7391304347826086
 40
0.7391304347826086
 40
0.7391304347826086
 40
0.7391304347826086
 40
0.782608695652174
 40
0.782608695652174
 40
0.782608695652174
 40
0.782608695652174
 40
0.8260869565217391
 40
0.8260869565217391
 40
0.8260869565217391
 40
0.8260869565217391
 40
0.8695652173913043
 40
0.8695652173913043
 40
0.8695652173913043
 40
0.8695652173913043
 40
0.9130434782608695
 40
0.9130434782608695
 40
0.9130434782608695
 40
0.9130434782608695
 40
1.0
 40
1.0
 40
1.0
 40
1.0
 10
9.58044
 20
1.64927
 30
0.0
 10
9.58044
 20
1.64927
 30
0.0
 10
9.57655
 20
1.69599
 30
0.0
 10
9.57655
 20
1.69599
 30
0.0
 10
9.57655
 20
1.69599
 30
0.0
 10
9.59861
 20
1.69999
 30
0.0
 10
9.61454
 20
1.70758
 30
0.0
 10
9.62447
 20
1.71879
 30
0.0
 10
9.62447
 20
1.71879
 30
0.0
 10
9.63439
 20
1.73002
 30
0.0
 10
9.63939
 20
1.74437
 30
0.0
 10
9.63939
 20
1.76199
 30
0.0
 10
9.63939
 20
1.76199
 30
0.0
 10
9.63939
 20
1.77701
 30
0.0
 10
9.63596
 20
1.79017
 30
0.0
 10
9.629
 20
1.80157
 30
0.0
 10
9.629
 20
1.80157
 30
0.0
 10
9.62215
 20
1.81297
 30
0.0
 10
9.61297
 20
1.82225
 30
0.0
 10
9.60138
 20
1.82937
 30
0.0
 10
9.60138
 20
1.82937
 30
0.0
 10
9.58989
 20
1.83652
 30
0.0
 10
9.57432
 20
1.84255
 30
0.0
 10
9.55476
 20
1.84746
 30
0.0
 10
9.55476
 20
1.84746
 30
0.0
 10
9.5352
 20
1.85237
 30
0.0
 10
9.51527
 20
1.85478
 30
0.0
 10
9.49497
 20
1.85478
 30
0.0
 10
9.49497
 20
1.85478
 30
0.0
 10
9.49283
 20
1.85478
 30
0.0
 10
9.48951
 20
1.85469
 30
0.0
 10
9.48515
 20
1.85451
 30
0.0
 10
9.48515
 20
1.85451
 30
0.0
 10
9.50072
 20
1.84476
 30
0.0
 10
9.51342
 20
1.83142
 30
0.0
 10
9.52306
 20
1.81455
 30
0.0
 10
9.52306
 20
1.81455
 30
0.0
 10
9.53279
 20
1.79768
 30
0.0
 10
9.53761
 20
1.77933
 30
0.0
 10
9.53761
 20
1.75967
 30
0.0
 10
9.53761
 20
1.75967
 30
0.0
 10
9.53761
 20
1.72677
 30
0.0
 10
9.52565
 20
1.69895
 30
0.0
 10
9.50174
 20
1.67615
 30
0.0
 10
9.50174
 20
1.67615
 30
0.0
 10
9.47792
 20
1.65344
 30
0.0
 10
9.4464
 20
1.64204
 30
0.0
 10
9.40728
 20
1.64204
 30
0.0
 10
9.40728
 20
1.64204
 30
0.0
 10
9.36687
 20
1.64204
 30
0.0
 10
9.33442
 20
1.65391
 30
0.0
 10
9.30976
 20
1.67773
 30
0.0
 10
9.30976
 20
1.67773
 30
0.0
 10
9.2852
 20
1.70145
 30
0.0
 10
9.27288
 20
1.73121
 30
0.0
 10
9.27288
 20
1.76708
 30
0.0
 10
9.27288
 20
1.76708
 30
0.0
 10
9.27288
 20
1.79286
 30
0.0
 10
9.27982
 20
1.8165
 30
0.0
 10
9.29382
 20
1.838
 30
0.0
 10
9.29382
 20
1.838
 30
0.0
 10
9.30773
 20
1.85942
 30
0.0
 10
9.32756
 20
1.87563
 30
0.0
 10
9.35343
 20
1.88676
 30
0.0
 10
9.35343
 20
1.88676
 30
0.0
 10
9.37919
 20
1.89788
 30
0.0
 10
9.41655
 20
1.90345
 30
0.0
 10
9.46541
 20
1.90345
 30
0.0
 10
9.46541
 20
1.90345
 30
0.0
 10
9.51629
 20
1.90345
 30
0.0
 10
9.5568
 20
1.89798
 30
0.0
 10
9.58692
 20
1.88695
 30
0.0
 10
9.58692
 20
1.88695
 30
0.0
 10
9.61715
 20
1.87592
 30
0.0
 10
9.64004
 20
1.85942
 30
0.0
 10
9.6558
 20
1.83764
 30
0.0
 10
9.6558
 20
1.83764
 30
0.0
 10
9.67156
 20
1.81584
 30
0.0
 10
9.67944
 20
1.79036
 30
0.0
 10
9.67944
 20
1.76106
 30
0.0
 10
9.67944
 20
1.76106
 30
0.0
 10
9.67944
 20
1.72991
 30
0.0
 10
9.67081
 20
1.70452
 30
0.0
 10
9.65348
 20
1.68478
 30
0.0
 10
9.65348
 20
1.68478
 30
0.0
 10
9.63614
 20
1.66512
 30
0.0
 10
9.61177
 20
1.65326
 30
0.0
 10
9.58044
 20
1.64927
 30
0.0
  0
SPLINE
  5
74
330
1F
100
AcDbEntity
  8
layer 2
 62
     1
100
AcDbSpline
210
0.0
220
0.0
230
1.0
 70
    11
 71
     3
 72
    36
 73
    32
 74
     0
 42
0.0000000001
 43
0.0000000001
 12
1.0
 22
0.0
 32
0.0
 13
1.0
 23
0.0
 33
0.0
 40
0.0
 40
0.0
 40
0.0
 40
0.0
 40
0.1111111111111111
 40
0.1111111111111111
 40
0.1111111111111111
 40
0.1111111111111111
 40
0.2222222222222222
 40
0.2222222222222222
 40
0.2222222222222222
 40
0.2222222222222222
 40
0.3333333333333333
 40
0.3333333333333333
 40
0.3333333333333333
 40
0.3333333333333333
 40
0.4444444444444444
 40
0.4444444444444444
 40
0.4444444444444444
 40
0.4444444444444444
 40
0.5555555555555556
 40
0.5555555555555556
 40
0.5555555555555556
 40
0.5555555555555556
 40
0.6666666666666666
 40
0.6666666666666666
 40
0.6666666666666666
 40
0.6666666666666666
 40
0.7777777777777778
 40
0.7777777777777778
 40
0.7777777777777778
 40
0.7777777777777778
 40
1.0
 40
1.0
 40
1.0
 40
1.0
 10
9.40478
 20
1.84894
 30
0.0
 10
9.37678
 20
1.84894
 30
0.0
 10
9.35454
 20
1.84153
 30
0.0
 10
9.33813
 20
1.82669
 30
0.0
 10
9.33813
 20
1.82669
 30
0.0
 10
9.32172
 20
1.81195
 30
0.0
 10
9.31348
 20
1.79397
 30
0.0
 10
9.31348
 20
1.77283
 30
0.0
 10
9.31348
 20
1.77283
 30
0.0
 10
9.31348
 20
1.75096
 30
0.0
 10
9.32228
 20
1.73205
 30
0.0
 10
9.33999
 20
1.71611
 30
0.0
 10
9.33999
 20
1.71611
 30
0.0
 10
9.35768
 20
1.70008
 30
0.0
 10
9.38068
 20
1.6921
 30
0.0
 10
9.40885
 20
1.6921
 30
0.0
 10
9.40885
 20
1.6921
 30
0.0
 10
9.43417
 20
1.6921
 30
0.0
 10
9.45475
 20
1.6997
 30
0.0
 10
9.4705
 20
1.71481
 30
0.0
 10
9.4705
 20
1.71481
 30
0.0
 10
9.48635
 20
1.73002
 30
0.0
 10
9.49423
 20
1.74892
 30
0.0
 10
9.49423
 20
1.77145
 30
0.0
 10
9.49423
 20
1.77145
 30
0.0
 10
9.49423
 20
1.79406
 30
0.0
 10
9.48635
 20
1.81261
 30
0.0
 10
9.4705
 20
1.82716
 30
0.0
 10
9.4705
 20
1.82716
 30
0.0
 10
9.45475
 20
1.84171
 30
0.0
 10
9.43277
 20
1.84894
 30
0.0
 10
9.40478
 20
1.84894
 30
0.0
  0
SPLINE
  5
75
330
1F
100
AcDbEntity
  8
layer 2
 62
     1
100
AcDbSpline
210
0.0
220
0.0
230
1.0
 70
    11
 71
     3
 72
    20
 73
    16
 74
     0
 42
0.0000000001
 43
0.0000000001
 12
1.0
 22
0.0
 32
0.0
 13
1.0
 23
0.0
 33
0.0
 40
0.0
 40
0.0
 40
0.0
 40
0.0
 40
0.2
 40
0.2
 40
0.2
 40
0.2
 40
0.4
 40
0.4
 40
0.4
 40
0.4
 40
0.6
 40
0.6
 40
0.6
 40
0.6
 40
1.0
 40
1.0
 40
1.0
 40
1.0
 10
9.67276
 20
1.97863
 30
0.0
 10
9.67276
 20
1.97863
 30
0.0
 10
9.61715
 20
1.97863
 30
0.0
 10
9.61715
 20
1.97863
 30
0.0
 10
9.61715
 20
1.97863
 30
0.0
 10
9.61715
 20
1.97863
 30
0.0
 10
9.61715
 20
2.03424
 30
0.0
 10
9.61715
 20
2.03424
 30
0.0
 10
9.61715
 20
2.03424
 30
0.0
 10
9.61715
 20
2.03424
 30
0.0
 10
9.67276
 20
2.03424
 30
0.0
 10
9.67276
 20
2.03424
 30
0.0
 10
9.67276
 20
2.03424
 30
0.0
 10
9.67276
 20
2.03424
 30
0.0
 10
9.67276
 20
1.97863
 30
0.0
 10
9.67276
 20
1.97863
 30
0.0
  0
SPLINE
  5
76
330
1F
100
AcDbEntity
  8
layer 2
 62
     1
100
AcDbSpline
210
0.0
220
0.0
230
1.0
 70
    11
 71
     3
 72
    92
 73
    88
 74
     0
 42
0.0000000001
 43
0.0000000001
 12
1.0
 22
0.0
 32
0.0
 13
1.0
 23
0.0
 33
0.0
 40
0.0
 40
0.0
 40
0.0
 40
0.0
 40
0.0434782608695652
 40
0.0434782608695652
 40
0.0434782608695652
 40
0.0434782608695652
 40
0.0869565217391304
 40
0.0869565217391304
 40
0.0869565217391304
 40
0.0869565217391304
 40
0.1304347826086956
 40
0.1304347826086956
 40
0.1304347826086956
 40
0.1304347826086956
 40
0.1739130434782609
 40
0.1739130434782609
 40
0.1739130434782609
 40
0.1739130434782609
 40
0.2173913043478261
 40
0.2173913043478261
 40
0.2173913043478261
 40
0.2173913043478261
 40
0.2608695652173913
 40
0.2608695652173913
 40
0.2608695652173913
 40
0.2608695652173913
 40
0.3043478260869565
 40
0.3043478260869565
 40
0.3043478260869565
 40
0.3043478260869565
 40
0.3478260869565217
 40
0.3478260869565217
 40
0.3478260869565217
 40
0.3478260869565217
 40
0.391304347826087
 40
0.391304347826087
 40
0.391304347826087
 40
0.391304347826087
 40
0.4347826086956522
 40
0.4347826086956522
 40
0.4347826086956522
 40
0.4347826086956522
 40
0.4782608695652174
 40
0.4782608695652174
 40
0.4782608695652174
 40
0.4782608695652174
 40
0.5217391304347826
 40
0.5217391304347826
 40
0.5217391304347826
 40
0.5217391304347826
 40
0.5652173913043478
 40
0.5652173913043478
 40
0.5652173913043478
 40
0.5652173913043478
 40
0.6086956521739131
 40
0.6086956521739131
 40
0.6086956521739131
 40
0.6086956521739131
 40
0.6521739130434783
 40
0.6521739130434783
 40
0.6521739130434783
 40
0.6521739130434783
 40
0.6956521739130435
 40
0.6956521739130435
 40
0.6956521739130435
 40
0.6956521739130435
 40
0.7391304347826086
 40
0.7391304347826086
 40
0.7391304347826086
 40
0.7391304347826086
 40
0.782608695652174
 40
0.782608695652174
 40
0.782608695652174
 40
0.782608695652174
 40
0.8260869565217391
 40
0.8260869565217391
 40
0.8260869565217391
 40
0.8260869565217391
 40
0.8695652173913043
 40
0.8695652173913043
 40
0.8695652173913043
 40
0.8695652173913043
 40
0.9130434782608695
 40
0.9130434782608695
 40
0.9130434782608695
 40
0.9130434782608695
 40
1.0
 40
1.0
 40
1.0
 40
1.0
 10
9.62604
 20
2.36228
 30
0.0
 10
9.62604
 20
2.36228
 30
0.0
 10
9.67276
 20
2.36228
 30
0.0
 10
9.67276
 20
2.36228
 30
0.0
 10
9.67276
 20
2.36228
 30
0.0
 10
9.67276
 20
2.36228
 30
0.0
 10
9.67276
 20
2.09866
 30
0.0
 10
9.67276
 20
2.09866
 30
0.0
 10
9.67276
 20
2.09866
 30
0.0
 10
9.66099
 20
2.09828
 30
0.0
 10
9.64968
 20
2.10023
 30
0.0
 10
9.63875
 20
2.10441
 30
0.0
 10
9.63875
 20
2.10441
 30
0.0
 10
9.62086
 20
2.11117
 30
0.0
 10
9.60315
 20
2.12203
 30
0.0
 10
9.58581
 20
2.13695
 30
0.0
 10
9.58581
 20
2.13695
 30
0.0
 10
9.56848
 20
2.15188
 30
0.0
 10
9.54846
 20
2.17319
 30
0.0
 10
9.52575
 20
2.2009
 30
0.0
 10
9.52575
 20
2.2009
 30
0.0
 10
9.49024
 20
2.244
 30
0.0
 10
9.46216
 20
2.2733
 30
0.0
 10
9.4414
 20
2.2886
 30
0.0
 10
9.4414
 20
2.2886
 30
0.0
 10
9.42063
 20
2.30399
 30
0.0
 10
9.40098
 20
2.31168
 30
0.0
 10
9.38244
 20
2.31168
 30
0.0
 10
9.38244
 20
2.31168
 30
0.0
 10
9.36307
 20
2.31168
 30
0.0
 10
9.34675
 20
2.30472
 30
0.0
 10
9.3334
 20
2.29082
 30
0.0
 10
9.3334
 20
2.29082
 30
0.0
 10
9.32015
 20
2.27692
 30
0.0
 10
9.31348
 20
2.25875
 30
0.0
 10
9.31348
 20
2.23641
 30
0.0
 10
9.31348
 20
2.23641
 30
0.0
 10
9.31348
 20
2.21277
 30
0.0
 10
9.32053
 20
2.19387
 30
0.0
 10
9.33461
 20
2.17968
 30
0.0
 10
9.33461
 20
2.17968
 30
0.0
 10
9.34861
 20
2.1655
 30
0.0
 10
9.36807
 20
2.15836
 30
0.0
 10
9.39301
 20
2.15818
 30
0.0
 10
9.39301
 20
2.15818
 30
0.0
 10
9.39301
 20
2.15818
 30
0.0
 10
9.388
 20
2.10812
 30
0.0
 10
9.388
 20
2.10812
 30
0.0
 10
9.388
 20
2.10812
 30
0.0
 10
9.35056
 20
2.11155
 30
0.0
 10
9.32199
 20
2.12453
 30
0.0
 10
9.30235
 20
2.14695
 30
0.0
 10
9.30235
 20
2.14695
 30
0.0
 10
9.2827
 20
2.16948
 30
0.0
 10
9.27288
 20
2.1996
 30
0.0
 10
9.27288
 20
2.23752
 30
0.0
 10
9.27288
 20
2.23752
 30
0.0
 10
9.27288
 20
2.27571
 30
0.0
 10
9.28344
 20
2.30602
 30
0.0
 10
9.30467
 20
2.32827
 30
0.0
 10
9.30467
 20
2.32827
 30
0.0
 10
9.3259
 20
2.35061
 30
0.0
 10
9.35222
 20
2.36173
 30
0.0
 10
9.38355
 20
2.36173
 30
0.0
 10
9.38355
 20
2.36173
 30
0.0
 10
9.39949
 20
2.36173
 30
0.0
 10
9.41515
 20
2.35849
 30
0.0
 10
9.43054
 20
2.35191
 30
0.0
 10
9.43054
 20
2.35191
 30
0.0
 10
9.44602
 20
2.34541
 30
0.0
 10
9.46225
 20
2.33457
 30
0.0
 10
9.4793
 20
2.31947
 30
0.0
 10
9.4793
 20
2.31947
 30
0.0
 10
9.49628
 20
2.30426
 30
0.0
 10
9.51972
 20
2.27914
 30
0.0
 10
9.54939
 20
2.24411
 30
0.0
 10
9.54939
 20
2.24411
 30
0.0
 10
9.57405
 20
2.21472
 30
0.0
 10
9.59072
 20
2.19581
 30
0.0
 10
9.59953
 20
2.18746
 30
0.0
 10
9.59953
 20
2.18746
 30
0.0
 10
9.60834
 20
2.17912
 30
0.0
 10
9.61715
 20
2.17227
 30
0.0
 10
9.62604
 20
2.16679
 30
0.0
 10
9.62604
 20
2.16679
 30
0.0
 10
9.62604
 20
2.16679
 30
0.0
 10
9.62604
 20
2.36228
 30
0.0
 10
9.62604
 20
2.36228
 30
0.0
  0
SPLINE
  5
77
330
1F
100
AcDbEntity
  8
layer 2
 62
     1
100
AcDbSpline
210
0.0
220
0.0
230
1.0
 70
    11
 71
     3
 72
    28
 73
    24
 74
     0
 42
0.0000000001
 43
0.0000000001
 12
1.0
 22
0.0
 32
0.0
 13
1.0
 23
0.0
 33
0.0
 40
0.0
 40
0.0
 40
0.0
 40
0.0
 40
0.1428571428571428
 40
0.1428571428571428
 40
0.1428571428571428
 40
0.1428571428571428
 40
0.2857142857142857
 40
0.2857142857142857
 40
0.2857142857142857
 40
0.2857142857142857
 40
0.4285714285714285
 40
0.4285714285714285
 40
0.4285714285714285
 40
0.4285714285714285
 40
0.5714285714285714
 40
0.5714285714285714
 40
0.5714285714285714
 40
0.5714285714285714
 40
0.7142857142857143
 40
0.7142857142857143
 40
0.7142857142857143
 40
0.7142857142857143
 40
1.0
 40
1.0
 40
1.0
 40
1.0
 10
9.41526
 20
2.43098
 30
0.0
 10
9.41526
 20
2.43098
 30
0.0
 10
9.33961
 20
2.41745
 30
0.0
 10
9.33961
 20
2.41745
 30
0.0
 10
9.33961
 20
2.41745
 30
0.0
 10
9.33961
 20
2.41745
 30
0.0
 10
9.27454
 20
2.41745
 30
0.0
 10
9.27454
 20
2.41745
 30
0.0
 10
9.27454
 20
2.41745
 30
0.0
 10
9.27454
 20
2.41745
 30
0.0
 10
9.27454
 20
2.47306
 30
0.0
 10
9.27454
 20
2.47306
 30
0.0
 10
9.27454
 20
2.47306
 30
0.0
 10
9.27454
 20
2.47306
 30
0.0
 10
9.33961
 20
2.47306
 30
0.0
 10
9.33961
 20
2.47306
 30
0.0
 10
9.33961
 20
2.47306
 30
0.0
 10
9.33961
 20
2.47306
 30
0.0
 10
9.41526
 20
2.46083
 30
0.0
 10
9.41526
 20
2.46083
 30
0.0
 10
9.41526
 20
2.46083
 30
0.0
 10
9.41526
 20
2.46083
 30
0.0
 10
9.41526
 20
2.43098
 30
0.0
 10
9.41526
 20
2.43098
 30
0.0
  0
SPLINE
  5
78
330
1F
100
AcDbEntity
  8
layer 2
 62
     1
100
AcDbSpline
210
0.0
220
0.0
230
1.0
 70
    11
 71
     3
 72
    28
 73
    24
 74
     0
 42
0.0000000001
 43
0.0000000001
 12
1.0
 22
0.0
 32
0.0
 13
1.0
 23
0.0
 33
0.0
 40
0.0
 40
0.0
 40
0.0
 40
0.0
 40
0.1428571428571428
 40
0.1428571428571428
 40
0.1428571428571428
 40
0.1428571428571428
 40
0.2857142857142857
 40
0.2857142857142857
 40
0.2857142857142857
 40
0.2857142857142857
 40
0.4285714285714285
 40
0.4285714285714285
 40
0.4285714285714285
 40
0.4285714285714285
 40
0.5714285714285714
 40
0.5714285714285714
 40
0.5714285714285714
 40
0.5714285714285714
 40
0.7142857142857143
 40
0.7142857142857143
 40
0.7142857142857143
 40
0.7142857142857143
 40
1.0
 40
1.0
 40
1.0
 40
1.0
 10
9.41526
 20
2.5208
 30
0.0
 10
9.41526
 20
2.5208
 30
0.0
 10
9.33961
 20
2.50754
 30
0.0
 10
9.33961
 20
2.50754
 30
0.0
 10
9.33961
 20
2.50754
 30
0.0
 10
9.33961
 20
2.50754
 30
0.0
 10
9.27454
 20
2.50754
 30
0.0
 10
9.27454
 20
2.50754
 30
0.0
 10
9.27454
 20
2.50754
 30
0.0
 10
9.27454
 20
2.50754
 30
0.0
 10
9.27454
 20
2.56317
 30
0.0
 10
9.27454
 20
2.56317
 30
0.0
 10
9.27454
 20
2.56317
 30
0.0
 10
9.27454
 20
2.56317
 30
0.0
 10
9.33961
 20
2.56317
 30
0.0
 10
9.33961
 20
2.56317
 30
0.0
 10
9.33961
 20
2.56317
 30
0.0
 10
9.33961
 20
2.56317
 30
0.0
 10
9.41526
 20
2.55008
 30
0.0
 10
9.41526
 20
2.55008
 30
0.0
 10
9.41526
 20
2.55008
 30
0.0
 10
9.41526
 20
2.55008
 30
0.0
 10
9.41526
 20
2.5208
 30
0.0
 10
9.41526
 20
2.5208
 30
0.0
  0
ENDSEC
  0
SECTION
  2
OBJECTS
  0
DICTIONARY
  5
C
330
0
100
AcDbDictionary
281
     1
  3
ACAD_GROUP
350
D
  3
ACAD_LAYOUT
350
1A
  3
ACAD_MATERIAL
350
3B
  3
ACAD_MLEADERSTYLE
350
9A
  3
ACAD_MLINESTYLE
350
17
  3
ACAD_PLOTSETTINGS
350
19
  3
ACAD_PLOTSTYLENAME
350
E
  3
ACAD_TABLESTYLE
350
99
  3
ACAD_VISUALSTYLE
350
2A
  0
DICTIONARY
  5
D
102
{ACAD_REACTORS
330
C
102
}
330
C
100
AcDbDictionary
281
     1
  0
DICTIONARY
  5
1A
102
{ACAD_REACTORS
330
C
102
}
330
C
100
AcDbDictionary
281
     1
  3
Layout1
350
1E
  3
Layout2
350
26
  3
Model
350
22
  0
DICTIONARY
  5
3B
102
{ACAD_REACTORS
330
C
102
}
330
C
100
AcDbDictionary
281
     1
  3
ByBlock
350
3D
  3
ByLayer
350
3C
  3
Global
350
3E
  0
DICTIONARY
  5
9A
102
{ACAD_REACTORS
330
C
102
}
330
C
100
AcDbDictionary
281
     1
  0
DICTIONARY
  5
17
102
{ACAD_REACTORS
330
C
102
}
330
C
100
AcDbDictionary
281
     1
  3
Standard
350
18
  0
DICTIONARY
  5
19
102
{ACAD_REACTORS
330
C
102
}
330
C
100
AcDbDictionary
281
     1
  0
ACDBDICTIONARYWDFLT
  5
E
102
{ACAD_REACTORS
330
C
102
}
330
C
100
AcDbDictionary
281
     1
  3
Normal
350
F
100
AcDbDictionaryWithDefault
340
F
  0
DICTIONARY
  5
99
102
{ACAD_REACTORS
330
C
102
}
330
C
100
AcDbDictionary
281
     1
  0
DICTIONARY
  5
2A
102
{ACAD_REACTORS
330
C
102
}
330
C
100
AcDbDictionary
281
     1
  3
2dWireframe
350
2F
  3
3D Hidden
350
31
  3
3dWireframe
350
30
  3
Basic
350
32
  3
Brighten
350
36
  3
ColorChange
350
3A
  3
Conceptual
350
34
  3
Dim
350
35
  3
Facepattern
350
39
  3
Flat
350
2B
  3
FlatWithEdges
350
2C
  3
Gouraud
350
2D
  3
GouraudWithEdges
350
2E
  3
Linepattern
350
38
  3
Realistic
350
33
  3
Thicken
350
37
  0
LAYOUT
  5
1E
102
{ACAD_REACTORS
330
1A
102
}
330
1A
100
AcDbPlotSettings
  1

  2
none_device
  4

  6

 40
0.0
 41
0.0
 42
0.0
 43
0.0
 44
0.0
 45
0.0
 46
0.0
 47
0.0
 48
0.0
 49
0.0
140
0.0
141
0.0
142
1.0
143
1.0
 70
   688
 72
     0
 73
     0
 74
     5
  7

 75
    16
 76
     0
 77
     2
 78
   300
147
1.0
148
0.0
149
0.0
100
AcDbLayout
  1
Layout1
 70
     1
 71
     1
 10
0.0
 20
0.0
 11
12.0
 21
9.0
 12
0.0
 22
0.0
 32
0.0
 14
1.000000000000000E+20
 24
1.000000000000000E+20
 34
1.000000000000000E+20
 15
-1.000000000000000E+20
 25
-1.000000000000000E+20
 35
-1.000000000000000E+20
146
0.0
 13
0.0
 23
0.0
 33
0.0
 16
1.0
 26
0.0
 36
0.0
 17
0.0
 27
1.0
 37
0.0
 76
     0
330
1B
  0
LAYOUT
  5
26
102
{ACAD_REACTORS
330
1A
102
}
330
1A
100
AcDbPlotSettings
  1

  2
none_device
  4

  6

 40
0.0
 41
0.0
 42
0.0
 43
0.0
 44
0.0
 45
0.0
 46
0.0
 47
0.0
 48
0.0
 49
0.0
140
0.0
141
0.0
142
1.0
143
1.0
 70
   688
 72
     0
 73
     0
 74
     5
  7

 75
    16
 76
     0
 77
     2
 78
   300
147
1.0
148
0.0
149
0.0
100
AcDbLayout
  1
Layout2
 70
     1
 71
     2
 10
0.0
 20
0.0
 11
0.0
 21
0.0
 12
0.0
 22
0.0
 32
0.0
 14
0.0
 24
0.0
 34
0.0
 15
0.0
 25
0.0
 35
0.0
146
0.0
 13
0.0
 23
0.0
 33
0.0
 16
1.0
 26
0.0
 36
0.0
 17
0.0
 27
1.0
 37
0.0
 76
     0
330
23
  0
LAYOUT
  5
22
102
{ACAD_REACTORS
330
1A
102
}
330
1A
100
AcDbPlotSettings
  1

  2
none_device
  4

  6

 40
0.0
 41
0.0
 42
0.0
 43
0.0
 44
0.0
 45
0.0
 46
0.0
 47
0.0
 48
0.0
 49
0.0
140
0.0
141
0.0
142
1.0
143
1.0
 70
  1712
 72
     0
 73
     0
 74
     0
  7

 75
     0
 76
     0
 77
     2
 78
   300
147
1.0
148
0.0
149
0.0
100
AcDbLayout
  1
Model
 70
     1
 71
     0
 10
0.0
 20
0.0
 11
12.0
 21
9.0
 12
0.0
 22
0.0
 32
0.0
 14
-10.46724
 24
-9.69741
 34
0.0
 15
10.23347
 25
9.56826
 35
0.0
146
0.0
 13
0.0
 23
0.0
 33
0.0
 16
1.0
 26
0.0
 36
0.0
 17
0.0
 27
1.0
 37
0.0
 76
     0
330
1F
331
29
  0
MATERIAL
  5
3D
102
{ACAD_REACTORS
330
3B
102
}
330
3B
100
AcDbMaterial
  1
ByBlock
 72
     1
 94
      127
  0
MATERIAL
  5
3C
102
{ACAD_REACTORS
330
3B
102
}
330
3B
100
AcDbMaterial
  1
ByLayer
 72
     1
 94
      127
  0
MATERIAL
  5
3E
102
{ACAD_REACTORS
330
3B
102
}
330
3B
100
AcDbMaterial
  1
Global
 72
     1
 94
      127
  0
MLINESTYLE
  5
18
102
{ACAD_REACTORS
330
17
102
}
330
17
100
AcDbMlineStyle
  2
Standard
 70
     0
  3

 62
   256
 51
90.0
 52
90.0
 71
     2
 49
0.5
 62
   256
  6
BYLAYER
 49
-0.5
 62
   256
  6
BYLAYER
  0
ACDBPLACEHOLDER
  5
F
102
{ACAD_REACTORS
330
E
102
}
330
E
  0
VISUALSTYLE
  5
2F
102
{ACAD_REACTORS
330
2A
102
}
102
{ACAD_XDICTIONARY
360
81
102
}
330
2A
100
AcDbVisualStyle
  2
2dWireframe
 70
     4
 71
     0
 72
     2
 73
     0
 90
        0
 40
-0.6
 41
-30.0
 62
     5
 63
     7
421
 16777215
 74
     1
 91
        4
 64
     7
 65
   257
 75
     1
175
     1
 42
1.0
 92
        0
 66
   257
 43
1.0
 76
     1
 77
     6
 78
     2
 67
     7
 79
     5
170
     0
171
     0
290
     0
174
     0
 93
        1
 44
0.0
173
     0
291
     0
 45
0.0
  0
VISUALSTYLE
  5
31
102
{ACAD_REACTORS
330
2A
102
}
102
{ACAD_XDICTIONARY
360
85
102
}
330
2A
100
AcDbVisualStyle
  2
3D Hidden
 70
     6
 71
     1
 72
     2
 73
     2
 90
        0
 40
-0.6
 41
-30.0
 62
     5
 63
     7
421
 16777215
 74
     2
 91
        2
 64
     7
 65
   257
 75
     2
175
     1
 42
40.0
 92
        0
 66
   257
 43
1.0
 76
     1
 77
     6
 78
     2
 67
     7
 79
     3
170
     0
171
     0
290
     0
174
     0
 93
        1
 44
0.0
173
     0
291
     0
 45
0.0
  0
VISUALSTYLE
  5
30
102
{ACAD_REACTORS
330
2A
102
}
102
{ACAD_XDICTIONARY
360
83
102
}
330
2A
100
AcDbVisualStyle
  2
3dWireframe
 70
     5
 71
     0
 72
     2
 73
     0
 90
        0
 40
-0.6
 41
-30.0
 62
     5
 63
     7
421
 16777215
 74
     1
 91
        4
 64
     7
 65
   257
 75
     1
175
     1
 42
1.0
 92
        0
 66
   257
 43
1.0
 76
     1
 77
     6
 78
     2
 67
     7
 79
     5
170
     0
171
     0
290
     0
174
     0
 93
        1
 44
0.0
173
     0
291
     0
 45
0.0
  0
VISUALSTYLE
  5
32
102
{ACAD_REACTORS
330
2A
102
}
102
{ACAD_XDICTIONARY
360
87
102
}
330
2A
100
AcDbVisualStyle
  2
Basic
 70
     7
 71
     1
 72
     0
 73
     1
 90
        0
 40
-0.6
 41
-30.0
 62
     5
 63
     7
421
 16777215
 74
     0
 91
        4
 64
     7
 65
   257
 75
     1
175
     1
 42
1.0
 92
        8
 66
     7
 43
1.0
 76
     1
 77
     6
 78
     2
 67
     7
 79
     5
170
     0
171
     0
290
     0
174
     0
 93
        1
 44
0.0
173
     0
291
     1
 45
0.0
  0
VISUALSTYLE
  5
36
102
{ACAD_REACTORS
330
2A
102
}
102
{ACAD_XDICTIONARY
360
8F
102
}
330
2A
100
AcDbVisualStyle
  2
Brighten
 70
    12
 71
     2
 72
     2
 73
     0
 90
        0
 40
-0.6
 41
-30.0
 62
     5
 63
     7
421
 16777215
 74
     1
 91
        4
 64
     7
 65
   257
 75
     1
175
     1
 42
1.0
 92
        8
 66
     7
 43
1.0
 76
     1
 77
     6
 78
     2
 67
     7
 79
     5
170
     0
171
     0
290
     0
174
     0
 93
        1
 44
50.0
173
     0
291
     1
 45
0.0
  0
VISUALSTYLE
  5
3A
102
{ACAD_REACTORS
330
2A
102
}
102
{ACAD_XDICTIONARY
360
97
102
}
330
2A
100
AcDbVisualStyle
  2
ColorChange
 70
    16
 71
     2
 72
     2
 73
     3
 90
        0
 40
-0.6
 41
-30.0
 62
     5
 63
     8
421
  8421504
 74
     1
 91
        4
 64
     7
 65
   257
 75
     1
175
     1
 42
1.0
 92
        8
 66
     8
424
  8421504
 43
1.0
 76
     1
 77
     6
 78
     2
 67
     7
 79
     5
170
     0
171
     0
290
     0
174
     0
 93
        1
 44
0.0
173
     0
291
     1
 45
0.0
  0
VISUALSTYLE
  5
34
102
{ACAD_REACTORS
330
2A
102
}
102
{ACAD_XDICTIONARY
360
8B
102
}
330
2A
100
AcDbVisualStyle
  2
Conceptual
 70
     9
 71
     3
 72
     2
 73
     0
 90
        0
 40
-0.6
 41
-30.0
 62
     5
 63
     7
421
 16777215
 74
     2
 91
        2
 64
     7
 65
   257
 75
     1
175
     1
 42
40.0
 92
        8
 66
     7
 43
1.0
 76
     1
 77
     6
 78
     2
 67
     7
 79
     3
170
     0
171
     0
290
     0
174
     0
 93
        1
 44
0.0
173
     0
291
     0
 45
0.0
  0
VISUALSTYLE
  5
35
102
{ACAD_REACTORS
330
2A
102
}
102
{ACAD_XDICTIONARY
360
8D
102
}
330
2A
100
AcDbVisualStyle
  2
Dim
 70
    11
 71
     2
 72
     2
 73
     0
 90
        0
 40
-0.6
 41
-30.0
 62
     5
 63
     7
421
 16777215
 74
     1
 91
        4
 64
     7
 65
   257
 75
     1
175
     1
 42
1.0
 92
        8
 66
     7
 43
1.0
 76
     1
 77
     6
 78
     2
 67
     7
 79
     5
170
     0
171
     0
290
     0
174
     0
 93
        1
 44
-50.0
173
     0
291
     1
 45
0.0
  0
VISUALSTYLE
  5
39
102
{ACAD_REACTORS
330
2A
102
}
102
{ACAD_XDICTIONARY
360
95
102
}
330
2A
100
AcDbVisualStyle
  2
Facepattern
 70
    15
 71
     2
 72
     2
 73
     0
 90
        0
 40
-0.6
 41
-30.0
 62
     5
 63
     7
421
 16777215
 74
     1
 91
        4
 64
     7
 65
   257
 75
     1
175
     1
 42
1.0
 92
        8
 66
     7
 43
1.0
 76
     1
 77
     6
 78
     2
 67
     7
 79
     5
170
     0
171
     0
290
     0
174
     0
 93
        1
 44
0.0
173
     0
291
     1
 45
0.0
  0
VISUALSTYLE
  5
2B
102
{ACAD_REACTORS
330
2A
102
}
102
{ACAD_XDICTIONARY
360
79
102
}
330
2A
100
AcDbVisualStyle
  2
Flat
 70
     0
 71
     2
 72
     1
 73
     1
 90
        2
 40
-0.6
 41
30.0
 62
     5
 63
     7
421
 16777215
 74
     0
 91
        4
 64
     7
 65
   257
 75
     1
175
     1
 42
1.0
 92
        8
 66
     7
 43
1.0
 76
     1
 77
     6
 78
     2
 67
     7
 79
     5
170
     0
171
     0
290
     0
174
     0
 93
       13
 44
0.0
173
     0
291
     1
 45
0.0
  0
VISUALSTYLE
  5
2C
102
{ACAD_REACTORS
330
2A
102
}
102
{ACAD_XDICTIONARY
360
7B
102
}
330
2A
100
AcDbVisualStyle
  2
FlatWithEdges
 70
     1
 71
     2
 72
     1
 73
     1
 90
        2
 40
-0.6
 41
30.0
 62
     5
 63
     7
421
 16777215
 74
     1
 91
        4
 64
     7
 65
   257
 75
     1
175
     1
 42
1.0
 92
        0
 66
   257
 43
1.0
 76
     1
 77
     6
 78
     2
 67
     7
 79
     5
170
     0
171
     0
290
     0
174
     0
 93
       13
 44
0.0
173
     0
291
     1
 45
0.0
  0
VISUALSTYLE
  5
2D
102
{ACAD_REACTORS
330
2A
102
}
102
{ACAD_XDICTIONARY
360
7D
102
}
330
2A
100
AcDbVisualStyle
  2
Gouraud
 70
     2
 71
     2
 72
     2
 73
     1
 90
        2
 40
-0.6
 41
30.0
 62
     5
 63
     7
421
 16777215
 74
     0
 91
        4
 64
     7
 65
   257
 75
     1
175
     1
 42
1.0
 92
        0
 66
     7
 43
1.0
 76
     1
 77
     6
 78
     2
 67
     7
 79
     5
170
     0
171
     0
290
     0
174
     0
 93
       13
 44
0.0
173
     0
291
     1
 45
0.0
  0
VISUALSTYLE
  5
2E
102
{ACAD_REACTORS
330
2A
102
}
102
{ACAD_XDICTIONARY
360
7F
102
}
330
2A
100
AcDbVisualStyle
  2
GouraudWithEdges
 70
     3
 71
     2
 72
     2
 73
     1
 90
        2
 40
-0.6
 41
30.0
 62
     5
 63
     7
421
 16777215
 74
     1
 91
        4
 64
     7
 65
   257
 75
     1
175
     1
 42
1.0
 92
        0
 66
   257
 43
1.0
 76
     1
 77
     6
 78
     2
 67
     7
 79
     5
170
     0
171
     0
290
     0
174
     0
 93
       13
 44
0.0
173
     0
291
     1
 45
0.0
  0
VISUALSTYLE
  5
38
102
{ACAD_REACTORS
330
2A
102
}
102
{ACAD_XDICTIONARY
360
93
102
}
330
2A
100
AcDbVisualStyle
  2
Linepattern
 70
    14
 71
     2
 72
     2
 73
     0
 90
        0
 40
-0.6
 41
-30.0
 62
     5
 63
     7
421
 16777215
 74
     1
 91
        4
 64
     7
 65
   257
 75
     7
175
     7
 42
1.0
 92
        8
 66
     7
 43
1.0
 76
     1
 77
     6
 78
     2
 67
     7
 79
     5
170
     0
171
     0
290
     0
174
     0
 93
        1
 44
0.0
173
     0
291
     1
 45
0.0
  0
VISUALSTYLE
  5
33
102
{ACAD_REACTORS
330
2A
102
}
102
{ACAD_XDICTIONARY
360
89
102
}
330
2A
100
AcDbVisualStyle
  2
Realistic
 70
     8
 71
     2
 72
     2
 73
     0
 90
        0
 40
-0.6
 41
-30.0
 62
     5
 63
     7
421
 16777215
 74
     1
 91
        0
 64
     7
 65
   257
 75
     1
175
     1
 42
1.0
 92
        8
 66
     8
424
  7895160
 43
1.0
 76
     1
 77
     6
 78
     2
 67
     7
 79
     5
170
     0
171
     0
290
     0
174
     0
 93
       13
 44
0.0
173
     0
291
     0
 45
0.0
  0
VISUALSTYLE
  5
37
102
{ACAD_REACTORS
330
2A
102
}
102
{ACAD_XDICTIONARY
360
91
102
}
330
2A
100
AcDbVisualStyle
  2
Thicken
 70
    13
 71
     2
 72
     2
 73
     0
 90
        0
 40
-0.6
 41
-30.0
 62
     5
 63
     7
421
 16777215
 74
     1
 91
        4
 64
     7
 65
   257
 75
     1
175
     1
 42
1.0
 92
       12
 66
     7
 43
1.0
 76
     1
 77
     6
 78
     2
 67
     7
 79
     5
170
     0
171
     0
290
     0
174
     0
 93
        1
 44
0.0
173
     0
291
     1
 45
0.0
  0
DICTIONARY
  5
81
330
2F
100
AcDbDictionary
280
     1
281
     1
  3
ACAD_XREC_ROUNDTRIP
360
82
  0
DICTIONARY
  5
85
330
31
100
AcDbDictionary
280
     1
281
     1
  3
ACAD_XREC_ROUNDTRIP
360
86
  0
DICTIONARY
  5
83
330
30
100
AcDbDictionary
280
     1
281
     1
  3
ACAD_XREC_ROUNDTRIP
360
84
  0
DICTIONARY
  5
87
330
32
100
AcDbDictionary
280
     1
281
     1
  3
ACAD_XREC_ROUNDTRIP
360
88
  0
DICTIONARY
  5
8F
330
36
100
AcDbDictionary
280
     1
281
     1
  3
ACAD_XREC_ROUNDTRIP
360
90
  0
DICTIONARY
  5
97
330
3A
100
AcDbDictionary
280
     1
281
     1
  3
ACAD_XREC_ROUNDTRIP
360
98
  0
DICTIONARY
  5
8B
330
34
100
AcDbDictionary
280
     1
281
     1
  3
ACAD_XREC_ROUNDTRIP
360
8C
  0
DICTIONARY
  5
8D
330
35
100
AcDbDictionary
280
     1
281
     1
  3
ACAD_XREC_ROUNDTRIP
360
8E
  0
DICTIONARY
  5
95
330
39
100
AcDbDictionary
280
     1
281
     1
  3
ACAD_XREC_ROUNDTRIP
360
96
  0
DICTIONARY
  5
79
330
2B
100
AcDbDictionary
280
     1
281
     1
  3
ACAD_XREC_ROUNDTRIP
360
7A
  0
DICTIONARY
  5
7B
330
2C
100
AcDbDictionary
280
     1
281
     1
  3
ACAD_XREC_ROUNDTRIP
360
7C
  0
DICTIONARY
  5
7D
330
2D
100
AcDbDictionary
280
     1
281
     1
  3
ACAD_XREC_ROUNDTRIP
360
7E
  0
DICTIONARY
  5
7F
330
2E
100
AcDbDictionary
280
     1
281
     1
  3
ACAD_XREC_ROUNDTRIP
360
80
  0
DICTIONARY
  5
93
330
38
100
AcDbDictionary
280
     1
281
     1
  3
ACAD_XREC_ROUNDTRIP
360
94
  0
DICTIONARY
  5
89
330
33
100
AcDbDictionary
280
     1
281
     1
  3
ACAD_XREC_ROUNDTRIP
360
8A
  0
DICTIONARY
  5
91
330
37
100
AcDbDictionary
280
     1
281
     1
  3
ACAD_XREC_ROUNDTRIP
360
92
  0
XRECORD
  5
82
102
{ACAD_REACTORS
330
81
102
}
330
81
100
AcDbXrecord
280
     1
102
RTVSPropertyOp0
 70
     1
102
RTVSPropertyOp1
 70
     1
102
RTVSPropertyOp2
 70
     1
102
RTVSPropertyOp3
 70
     1
102
RTVSPropertyOp4
 70
     1
102
RTVSPropertyOp5
 70
     1
102
RTVSPropertyOp6
 70
     1
102
RTVSPropertyOp7
 70
     1
102
RTVSPropertyOp8
 70
     1
102
RTVSPropertyOp9
 70
     1
102
RTVSPropertyOp10
 70
     1
102
RTVSPropertyOp11
 70
     1
102
RTVSPropertyOp12
 70
     1
102
RTVSPropertyOp13
 70
     1
102
RTVSPropertyOp14
 70
     1
102
RTVSPropertyOp15
 70
     1
102
RTVSPropertyOp16
 70
     1
102
RTVSPropertyOp17
 70
     1
102
RTVSPropertyOp18
 70
     1
102
RTVSPropertyOp19
 70
     1
102
RTVSPropertyOp20
 70
     1
102
RTVSPropertyOp21
 70
     1
102
RTVSPropertyOp22
 70
     1
102
RTVSPropertyOp23
 70
     1
102
RTVSPropertyOp24
 70
     1
102
RTVSPropertyOp25
 70
     1
102
RTVSPropertyOp26
 70
     1
102
RTVSPropertyOp27
 70
     1
102
RTVSPropertyOp28
 70
     1
102
RTVSPropertyOp29
 70
     1
102
RTVSPropertyOp30
 70
     1
102
RTVSPropertyOp31
 70
     1
102
RTVSPropertyOp32
 70
     1
  0
XRECORD
  5
86
102
{ACAD_REACTORS
330
85
102
}
330
85
100
AcDbXrecord
280
     1
102
RTVSPropertyOp0
 70
     1
102
RTVSPropertyOp1
 70
     1
102
RTVSPropertyOp2
 70
     1
102
RTVSPropertyOp3
 70
     1
102
RTVSPropertyOp4
 70
     1
102
RTVSPropertyOp5
 70
     1
102
RTVSPropertyOp6
 70
     1
102
RTVSPropertyOp7
 70
     1
102
RTVSPropertyOp8
 70
     1
102
RTVSPropertyOp9
 70
     1
102
RTVSPropertyOp10
 70
     1
102
RTVSPropertyOp11
 70
     1
102
RTVSPropertyOp12
 70
     1
102
RTVSPropertyOp13
 70
     1
102
RTVSPropertyOp14
 70
     1
102
RTVSPropertyOp15
 70
     1
102
RTVSPropertyOp16
 70
     1
102
RTVSPropertyOp17
 70
     1
102
RTVSPropertyOp18
 70
     1
102
RTVSPropertyOp19
 70
     1
102
RTVSPropertyOp20
 70
     1
102
RTVSPropertyOp21
 70
     1
102
RTVSPropertyOp22
 70
     1
102
RTVSPropertyOp23
 70
     1
102
RTVSPropertyOp24
 70
     1
102
RTVSPropertyOp25
 70
     1
102
RTVSPropertyOp26
 70
     1
102
RTVSPropertyOp27
 70
     1
102
RTVSPropertyOp28
 70
     1
102
RTVSPropertyOp29
 70
     1
102
RTVSPropertyOp30
 70
     1
102
RTVSPropertyOp31
 70
     1
102
RTVSPropertyOp32
 70
     1
  0
XRECORD
  5
84
102
{ACAD_REACTORS
330
83
102
}
330
83
100
AcDbXrecord
280
     1
102
RTVSPropertyOp0
 70
     1
102
RTVSPropertyOp1
 70
     1
102
RTVSPropertyOp2
 70
     1
102
RTVSPropertyOp3
 70
     1
102
RTVSPropertyOp4
 70
     1
102
RTVSPropertyOp5
 70
     1
102
RTVSPropertyOp6
 70
     1
102
RTVSPropertyOp7
 70
     1
102
RTVSPropertyOp8
 70
     1
102
RTVSPropertyOp9
 70
     1
102
RTVSPropertyOp10
 70
     1
102
RTVSPropertyOp11
 70
     1
102
RTVSPropertyOp12
 70
     1
102
RTVSPropertyOp13
 70
     1
102
RTVSPropertyOp14
 70
     1
102
RTVSPropertyOp15
 70
     1
102
RTVSPropertyOp16
 70
     1
102
RTVSPropertyOp17
 70
     1
102
RTVSPropertyOp18
 70
     1
102
RTVSPropertyOp19
 70
     1
102
RTVSPropertyOp20
 70
     1
102
RTVSPropertyOp21
 70
     1
102
RTVSPropertyOp22
 70
     1
102
RTVSPropertyOp23
 70
     1
102
RTVSPropertyOp24
 70
     1
102
RTVSPropertyOp25
 70
     1
102
RTVSPropertyOp26
 70
     1
102
RTVSPropertyOp27
 70
     1
102
RTVSPropertyOp28
 70
     1
102
RTVSPropertyOp29
 70
     1
102
RTVSPropertyOp30
 70
     1
102
RTVSPropertyOp31
 70
     1
102
RTVSPropertyOp32
 70
     1
  0
XRECORD
  5
88
102
{ACAD_REACTORS
330
87
102
}
330
87
100
AcDbXrecord
280
     1
102
RTVSPropertyOp0
 70
     1
102
RTVSPropertyOp1
 70
     1
102
RTVSPropertyOp2
 70
     1
102
RTVSPropertyOp3
 70
     1
102
RTVSPropertyOp4
 70
     1
102
RTVSPropertyOp5
 70
     1
102
RTVSPropertyOp6
 70
     1
102
RTVSPropertyOp7
 70
     1
102
RTVSPropertyOp8
 70
     1
102
RTVSPropertyOp9
 70
     1
102
RTVSPropertyOp10
 70
     1
102
RTVSPropertyOp11
 70
     1
102
RTVSPropertyOp12
 70
     1
102
RTVSPropertyOp13
 70
     1
102
RTVSPropertyOp14
 70
     1
102
RTVSPropertyOp15
 70
     1
102
RTVSPropertyOp16
 70
     1
102
RTVSPropertyOp17
 70
     1
102
RTVSPropertyOp18
 70
     1
102
RTVSPropertyOp19
 70
     1
102
RTVSPropertyOp20
 70
     1
102
RTVSPropertyOp21
 70
     1
102
RTVSPropertyOp22
 70
     1
102
RTVSPropertyOp23
 70
     1
102
RTVSPropertyOp24
 70
     1
102
RTVSPropertyOp25
 70
     1
102
RTVSPropertyOp26
 70
     1
102
RTVSPropertyOp27
 70
     1
102
RTVSPropertyOp28
 70
     1
102
RTVSPropertyOp29
 70
     1
102
RTVSPropertyOp30
 70
     1
102
RTVSPropertyOp31
 70
     1
102
RTVSPropertyOp32
 70
     1
  0
XRECORD
  5
90
102
{ACAD_REACTORS
330
8F
102
}
330
8F
100
AcDbXrecord
280
     1
102
RTVSPropertyOp0
 70
     1
102
RTVSPropertyOp1
 70
     1
102
RTVSPropertyOp2
 70
     1
102
RTVSPropertyOp3
 70
     1
102
RTVSPropertyOp4
 70
     1
102
RTVSPropertyOp5
 70
     1
102
RTVSPropertyOp6
 70
     1
102
RTVSPropertyOp7
 70
     1
102
RTVSPropertyOp8
 70
     1
102
RTVSPropertyOp9
 70
     1
102
RTVSPropertyOp10
 70
     1
102
RTVSPropertyOp11
 70
     1
102
RTVSPropertyOp12
 70
     1
102
RTVSPropertyOp13
 70
     1
102
RTVSPropertyOp14
 70
     1
102
RTVSPropertyOp15
 70
     1
102
RTVSPropertyOp16
 70
     1
102
RTVSPropertyOp17
 70
     1
102
RTVSPropertyOp18
 70
     1
102
RTVSPropertyOp19
 70
     1
102
RTVSPropertyOp20
 70
     1
102
RTVSPropertyOp21
 70
     1
102
RTVSPropertyOp22
 70
     1
102
RTVSPropertyOp23
 70
     1
102
RTVSPropertyOp24
 70
     1
102
RTVSPropertyOp25
 70
     1
102
RTVSPropertyOp26
 70
     1
102
RTVSPropertyOp27
 70
     1
102
RTVSPropertyOp28
 70
     1
102
RTVSPropertyOp29
 70
     1
102
RTVSPropertyOp30
 70
     1
102
RTVSPropertyOp31
 70
     1
102
RTVSPropertyOp32
 70
     1
  0
XRECORD
  5
98
102
{ACAD_REACTORS
330
97
102
}
330
97
100
AcDbXrecord
280
     1
102
RTVSPropertyOp0
 70
     1
102
RTVSPropertyOp1
 70
     1
102
RTVSPropertyOp2
 70
     1
102
RTVSPropertyOp3
 70
     1
102
RTVSPropertyOp4
 70
     1
102
RTVSPropertyOp5
 70
     1
102
RTVSPropertyOp6
 70
     1
102
RTVSPropertyOp7
 70
     1
102
RTVSPropertyOp8
 70
     1
102
RTVSPropertyOp9
 70
     1
102
RTVSPropertyOp10
 70
     1
102
RTVSPropertyOp11
 70
     1
102
RTVSPropertyOp12
 70
     1
102
RTVSPropertyOp13
 70
     1
102
RTVSPropertyOp14
 70
     1
102
RTVSPropertyOp15
 70
     1
102
RTVSPropertyOp16
 70
     1
102
RTVSPropertyOp17
 70
     1
102
RTVSPropertyOp18
 70
     1
102
RTVSPropertyOp19
 70
     1
102
RTVSPropertyOp20
 70
     1
102
RTVSPropertyOp21
 70
     1
102
RTVSPropertyOp22
 70
     1
102
RTVSPropertyOp23
 70
     1
102
RTVSPropertyOp24
 70
     1
102
RTVSPropertyOp25
 70
     1
102
RTVSPropertyOp26
 70
     1
102
RTVSPropertyOp27
 70
     1
102
RTVSPropertyOp28
 70
     1
102
RTVSPropertyOp29
 70
     1
102
RTVSPropertyOp30
 70
     1
102
RTVSPropertyOp31
 70
     1
102
RTVSPropertyOp32
 70
     1
  0
XRECORD
  5
8C
102
{ACAD_REACTORS
330
8B
102
}
330
8B
100
AcDbXrecord
280
     1
102
RTVSPropertyOp0
 70
     1
102
RTVSPropertyOp1
 70
     1
102
RTVSPropertyOp2
 70
     1
102
RTVSPropertyOp3
 70
     1
102
RTVSPropertyOp4
 70
     1
102
RTVSPropertyOp5
 70
     1
102
RTVSPropertyOp6
 70
     1
102
RTVSPropertyOp7
 70
     1
102
RTVSPropertyOp8
 70
     1
102
RTVSPropertyOp9
 70
     1
102
RTVSPropertyOp10
 70
     1
102
RTVSPropertyOp11
 70
     1
102
RTVSPropertyOp12
 70
     1
102
RTVSPropertyOp13
 70
     1
102
RTVSPropertyOp14
 70
     1
102
RTVSPropertyOp15
 70
     1
102
RTVSPropertyOp16
 70
     1
102
RTVSPropertyOp17
 70
     1
102
RTVSPropertyOp18
 70
     1
102
RTVSPropertyOp19
 70
     1
102
RTVSPropertyOp20
 70
     1
102
RTVSPropertyOp21
 70
     1
102
RTVSPropertyOp22
 70
     1
102
RTVSPropertyOp23
 70
     1
102
RTVSPropertyOp24
 70
     1
102
RTVSPropertyOp25
 70
     1
102
RTVSPropertyOp26
 70
     1
102
RTVSPropertyOp27
 70
     1
102
RTVSPropertyOp28
 70
     1
102
RTVSPropertyOp29
 70
     1
102
RTVSPropertyOp30
 70
     1
102
RTVSPropertyOp31
 70
     1
102
RTVSPropertyOp32
 70
     1
  0
XRECORD
  5
8E
102
{ACAD_REACTORS
330
8D
102
}
330
8D
100
AcDbXrecord
280
     1
102
RTVSPropertyOp0
 70
     1
102
RTVSPropertyOp1
 70
     1
102
RTVSPropertyOp2
 70
     1
102
RTVSPropertyOp3
 70
     1
102
RTVSPropertyOp4
 70
     1
102
RTVSPropertyOp5
 70
     1
102
RTVSPropertyOp6
 70
     1
102
RTVSPropertyOp7
 70
     1
102
RTVSPropertyOp8
 70
     1
102
RTVSPropertyOp9
 70
     1
102
RTVSPropertyOp10
 70
     1
102
RTVSPropertyOp11
 70
     1
102
RTVSPropertyOp12
 70
     1
102
RTVSPropertyOp13
 70
     1
102
RTVSPropertyOp14
 70
     1
102
RTVSPropertyOp15
 70
     1
102
RTVSPropertyOp16
 70
     1
102
RTVSPropertyOp17
 70
     1
102
RTVSPropertyOp18
 70
     1
102
RTVSPropertyOp19
 70
     1
102
RTVSPropertyOp20
 70
     1
102
RTVSPropertyOp21
 70
     1
102
RTVSPropertyOp22
 70
     1
102
RTVSPropertyOp23
 70
     1
102
RTVSPropertyOp24
 70
     1
102
RTVSPropertyOp25
 70
     1
102
RTVSPropertyOp26
 70
     1
102
RTVSPropertyOp27
 70
     1
102
RTVSPropertyOp28
 70
     1
102
RTVSPropertyOp29
 70
     1
102
RTVSPropertyOp30
 70
     1
102
RTVSPropertyOp31
 70
     1
102
RTVSPropertyOp32
 70
     1
  0
XRECORD
  5
96
102
{ACAD_REACTORS
330
95
102
}
330
95
100
AcDbXrecord
280
     1
102
RTVSPropertyOp0
 70
     1
102
RTVSPropertyOp1
 70
     1
102
RTVSPropertyOp2
 70
     1
102
RTVSPropertyOp3
 70
     1
102
RTVSPropertyOp4
 70
     1
102
RTVSPropertyOp5
 70
     1
102
RTVSPropertyOp6
 70
     1
102
RTVSPropertyOp7
 70
     1
102
RTVSPropertyOp8
 70
     1
102
RTVSPropertyOp9
 70
     1
102
RTVSPropertyOp10
 70
     1
102
RTVSPropertyOp11
 70
     1
102
RTVSPropertyOp12
 70
     1
102
RTVSPropertyOp13
 70
     1
102
RTVSPropertyOp14
 70
     1
102
RTVSPropertyOp15
 70
     1
102
RTVSPropertyOp16
 70
     1
102
RTVSPropertyOp17
 70
     1
102
RTVSPropertyOp18
 70
     1
102
RTVSPropertyOp19
 70
     1
102
RTVSPropertyOp20
 70
     1
102
RTVSPropertyOp21
 70
     1
102
RTVSPropertyOp22
 70
     1
102
RTVSPropertyOp23
 70
     1
102
RTVSPropertyOp24
 70
     1
102
RTVSPropertyOp25
 70
     1
102
RTVSPropertyOp26
 70
     1
102
RTVSPropertyOp27
 70
     1
102
RTVSPropertyOp28
 70
     1
102
RTVSPropertyOp29
 70
     1
102
RTVSPropertyOp30
 70
     1
102
RTVSPropertyOp31
 70
     1
102
RTVSPropertyOp32
 70
     1
  0
XRECORD
  5
7A
102
{ACAD_REACTORS
330
79
102
}
330
79
100
AcDbXrecord
280
     1
102
RTVSPropertyOp0
 70
     1
102
RTVSPropertyOp1
 70
     1
102
RTVSPropertyOp2
 70
     1
102
RTVSPropertyOp3
 70
     1
102
RTVSPropertyOp4
 70
     1
102
RTVSPropertyOp5
 70
     1
102
RTVSPropertyOp6
 70
     1
102
RTVSPropertyOp7
 70
     1
102
RTVSPropertyOp8
 70
     1
102
RTVSPropertyOp9
 70
     1
102
RTVSPropertyOp10
 70
     1
102
RTVSPropertyOp11
 70
     1
102
RTVSPropertyOp12
 70
     1
102
RTVSPropertyOp13
 70
     1
102
RTVSPropertyOp14
 70
     1
102
RTVSPropertyOp15
 70
     1
102
RTVSPropertyOp16
 70
     1
102
RTVSPropertyOp17
 70
     1
102
RTVSPropertyOp18
 70
     1
102
RTVSPropertyOp19
 70
     1
102
RTVSPropertyOp20
 70
     1
102
RTVSPropertyOp21
 70
     1
102
RTVSPropertyOp22
 70
     1
102
RTVSPropertyOp23
 70
     1
102
RTVSPropertyOp24
 70
     1
102
RTVSPropertyOp25
 70
     1
102
RTVSPropertyOp26
 70
     1
102
RTVSPropertyOp27
 70
     1
102
RTVSPropertyOp28
 70
     1
102
RTVSPropertyOp29
 70
     1
102
RTVSPropertyOp30
 70
     1
102
RTVSPropertyOp31
 70
     1
102
RTVSPropertyOp32
 70
     1
  0
XRECORD
  5
7C
102
{ACAD_REACTORS
330
7B
102
}
330
7B
100
AcDbXrecord
280
     1
102
RTVSPropertyOp0
 70
     1
102
RTVSPropertyOp1
 70
     1
102
RTVSPropertyOp2
 70
     1
102
RTVSPropertyOp3
 70
     1
102
RTVSPropertyOp4
 70
     1
102
RTVSPropertyOp5
 70
     1
102
RTVSPropertyOp6
 70
     1
102
RTVSPropertyOp7
 70
     1
102
RTVSPropertyOp8
 70
     1
102
RTVSPropertyOp9
 70
     1
102
RTVSPropertyOp10
 70
     1
102
RTVSPropertyOp11
 70
     1
102
RTVSPropertyOp12
 70
     1
102
RTVSPropertyOp13
 70
     1
102
RTVSPropertyOp14
 70
     1
102
RTVSPropertyOp15
 70
     1
102
RTVSPropertyOp16
 70
     1
102
RTVSPropertyOp17
 70
     1
102
RTVSPropertyOp18
 70
     1
102
RTVSPropertyOp19
 70
     1
102
RTVSPropertyOp20
 70
     1
102
RTVSPropertyOp21
 70
     1
102
RTVSPropertyOp22
 70
     1
102
RTVSPropertyOp23
 70
     1
102
RTVSPropertyOp24
 70
     1
102
RTVSPropertyOp25
 70
     1
102
RTVSPropertyOp26
 70
     1
102
RTVSPropertyOp27
 70
     1
102
RTVSPropertyOp28
 70
     1
102
RTVSPropertyOp29
 70
     1
102
RTVSPropertyOp30
 70
     1
102
RTVSPropertyOp31
 70
     1
102
RTVSPropertyOp32
 70
     1
  0
XRECORD
  5
7E
102
{ACAD_REACTORS
330
7D
102
}
330
7D
100
AcDbXrecord
280
     1
102
RTVSPropertyOp0
 70
     1
102
RTVSPropertyOp1
 70
     1
102
RTVSPropertyOp2
 70
     1
102
RTVSPropertyOp3
 70
     1
102
RTVSPropertyOp4
 70
     1
102
RTVSPropertyOp5
 70
     1
102
RTVSPropertyOp6
 70
     1
102
RTVSPropertyOp7
 70
     1
102
RTVSPropertyOp8
 70
     1
102
RTVSPropertyOp9
 70
     1
102
RTVSPropertyOp10
 70
     1
102
RTVSPropertyOp11
 70
     1
102
RTVSPropertyOp12
 70
     1
102
RTVSPropertyOp13
 70
     1
102
RTVSPropertyOp14
 70
     1
102
RTVSPropertyOp15
 70
     1
102
RTVSPropertyOp16
 70
     1
102
RTVSPropertyOp17
 70
     1
102
RTVSPropertyOp18
 70
     1
102
RTVSPropertyOp19
 70
     1
102
RTVSPropertyOp20
 70
     1
102
RTVSPropertyOp21
 70
     1
102
RTVSPropertyOp22
 70
     1
102
RTVSPropertyOp23
 70
     1
102
RTVSPropertyOp24
 70
     1
102
RTVSPropertyOp25
 70
     1
102
RTVSPropertyOp26
 70
     1
102
RTVSPropertyOp27
 70
     1
102
RTVSPropertyOp28
 70
     1
102
RTVSPropertyOp29
 70
     1
102
RTVSPropertyOp30
 70
     1
102
RTVSPropertyOp31
 70
     1
102
RTVSPropertyOp32
 70
     1
  0
XRECORD
  5
80
102
{ACAD_REACTORS
330
7F
102
}
330
7F
100
AcDbXrecord
280
     1
102
RTVSPropertyOp0
 70
     1
102
RTVSPropertyOp1
 70
     1
102
RTVSPropertyOp2
 70
     1
102
RTVSPropertyOp3
 70
     1
102
RTVSPropertyOp4
 70
     1
102
RTVSPropertyOp5
 70
     1
102
RTVSPropertyOp6
 70
     1
102
RTVSPropertyOp7
 70
     1
102
RTVSPropertyOp8
 70
     1
102
RTVSPropertyOp9
 70
     1
102
RTVSPropertyOp10
 70
     1
102
RTVSPropertyOp11
 70
     1
102
RTVSPropertyOp12
 70
     1
102
RTVSPropertyOp13
 70
     1
102
RTVSPropertyOp14
 70
     1
102
RTVSPropertyOp15
 70
     1
102
RTVSPropertyOp16
 70
     1
102
RTVSPropertyOp17
 70
     1
102
RTVSPropertyOp18
 70
     1
102
RTVSPropertyOp19
 70
     1
102
RTVSPropertyOp20
 70
     1
102
RTVSPropertyOp21
 70
     1
102
RTVSPropertyOp22
 70
     1
102
RTVSPropertyOp23
 70
     1
102
RTVSPropertyOp24
 70
     1
102
RTVSPropertyOp25
 70
     1
102
RTVSPropertyOp26
 70
     1
102
RTVSPropertyOp27
 70
     1
102
RTVSPropertyOp28
 70
     1
102
RTVSPropertyOp29
 70
     1
102
RTVSPropertyOp30
 70
     1
102
RTVSPropertyOp31
 70
     1
102
RTVSPropertyOp32
 70
     1
  0
XRECORD
  5
94
102
{ACAD_REACTORS
330
93
102
}
330
93
100
AcDbXrecord
280
     1
102
RTVSPropertyOp0
 70
     1
102
RTVSPropertyOp1
 70
     1
102
RTVSPropertyOp2
 70
     1
102
RTVSPropertyOp3
 70
     1
102
RTVSPropertyOp4
 70
     1
102
RTVSPropertyOp5
 70
     1
102
RTVSPropertyOp6
 70
     1
102
RTVSPropertyOp7
 70
     1
102
RTVSPropertyOp8
 70
     1
102
RTVSPropertyOp9
 70
     1
102
RTVSPropertyOp10
 70
     1
102
RTVSPropertyOp11
 70
     1
102
RTVSPropertyOp12
 70
     1
102
RTVSPropertyOp13
 70
     1
102
RTVSPropertyOp14
 70
     1
102
RTVSPropertyOp15
 70
     1
102
RTVSPropertyOp16
 70
     1
102
RTVSPropertyOp17
 70
     1
102
RTVSPropertyOp18
 70
     1
102
RTVSPropertyOp19
 70
     1
102
RTVSPropertyOp20
 70
     1
102
RTVSPropertyOp21
 70
     1
102
RTVSPropertyOp22
 70
     1
102
RTVSPropertyOp23
 70
     1
102
RTVSPropertyOp24
 70
     1
102
RTVSPropertyOp25
 70
     1
102
RTVSPropertyOp26
 70
     1
102
RTVSPropertyOp27
 70
     1
102
RTVSPropertyOp28
 70
     1
102
RTVSPropertyOp29
 70
     1
102
RTVSPropertyOp30
 70
     1
102
RTVSPropertyOp31
 70
     1
102
RTVSPropertyOp32
 70
     1
  0
XRECORD
  5
8A
102
{ACAD_REACTORS
330
89
102
}
330
89
100
AcDbXrecord
280
     1
102
RTVSPropertyOp0
 70
     1
102
RTVSPropertyOp1
 70
     1
102
RTVSPropertyOp2
 70
     1
102
RTVSPropertyOp3
 70
     1
102
RTVSPropertyOp4
 70
     1
102
RTVSPropertyOp5
 70
     1
102
RTVSPropertyOp6
 70
     1
102
RTVSPropertyOp7
 70
     1
102
RTVSPropertyOp8
 70
     1
102
RTVSPropertyOp9
 70
     1
102
RTVSPropertyOp10
 70
     1
102
RTVSPropertyOp11
 70
     1
102
RTVSPropertyOp12
 70
     1
102
RTVSPropertyOp13
 70
     1
102
RTVSPropertyOp14
 70
     1
102
RTVSPropertyOp15
 70
     1
102
RTVSPropertyOp16
 70
     1
102
RTVSPropertyOp17
 70
     1
102
RTVSPropertyOp18
 70
     1
102
RTVSPropertyOp19
 70
     1
102
RTVSPropertyOp20
 70
     1
102
RTVSPropertyOp21
 70
     1
102
RTVSPropertyOp22
 70
     1
102
RTVSPropertyOp23
 70
     1
102
RTVSPropertyOp24
 70
     1
102
RTVSPropertyOp25
 70
     1
102
RTVSPropertyOp26
 70
     1
102
RTVSPropertyOp27
 70
     1
102
RTVSPropertyOp28
 70
     1
102
RTVSPropertyOp29
 70
     1
102
RTVSPropertyOp30
 70
     1
102
RTVSPropertyOp31
 70
     1
102
RTVSPropertyOp32
 70
     1
  0
XRECORD
  5
92
102
{ACAD_REACTORS
330
91
102
}
330
91
100
AcDbXrecord
280
     1
102
RTVSPropertyOp0
 70
     1
102
RTVSPropertyOp1
 70
     1
102
RTVSPropertyOp2
 70
     1
102
RTVSPropertyOp3
 70
     1
102
RTVSPropertyOp4
 70
     1
102
RTVSPropertyOp5
 70
     1
102
RTVSPropertyOp6
 70
     1
102
RTVSPropertyOp7
 70
     1
102
RTVSPropertyOp8
 70
     1
102
RTVSPropertyOp9
 70
     1
102
RTVSPropertyOp10
 70
     1
102
RTVSPropertyOp11
 70
     1
102
RTVSPropertyOp12
 70
     1
102
RTVSPropertyOp13
 70
     1
102
RTVSPropertyOp14
 70
     1
102
RTVSPropertyOp15
 70
     1
102
RTVSPropertyOp16
 70
     1
102
RTVSPropertyOp17
 70
     1
102
RTVSPropertyOp18
 70
     1
102
RTVSPropertyOp19
 70
     1
102
RTVSPropertyOp20
 70
     1
102
RTVSPropertyOp21
 70
     1
102
RTVSPropertyOp22
 70
     1
102
RTVSPropertyOp23
 70
     1
102
RTVSPropertyOp24
 70
     1
102
RTVSPropertyOp25
 70
     1
102
RTVSPropertyOp26
 70
     1
102
RTVSPropertyOp27
 70
     1
102
RTVSPropertyOp28
 70
     1
102
RTVSPropertyOp29
 70
     1
102
RTVSPropertyOp30
 70
     1
102
RTVSPropertyOp31
 70
     1
102
RTVSPropertyOp32
 70
     1
  0
ENDSEC
  0
EOF
