  0
SECTION
  2
HEADER
  9
$ACADVER
  1
AC1024
  9
$ACADMAINTVER
 70
     6
  9
$DWGCODEPAGE
  3
UNDEFINED
  9
$INSBASE
 10
0.0
 20
0.0
 30
0.0
  9
$EXTMIN
 10
1.000000000000000E+20
 20
1.000000000000000E+20
 30
1.000000000000000E+20
  9
$EXTMAX
 10
-1.000000000000000E+20
 20
-1.000000000000000E+20
 30
-1.000000000000000E+20
  9
$LIMMIN
 10
0.0
 20
0.0
  9
$LIMMAX
 10
12.0
 20
9.0
  9
$ORTHOMODE
 70
     0
  9
$REGENMODE
 70
     1
  9
$FILLMODE
 70
     1
  9
$QTEXTMODE
 70
     0
  9
$MIRRTEXT
 70
     1
  9
$LTSCALE
 40
1.0
  9
$ATTMODE
 70
     1
  9
$TEXTSIZE
 40
0.2
  9
$TRACEWID
 40
0.05
  9
$TEXTSTYLE
  7
Standard
  9
$CLAYER
  8
0
  9
$CELTYPE
  6
ByLayer
  9
$CECOLOR
 62
   256
  9
$CELTSCALE
 40
1.0
  9
$DISPSILH
 70
     0
  9
$DIMSCALE
 40
1.0
  9
$DIMASZ
 40
0.18
  9
$DIMEXO
 40
0.0625
  9
$DIMDLI
 40
0.38
  9
$DIMRND
 40
0.0
  9
$DIMDLE
 40
0.0
  9
$DIMEXE
 40
0.18
  9
$DIMTP
 40
0.0
  9
$DIMTM
 40
0.0
  9
$DIMTXT
 40
0.18
  9
$DIMCEN
 40
0.09
  9
$DIMTSZ
 40
0.0
  9
$DIMTOL
 70
     0
  9
$DIMLIM
 70
     0
  9
$DIMTIH
 70
     1
  9
$DIMTOH
 70
     1
  9
$DIMSE1
 70
     0
  9
$DIMSE2
 70
     0
  9
$DIMTAD
 70
     0
  9
$DIMZIN
 70
     0
  9
$DIMBLK
  1

  9
$DIMASO
 70
     1
  9
$DIMSHO
 70
     1
  9
$DIMPOST
  1

  9
$DIMAPOST
  1

  9
$DIMALT
 70
     0
  9
$DIMALTD
 70
     2
  9
$DIMALTF
 40
25.4
  9
$DIMLFAC
 40
1.0
  9
$DIMTOFL
 70
     0
  9
$DIMTVP
 40
0.0
  9
$DIMTIX
 70
     0
  9
$DIMSOXD
 70
     0
  9
$DIMSAH
 70
     0
  9
$DIMBLK1
  1

  9
$DIMBLK2
  1

  9
$DIMSTYLE
  2
Standard
  9
$DIMCLRD
 70
     0
  9
$DIMCLRE
 70
     0
  9
$DIMCLRT
 70
     0
  9
$DIMTFAC
 40
1.0
  9
$DIMGAP
 40
0.09
  9
$DIMJUST
 70
     0
  9
$DIMSD1
 70
     0
  9
$DIMSD2
 70
     0
  9
$DIMTOLJ
 70
     1
  9
$DIMTZIN
 70
     0
  9
$DIMALTZ
 70
     0
  9
$DIMALTTZ
 70
     0
  9
$DIMUPT
 70
     0
  9
$DIMDEC
 70
     4
  9
$DIMTDEC
 70
     4
  9
$DIMALTU
 70
     2
  9
$DIMALTTD
 70
     2
  9
$DIMTXSTY
  7
Standard
  9
$DIMAUNIT
 70
     0
  9
$DIMADEC
 70
     0
  9
$DIMALTRND
 40
0.0
  9
$DIMAZIN
 70
     0
  9
$DIMDSEP
 70
    46
  9
$DIMATFIT
 70
     3
  9
$DIMFRAC
 70
     0
  9
$DIMLDRBLK
  1

  9
$DIMLUNIT
 70
     2
  9
$DIMLWD
 70
    -2
  9
$DIMLWE
 70
    -2
  9
$DIMTMOVE
 70
     0
  9
$DIMFXL
 40
1.0
  9
$DIMFXLON
 70
     0
  9
$DIMJOGANG
 40
0.7853981633974483
  9
$DIMTFILL
 70
     0
  9
$DIMTFILLCLR
 70
     0
  9
$DIMARCSYM
 70
     0
  9
$DIMLTYPE
  6

  9
$DIMLTEX1
  6

  9
$DIMLTEX2
  6

  9
$DIMTXTDIRECTION
 70
     0
  9
$LUNITS
 70
     2
  9
$LUPREC
 70
     4
  9
$SKETCHINC
 40
0.1
  9
$FILLETRAD
 40
0.5
  9
$AUNITS
 70
     0
  9
$AUPREC
 70
     0
  9
$MENU
  1
.
  9
$ELEVATION
 40
0.0
  9
$PELEVATION
 40
0.0
  9
$THICKNESS
 40
0.0
  9
$LIMCHECK
 70
     0
  9
$CHAMFERA
 40
0.5
  9
$CHAMFERB
 40
0.5
  9
$CHAMFERC
 40
1.0
  9
$CHAMFERD
 40
0.0
  9
$SKPOLY
 70
     0
  9
$TDCREATE
 40
2457442.557546285
  9
$TDUCREATE
 40
2457442.76587963
  9
$TDUPDATE
 40
2457442.557546285
  9
$TDUUPDATE
 40
2457442.76587963
  9
$TDINDWG
 40
0.0000000116
  9
$TDUSRTIMER
 40
0.0000000116
  9
$USRTIMER
 70
     1
  9
$ANGBASE
 50
0.0
  9
$ANGDIR
 70
     0
  9
$PDMODE
 70
     0
  9
$PDSIZE
 40
0.0
  9
$PLINEWID
 40
0.0
  9
$SPLFRAME
 70
     0
  9
$SPLINETYPE
 70
     6
  9
$SPLINESEGS
 70
     8
  9
$HANDSEED
  5
385
  9
$SURFTAB1
 70
     6
  9
$SURFTAB2
 70
     6
  9
$SURFTYPE
 70
     6
  9
$SURFU
 70
     6
  9
$SURFV
 70
     6
  9
$UCSBASE
  2

  9
$UCSNAME
  2

  9
$UCSORG
 10
0.0
 20
0.0
 30
0.0
  9
$UCSXDIR
 10
1.0
 20
0.0
 30
0.0
  9
$UCSYDIR
 10
0.0
 20
1.0
 30
0.0
  9
$UCSORTHOREF
  2

  9
$UCSORTHOVIEW
 70
     0
  9
$UCSORGTOP
 10
0.0
 20
0.0
 30
0.0
  9
$UCSORGBOTTOM
 10
0.0
 20
0.0
 30
0.0
  9
$UCSORGLEFT
 10
0.0
 20
0.0
 30
0.0
  9
$UCSORGRIGHT
 10
0.0
 20
0.0
 30
0.0
  9
$UCSORGFRONT
 10
0.0
 20
0.0
 30
0.0
  9
$UCSORGBACK
 10
0.0
 20
0.0
 30
0.0
  9
$PUCSBASE
  2

  9
$PUCSNAME
  2

  9
$PUCSORG
 10
0.0
 20
0.0
 30
0.0
  9
$PUCSXDIR
 10
1.0
 20
0.0
 30
0.0
  9
$PUCSYDIR
 10
0.0
 20
1.0
 30
0.0
  9
$PUCSORTHOREF
  2

  9
$PUCSORTHOVIEW
 70
     0
  9
$PUCSORGTOP
 10
0.0
 20
0.0
 30
0.0
  9
$PUCSORGBOTTOM
 10
0.0
 20
0.0
 30
0.0
  9
$PUCSORGLEFT
 10
0.0
 20
0.0
 30
0.0
  9
$PUCSORGRIGHT
 10
0.0
 20
0.0
 30
0.0
  9
$PUCSORGFRONT
 10
0.0
 20
0.0
 30
0.0
  9
$PUCSORGBACK
 10
0.0
 20
0.0
 30
0.0
  9
$USERI1
 70
     0
  9
$USERI2
 70
     0
  9
$USERI3
 70
     0
  9
$USERI4
 70
     0
  9
$USERI5
 70
     0
  9
$USERR1
 40
0.0
  9
$USERR2
 40
0.0
  9
$USERR3
 40
0.0
  9
$USERR4
 40
0.0
  9
$USERR5
 40
0.0
  9
$WORLDVIEW
 70
     1
  9
$SHADEDGE
 70
     3
  9
$SHADEDIF
 70
    70
  9
$TILEMODE
 70
     1
  9
$MAXACTVP
 70
    64
  9
$PINSBASE
 10
0.0
 20
0.0
 30
0.0
  9
$PLIMCHECK
 70
     0
  9
$PEXTMIN
 10
1.000000000000000E+20
 20
1.000000000000000E+20
 30
1.000000000000000E+20
  9
$PEXTMAX
 10
-1.000000000000000E+20
 20
-1.000000000000000E+20
 30
-1.000000000000000E+20
  9
$PLIMMIN
 10
0.0
 20
0.0
  9
$PLIMMAX
 10
12.0
 20
9.0
  9
$UNITMODE
 70
     0
  9
$VISRETAIN
 70
     1
  9
$PLINEGEN
 70
     0
  9
$PSLTSCALE
 70
     1
  9
$TREEDEPTH
 70
  3020
  9
$CMLSTYLE
  2
Standard
  9
$CMLJUST
 70
     0
  9
$CMLSCALE
 40
1.0
  9
$PROXYGRAPHICS
 70
     1
  9
$MEASUREMENT
 70
     0
  9
$CELWEIGHT
370
    -1
  9
$ENDCAPS
280
     0
  9
$JOINSTYLE
280
     0
  9
$LWDISPLAY
290
     1
  9
$INSUNITS
 70
     1
  9
$HYPERLINKBASE
  1

  9
$STYLESHEET
  1

  9
$XEDIT
290
     1
  9
$CEPSNTYPE
380
     0
  9
$PSTYLEMODE
290
     1
  9
$FINGERPRINTGUID
  2
{CB690DF6-9F56-442B-2A93-5BD5A1AC346B}
  9
$VERSIONGUID
  2
{FAEB1C32-E019-11D5-929B-00C0DF256EC4}
  9
$EXTNAMES
290
     1
  9
$PSVPSCALE
 40
0.0
  9
$OLESTARTUP
290
     0
  9
$SORTENTS
280
   127
  9
$INDEXCTL
280
     0
  9
$HIDETEXT
280
     1
  9
$XCLIPFRAME
280
     2
  9
$HALOGAP
280
     0
  9
$OBSCOLOR
 70
   257
  9
$OBSLTYPE
280
     0
  9
$INTERSECTIONDISPLAY
280
     0
  9
$INTERSECTIONCOLOR
 70
   257
  9
$DIMASSOC
280
     2
  9
$PROJECTNAME
  1

  9
$CAMERADISPLAY
290
     0
  9
$LENSLENGTH
 40
50.0
  9
$CAMERAHEIGHT
 40
0.0
  9
$STEPSPERSEC
 40
2.0
  9
$STEPSIZE
 40
6.0
  9
$3DDWFPREC
 40
2.0
  9
$PSOLWIDTH
 40
0.25
  9
$PSOLHEIGHT
 40
4.0
  9
$LOFTANG1
 40
1.570796326794897
  9
$LOFTANG2
 40
1.570796326794897
  9
$LOFTMAG1
 40
0.0
  9
$LOFTMAG2
 40
0.0
  9
$LOFTPARAM
 70
     7
  9
$LOFTNORMALS
280
     1
  9
$LATITUDE
 40
37.795
  9
$LONGITUDE
 40
-122.394
  9
$NORTHDIRECTION
 40
0.0
  9
$TIMEZONE
 70
 -8000
  9
$LIGHTGLYPHDISPLAY
280
     1
  9
$TILEMODELIGHTSYNCH
280
     1
  9
$CMATERIAL
347
3C
  9
$SOLIDHIST
280
     1
  9
$SHOWHIST
280
     1
  9
$DWFFRAME
280
     2
  9
$DGNFRAME
280
     2
  9
$REALWORLDSCALE
290
     1
  9
$INTERFERECOLOR
 62
   256
  9
$CSHADOW
280
     0
  9
$SHADOWPLANELOCATION
 40
0.0
  0
ENDSEC
  0
SECTION
  2
CLASSES
  0
CLASS
  1
ACDBDICTIONARYWDFLT
  2
AcDbDictionaryWithDefault
  3
ObjectDBX Classes
 90
        0
 91
        4
280
     0
281
     0
  0
CLASS
  1
VISUALSTYLE
  2
AcDbVisualStyle
  3
ObjectDBX Classes
 90
     4095
 91
        4
280
     0
281
     0
  0
CLASS
  1
MATERIAL
  2
AcDbMaterial
  3
ObjectDBX Classes
 90
     1153
 91
        4
280
     0
281
     0
  0
CLASS
  1
SUN
  2
AcDbSun
  3
SCENEOE
 90
     1024
 91
        4
280
     0
281
     0
  0
ENDSEC
  0
SECTION
  2
TABLES
  0
TABLE
  2
VPORT
  5
8
330
0
100
AcDbSymbolTable
 70
     1
  0
VPORT
  5
29
330
8
100
AcDbSymbolTableRecord
100
AcDbViewportTableRecord
  2
*Active
 70
     0
 10
0.0
 20
0.0
 11
1.0
 21
1.0
 12
0.0
 22
0.0
 13
0.0
 23
0.0
 14
0.5
 24
0.5
 15
0.5
 25
0.5
 16
0.0
 26
0.0
 36
1.0
 17
4.25
 27
5.5
 37
0.0
 40
11.0
 41
0.7727272727272727
 42
50.0
 43
0.0
 44
0.0
 50
0.0
 51
0.0
 71
     0
 72
   100
 73
     1
 74
     3
 75
     0
 76
     0
 77
     0
 78
     0
281
     0
 65
     1
110
0.0
120
0.0
130
0.0
111
1.0
121
0.0
131
0.0
112
0.0
122
1.0
132
0.0
 79
     0
146
0.0
 60
     3
 61
     5
292
     1
282
     1
141
0.0
142
0.0
 63
   250
361
3F
  0
ENDTAB
  0
TABLE
  2
LTYPE
  5
5
330
0
100
AcDbSymbolTable
 70
     9
  0
LTYPE
  5
14
330
5
100
AcDbSymbolTableRecord
100
AcDbLinetypeTableRecord
  2
ByBlock
 70
     0
  3

 72
    65
 73
     0
 40
0.0
  0
LTYPE
  5
15
330
5
100
AcDbSymbolTableRecord
100
AcDbLinetypeTableRecord
  2
ByLayer
 70
     0
  3

 72
    65
 73
     0
 40
0.0
  0
LTYPE
  5
16
330
5
100
AcDbSymbolTableRecord
100
AcDbLinetypeTableRecord
  2
Continuous
 70
     0
  3
Solid line
 72
    65
 73
     0
 40
0.0
  0
LTYPE
  5
46
330
5
100
AcDbSymbolTableRecord
100
AcDbLinetypeTableRecord
  2
AI-Linetype-1
 70
     0
  3
Adobe Illustrator Linetype No. 1
 72
    65
 73
     2
 40
0.1599078377087911
 49
0.1066052251391941
 74
     0
 49
-0.053302612569597
 74
     0
  0
LTYPE
  5
4C
330
5
100
AcDbSymbolTableRecord
100
AcDbLinetypeTableRecord
  2
AI-Linetype-2
 70
     0
  3
Adobe Illustrator Linetype No. 2
 72
    65
 73
     2
 40
0.1599078377087911
 49
0.1066052251391941
 74
     0
 49
-0.053302612569597
 74
     0
  0
LTYPE
  5
52
330
5
100
AcDbSymbolTableRecord
100
AcDbLinetypeTableRecord
  2
AI-Linetype-3
 70
     0
  3
Adobe Illustrator Linetype No. 3
 72
    65
 73
     2
 40
0.1599078377087911
 49
0.1066052251391941
 74
     0
 49
-0.053302612569597
 74
     0
  0
LTYPE
  5
58
330
5
100
AcDbSymbolTableRecord
100
AcDbLinetypeTableRecord
  2
AI-Linetype-4
 70
     0
  3
Adobe Illustrator Linetype No. 4
 72
    65
 73
     2
 40
0.1599078377087911
 49
0.1066052251391941
 74
     0
 49
-0.053302612569597
 74
     0
  0
LTYPE
  5
5E
330
5
100
AcDbSymbolTableRecord
100
AcDbLinetypeTableRecord
  2
AI-Linetype-5
 70
     0
  3
Adobe Illustrator Linetype No. 5
 72
    65
 73
     2
 40
0.1599078377087911
 49
0.1066052251391941
 74
     0
 49
-0.053302612569597
 74
     0
  0
LTYPE
  5
64
330
5
100
AcDbSymbolTableRecord
100
AcDbLinetypeTableRecord
  2
AI-Linetype-6
 70
     0
  3
Adobe Illustrator Linetype No. 6
 72
    65
 73
     2
 40
0.1599078377087911
 49
0.1066052251391941
 74
     0
 49
-0.053302612569597
 74
     0
  0
LTYPE
  5
6A
330
5
100
AcDbSymbolTableRecord
100
AcDbLinetypeTableRecord
  2
AI-Linetype-7
 70
     0
  3
Adobe Illustrator Linetype No. 7
 72
    65
 73
     2
 40
0.1599078377087911
 49
0.1066052251391941
 74
     0
 49
-0.053302612569597
 74
     0
  0
LTYPE
  5
70
330
5
100
AcDbSymbolTableRecord
100
AcDbLinetypeTableRecord
  2
AI-Linetype-8
 70
     0
  3
Adobe Illustrator Linetype No. 8
 72
    65
 73
     2
 40
0.1599078377087911
 49
0.1066052251391941
 74
     0
 49
-0.053302612569597
 74
     0
  0
ENDTAB
  0
TABLE
  2
LAYER
  5
2
330
0
100
AcDbSymbolTable
 70
     5
  0
LAYER
  5
10
330
2
100
AcDbSymbolTableRecord
100
AcDbLayerTableRecord
  2
0
 70
     0
 62
     7
  6
Continuous
370
    -3
390
F
347
3E
  0
LAYER
  5
40
330
2
100
AcDbSymbolTableRecord
100
AcDbLayerTableRecord
  2
1
 70
     0
 62
     7
  6
Continuous
370
    -3
390
F
347
3E
  0
LAYER
  5
71
330
2
100
AcDbSymbolTableRecord
100
AcDbLayerTableRecord
  2
2
 70
     0
 62
     7
  6
Continuous
370
    -3
390
F
347
3E
  0
LAYER
  5
177
330
2
100
AcDbSymbolTableRecord
100
AcDbLayerTableRecord
  2
3
 70
     0
 62
     7
  6
Continuous
370
    -3
390
F
347
3E
  0
LAYER
  5
2F2
330
2
100
AcDbSymbolTableRecord
100
AcDbLayerTableRecord
  2
Defpoints
 70
     0
 62
     7
  6
Continuous
290
     0
370
    -3
390
F
347
3E
  0
ENDTAB
  0
TABLE
  2
STYLE
  5
3
330
0
100
AcDbSymbolTable
 70
     1
  0
STYLE
  5
11
330
3
100
AcDbSymbolTableRecord
100
AcDbTextStyleTableRecord
  2
Standard
 70
     0
 40
0.0
 41
1.0
 50
0.0
 71
     0
 42
0.2
  3
txt
  4

  0
ENDTAB
  0
TABLE
  2
VIEW
  5
6
330
0
100
AcDbSymbolTable
 70
     0
  0
ENDTAB
  0
TABLE
  2
UCS
  5
7
330
0
100
AcDbSymbolTable
 70
     0
  0
ENDTAB
  0
TABLE
  2
APPID
  5
9
330
0
100
AcDbSymbolTable
 70
     1
  0
APPID
  5
12
330
9
100
AcDbSymbolTableRecord
100
AcDbRegAppTableRecord
  2
ACAD
 70
     0
  0
ENDTAB
  0
TABLE
  2
DIMSTYLE
  5
A
330
0
100
AcDbSymbolTable
 70
     1
100
AcDbDimStyleTable
  0
DIMSTYLE
105
27
330
A
100
AcDbSymbolTableRecord
100
AcDbDimStyleTableRecord
  2
Standard
 70
     0
178
     0
340
11
  0
ENDTAB
  0
TABLE
  2
BLOCK_RECORD
  5
1
330
0
100
AcDbSymbolTable
 70
   100
  0
BLOCK_RECORD
  5
1F
330
1
100
AcDbSymbolTableRecord
100
AcDbBlockTableRecord
  2
*Model_Space
340
22
 70
     0
280
     1
281
     0
  0
BLOCK_RECORD
  5
1B
330
1
100
AcDbSymbolTableRecord
100
AcDbBlockTableRecord
  2
*Paper_Space
340
1E
 70
     0
280
     1
281
     0
  0
BLOCK_RECORD
  5
23
330
1
100
AcDbSymbolTableRecord
100
AcDbBlockTableRecord
  2
*Paper_Space0
340
26
 70
     0
280
     1
281
     0
  0
BLOCK_RECORD
  5
41
330
1
100
AcDbSymbolTableRecord
100
AcDbBlockTableRecord
  2
block 2
340
0
102
{BLKREFS
331
42
102
}
 70
     0
280
     1
281
     0
  0
BLOCK_RECORD
  5
47
330
1
100
AcDbSymbolTableRecord
100
AcDbBlockTableRecord
  2
block 3
340
0
102
{BLKREFS
331
48
102
}
 70
     0
280
     1
281
     0
  0
BLOCK_RECORD
  5
4D
330
1
100
AcDbSymbolTableRecord
100
AcDbBlockTableRecord
  2
block 4
340
0
102
{BLKREFS
331
4E
102
}
 70
     0
280
     1
281
     0
  0
BLOCK_RECORD
  5
53
330
1
100
AcDbSymbolTableRecord
100
AcDbBlockTableRecord
  2
block 5
340
0
102
{BLKREFS
331
54
102
}
 70
     0
280
     1
281
     0
  0
BLOCK_RECORD
  5
59
330
1
100
AcDbSymbolTableRecord
100
AcDbBlockTableRecord
  2
block 6
340
0
102
{BLKREFS
331
5A
102
}
 70
     0
280
     1
281
     0
  0
BLOCK_RECORD
  5
5F
330
1
100
AcDbSymbolTableRecord
100
AcDbBlockTableRecord
  2
block 7
340
0
102
{BLKREFS
331
60
102
}
 70
     0
280
     1
281
     0
  0
BLOCK_RECORD
  5
65
330
1
100
AcDbSymbolTableRecord
100
AcDbBlockTableRecord
  2
block 8
340
0
102
{BLKREFS
331
66
102
}
 70
     0
280
     1
281
     0
  0
BLOCK_RECORD
  5
6B
330
1
100
AcDbSymbolTableRecord
100
AcDbBlockTableRecord
  2
block 9
340
0
102
{BLKREFS
331
6C
102
}
 70
     0
280
     1
281
     0
  0
BLOCK_RECORD
  5
72
330
1
100
AcDbSymbolTableRecord
100
AcDbBlockTableRecord
  2
block 10
340
0
102
{BLKREFS
331
73
102
}
 70
     0
280
     1
281
     0
  0
BLOCK_RECORD
  5
77
330
1
100
AcDbSymbolTableRecord
100
AcDbBlockTableRecord
  2
block 11
340
0
102
{BLKREFS
331
78
102
}
 70
     0
280
     1
281
     0
  0
BLOCK_RECORD
  5
7C
330
1
100
AcDbSymbolTableRecord
100
AcDbBlockTableRecord
  2
block 12
340
0
102
{BLKREFS
331
7D
102
}
 70
     0
280
     1
281
     0
  0
BLOCK_RECORD
  5
81
330
1
100
AcDbSymbolTableRecord
100
AcDbBlockTableRecord
  2
block 13
340
0
102
{BLKREFS
331
82
102
}
 70
     0
280
     1
281
     0
  0
BLOCK_RECORD
  5
86
330
1
100
AcDbSymbolTableRecord
100
AcDbBlockTableRecord
  2
block 14
340
0
102
{BLKREFS
331
87
102
}
 70
     0
280
     1
281
     0
  0
BLOCK_RECORD
  5
8B
330
1
100
AcDbSymbolTableRecord
100
AcDbBlockTableRecord
  2
block 15
340
0
102
{BLKREFS
331
8C
102
}
 70
     0
280
     1
281
     0
  0
BLOCK_RECORD
  5
90
330
1
100
AcDbSymbolTableRecord
100
AcDbBlockTableRecord
  2
block 16
340
0
102
{BLKREFS
331
91
102
}
 70
     0
280
     1
281
     0
  0
BLOCK_RECORD
  5
95
330
1
100
AcDbSymbolTableRecord
100
AcDbBlockTableRecord
  2
block 17
340
0
102
{BLKREFS
331
96
102
}
 70
     0
280
     1
281
     0
  0
BLOCK_RECORD
  5
9A
330
1
100
AcDbSymbolTableRecord
100
AcDbBlockTableRecord
  2
block 18
340
0
102
{BLKREFS
331
9B
102
}
 70
     0
280
     1
281
     0
  0
BLOCK_RECORD
  5
D3
330
1
100
AcDbSymbolTableRecord
100
AcDbBlockTableRecord
  2
block 19
340
0
102
{BLKREFS
331
D4
102
}
 70
     0
280
     1
281
     0
  0
BLOCK_RECORD
  5
DB
330
1
100
AcDbSymbolTableRecord
100
AcDbBlockTableRecord
  2
block 20
340
0
102
{BLKREFS
331
DC
102
}
 70
     0
280
     1
281
     0
  0
BLOCK_RECORD
  5
E0
330
1
100
AcDbSymbolTableRecord
100
AcDbBlockTableRecord
  2
block 21
340
0
102
{BLKREFS
331
E1
102
}
 70
     0
280
     1
281
     0
  0
BLOCK_RECORD
  5
E5
330
1
100
AcDbSymbolTableRecord
100
AcDbBlockTableRecord
  2
block 22
340
0
102
{BLKREFS
331
E6
102
}
 70
     0
280
     1
281
     0
  0
BLOCK_RECORD
  5
ED
330
1
100
AcDbSymbolTableRecord
100
AcDbBlockTableRecord
  2
block 23
340
0
102
{BLKREFS
331
EE
102
}
 70
     0
280
     1
281
     0
  0
BLOCK_RECORD
  5
F2
330
1
100
AcDbSymbolTableRecord
100
AcDbBlockTableRecord
  2
block 24
340
0
102
{BLKREFS
331
F3
102
}
 70
     0
280
     1
281
     0
  0
BLOCK_RECORD
  5
F7
330
1
100
AcDbSymbolTableRecord
100
AcDbBlockTableRecord
  2
block 25
340
0
102
{BLKREFS
331
F8
102
}
 70
     0
280
     1
281
     0
  0
BLOCK_RECORD
  5
FF
330
1
100
AcDbSymbolTableRecord
100
AcDbBlockTableRecord
  2
block 26
340
0
102
{BLKREFS
331
100
102
}
 70
     0
280
     1
281
     0
  0
BLOCK_RECORD
  5
107
330
1
100
AcDbSymbolTableRecord
100
AcDbBlockTableRecord
  2
block 27
340
0
102
{BLKREFS
331
108
102
}
 70
     0
280
     1
281
     0
  0
BLOCK_RECORD
  5
10C
330
1
100
AcDbSymbolTableRecord
100
AcDbBlockTableRecord
  2
block 28
340
0
102
{BLKREFS
331
10D
102
}
 70
     0
280
     1
281
     0
  0
BLOCK_RECORD
  5
111
330
1
100
AcDbSymbolTableRecord
100
AcDbBlockTableRecord
  2
block 29
340
0
102
{BLKREFS
331
112
102
}
 70
     0
280
     1
281
     0
  0
BLOCK_RECORD
  5
13E
330
1
100
AcDbSymbolTableRecord
100
AcDbBlockTableRecord
  2
block 30
340
0
102
{BLKREFS
331
13F
102
}
 70
     0
280
     1
281
     0
  0
BLOCK_RECORD
  5
146
330
1
100
AcDbSymbolTableRecord
100
AcDbBlockTableRecord
  2
block 31
340
0
102
{BLKREFS
331
147
102
}
 70
     0
280
     1
281
     0
  0
BLOCK_RECORD
  5
14E
330
1
100
AcDbSymbolTableRecord
100
AcDbBlockTableRecord
  2
block 32
340
0
102
{BLKREFS
331
14F
102
}
 70
     0
280
     1
281
     0
  0
BLOCK_RECORD
  5
153
330
1
100
AcDbSymbolTableRecord
100
AcDbBlockTableRecord
  2
block 33
340
0
102
{BLKREFS
331
154
102
}
 70
     0
280
     1
281
     0
  0
BLOCK_RECORD
  5
15B
330
1
100
AcDbSymbolTableRecord
100
AcDbBlockTableRecord
  2
block 34
340
0
102
{BLKREFS
331
15C
102
}
 70
     0
280
     1
281
     0
  0
BLOCK_RECORD
  5
160
330
1
100
AcDbSymbolTableRecord
100
AcDbBlockTableRecord
  2
block 35
340
0
102
{BLKREFS
331
161
102
}
 70
     0
280
     1
281
     0
  0
BLOCK_RECORD
  5
165
330
1
100
AcDbSymbolTableRecord
100
AcDbBlockTableRecord
  2
block 36
340
0
102
{BLKREFS
331
166
102
}
 70
     0
280
     1
281
     0
  0
BLOCK_RECORD
  5
16D
330
1
100
AcDbSymbolTableRecord
100
AcDbBlockTableRecord
  2
block 37
340
0
102
{BLKREFS
331
16E
102
}
 70
     0
280
     1
281
     0
  0
BLOCK_RECORD
  5
172
330
1
100
AcDbSymbolTableRecord
100
AcDbBlockTableRecord
  2
block 38
340
0
102
{BLKREFS
331
173
102
}
 70
     0
280
     1
281
     0
  0
BLOCK_RECORD
  5
178
330
1
100
AcDbSymbolTableRecord
100
AcDbBlockTableRecord
  2
block 39
340
0
102
{BLKREFS
331
179
102
}
 70
     0
280
     1
281
     0
  0
BLOCK_RECORD
  5
180
330
1
100
AcDbSymbolTableRecord
100
AcDbBlockTableRecord
  2
block 40
340
0
102
{BLKREFS
331
181
102
}
 70
     0
280
     1
281
     0
  0
BLOCK_RECORD
  5
188
330
1
100
AcDbSymbolTableRecord
100
AcDbBlockTableRecord
  2
block 41
340
0
102
{BLKREFS
331
189
102
}
 70
     0
280
     1
281
     0
  0
BLOCK_RECORD
  5
190
330
1
100
AcDbSymbolTableRecord
100
AcDbBlockTableRecord
  2
block 42
340
0
102
{BLKREFS
331
191
102
}
 70
     0
280
     1
281
     0
  0
BLOCK_RECORD
  5
198
330
1
100
AcDbSymbolTableRecord
100
AcDbBlockTableRecord
  2
block 43
340
0
102
{BLKREFS
331
199
102
}
 70
     0
280
     1
281
     0
  0
BLOCK_RECORD
  5
1A0
330
1
100
AcDbSymbolTableRecord
100
AcDbBlockTableRecord
  2
block 44
340
0
102
{BLKREFS
331
1A1
102
}
 70
     0
280
     1
281
     0
  0
BLOCK_RECORD
  5
1AB
330
1
100
AcDbSymbolTableRecord
100
AcDbBlockTableRecord
  2
block 45
340
0
102
{BLKREFS
331
1AC
102
}
 70
     0
280
     1
281
     0
  0
BLOCK_RECORD
  5
1B6
330
1
100
AcDbSymbolTableRecord
100
AcDbBlockTableRecord
  2
block 46
340
0
102
{BLKREFS
331
1B7
102
}
 70
     0
280
     1
281
     0
  0
BLOCK_RECORD
  5
1BB
330
1
100
AcDbSymbolTableRecord
100
AcDbBlockTableRecord
  2
block 47
340
0
102
{BLKREFS
331
1BC
102
}
 70
     0
280
     1
281
     0
  0
BLOCK_RECORD
  5
1C3
330
1
100
AcDbSymbolTableRecord
100
AcDbBlockTableRecord
  2
block 48
340
0
102
{BLKREFS
331
1C4
102
}
 70
     0
280
     1
281
     0
  0
BLOCK_RECORD
  5
1CB
330
1
100
AcDbSymbolTableRecord
100
AcDbBlockTableRecord
  2
block 49
340
0
102
{BLKREFS
331
1CC
102
}
 70
     0
280
     1
281
     0
  0
BLOCK_RECORD
  5
1D3
330
1
100
AcDbSymbolTableRecord
100
AcDbBlockTableRecord
  2
block 50
340
0
102
{BLKREFS
331
1D4
102
}
 70
     0
280
     1
281
     0
  0
BLOCK_RECORD
  5
1DB
330
1
100
AcDbSymbolTableRecord
100
AcDbBlockTableRecord
  2
block 51
340
0
102
{BLKREFS
331
1DC
102
}
 70
     0
280
     1
281
     0
  0
BLOCK_RECORD
  5
1E3
330
1
100
AcDbSymbolTableRecord
100
AcDbBlockTableRecord
  2
block 52
340
0
102
{BLKREFS
331
1E4
102
}
 70
     0
280
     1
281
     0
  0
BLOCK_RECORD
  5
1EE
330
1
100
AcDbSymbolTableRecord
100
AcDbBlockTableRecord
  2
block 53
340
0
102
{BLKREFS
331
1EF
102
}
 70
     0
280
     1
281
     0
  0
BLOCK_RECORD
  5
1F9
330
1
100
AcDbSymbolTableRecord
100
AcDbBlockTableRecord
  2
block 54
340
0
102
{BLKREFS
331
1FA
102
}
 70
     0
280
     1
281
     0
  0
BLOCK_RECORD
  5
1FE
330
1
100
AcDbSymbolTableRecord
100
AcDbBlockTableRecord
  2
block 55
340
0
102
{BLKREFS
331
1FF
102
}
 70
     0
280
     1
281
     0
  0
BLOCK_RECORD
  5
206
330
1
100
AcDbSymbolTableRecord
100
AcDbBlockTableRecord
  2
block 56
340
0
102
{BLKREFS
331
207
102
}
 70
     0
280
     1
281
     0
  0
BLOCK_RECORD
  5
20E
330
1
100
AcDbSymbolTableRecord
100
AcDbBlockTableRecord
  2
block 57
340
0
102
{BLKREFS
331
20F
102
}
 70
     0
280
     1
281
     0
  0
BLOCK_RECORD
  5
216
330
1
100
AcDbSymbolTableRecord
100
AcDbBlockTableRecord
  2
block 58
340
0
102
{BLKREFS
331
217
102
}
 70
     0
280
     1
281
     0
  0
BLOCK_RECORD
  5
221
330
1
100
AcDbSymbolTableRecord
100
AcDbBlockTableRecord
  2
block 59
340
0
102
{BLKREFS
331
222
102
}
 70
     0
280
     1
281
     0
  0
BLOCK_RECORD
  5
22C
330
1
100
AcDbSymbolTableRecord
100
AcDbBlockTableRecord
  2
block 60
340
0
102
{BLKREFS
331
22D
102
}
 70
     0
280
     1
281
     0
  0
BLOCK_RECORD
  5
231
330
1
100
AcDbSymbolTableRecord
100
AcDbBlockTableRecord
  2
block 61
340
0
102
{BLKREFS
331
232
102
}
 70
     0
280
     1
281
     0
  0
BLOCK_RECORD
  5
239
330
1
100
AcDbSymbolTableRecord
100
AcDbBlockTableRecord
  2
block 62
340
0
102
{BLKREFS
331
23A
102
}
 70
     0
280
     1
281
     0
  0
BLOCK_RECORD
  5
241
330
1
100
AcDbSymbolTableRecord
100
AcDbBlockTableRecord
  2
block 63
340
0
102
{BLKREFS
331
242
102
}
 70
     0
280
     1
281
     0
  0
BLOCK_RECORD
  5
249
330
1
100
AcDbSymbolTableRecord
100
AcDbBlockTableRecord
  2
block 64
340
0
102
{BLKREFS
331
24A
102
}
 70
     0
280
     1
281
     0
  0
BLOCK_RECORD
  5
254
330
1
100
AcDbSymbolTableRecord
100
AcDbBlockTableRecord
  2
block 65
340
0
102
{BLKREFS
331
255
102
}
 70
     0
280
     1
281
     0
  0
BLOCK_RECORD
  5
25F
330
1
100
AcDbSymbolTableRecord
100
AcDbBlockTableRecord
  2
block 66
340
0
102
{BLKREFS
331
260
102
}
 70
     0
280
     1
281
     0
  0
BLOCK_RECORD
  5
264
330
1
100
AcDbSymbolTableRecord
100
AcDbBlockTableRecord
  2
block 67
340
0
102
{BLKREFS
331
265
102
}
 70
     0
280
     1
281
     0
  0
BLOCK_RECORD
  5
26C
330
1
100
AcDbSymbolTableRecord
100
AcDbBlockTableRecord
  2
block 68
340
0
102
{BLKREFS
331
26D
102
}
 70
     0
280
     1
281
     0
  0
BLOCK_RECORD
  5
274
330
1
100
AcDbSymbolTableRecord
100
AcDbBlockTableRecord
  2
block 69
340
0
102
{BLKREFS
331
275
102
}
 70
     0
280
     1
281
     0
  0
BLOCK_RECORD
  5
27C
330
1
100
AcDbSymbolTableRecord
100
AcDbBlockTableRecord
  2
block 70
340
0
102
{BLKREFS
331
27D
102
}
 70
     0
280
     1
281
     0
  0
BLOCK_RECORD
  5
287
330
1
100
AcDbSymbolTableRecord
100
AcDbBlockTableRecord
  2
block 71
340
0
102
{BLKREFS
331
288
102
}
 70
     0
280
     1
281
     0
  0
BLOCK_RECORD
  5
292
330
1
100
AcDbSymbolTableRecord
100
AcDbBlockTableRecord
  2
block 72
340
0
102
{BLKREFS
331
293
102
}
 70
     0
280
     1
281
     0
  0
BLOCK_RECORD
  5
297
330
1
100
AcDbSymbolTableRecord
100
AcDbBlockTableRecord
  2
block 73
340
0
102
{BLKREFS
331
298
102
}
 70
     0
280
     1
281
     0
  0
BLOCK_RECORD
  5
29F
330
1
100
AcDbSymbolTableRecord
100
AcDbBlockTableRecord
  2
block 74
340
0
102
{BLKREFS
331
2A0
102
}
 70
     0
280
     1
281
     0
  0
BLOCK_RECORD
  5
2A7
330
1
100
AcDbSymbolTableRecord
100
AcDbBlockTableRecord
  2
block 75
340
0
102
{BLKREFS
331
2A8
102
}
 70
     0
280
     1
281
     0
  0
BLOCK_RECORD
  5
2AF
330
1
100
AcDbSymbolTableRecord
100
AcDbBlockTableRecord
  2
block 76
340
0
102
{BLKREFS
331
2B0
102
}
 70
     0
280
     1
281
     0
  0
BLOCK_RECORD
  5
2BA
330
1
100
AcDbSymbolTableRecord
100
AcDbBlockTableRecord
  2
block 77
340
0
102
{BLKREFS
331
2BB
102
}
 70
     0
280
     1
281
     0
  0
BLOCK_RECORD
  5
2C5
330
1
100
AcDbSymbolTableRecord
100
AcDbBlockTableRecord
  2
block 78
340
0
102
{BLKREFS
331
2C6
102
}
 70
     0
280
     1
281
     0
  0
BLOCK_RECORD
  5
2CA
330
1
100
AcDbSymbolTableRecord
100
AcDbBlockTableRecord
  2
block 79
340
0
102
{BLKREFS
331
2CB
102
}
 70
     0
280
     1
281
     0
  0
BLOCK_RECORD
  5
2CF
330
1
100
AcDbSymbolTableRecord
100
AcDbBlockTableRecord
  2
block 80
340
0
102
{BLKREFS
331
2D0
102
}
 70
     0
280
     1
281
     0
  0
BLOCK_RECORD
  5
2DE
330
1
100
AcDbSymbolTableRecord
100
AcDbBlockTableRecord
  2
block 81
340
0
102
{BLKREFS
331
2DF
102
}
 70
     0
280
     1
281
     0
  0
BLOCK_RECORD
  5
2ED
330
1
100
AcDbSymbolTableRecord
100
AcDbBlockTableRecord
  2
block 82
340
0
102
{BLKREFS
331
2EE
102
}
 70
     0
280
     1
281
     0
  0
BLOCK_RECORD
  5
2F3
330
1
100
AcDbSymbolTableRecord
100
AcDbBlockTableRecord
  2
block 83
340
0
102
{BLKREFS
331
2F4
102
}
 70
     0
280
     1
281
     0
  0
BLOCK_RECORD
  5
2FB
330
1
100
AcDbSymbolTableRecord
100
AcDbBlockTableRecord
  2
block 84
340
0
102
{BLKREFS
331
2FC
102
}
 70
     0
280
     1
281
     0
  0
BLOCK_RECORD
  5
303
330
1
100
AcDbSymbolTableRecord
100
AcDbBlockTableRecord
  2
block 85
340
0
102
{BLKREFS
331
304
102
}
 70
     0
280
     1
281
     0
  0
BLOCK_RECORD
  5
30B
330
1
100
AcDbSymbolTableRecord
100
AcDbBlockTableRecord
  2
block 86
340
0
102
{BLKREFS
331
30C
102
}
 70
     0
280
     1
281
     0
  0
BLOCK_RECORD
  5
313
330
1
100
AcDbSymbolTableRecord
100
AcDbBlockTableRecord
  2
block 87
340
0
102
{BLKREFS
331
314
102
}
 70
     0
280
     1
281
     0
  0
BLOCK_RECORD
  5
31B
330
1
100
AcDbSymbolTableRecord
100
AcDbBlockTableRecord
  2
block 88
340
0
102
{BLKREFS
331
31C
102
}
 70
     0
280
     1
281
     0
  0
BLOCK_RECORD
  5
323
330
1
100
AcDbSymbolTableRecord
100
AcDbBlockTableRecord
  2
block 89
340
0
102
{BLKREFS
331
324
102
}
 70
     0
280
     1
281
     0
  0
BLOCK_RECORD
  5
32B
330
1
100
AcDbSymbolTableRecord
100
AcDbBlockTableRecord
  2
block 90
340
0
102
{BLKREFS
331
32C
102
}
 70
     0
280
     1
281
     0
  0
BLOCK_RECORD
  5
333
330
1
100
AcDbSymbolTableRecord
100
AcDbBlockTableRecord
  2
block 91
340
0
102
{BLKREFS
331
334
102
}
 70
     0
280
     1
281
     0
  0
BLOCK_RECORD
  5
33B
330
1
100
AcDbSymbolTableRecord
100
AcDbBlockTableRecord
  2
block 92
340
0
102
{BLKREFS
331
33C
102
}
 70
     0
280
     1
281
     0
  0
BLOCK_RECORD
  5
343
330
1
100
AcDbSymbolTableRecord
100
AcDbBlockTableRecord
  2
block 93
340
0
102
{BLKREFS
331
344
102
}
 70
     0
280
     1
281
     0
  0
BLOCK_RECORD
  5
34B
330
1
100
AcDbSymbolTableRecord
100
AcDbBlockTableRecord
  2
block 94
340
0
102
{BLKREFS
331
34C
102
}
 70
     0
280
     1
281
     0
  0
BLOCK_RECORD
  5
353
330
1
100
AcDbSymbolTableRecord
100
AcDbBlockTableRecord
  2
block 95
340
0
102
{BLKREFS
331
354
102
}
 70
     0
280
     1
281
     0
  0
BLOCK_RECORD
  5
35B
330
1
100
AcDbSymbolTableRecord
100
AcDbBlockTableRecord
  2
block 96
340
0
102
{BLKREFS
331
35C
102
}
 70
     0
280
     1
281
     0
  0
BLOCK_RECORD
  5
363
330
1
100
AcDbSymbolTableRecord
100
AcDbBlockTableRecord
  2
block 97
340
0
102
{BLKREFS
331
364
102
}
 70
     0
280
     1
281
     0
  0
BLOCK_RECORD
  5
36B
330
1
100
AcDbSymbolTableRecord
100
AcDbBlockTableRecord
  2
block 98
340
0
102
{BLKREFS
331
36C
102
}
 70
     0
280
     1
281
     0
  0
BLOCK_RECORD
  5
373
330
1
100
AcDbSymbolTableRecord
100
AcDbBlockTableRecord
  2
block 99
340
0
102
{BLKREFS
331
374
102
}
 70
     0
280
     1
281
     0
  0
BLOCK_RECORD
  5
37B
330
1
100
AcDbSymbolTableRecord
100
AcDbBlockTableRecord
  2
block 100
340
0
102
{BLKREFS
331
37C
102
}
 70
     0
280
     1
281
     0
  0
ENDTAB
  0
ENDSEC
  0
SECTION
  2
BLOCKS
  0
BLOCK
  5
20
330
1F
100
AcDbEntity
  8
0
100
AcDbBlockBegin
  2
*Model_Space
 70
     0
 10
0.0
 20
0.0
 30
0.0
  3
*Model_Space
  1

  0
ENDBLK
  5
21
330
1F
100
AcDbEntity
  8
0
100
AcDbBlockEnd
  0
BLOCK
  5
1C
330
1B
100
AcDbEntity
 67
     1
  8
0
100
AcDbBlockBegin
  2
*Paper_Space
 70
     0
 10
0.0
 20
0.0
 30
0.0
  3
*Paper_Space
  1

  0
ENDBLK
  5
1D
330
1B
100
AcDbEntity
 67
     1
  8
0
100
AcDbBlockEnd
  0
BLOCK
  5
24
330
23
100
AcDbEntity
  8
0
100
AcDbBlockBegin
  2
*Paper_Space0
 70
     0
 10
0.0
 20
0.0
 30
0.0
  3
*Paper_Space0
  1

  0
ENDBLK
  5
25
330
23
100
AcDbEntity
  8
0
100
AcDbBlockEnd
  0
BLOCK
  5
43
330
41
100
AcDbEntity
  8
0
100
AcDbBlockBegin
  2
block 2
 70
     0
 10
0.0
 20
0.0
 30
0.0
  3
block 2
  1

  0
SPLINE
  5
45
330
41
100
AcDbEntity
  8
1
  6
AI-Linetype-1
 62
     6
420
 16711935
370
    20
100
AcDbSpline
210
0.0
220
0.0
230
1.0
 70
     8
 71
     3
 72
     8
 73
     4
 74
     0
 42
0.0000000001
 43
0.0000000001
 12
1.0
 22
0.0
 32
0.0
 13
1.0
 23
0.0
 33
0.0
 40
0.0
 40
0.0
 40
0.0
 40
0.0
 40
1.0
 40
1.0
 40
1.0
 40
1.0
 10
5.375198159559759
 20
4.98384343138327
 30
0.0
 10
5.386731573917283
 20
5.324068163521891
 30
0.0
 10
5.386731573917283
 20
5.664586043337534
 30
0.0
 10
5.375198159559759
 20
6.004810775476168
 30
0.0
  0
ENDBLK
  5
44
330
41
100
AcDbEntity
  8
0
100
AcDbBlockEnd
  0
BLOCK
  5
49
330
47
100
AcDbEntity
  8
0
100
AcDbBlockBegin
  2
block 3
 70
     0
 10
0.0
 20
0.0
 30
0.0
  3
block 3
  1

  0
SPLINE
  5
4B
330
47
100
AcDbEntity
  8
1
  6
AI-Linetype-2
 62
     6
420
 16711935
370
    20
100
AcDbSpline
210
0.0
220
0.0
230
1.0
 70
     8
 71
     3
 72
     8
 73
     4
 74
     0
 42
0.0000000001
 43
0.0000000001
 12
1.0
 22
0.0
 32
0.0
 13
1.0
 23
0.0
 33
0.0
 40
0.0
 40
0.0
 40
0.0
 40
0.0
 40
1.0
 40
1.0
 40
1.0
 40
1.0
 10
4.697164951613078
 20
4.295378943314341
 30
0.0
 10
5.067827559620582
 20
4.313612921809837
 30
0.0
 10
5.362624947365071
 20
4.612945653981165
 30
0.0
 10
5.375198159559759
 20
4.98384343138327
 30
0.0
  0
ENDBLK
  5
4A
330
47
100
AcDbEntity
  8
0
100
AcDbBlockEnd
  0
BLOCK
  5
4F
330
4D
100
AcDbEntity
  8
0
100
AcDbBlockBegin
  2
block 4
 70
     0
 10
0.0
 20
0.0
 30
0.0
  3
block 4
  1

  0
SPLINE
  5
51
330
4D
100
AcDbEntity
  8
1
  6
AI-Linetype-3
 62
     6
420
 16711935
370
    20
100
AcDbSpline
210
0.0
220
0.0
230
1.0
 70
     8
 71
     3
 72
     8
 73
     4
 74
     0
 42
0.0000000001
 43
0.0000000001
 12
1.0
 22
0.0
 32
0.0
 13
1.0
 23
0.0
 33
0.0
 40
0.0
 40
0.0
 40
0.0
 40
0.0
 40
1.0
 40
1.0
 40
1.0
 40
1.0
 10
4.697164951613078
 20
6.693275263545097
 30
0.0
 10
4.20391927669151
 20
6.717539461862479
 30
0.0
 10
3.709778922514904
 20
6.717539461862479
 30
0.0
 10
3.216533247593336
 20
6.69327526354511
 30
0.0
  0
ENDBLK
  5
50
330
4D
100
AcDbEntity
  8
0
100
AcDbBlockEnd
  0
BLOCK
  5
55
330
53
100
AcDbEntity
  8
0
100
AcDbBlockBegin
  2
block 5
 70
     0
 10
0.0
 20
0.0
 30
0.0
  3
block 5
  1

  0
SPLINE
  5
57
330
53
100
AcDbEntity
  8
1
  6
AI-Linetype-4
 62
     6
420
 16711935
370
    20
100
AcDbSpline
210
0.0
220
0.0
230
1.0
 70
     8
 71
     3
 72
     8
 73
     4
 74
     0
 42
0.0000000001
 43
0.0000000001
 12
1.0
 22
0.0
 32
0.0
 13
1.0
 23
0.0
 33
0.0
 40
0.0
 40
0.0
 40
0.0
 40
0.0
 40
1.0
 40
1.0
 40
1.0
 40
1.0
 10
5.375198159559759
 20
6.004810775476168
 30
0.0
 10
5.362624947365071
 20
6.375708552878248
 30
0.0
 10
5.067827559620582
 20
6.675041285049574
 30
0.0
 10
4.697164951613078
 20
6.693275263545097
 30
0.0
  0
ENDBLK
  5
56
330
53
100
AcDbEntity
  8
0
100
AcDbBlockEnd
  0
BLOCK
  5
5B
330
59
100
AcDbEntity
  8
0
100
AcDbBlockBegin
  2
block 6
 70
     0
 10
0.0
 20
0.0
 30
0.0
  3
block 6
  1

  0
SPLINE
  5
5D
330
59
100
AcDbEntity
  8
1
  6
AI-Linetype-5
 62
     6
420
 16711935
370
    20
100
AcDbSpline
210
0.0
220
0.0
230
1.0
 70
     8
 71
     3
 72
     8
 73
     4
 74
     0
 42
0.0000000001
 43
0.0000000001
 12
1.0
 22
0.0
 32
0.0
 13
1.0
 23
0.0
 33
0.0
 40
0.0
 40
0.0
 40
0.0
 40
0.0
 40
1.0
 40
1.0
 40
1.0
 40
1.0
 10
3.216533247593285
 20
4.295378943314341
 30
0.0
 10
3.709778922514841
 20
4.271114744996945
 30
0.0
 10
4.203919276691484
 20
4.271114744996945
 30
0.0
 10
4.697164951613053
 20
4.295378943314341
 30
0.0
  0
ENDBLK
  5
5C
330
59
100
AcDbEntity
  8
0
100
AcDbBlockEnd
  0
BLOCK
  5
61
330
5F
100
AcDbEntity
  8
0
100
AcDbBlockBegin
  2
block 7
 70
     0
 10
0.0
 20
0.0
 30
0.0
  3
block 7
  1

  0
SPLINE
  5
63
330
5F
100
AcDbEntity
  8
1
  6
AI-Linetype-6
 62
     6
420
 16711935
370
    20
100
AcDbSpline
210
0.0
220
0.0
230
1.0
 70
     8
 71
     3
 72
     8
 73
     4
 74
     0
 42
0.0000000001
 43
0.0000000001
 12
1.0
 22
0.0
 32
0.0
 13
1.0
 23
0.0
 33
0.0
 40
0.0
 40
0.0
 40
0.0
 40
0.0
 40
1.0
 40
1.0
 40
1.0
 40
1.0
 10
2.538500039646616
 20
4.983843431383295
 30
0.0
 10
2.551073251841292
 20
4.61294565398119
 30
0.0
 10
2.845870639585769
 20
4.313612921809863
 30
0.0
 10
3.216533247593285
 20
4.295378943314341
 30
0.0
  0
ENDBLK
  5
62
330
5F
100
AcDbEntity
  8
0
100
AcDbBlockEnd
  0
BLOCK
  5
67
330
65
100
AcDbEntity
  8
0
100
AcDbBlockBegin
  2
block 8
 70
     0
 10
0.0
 20
0.0
 30
0.0
  3
block 8
  1

  0
SPLINE
  5
69
330
65
100
AcDbEntity
  8
1
  6
AI-Linetype-7
 62
     6
420
 16711935
370
    20
100
AcDbSpline
210
0.0
220
0.0
230
1.0
 70
     8
 71
     3
 72
     8
 73
     4
 74
     0
 42
0.0000000001
 43
0.0000000001
 12
1.0
 22
0.0
 32
0.0
 13
1.0
 23
0.0
 33
0.0
 40
0.0
 40
0.0
 40
0.0
 40
0.0
 40
1.0
 40
1.0
 40
1.0
 40
1.0
 10
2.538500039646654
 20
6.004810775476206
 30
0.0
 10
2.526966625289131
 20
5.664586043337547
 30
0.0
 10
2.526966625289106
 20
5.324068163521966
 30
0.0
 10
2.538500039646616
 20
4.983843431383295
 30
0.0
  0
ENDBLK
  5
68
330
65
100
AcDbEntity
  8
0
100
AcDbBlockEnd
  0
BLOCK
  5
6D
330
6B
100
AcDbEntity
  8
0
100
AcDbBlockBegin
  2
block 9
 70
     0
 10
0.0
 20
0.0
 30
0.0
  3
block 9
  1

  0
SPLINE
  5
6F
330
6B
100
AcDbEntity
  8
1
  6
AI-Linetype-8
 62
     6
420
 16711935
370
    20
100
AcDbSpline
210
0.0
220
0.0
230
1.0
 70
     8
 71
     3
 72
     8
 73
     4
 74
     0
 42
0.0000000001
 43
0.0000000001
 12
1.0
 22
0.0
 32
0.0
 13
1.0
 23
0.0
 33
0.0
 40
0.0
 40
0.0
 40
0.0
 40
0.0
 40
1.0
 40
1.0
 40
1.0
 40
1.0
 10
3.216533247593336
 20
6.69327526354511
 30
0.0
 10
2.845870639585832
 20
6.675041285049588
 30
0.0
 10
2.551073251841343
 20
6.375708552878272
 30
0.0
 10
2.538500039646654
 20
6.004810775476193
 30
0.0
  0
ENDBLK
  5
6E
330
6B
100
AcDbEntity
  8
0
100
AcDbBlockEnd
  0
BLOCK
  5
74
330
72
100
AcDbEntity
  8
0
100
AcDbBlockBegin
  2
block 10
 70
     0
 10
0.0
 20
0.0
 30
0.0
  3
block 10
  1

  0
SPLINE
  5
76
330
72
100
AcDbEntity
  8
2
 62
     4
420
    65535
370
    35
100
AcDbSpline
210
0.0
220
0.0
230
1.0
 70
     8
 71
     3
 72
     8
 73
     4
 74
     0
 42
0.0000000001
 43
0.0000000001
 12
1.0
 22
0.0
 32
0.0
 13
1.0
 23
0.0
 33
0.0
 40
0.0
 40
0.0
 40
0.0
 40
0.0
 40
1.0
 40
1.0
 40
1.0
 40
1.0
 10
5.459091094554676
 20
4.980999511204724
 30
0.0
 10
5.470688761916992
 20
5.32311964575082
 30
0.0
 10
5.470688761916992
 20
5.665534561108605
 30
0.0
 10
5.459091094554676
 20
6.007654695654701
 30
0.0
  0
ENDBLK
  5
75
330
72
100
AcDbEntity
  8
0
100
AcDbBlockEnd
  0
BLOCK
  5
79
330
77
100
AcDbEntity
  8
0
100
AcDbBlockBegin
  2
block 11
 70
     0
 10
0.0
 20
0.0
 30
0.0
  3
block 11
  1

  0
SPLINE
  5
7B
330
77
100
AcDbEntity
  8
2
 62
     4
420
    65535
370
    35
100
AcDbSpline
210
0.0
220
0.0
230
1.0
 70
     8
 71
     3
 72
     8
 73
     4
 74
     0
 42
0.0000000001
 43
0.0000000001
 12
1.0
 22
0.0
 32
0.0
 13
1.0
 23
0.0
 33
0.0
 40
0.0
 40
0.0
 40
0.0
 40
0.0
 40
1.0
 40
1.0
 40
1.0
 40
1.0
 10
4.701289273908388
 20
4.211539201010029
 30
0.0
 10
5.115559247563851
 20
4.231918353446215
 30
0.0
 10
5.445038680925336
 20
4.5664667011671
 30
0.0
 10
5.459091094554676
 20
4.980999511204724
 30
0.0
  0
ENDBLK
  5
7A
330
77
100
AcDbEntity
  8
0
100
AcDbBlockEnd
  0
BLOCK
  5
7E
330
7C
100
AcDbEntity
  8
0
100
AcDbBlockBegin
  2
block 12
 70
     0
 10
0.0
 20
0.0
 30
0.0
  3
block 12
  1

  0
SPLINE
  5
80
330
7C
100
AcDbEntity
  8
2
 62
     4
420
    65535
370
    35
100
AcDbSpline
210
0.0
220
0.0
230
1.0
 70
     8
 71
     3
 72
     8
 73
     4
 74
     0
 42
0.0000000001
 43
0.0000000001
 12
1.0
 22
0.0
 32
0.0
 13
1.0
 23
0.0
 33
0.0
 40
0.0
 40
0.0
 40
0.0
 40
0.0
 40
1.0
 40
1.0
 40
1.0
 40
1.0
 10
4.701289273908413
 20
6.777115005849383
 30
0.0
 10
4.20529571221847
 20
6.801514380759057
 30
0.0
 10
3.708402486987956
 20
6.801514380759057
 30
0.0
 10
3.212408925298026
 20
6.777115005849396
 30
0.0
  0
ENDBLK
  5
7F
330
7C
100
AcDbEntity
  8
0
100
AcDbBlockEnd
  0
BLOCK
  5
83
330
81
100
AcDbEntity
  8
0
100
AcDbBlockBegin
  2
block 13
 70
     0
 10
0.0
 20
0.0
 30
0.0
  3
block 13
  1

  0
SPLINE
  5
85
330
81
100
AcDbEntity
  8
2
 62
     4
420
    65535
370
    35
100
AcDbSpline
210
0.0
220
0.0
230
1.0
 70
     8
 71
     3
 72
     8
 73
     4
 74
     0
 42
0.0000000001
 43
0.0000000001
 12
1.0
 22
0.0
 32
0.0
 13
1.0
 23
0.0
 33
0.0
 40
0.0
 40
0.0
 40
0.0
 40
0.0
 40
1.0
 40
1.0
 40
1.0
 40
1.0
 10
5.459091094554676
 20
6.007654695654701
 30
0.0
 10
5.445038680925336
 20
6.422187505692325
 30
0.0
 10
5.115559247563851
 20
6.75673585341321
 30
0.0
 10
4.701289273908388
 20
6.777115005849383
 30
0.0
  0
ENDBLK
  5
84
330
81
100
AcDbEntity
  8
0
100
AcDbBlockEnd
  0
BLOCK
  5
88
330
86
100
AcDbEntity
  8
0
100
AcDbBlockBegin
  2
block 14
 70
     0
 10
0.0
 20
0.0
 30
0.0
  3
block 14
  1

  0
SPLINE
  5
8A
330
86
100
AcDbEntity
  8
2
 62
     4
420
    65535
370
    35
100
AcDbSpline
210
0.0
220
0.0
230
1.0
 70
     8
 71
     3
 72
     8
 73
     4
 74
     0
 42
0.0000000001
 43
0.0000000001
 12
1.0
 22
0.0
 32
0.0
 13
1.0
 23
0.0
 33
0.0
 40
0.0
 40
0.0
 40
0.0
 40
0.0
 40
1.0
 40
1.0
 40
1.0
 40
1.0
 10
3.212408925297963
 20
4.211539201010055
 30
0.0
 10
3.708402486987893
 20
4.187139826100368
 30
0.0
 10
4.205295712218446
 20
4.187139826100368
 30
0.0
 10
4.701289273908363
 20
4.211539201010055
 30
0.0
  0
ENDBLK
  5
89
330
86
100
AcDbEntity
  8
0
100
AcDbBlockEnd
  0
BLOCK
  5
8D
330
8B
100
AcDbEntity
  8
0
100
AcDbBlockBegin
  2
block 15
 70
     0
 10
0.0
 20
0.0
 30
0.0
  3
block 15
  1

  0
SPLINE
  5
8F
330
8B
100
AcDbEntity
  8
2
 62
     4
420
    65535
370
    35
100
AcDbSpline
210
0.0
220
0.0
230
1.0
 70
     8
 71
     3
 72
     8
 73
     4
 74
     0
 42
0.0000000001
 43
0.0000000001
 12
1.0
 22
0.0
 32
0.0
 13
1.0
 23
0.0
 33
0.0
 40
0.0
 40
0.0
 40
0.0
 40
0.0
 40
1.0
 40
1.0
 40
1.0
 40
1.0
 10
2.454607104651687
 20
4.980999511204774
 30
0.0
 10
2.468659518281028
 20
4.566466701167124
 30
0.0
 10
2.798138951642512
 20
4.231918353446215
 30
0.0
 10
3.212408925297963
 20
4.211539201010055
 30
0.0
  0
ENDBLK
  5
8E
330
8B
100
AcDbEntity
  8
0
100
AcDbBlockEnd
  0
BLOCK
  5
92
330
90
100
AcDbEntity
  8
0
100
AcDbBlockBegin
  2
block 16
 70
     0
 10
0.0
 20
0.0
 30
0.0
  3
block 16
  1

  0
SPLINE
  5
94
330
90
100
AcDbEntity
  8
2
 62
     4
420
    65535
370
    35
100
AcDbSpline
210
0.0
220
0.0
230
1.0
 70
     8
 71
     3
 72
     8
 73
     4
 74
     0
 42
0.0000000001
 43
0.0000000001
 12
1.0
 22
0.0
 32
0.0
 13
1.0
 23
0.0
 33
0.0
 40
0.0
 40
0.0
 40
0.0
 40
0.0
 40
1.0
 40
1.0
 40
1.0
 40
1.0
 10
2.454607104651725
 20
6.007654695654739
 30
0.0
 10
2.443009437289422
 20
5.665534561108617
 30
0.0
 10
2.443009437289422
 20
5.323119645750896
 30
0.0
 10
2.454607104651687
 20
4.980999511204774
 30
0.0
  0
ENDBLK
  5
93
330
90
100
AcDbEntity
  8
0
100
AcDbBlockEnd
  0
BLOCK
  5
97
330
95
100
AcDbEntity
  8
0
100
AcDbBlockBegin
  2
block 17
 70
     0
 10
0.0
 20
0.0
 30
0.0
  3
block 17
  1

  0
SPLINE
  5
99
330
95
100
AcDbEntity
  8
2
 62
     4
420
    65535
370
    35
100
AcDbSpline
210
0.0
220
0.0
230
1.0
 70
     8
 71
     3
 72
     8
 73
     4
 74
     0
 42
0.0000000001
 43
0.0000000001
 12
1.0
 22
0.0
 32
0.0
 13
1.0
 23
0.0
 33
0.0
 40
0.0
 40
0.0
 40
0.0
 40
0.0
 40
1.0
 40
1.0
 40
1.0
 40
1.0
 10
3.212408925298013
 20
6.777115005849396
 30
0.0
 10
2.798138951642575
 20
6.756735853413223
 30
0.0
 10
2.468659518281091
 20
6.42218750569235
 30
0.0
 10
2.454607104651725
 20
6.007654695654739
 30
0.0
  0
ENDBLK
  5
98
330
95
100
AcDbEntity
  8
0
100
AcDbBlockEnd
  0
BLOCK
  5
9C
330
9A
100
AcDbEntity
  8
0
100
AcDbBlockBegin
  2
block 18
 70
     0
 10
0.0
 20
0.0
 30
0.0
  3
block 18
  1

  0
SPLINE
  5
9E
330
9A
100
AcDbEntity
  8
2
370
     0
100
AcDbSpline
210
0.0
220
0.0
230
1.0
 70
    11
 71
     3
 72
    20
 73
    16
 74
     0
 42
0.0000000001
 43
0.0000000001
 12
1.0
 22
0.0
 32
0.0
 13
1.0
 23
0.0
 33
0.0
 40
0.0
 40
0.0
 40
0.0
 40
0.0
 40
1.0
 40
1.0
 40
1.0
 40
2.0
 40
2.0
 40
2.0
 40
3.0
 40
3.0
 40
3.0
 40
4.0
 40
4.0
 40
4.0
 40
5.0
 40
5.0
 40
5.0
 40
5.0
 10
6.998138077592961
 20
5.8912923427899
 30
0.0
 10
7.003957996815264
 20
5.905846968410893
 30
0.0
 10
7.009777916037566
 20
5.920401594031887
 30
0.0
 10
7.004629622938005
 20
5.9325381801041
 30
0.0
 10
6.999713933425962
 20
5.944126426482777
 30
0.0
 10
6.984798745661641
 20
5.953510194908934
 30
0.0
 10
6.980887510242736
 20
5.964564694188513
 30
0.0
 10
6.976228496764583
 20
5.977732671981029
 30
0.0
 10
6.987183287178772
 20
5.993271294709428
 30
0.0
 10
6.998138077592961
 20
6.008809917437816
 30
0.0
 10
6.998138077592961
 20
6.008809917437816
 30
0.0
 10
6.426718713903306
 20
6.008809917437816
 30
0.0
 10
6.426718713903306
 20
6.008809917437816
 30
0.0
 10
6.426718713903306
 20
6.008809917437816
 30
0.0
 10
6.998138077592961
 20
5.8912923427899
 30
0.0
 10
6.998138077592961
 20
5.8912923427899
 30
0.0
  0
POLYLINE
  5
9F
330
9A
100
AcDbEntity
  8
2
370
     0
100
AcDb2dPolyline
 66
     1
 10
0.0
 20
0.0
 30
0.0
  0
VERTEX
  5
A0
330
9F
100
AcDbEntity
  8
2
370
     0
100
AcDbVertex
100
AcDb2dVertex
 10
6.379711684044145
 20
5.937534486127143
 30
0.0
  0
VERTEX
  5
A1
330
9F
100
AcDbEntity
  8
2
370
     0
100
AcDbVertex
100
AcDb2dVertex
 10
6.450987115354817
 20
6.008809917437816
 30
0.0
  0
SEQEND
  5
A2
330
9F
100
AcDbEntity
  8
2
370
     0
  0
POLYLINE
  5
A3
330
9A
100
AcDbEntity
  8
2
370
     0
100
AcDb2dPolyline
 66
     1
 10
0.0
 20
0.0
 30
0.0
  0
VERTEX
  5
A4
330
A3
100
AcDbEntity
  8
2
370
     0
100
AcDbVertex
100
AcDb2dVertex
 10
6.389488395970349
 20
5.894544302100093
 30
0.0
  0
VERTEX
  5
A5
330
A3
100
AcDbEntity
  8
2
370
     0
100
AcDbVertex
100
AcDb2dVertex
 10
6.503754011308072
 20
6.008809917437816
 30
0.0
  0
SEQEND
  5
A6
330
A3
100
AcDbEntity
  8
2
370
     0
  0
POLYLINE
  5
A7
330
9A
100
AcDbEntity
  8
2
370
     0
100
AcDb2dPolyline
 66
     1
 10
0.0
 20
0.0
 30
0.0
  0
VERTEX
  5
A8
330
A7
100
AcDbEntity
  8
2
370
     0
100
AcDbVertex
100
AcDb2dVertex
 10
6.439003332613411
 20
5.8912923427899
 30
0.0
  0
VERTEX
  5
A9
330
A7
100
AcDbEntity
  8
2
370
     0
100
AcDbVertex
100
AcDb2dVertex
 10
6.556520907261326
 20
6.008809917437816
 30
0.0
  0
SEQEND
  5
AA
330
A7
100
AcDbEntity
  8
2
370
     0
  0
POLYLINE
  5
AB
330
9A
100
AcDbEntity
  8
2
370
     0
100
AcDb2dPolyline
 66
     1
 10
0.0
 20
0.0
 30
0.0
  0
VERTEX
  5
AC
330
AB
100
AcDbEntity
  8
2
370
     0
100
AcDbVertex
100
AcDb2dVertex
 10
6.491770228566666
 20
5.8912923427899
 30
0.0
  0
VERTEX
  5
AD
330
AB
100
AcDbEntity
  8
2
370
     0
100
AcDbVertex
100
AcDb2dVertex
 10
6.609287803214581
 20
6.008809917437816
 30
0.0
  0
SEQEND
  5
AE
330
AB
100
AcDbEntity
  8
2
370
     0
  0
POLYLINE
  5
AF
330
9A
100
AcDbEntity
  8
2
370
     0
100
AcDb2dPolyline
 66
     1
 10
0.0
 20
0.0
 30
0.0
  0
VERTEX
  5
B0
330
AF
100
AcDbEntity
  8
2
370
     0
100
AcDbVertex
100
AcDb2dVertex
 10
6.544537124519921
 20
5.8912923427899
 30
0.0
  0
VERTEX
  5
B1
330
AF
100
AcDbEntity
  8
2
370
     0
100
AcDbVertex
100
AcDb2dVertex
 10
6.662054699167836
 20
6.008809917437816
 30
0.0
  0
SEQEND
  5
B2
330
AF
100
AcDbEntity
  8
2
370
     0
  0
POLYLINE
  5
B3
330
9A
100
AcDbEntity
  8
2
370
     0
100
AcDb2dPolyline
 66
     1
 10
0.0
 20
0.0
 30
0.0
  0
VERTEX
  5
B4
330
B3
100
AcDbEntity
  8
2
370
     0
100
AcDbVertex
100
AcDb2dVertex
 10
6.597304020473175
 20
5.8912923427899
 30
0.0
  0
VERTEX
  5
B5
330
B3
100
AcDbEntity
  8
2
370
     0
100
AcDbVertex
100
AcDb2dVertex
 10
6.714821595121091
 20
6.008809917437816
 30
0.0
  0
SEQEND
  5
B6
330
B3
100
AcDbEntity
  8
2
370
     0
  0
POLYLINE
  5
B7
330
9A
100
AcDbEntity
  8
2
370
     0
100
AcDb2dPolyline
 66
     1
 10
0.0
 20
0.0
 30
0.0
  0
VERTEX
  5
B8
330
B7
100
AcDbEntity
  8
2
370
     0
100
AcDbVertex
100
AcDb2dVertex
 10
6.65007091642643
 20
5.8912923427899
 30
0.0
  0
VERTEX
  5
B9
330
B7
100
AcDbEntity
  8
2
370
     0
100
AcDbVertex
100
AcDb2dVertex
 10
6.767588491074346
 20
6.008809917437816
 30
0.0
  0
SEQEND
  5
BA
330
B7
100
AcDbEntity
  8
2
370
     0
  0
POLYLINE
  5
BB
330
9A
100
AcDbEntity
  8
2
370
     0
100
AcDb2dPolyline
 66
     1
 10
0.0
 20
0.0
 30
0.0
  0
VERTEX
  5
BC
330
BB
100
AcDbEntity
  8
2
370
     0
100
AcDbVertex
100
AcDb2dVertex
 10
6.702837812379685
 20
5.8912923427899
 30
0.0
  0
VERTEX
  5
BD
330
BB
100
AcDbEntity
  8
2
370
     0
100
AcDbVertex
100
AcDb2dVertex
 10
6.820355387027625
 20
6.008809917437816
 30
0.0
  0
SEQEND
  5
BE
330
BB
100
AcDbEntity
  8
2
370
     0
  0
POLYLINE
  5
BF
330
9A
100
AcDbEntity
  8
2
370
     0
100
AcDb2dPolyline
 66
     1
 10
0.0
 20
0.0
 30
0.0
  0
VERTEX
  5
C0
330
BF
100
AcDbEntity
  8
2
370
     0
100
AcDbVertex
100
AcDb2dVertex
 10
6.755604708332966
 20
5.8912923427899
 30
0.0
  0
VERTEX
  5
C1
330
BF
100
AcDbEntity
  8
2
370
     0
100
AcDbVertex
100
AcDb2dVertex
 10
6.87312228298088
 20
6.008809917437816
 30
0.0
  0
SEQEND
  5
C2
330
BF
100
AcDbEntity
  8
2
370
     0
  0
POLYLINE
  5
C3
330
9A
100
AcDbEntity
  8
2
370
     0
100
AcDb2dPolyline
 66
     1
 10
0.0
 20
0.0
 30
0.0
  0
VERTEX
  5
C4
330
C3
100
AcDbEntity
  8
2
370
     0
100
AcDbVertex
100
AcDb2dVertex
 10
6.80837160428622
 20
5.8912923427899
 30
0.0
  0
VERTEX
  5
C5
330
C3
100
AcDbEntity
  8
2
370
     0
100
AcDbVertex
100
AcDb2dVertex
 10
6.925889178934135
 20
6.008809917437816
 30
0.0
  0
SEQEND
  5
C6
330
C3
100
AcDbEntity
  8
2
370
     0
  0
POLYLINE
  5
C7
330
9A
100
AcDbEntity
  8
2
370
     0
100
AcDb2dPolyline
 66
     1
 10
0.0
 20
0.0
 30
0.0
  0
VERTEX
  5
C8
330
C7
100
AcDbEntity
  8
2
370
     0
100
AcDbVertex
100
AcDb2dVertex
 10
6.861138500239475
 20
5.8912923427899
 30
0.0
  0
VERTEX
  5
C9
330
C7
100
AcDbEntity
  8
2
370
     0
100
AcDbVertex
100
AcDb2dVertex
 10
6.97865607488739
 20
6.008809917437816
 30
0.0
  0
SEQEND
  5
CA
330
C7
100
AcDbEntity
  8
2
370
     0
  0
POLYLINE
  5
CB
330
9A
100
AcDbEntity
  8
2
370
     0
100
AcDb2dPolyline
 66
     1
 10
0.0
 20
0.0
 30
0.0
  0
VERTEX
  5
CC
330
CB
100
AcDbEntity
  8
2
370
     0
100
AcDbVertex
100
AcDb2dVertex
 10
6.91390539619273
 20
5.8912923427899
 30
0.0
  0
VERTEX
  5
CD
330
CB
100
AcDbEntity
  8
2
370
     0
100
AcDbVertex
100
AcDb2dVertex
 10
6.983355113152836
 20
5.960742059750019
 30
0.0
  0
SEQEND
  5
CE
330
CB
100
AcDbEntity
  8
2
370
     0
  0
POLYLINE
  5
CF
330
9A
100
AcDbEntity
  8
2
370
     0
100
AcDb2dPolyline
 66
     1
 10
0.0
 20
0.0
 30
0.0
  0
VERTEX
  5
D0
330
CF
100
AcDbEntity
  8
2
370
     0
100
AcDbVertex
100
AcDb2dVertex
 10
6.966672292145985
 20
5.8912923427899
 30
0.0
  0
VERTEX
  5
D1
330
CF
100
AcDbEntity
  8
2
370
     0
100
AcDbVertex
100
AcDb2dVertex
 10
7.004643431476021
 20
5.929263482119924
 30
0.0
  0
SEQEND
  5
D2
330
CF
100
AcDbEntity
  8
2
370
     0
  0
ENDBLK
  5
9D
330
9A
100
AcDbEntity
  8
0
100
AcDbBlockEnd
  0
BLOCK
  5
D5
330
D3
100
AcDbEntity
  8
0
100
AcDbBlockBegin
  2
block 19
 70
     0
 10
0.0
 20
0.0
 30
0.0
  3
block 19
  1

  0
POLYLINE
  5
D7
330
D3
100
AcDbEntity
  8
2
 62
     4
420
    65535
370
    35
100
AcDb2dPolyline
 66
     1
 10
0.0
 20
0.0
 30
0.0
  0
VERTEX
  5
D8
330
D7
100
AcDbEntity
  8
2
 62
     4
420
    65535
370
    35
100
AcDbVertex
100
AcDb2dVertex
 10
6.426718713903306
 20
6.008809917437816
 30
0.0
  0
VERTEX
  5
D9
330
D7
100
AcDbEntity
  8
2
 62
     4
420
    65535
370
    35
100
AcDbVertex
100
AcDb2dVertex
 10
6.998138077592961
 20
6.008809917437816
 30
0.0
  0
SEQEND
  5
DA
330
D7
100
AcDbEntity
  8
2
 62
     4
420
    65535
370
    35
  0
ENDBLK
  5
D6
330
D3
100
AcDbEntity
  8
0
100
AcDbBlockEnd
  0
BLOCK
  5
DD
330
DB
100
AcDbEntity
  8
0
100
AcDbBlockBegin
  2
block 20
 70
     0
 10
0.0
 20
0.0
 30
0.0
  3
block 20
  1

  0
SPLINE
  5
DF
330
DB
100
AcDbEntity
  8
2
 62
     4
420
    65535
370
    35
100
AcDbSpline
210
0.0
220
0.0
230
1.0
 70
     8
 71
     3
 72
     8
 73
     4
 74
     0
 42
0.0000000001
 43
0.0000000001
 12
1.0
 22
0.0
 32
0.0
 13
1.0
 23
0.0
 33
0.0
 40
0.0
 40
0.0
 40
0.0
 40
0.0
 40
1.0
 40
1.0
 40
1.0
 40
1.0
 10
6.426718713903306
 20
6.008809917437816
 30
0.0
 10
6.400757448177248
 20
6.008809917437816
 30
0.0
 10
6.379711684044145
 20
5.9877641533047
 30
0.0
 10
6.379711684044145
 20
5.961802887578642
 30
0.0
  0
ENDBLK
  5
DE
330
DB
100
AcDbEntity
  8
0
100
AcDbBlockEnd
  0
BLOCK
  5
E2
330
E0
100
AcDbEntity
  8
0
100
AcDbBlockBegin
  2
block 21
 70
     0
 10
0.0
 20
0.0
 30
0.0
  3
block 21
  1

  0
SPLINE
  5
E4
330
E0
100
AcDbEntity
  8
2
 62
     4
420
    65535
370
    35
100
AcDbSpline
210
0.0
220
0.0
230
1.0
 70
     8
 71
     3
 72
     8
 73
     4
 74
     0
 42
0.0000000001
 43
0.0000000001
 12
1.0
 22
0.0
 32
0.0
 13
1.0
 23
0.0
 33
0.0
 40
0.0
 40
0.0
 40
0.0
 40
0.0
 40
1.0
 40
1.0
 40
1.0
 40
1.0
 10
6.438430207930145
 20
5.8912923427899
 30
0.0
 10
6.422801955188334
 20
5.8912923427899
 30
0.0
 10
6.409908997257768
 20
5.879057382553646
 30
0.0
 10
6.40909107770613
 20
5.863450547789057
 30
0.0
  0
ENDBLK
  5
E3
330
E0
100
AcDbEntity
  8
0
100
AcDbBlockEnd
  0
BLOCK
  5
E7
330
E5
100
AcDbEntity
  8
0
100
AcDbBlockBegin
  2
block 22
 70
     0
 10
0.0
 20
0.0
 30
0.0
  3
block 22
  1

  0
POLYLINE
  5
E9
330
E5
100
AcDbEntity
  8
2
 62
     4
420
    65535
370
    35
100
AcDb2dPolyline
 66
     1
 10
0.0
 20
0.0
 30
0.0
  0
VERTEX
  5
EA
330
E9
100
AcDbEntity
  8
2
 62
     4
420
    65535
370
    35
100
AcDbVertex
100
AcDb2dVertex
 10
6.40909107770613
 20
5.863450547789057
 30
0.0
  0
VERTEX
  5
EB
330
E9
100
AcDbEntity
  8
2
 62
     4
420
    65535
370
    35
100
AcDbVertex
100
AcDb2dVertex
 10
6.375285882664128
 20
5.218409000437532
 30
0.0
  0
SEQEND
  5
EC
330
E9
100
AcDbEntity
  8
2
 62
     4
420
    65535
370
    35
  0
ENDBLK
  5
E8
330
E5
100
AcDbEntity
  8
0
100
AcDbBlockEnd
  0
BLOCK
  5
EF
330
ED
100
AcDbEntity
  8
0
100
AcDbBlockBegin
  2
block 23
 70
     0
 10
0.0
 20
0.0
 30
0.0
  3
block 23
  1

  0
SPLINE
  5
F1
330
ED
100
AcDbEntity
  8
2
 62
     4
420
    65535
370
    35
100
AcDbSpline
210
0.0
220
0.0
230
1.0
 70
     8
 71
     3
 72
     8
 73
     4
 74
     0
 42
0.0000000001
 43
0.0000000001
 12
1.0
 22
0.0
 32
0.0
 13
1.0
 23
0.0
 33
0.0
 40
0.0
 40
0.0
 40
0.0
 40
0.0
 40
1.0
 40
1.0
 40
1.0
 40
1.0
 10
5.645046357394222
 20
4.97384739419643
 30
0.0
 10
5.815317758030081
 20
4.977917373565257
 30
0.0
 10
5.98549209379616
 20
4.985352095945649
 30
0.0
 10
6.155469681140756
 20
4.996147206277101
 30
0.0
  0
ENDBLK
  5
F0
330
ED
100
AcDbEntity
  8
0
100
AcDbBlockEnd
  0
BLOCK
  5
F4
330
F2
100
AcDbEntity
  8
0
100
AcDbBlockBegin
  2
block 24
 70
     0
 10
0.0
 20
0.0
 30
0.0
  3
block 24
  1

  0
SPLINE
  5
F6
330
F2
100
AcDbEntity
  8
2
 62
     4
420
    65535
370
    35
100
AcDbSpline
210
0.0
220
0.0
230
1.0
 70
     8
 71
     3
 72
     8
 73
     4
 74
     0
 42
0.0000000001
 43
0.0000000001
 12
1.0
 22
0.0
 32
0.0
 13
1.0
 23
0.0
 33
0.0
 40
0.0
 40
0.0
 40
0.0
 40
0.0
 40
1.0
 40
1.0
 40
1.0
 40
1.0
 10
6.155469681140781
 20
4.996147206277101
 30
0.0
 10
6.274531718376288
 20
5.003708719817369
 30
0.0
 10
6.369042103239356
 20
5.099270591785322
 30
0.0
 10
6.375285882664128
 20
5.218409000437532
 30
0.0
  0
ENDBLK
  5
F5
330
F2
100
AcDbEntity
  8
0
100
AcDbBlockEnd
  0
BLOCK
  5
F9
330
F7
100
AcDbEntity
  8
0
100
AcDbBlockBegin
  2
block 25
 70
     0
 10
0.0
 20
0.0
 30
0.0
  3
block 25
  1

  0
POLYLINE
  5
FB
330
F7
100
AcDbEntity
  8
2
 62
     4
420
    65535
370
    35
100
AcDb2dPolyline
 66
     1
 10
0.0
 20
0.0
 30
0.0
  0
VERTEX
  5
FC
330
FB
100
AcDbEntity
  8
2
 62
     4
420
    65535
370
    35
100
AcDbVertex
100
AcDb2dVertex
 10
6.379711684044145
 20
5.908919978987089
 30
0.0
  0
VERTEX
  5
FD
330
FB
100
AcDbEntity
  8
2
 62
     4
420
    65535
370
    35
100
AcDbVertex
100
AcDb2dVertex
 10
6.379711684044145
 20
5.961802887578642
 30
0.0
  0
SEQEND
  5
FE
330
FB
100
AcDbEntity
  8
2
 62
     4
420
    65535
370
    35
  0
ENDBLK
  5
FA
330
F7
100
AcDbEntity
  8
0
100
AcDbBlockEnd
  0
BLOCK
  5
101
330
FF
100
AcDbEntity
  8
0
100
AcDbBlockBegin
  2
block 26
 70
     0
 10
0.0
 20
0.0
 30
0.0
  3
block 26
  1

  0
POLYLINE
  5
103
330
FF
100
AcDbEntity
  8
2
 62
     4
420
    65535
370
    35
100
AcDb2dPolyline
 66
     1
 10
0.0
 20
0.0
 30
0.0
  0
VERTEX
  5
104
330
103
100
AcDbEntity
  8
2
 62
     4
420
    65535
370
    35
100
AcDbVertex
100
AcDb2dVertex
 10
6.998138077592961
 20
5.8912923427899
 30
0.0
  0
VERTEX
  5
105
330
103
100
AcDbEntity
  8
2
 62
     4
420
    65535
370
    35
100
AcDbVertex
100
AcDb2dVertex
 10
6.397339320241321
 20
5.8912923427899
 30
0.0
  0
SEQEND
  5
106
330
103
100
AcDbEntity
  8
2
 62
     4
420
    65535
370
    35
  0
ENDBLK
  5
102
330
FF
100
AcDbEntity
  8
0
100
AcDbBlockEnd
  0
BLOCK
  5
109
330
107
100
AcDbEntity
  8
0
100
AcDbBlockBegin
  2
block 27
 70
     0
 10
0.0
 20
0.0
 30
0.0
  3
block 27
  1

  0
SPLINE
  5
10B
330
107
100
AcDbEntity
  8
2
 62
     4
420
    65535
370
    35
100
AcDbSpline
210
0.0
220
0.0
230
1.0
 70
     8
 71
     3
 72
     8
 73
     4
 74
     0
 42
0.0000000001
 43
0.0000000001
 12
1.0
 22
0.0
 32
0.0
 13
1.0
 23
0.0
 33
0.0
 40
0.0
 40
0.0
 40
0.0
 40
0.0
 40
1.0
 40
1.0
 40
1.0
 40
1.0
 10
6.379711684044145
 20
5.908919978987089
 30
0.0
 10
6.379711684044145
 20
5.899184504339814
 30
0.0
 10
6.387603845594058
 20
5.8912923427899
 30
0.0
 10
6.397339320241321
 20
5.8912923427899
 30
0.0
  0
ENDBLK
  5
10A
330
107
100
AcDbEntity
  8
0
100
AcDbBlockEnd
  0
BLOCK
  5
10E
330
10C
100
AcDbEntity
  8
0
100
AcDbBlockBegin
  2
block 28
 70
     0
 10
0.0
 20
0.0
 30
0.0
  3
block 28
  1

  0
SPLINE
  5
110
330
10C
100
AcDbEntity
  8
2
 62
     4
420
    65535
370
    35
100
AcDbSpline
210
0.0
220
0.0
230
1.0
 70
     8
 71
     3
 72
    14
 73
    10
 74
     0
 42
0.0000000001
 43
0.0000000001
 12
1.0
 22
0.0
 32
0.0
 13
1.0
 23
0.0
 33
0.0
 40
0.0
 40
0.0
 40
0.0
 40
0.0
 40
1.0
 40
1.0
 40
1.0
 40
2.0
 40
2.0
 40
2.0
 40
3.0
 40
3.0
 40
3.0
 40
3.0
 10
6.998138077592961
 20
6.008809917437816
 30
0.0
 10
6.987183287178772
 20
5.993271294709428
 30
0.0
 10
6.976228496764583
 20
5.977732671981041
 30
0.0
 10
6.98088751024271
 20
5.964564694188513
 30
0.0
 10
6.984798745661641
 20
5.953510194908934
 30
0.0
 10
6.999713933425962
 20
5.944126426482777
 30
0.0
 10
7.004629622938005
 20
5.9325381801041
 30
0.0
 10
7.009777916037566
 20
5.920401594031887
 30
0.0
 10
7.003957996815264
 20
5.905846968410893
 30
0.0
 10
6.998138077592961
 20
5.8912923427899
 30
0.0
  0
ENDBLK
  5
10F
330
10C
100
AcDbEntity
  8
0
100
AcDbBlockEnd
  0
BLOCK
  5
113
330
111
100
AcDbEntity
  8
0
100
AcDbBlockBegin
  2
block 29
 70
     0
 10
0.0
 20
0.0
 30
0.0
  3
block 29
  1

  0
SPLINE
  5
115
330
111
100
AcDbEntity
  8
2
370
     0
100
AcDbSpline
210
0.0
220
0.0
230
1.0
 70
    11
 71
     3
 72
    20
 73
    16
 74
     0
 42
0.0000000001
 43
0.0000000001
 12
1.0
 22
0.0
 32
0.0
 13
1.0
 23
0.0
 33
0.0
 40
0.0
 40
0.0
 40
0.0
 40
0.0
 40
1.0
 40
1.0
 40
1.0
 40
2.0
 40
2.0
 40
2.0
 40
3.0
 40
3.0
 40
3.0
 40
4.0
 40
4.0
 40
4.0
 40
5.0
 40
5.0
 40
5.0
 40
5.0
 10
0.893049000510675
 20
5.97950401675151
 30
0.0
 10
0.9002770641982604
 20
5.966410023644849
 30
0.0
 10
0.9075051278858584
 20
5.953316030538176
 30
0.0
 10
0.9057963589029138
 20
5.940751166454358
 30
0.0
 10
0.9041220018499668
 20
5.9284393390464
 30
0.0
 10
0.8938671353512669
 20
5.916635543594061
 30
0.0
 10
0.8901740518865229
 20
5.90395626042463
 30
0.0
 10
0.8862874950979555
 20
5.890612734737588
 30
0.0
 10
0.8896682478043278
 20
5.876299588420604
 30
0.0
 10
0.893049000510675
 20
5.861986442103595
 30
0.0
 10
0.893049000510675
 20
5.861986442103595
 30
0.0
 10
1.452756870173478
 20
5.861986442103595
 30
0.0
 10
1.452756870173478
 20
5.861986442103595
 30
0.0
 10
1.452756870173478
 20
5.861986442103595
 30
0.0
 10
0.893049000510675
 20
5.97950401675151
 30
0.0
 10
0.893049000510675
 20
5.97950401675151
 30
0.0
  0
POLYLINE
  5
116
330
111
100
AcDbEntity
  8
2
370
     0
100
AcDb2dPolyline
 66
     1
 10
0.0
 20
0.0
 30
0.0
  0
VERTEX
  5
117
330
116
100
AcDbEntity
  8
2
370
     0
100
AcDbVertex
100
AcDb2dVertex
 10
0.9048958554172309
 20
5.952167220928926
 30
0.0
  0
VERTEX
  5
118
330
116
100
AcDbEntity
  8
2
370
     0
100
AcDbVertex
100
AcDb2dVertex
 10
0.9322326512398149
 20
5.97950401675151
 30
0.0
  0
SEQEND
  5
119
330
116
100
AcDbEntity
  8
2
370
     0
  0
POLYLINE
  5
11A
330
111
100
AcDbEntity
  8
2
370
     0
100
AcDb2dPolyline
 66
     1
 10
0.0
 20
0.0
 30
0.0
  0
VERTEX
  5
11B
330
11A
100
AcDbEntity
  8
2
370
     0
100
AcDbVertex
100
AcDb2dVertex
 10
0.8914555648134662
 20
5.872768310383599
 30
0.0
  0
VERTEX
  5
11C
330
11A
100
AcDbEntity
  8
2
370
     0
100
AcDbVertex
100
AcDb2dVertex
 10
0.9981912711813896
 20
5.97950401675151
 30
0.0
  0
SEQEND
  5
11D
330
11A
100
AcDbEntity
  8
2
370
     0
  0
POLYLINE
  5
11E
330
111
100
AcDbEntity
  8
2
370
     0
100
AcDb2dPolyline
 66
     1
 10
0.0
 20
0.0
 30
0.0
  0
VERTEX
  5
11F
330
11E
100
AcDbEntity
  8
2
370
     0
100
AcDbVertex
100
AcDb2dVertex
 10
0.9466323164750494
 20
5.861986442103595
 30
0.0
  0
VERTEX
  5
120
330
11E
100
AcDbEntity
  8
2
370
     0
100
AcDbVertex
100
AcDb2dVertex
 10
1.064149891122965
 20
5.97950401675151
 30
0.0
  0
SEQEND
  5
121
330
11E
100
AcDbEntity
  8
2
370
     0
  0
POLYLINE
  5
122
330
111
100
AcDbEntity
  8
2
370
     0
100
AcDb2dPolyline
 66
     1
 10
0.0
 20
0.0
 30
0.0
  0
VERTEX
  5
123
330
122
100
AcDbEntity
  8
2
370
     0
100
AcDbVertex
100
AcDb2dVertex
 10
1.012590936416612
 20
5.861986442103595
 30
0.0
  0
VERTEX
  5
124
330
122
100
AcDbEntity
  8
2
370
     0
100
AcDbVertex
100
AcDb2dVertex
 10
1.130108511064539
 20
5.97950401675151
 30
0.0
  0
SEQEND
  5
125
330
122
100
AcDbEntity
  8
2
370
     0
  0
POLYLINE
  5
126
330
111
100
AcDbEntity
  8
2
370
     0
100
AcDb2dPolyline
 66
     1
 10
0.0
 20
0.0
 30
0.0
  0
VERTEX
  5
127
330
126
100
AcDbEntity
  8
2
370
     0
100
AcDbVertex
100
AcDb2dVertex
 10
1.078549556358186
 20
5.861986442103595
 30
0.0
  0
VERTEX
  5
128
330
126
100
AcDbEntity
  8
2
370
     0
100
AcDbVertex
100
AcDb2dVertex
 10
1.196067131006102
 20
5.97950401675151
 30
0.0
  0
SEQEND
  5
129
330
126
100
AcDbEntity
  8
2
370
     0
  0
POLYLINE
  5
12A
330
111
100
AcDbEntity
  8
2
370
     0
100
AcDb2dPolyline
 66
     1
 10
0.0
 20
0.0
 30
0.0
  0
VERTEX
  5
12B
330
12A
100
AcDbEntity
  8
2
370
     0
100
AcDbVertex
100
AcDb2dVertex
 10
1.144508176299761
 20
5.861986442103595
 30
0.0
  0
VERTEX
  5
12C
330
12A
100
AcDbEntity
  8
2
370
     0
100
AcDbVertex
100
AcDb2dVertex
 10
1.262025750947676
 20
5.97950401675151
 30
0.0
  0
SEQEND
  5
12D
330
12A
100
AcDbEntity
  8
2
370
     0
  0
POLYLINE
  5
12E
330
111
100
AcDbEntity
  8
2
370
     0
100
AcDb2dPolyline
 66
     1
 10
0.0
 20
0.0
 30
0.0
  0
VERTEX
  5
12F
330
12E
100
AcDbEntity
  8
2
370
     0
100
AcDbVertex
100
AcDb2dVertex
 10
1.210466796241336
 20
5.861986442103595
 30
0.0
  0
VERTEX
  5
130
330
12E
100
AcDbEntity
  8
2
370
     0
100
AcDbVertex
100
AcDb2dVertex
 10
1.327984370889251
 20
5.97950401675151
 30
0.0
  0
SEQEND
  5
131
330
12E
100
AcDbEntity
  8
2
370
     0
  0
POLYLINE
  5
132
330
111
100
AcDbEntity
  8
2
370
     0
100
AcDb2dPolyline
 66
     1
 10
0.0
 20
0.0
 30
0.0
  0
VERTEX
  5
133
330
132
100
AcDbEntity
  8
2
370
     0
100
AcDbVertex
100
AcDb2dVertex
 10
1.276425416182911
 20
5.861986442103595
 30
0.0
  0
VERTEX
  5
134
330
132
100
AcDbEntity
  8
2
370
     0
100
AcDbVertex
100
AcDb2dVertex
 10
1.393942990830826
 20
5.97950401675151
 30
0.0
  0
SEQEND
  5
135
330
132
100
AcDbEntity
  8
2
370
     0
  0
POLYLINE
  5
136
330
111
100
AcDbEntity
  8
2
370
     0
100
AcDb2dPolyline
 66
     1
 10
0.0
 20
0.0
 30
0.0
  0
VERTEX
  5
137
330
136
100
AcDbEntity
  8
2
370
     0
100
AcDbVertex
100
AcDb2dVertex
 10
1.342384036124486
 20
5.861986442103595
 30
0.0
  0
VERTEX
  5
138
330
136
100
AcDbEntity
  8
2
370
     0
100
AcDbVertex
100
AcDb2dVertex
 10
1.441081475962771
 20
5.960683881941892
 30
0.0
  0
SEQEND
  5
139
330
136
100
AcDbEntity
  8
2
370
     0
  0
POLYLINE
  5
13A
330
111
100
AcDbEntity
  8
2
370
     0
100
AcDb2dPolyline
 66
     1
 10
0.0
 20
0.0
 30
0.0
  0
VERTEX
  5
13B
330
13A
100
AcDbEntity
  8
2
370
     0
100
AcDbVertex
100
AcDb2dVertex
 10
1.408342656066048
 20
5.861986442103595
 30
0.0
  0
VERTEX
  5
13C
330
13A
100
AcDbEntity
  8
2
370
     0
100
AcDbVertex
100
AcDb2dVertex
 10
1.452756870173466
 20
5.906400656211026
 30
0.0
  0
SEQEND
  5
13D
330
13A
100
AcDbEntity
  8
2
370
     0
  0
ENDBLK
  5
114
330
111
100
AcDbEntity
  8
0
100
AcDbBlockEnd
  0
BLOCK
  5
140
330
13E
100
AcDbEntity
  8
0
100
AcDbBlockBegin
  2
block 30
 70
     0
 10
0.0
 20
0.0
 30
0.0
  3
block 30
  1

  0
POLYLINE
  5
142
330
13E
100
AcDbEntity
  8
2
 62
     4
420
    65535
370
    35
100
AcDb2dPolyline
 66
     1
 10
0.0
 20
0.0
 30
0.0
  0
VERTEX
  5
143
330
142
100
AcDbEntity
  8
2
 62
     4
420
    65535
370
    35
100
AcDbVertex
100
AcDb2dVertex
 10
1.452756870173478
 20
5.861986442103608
 30
0.0
  0
VERTEX
  5
144
330
142
100
AcDbEntity
  8
2
 62
     4
420
    65535
370
    35
100
AcDbVertex
100
AcDb2dVertex
 10
0.893049000510675
 20
5.861986442103608
 30
0.0
  0
SEQEND
  5
145
330
142
100
AcDbEntity
  8
2
 62
     4
420
    65535
370
    35
  0
ENDBLK
  5
141
330
13E
100
AcDbEntity
  8
0
100
AcDbBlockEnd
  0
BLOCK
  5
148
330
146
100
AcDbEntity
  8
0
100
AcDbBlockBegin
  2
block 31
 70
     0
 10
0.0
 20
0.0
 30
0.0
  3
block 31
  1

  0
POLYLINE
  5
14A
330
146
100
AcDbEntity
  8
2
 62
     4
420
    65535
370
    35
100
AcDb2dPolyline
 66
     1
 10
0.0
 20
0.0
 30
0.0
  0
VERTEX
  5
14B
330
14A
100
AcDbEntity
  8
2
 62
     4
420
    65535
370
    35
100
AcDbVertex
100
AcDb2dVertex
 10
1.405749840314305
 20
5.979504016751522
 30
0.0
  0
VERTEX
  5
14C
330
14A
100
AcDbEntity
  8
2
 62
     4
420
    65535
370
    35
100
AcDbVertex
100
AcDb2dVertex
 10
0.893049000510675
 20
5.979504016751522
 30
0.0
  0
SEQEND
  5
14D
330
14A
100
AcDbEntity
  8
2
 62
     4
420
    65535
370
    35
  0
ENDBLK
  5
149
330
146
100
AcDbEntity
  8
0
100
AcDbBlockEnd
  0
BLOCK
  5
150
330
14E
100
AcDbEntity
  8
0
100
AcDbBlockBegin
  2
block 32
 70
     0
 10
0.0
 20
0.0
 30
0.0
  3
block 32
  1

  0
SPLINE
  5
152
330
14E
100
AcDbEntity
  8
2
 62
     4
420
    65535
370
    35
100
AcDbSpline
210
0.0
220
0.0
230
1.0
 70
     8
 71
     3
 72
     8
 73
     4
 74
     0
 42
0.0000000001
 43
0.0000000001
 12
1.0
 22
0.0
 32
0.0
 13
1.0
 23
0.0
 33
0.0
 40
0.0
 40
0.0
 40
0.0
 40
0.0
 40
1.0
 40
1.0
 40
1.0
 40
1.0
 10
1.482096000397506
 20
5.834144647102764
 30
0.0
 10
1.481278080845856
 20
5.849751481867353
 30
0.0
 10
1.46838512291529
 20
5.861986442103595
 30
0.0
 10
1.452756870173478
 20
5.861986442103595
 30
0.0
  0
ENDBLK
  5
151
330
14E
100
AcDbEntity
  8
0
100
AcDbBlockEnd
  0
BLOCK
  5
155
330
153
100
AcDbEntity
  8
0
100
AcDbBlockBegin
  2
block 33
 70
     0
 10
0.0
 20
0.0
 30
0.0
  3
block 33
  1

  0
POLYLINE
  5
157
330
153
100
AcDbEntity
  8
2
 62
     4
420
    65535
370
    35
100
AcDb2dPolyline
 66
     1
 10
0.0
 20
0.0
 30
0.0
  0
VERTEX
  5
158
330
157
100
AcDbEntity
  8
2
 62
     4
420
    65535
370
    35
100
AcDbVertex
100
AcDb2dVertex
 10
1.482096000397506
 20
5.834144647102764
 30
0.0
  0
VERTEX
  5
159
330
157
100
AcDbEntity
  8
2
 62
     4
420
    65535
370
    35
100
AcDbVertex
100
AcDb2dVertex
 10
1.515901195439495
 20
5.189103099751239
 30
0.0
  0
SEQEND
  5
15A
330
157
100
AcDbEntity
  8
2
 62
     4
420
    65535
370
    35
  0
ENDBLK
  5
156
330
153
100
AcDbEntity
  8
0
100
AcDbBlockEnd
  0
BLOCK
  5
15D
330
15B
100
AcDbEntity
  8
0
100
AcDbBlockBegin
  2
block 34
 70
     0
 10
0.0
 20
0.0
 30
0.0
  3
block 34
  1

  0
SPLINE
  5
15F
330
15B
100
AcDbEntity
  8
2
 62
     4
420
    65535
370
    35
100
AcDbSpline
210
0.0
220
0.0
230
1.0
 70
     8
 71
     3
 72
     8
 73
     4
 74
     0
 42
0.0000000001
 43
0.0000000001
 12
1.0
 22
0.0
 32
0.0
 13
1.0
 23
0.0
 33
0.0
 40
0.0
 40
0.0
 40
0.0
 40
0.0
 40
1.0
 40
1.0
 40
1.0
 40
1.0
 10
1.735717396962855
 20
4.966841305590807
 30
0.0
 10
1.905694984307489
 20
4.956046195259356
 30
0.0
 10
2.075869320073543
 20
4.948611472878964
 30
0.0
 10
2.246140720709427
 20
4.944541493510138
 30
0.0
  0
ENDBLK
  5
15E
330
15B
100
AcDbEntity
  8
0
100
AcDbBlockEnd
  0
BLOCK
  5
162
330
160
100
AcDbEntity
  8
0
100
AcDbBlockBegin
  2
block 35
 70
     0
 10
0.0
 20
0.0
 30
0.0
  3
block 35
  1

  0
SPLINE
  5
164
330
160
100
AcDbEntity
  8
2
 62
     4
420
    65535
370
    35
100
AcDbSpline
210
0.0
220
0.0
230
1.0
 70
     8
 71
     3
 72
     8
 73
     4
 74
     0
 42
0.0000000001
 43
0.0000000001
 12
1.0
 22
0.0
 32
0.0
 13
1.0
 23
0.0
 33
0.0
 40
0.0
 40
0.0
 40
0.0
 40
0.0
 40
1.0
 40
1.0
 40
1.0
 40
1.0
 10
1.515901195439495
 20
5.189103099751239
 30
0.0
 10
1.52214497486428
 20
5.069964691099029
 30
0.0
 10
1.616655359727348
 20
4.974402819131051
 30
0.0
 10
1.735717396962842
 20
4.966841305590807
 30
0.0
  0
ENDBLK
  5
163
330
160
100
AcDbEntity
  8
0
100
AcDbBlockEnd
  0
BLOCK
  5
167
330
165
100
AcDbEntity
  8
0
100
AcDbBlockBegin
  2
block 36
 70
     0
 10
0.0
 20
0.0
 30
0.0
  3
block 36
  1

  0
POLYLINE
  5
169
330
165
100
AcDbEntity
  8
2
 62
     4
420
    65535
370
    35
100
AcDb2dPolyline
 66
     1
 10
0.0
 20
0.0
 30
0.0
  0
VERTEX
  5
16A
330
169
100
AcDbEntity
  8
2
 62
     4
420
    65535
370
    35
100
AcDbVertex
100
AcDb2dVertex
 10
1.452756870173478
 20
5.861986442103608
 30
0.0
  0
VERTEX
  5
16B
330
169
100
AcDbEntity
  8
2
 62
     4
420
    65535
370
    35
100
AcDbVertex
100
AcDb2dVertex
 10
1.452756870173478
 20
5.932496986892349
 30
0.0
  0
SEQEND
  5
16C
330
169
100
AcDbEntity
  8
2
 62
     4
420
    65535
370
    35
  0
ENDBLK
  5
168
330
165
100
AcDbEntity
  8
0
100
AcDbBlockEnd
  0
BLOCK
  5
16F
330
16D
100
AcDbEntity
  8
0
100
AcDbBlockBegin
  2
block 37
 70
     0
 10
0.0
 20
0.0
 30
0.0
  3
block 37
  1

  0
SPLINE
  5
171
330
16D
100
AcDbEntity
  8
2
 62
     4
420
    65535
370
    35
100
AcDbSpline
210
0.0
220
0.0
230
1.0
 70
     8
 71
     3
 72
     8
 73
     4
 74
     0
 42
0.0000000001
 43
0.0000000001
 12
1.0
 22
0.0
 32
0.0
 13
1.0
 23
0.0
 33
0.0
 40
0.0
 40
0.0
 40
0.0
 40
0.0
 40
1.0
 40
1.0
 40
1.0
 40
1.0
 10
1.452756870173478
 20
5.932496986892349
 30
0.0
 10
1.452756870173478
 20
5.958458252618407
 30
0.0
 10
1.431711106040363
 20
5.979504016751522
 30
0.0
 10
1.405749840314305
 20
5.979504016751522
 30
0.0
  0
ENDBLK
  5
170
330
16D
100
AcDbEntity
  8
0
100
AcDbBlockEnd
  0
BLOCK
  5
174
330
172
100
AcDbEntity
  8
0
100
AcDbBlockBegin
  2
block 38
 70
     0
 10
0.0
 20
0.0
 30
0.0
  3
block 38
  1

  0
SPLINE
  5
176
330
172
100
AcDbEntity
  8
2
 62
     4
420
    65535
370
    35
100
AcDbSpline
210
0.0
220
0.0
230
1.0
 70
     8
 71
     3
 72
    14
 73
    10
 74
     0
 42
0.0000000001
 43
0.0000000001
 12
1.0
 22
0.0
 32
0.0
 13
1.0
 23
0.0
 33
0.0
 40
0.0
 40
0.0
 40
0.0
 40
0.0
 40
1.0
 40
1.0
 40
1.0
 40
2.0
 40
2.0
 40
2.0
 40
3.0
 40
3.0
 40
3.0
 40
3.0
 10
0.893049000510675
 20
5.979504016751522
 30
0.0
 10
0.9002770641982604
 20
5.966410023644849
 30
0.0
 10
0.9075051278858457
 20
5.953316030538176
 30
0.0
 10
0.9057963589029138
 20
5.940751166454358
 30
0.0
 10
0.9041220018499668
 20
5.9284393390464
 30
0.0
 10
0.8938671353512669
 20
5.916635543594048
 30
0.0
 10
0.8901740518865229
 20
5.903956260424644
 30
0.0
 10
0.8862874950979555
 20
5.890612734737588
 30
0.0
 10
0.8896682478043152
 20
5.876299588420592
 30
0.0
 10
0.893049000510675
 20
5.861986442103608
 30
0.0
  0
ENDBLK
  5
175
330
172
100
AcDbEntity
  8
0
100
AcDbBlockEnd
  0
BLOCK
  5
17A
330
178
100
AcDbEntity
  8
0
100
AcDbBlockBegin
  2
block 39
 70
     0
 10
0.0
 20
0.0
 30
0.0
  3
block 39
  1

  0
POLYLINE
  5
17C
330
178
100
AcDbEntity
  8
3
 62
     3
420
    65280
370
    20
100
AcDb2dPolyline
 66
     1
 10
0.0
 20
0.0
 30
0.0
  0
VERTEX
  5
17D
330
17C
100
AcDbEntity
  8
3
 62
     3
420
    65280
370
    20
100
AcDbVertex
100
AcDb2dVertex
 10
6.40909107770613
 20
5.886954062718638
 30
0.0
  0
VERTEX
  5
17E
330
17C
100
AcDbEntity
  8
3
 62
     3
420
    65280
370
    20
100
AcDbVertex
100
AcDb2dVertex
 10
6.40909107770613
 20
6.216044558488647
 30
0.0
  0
SEQEND
  5
17F
330
17C
100
AcDbEntity
  8
3
 62
     3
420
    65280
370
    20
  0
ENDBLK
  5
17B
330
178
100
AcDbEntity
  8
0
100
AcDbBlockEnd
  0
BLOCK
  5
182
330
180
100
AcDbEntity
  8
0
100
AcDbBlockBegin
  2
block 40
 70
     0
 10
0.0
 20
0.0
 30
0.0
  3
block 40
  1

  0
POLYLINE
  5
184
330
180
100
AcDbEntity
  8
3
 62
     3
420
    65280
370
    20
100
AcDb2dPolyline
 66
     1
 10
0.0
 20
0.0
 30
0.0
  0
VERTEX
  5
185
330
184
100
AcDbEntity
  8
3
 62
     3
420
    65280
370
    20
100
AcDbVertex
100
AcDb2dVertex
 10
6.379711684044145
 20
5.985306402508235
 30
0.0
  0
VERTEX
  5
186
330
184
100
AcDbEntity
  8
3
 62
     3
420
    65280
370
    20
100
AcDbVertex
100
AcDb2dVertex
 10
6.379711684044145
 20
6.216044558488647
 30
0.0
  0
SEQEND
  5
187
330
184
100
AcDbEntity
  8
3
 62
     3
420
    65280
370
    20
  0
ENDBLK
  5
183
330
180
100
AcDbEntity
  8
0
100
AcDbBlockEnd
  0
BLOCK
  5
18A
330
188
100
AcDbEntity
  8
0
100
AcDbBlockBegin
  2
block 41
 70
     0
 10
0.0
 20
0.0
 30
0.0
  3
block 41
  1

  0
POLYLINE
  5
18C
330
188
100
AcDbEntity
  8
3
 62
     3
420
    65280
370
    20
100
AcDb2dPolyline
 66
     1
 10
0.0
 20
0.0
 30
0.0
  0
VERTEX
  5
18D
330
18C
100
AcDbEntity
  8
3
 62
     3
420
    65280
370
    20
100
AcDbVertex
100
AcDb2dVertex
 10
6.303325260522999
 20
6.208699710073144
 30
0.0
  0
VERTEX
  5
18E
330
18C
100
AcDbEntity
  8
3
 62
     3
420
    65280
370
    20
100
AcDbVertex
100
AcDb2dVertex
 10
6.226938837001853
 20
6.208699710073144
 30
0.0
  0
SEQEND
  5
18F
330
18C
100
AcDbEntity
  8
3
 62
     3
420
    65280
370
    20
  0
ENDBLK
  5
18B
330
188
100
AcDbEntity
  8
0
100
AcDbBlockEnd
  0
BLOCK
  5
192
330
190
100
AcDbEntity
  8
0
100
AcDbBlockBegin
  2
block 42
 70
     0
 10
0.0
 20
0.0
 30
0.0
  3
block 42
  1

  0
POLYLINE
  5
194
330
190
100
AcDbEntity
  8
3
 62
     3
420
    65280
370
    20
100
AcDb2dPolyline
 66
     1
 10
0.0
 20
0.0
 30
0.0
  0
VERTEX
  5
195
330
194
100
AcDbEntity
  8
3
 62
     3
420
    65280
370
    20
100
AcDbVertex
100
AcDb2dVertex
 10
6.485477501227276
 20
6.208699710073144
 30
0.0
  0
VERTEX
  5
196
330
194
100
AcDbEntity
  8
3
 62
     3
420
    65280
370
    20
100
AcDbVertex
100
AcDb2dVertex
 10
7.029975597095952
 20
6.208699710073144
 30
0.0
  0
SEQEND
  5
197
330
194
100
AcDbEntity
  8
3
 62
     3
420
    65280
370
    20
  0
ENDBLK
  5
193
330
190
100
AcDbEntity
  8
0
100
AcDbBlockEnd
  0
BLOCK
  5
19A
330
198
100
AcDbEntity
  8
0
100
AcDbBlockBegin
  2
block 43
 70
     0
 10
0.0
 20
0.0
 30
0.0
  3
block 43
  1

  0
POLYLINE
  5
19C
330
198
100
AcDbEntity
  8
3
 62
     3
420
    65280
370
    20
100
AcDb2dPolyline
 66
     1
 10
0.0
 20
0.0
 30
0.0
  0
VERTEX
  5
19D
330
19C
100
AcDbEntity
  8
3
 62
     3
420
    65280
370
    20
100
AcDbVertex
100
AcDb2dVertex
 10
6.379711684044145
 20
6.208699710073144
 30
0.0
  0
VERTEX
  5
19E
330
19C
100
AcDbEntity
  8
3
 62
     3
420
    65280
370
    20
100
AcDbVertex
100
AcDb2dVertex
 10
6.40909107770613
 20
6.208699710073144
 30
0.0
  0
SEQEND
  5
19F
330
19C
100
AcDbEntity
  8
3
 62
     3
420
    65280
370
    20
  0
ENDBLK
  5
19B
330
198
100
AcDbEntity
  8
0
100
AcDbBlockEnd
  0
BLOCK
  5
1A2
330
1A0
100
AcDbEntity
  8
0
100
AcDbBlockBegin
  2
block 44
 70
     0
 10
0.0
 20
0.0
 30
0.0
  3
block 44
  1

  0
POLYLINE
  5
1A4
330
1A0
100
AcDbEntity
  8
3
370
     0
100
AcDb2dPolyline
 66
     1
 10
0.0
 20
0.0
 30
0.0
  0
VERTEX
  5
1A5
330
1A4
100
AcDbEntity
  8
3
370
     0
100
AcDbVertex
100
AcDb2dVertex
 10
6.303325260522999
 20
6.221430780660007
 30
0.0
  0
VERTEX
  5
1A6
330
1A4
100
AcDbEntity
  8
3
370
     0
100
AcDbVertex
100
AcDb2dVertex
 10
6.379711684044145
 20
6.208699710073144
 30
0.0
  0
VERTEX
  5
1A7
330
1A4
100
AcDbEntity
  8
3
370
     0
100
AcDbVertex
100
AcDb2dVertex
 10
6.303325260522999
 20
6.195968639486296
 30
0.0
  0
VERTEX
  5
1A8
330
1A4
100
AcDbEntity
  8
3
370
     0
100
AcDbVertex
100
AcDb2dVertex
 10
6.303325260522999
 20
6.221430780660007
 30
0.0
  0
SEQEND
  5
1AA
330
1A4
100
AcDbEntity
  8
3
370
     0
  0
HATCH
  5
1A9
330
1A0
100
AcDbEntity
  8
3
 62
     3
420
    65280
100
AcDbHatch
 10
0.0
 20
0.0
 30
0.0
210
0.0
220
0.0
230
1.0
  2
SOLID
 70
     1
 71
     0
 91
        1
 92
        1
 93
        3
 72
     1
 10
6.303325260522999
 20
6.221430780660007
 11
6.379711684044145
 21
6.208699710073144
 72
     1
 10
6.379711684044145
 20
6.208699710073144
 11
6.303325260522999
 21
6.195968639486296
 72
     1
 10
6.303325260522999
 20
6.195968639486296
 11
6.303325260522999
 21
6.221430780660007
 97
        0
 75
     2
 76
     1
 98
        0
  0
ENDBLK
  5
1A3
330
1A0
100
AcDbEntity
  8
0
100
AcDbBlockEnd
  0
BLOCK
  5
1AD
330
1AB
100
AcDbEntity
  8
0
100
AcDbBlockBegin
  2
block 45
 70
     0
 10
0.0
 20
0.0
 30
0.0
  3
block 45
  1

  0
POLYLINE
  5
1AF
330
1AB
100
AcDbEntity
  8
3
370
     0
100
AcDb2dPolyline
 66
     1
 10
0.0
 20
0.0
 30
0.0
  0
VERTEX
  5
1B0
330
1AF
100
AcDbEntity
  8
3
370
     0
100
AcDbVertex
100
AcDb2dVertex
 10
6.485477501227276
 20
6.221430780660007
 30
0.0
  0
VERTEX
  5
1B1
330
1AF
100
AcDbEntity
  8
3
370
     0
100
AcDbVertex
100
AcDb2dVertex
 10
6.40909107770613
 20
6.208699710073144
 30
0.0
  0
VERTEX
  5
1B2
330
1AF
100
AcDbEntity
  8
3
370
     0
100
AcDbVertex
100
AcDb2dVertex
 10
6.485477501227276
 20
6.195968639486296
 30
0.0
  0
VERTEX
  5
1B3
330
1AF
100
AcDbEntity
  8
3
370
     0
100
AcDbVertex
100
AcDb2dVertex
 10
6.485477501227276
 20
6.221430780660007
 30
0.0
  0
SEQEND
  5
1B5
330
1AF
100
AcDbEntity
  8
3
370
     0
  0
HATCH
  5
1B4
330
1AB
100
AcDbEntity
  8
3
 62
     3
420
    65280
100
AcDbHatch
 10
0.0
 20
0.0
 30
0.0
210
0.0
220
0.0
230
1.0
  2
SOLID
 70
     1
 71
     0
 91
        1
 92
        1
 93
        3
 72
     1
 10
6.485477501227276
 20
6.221430780660007
 11
6.40909107770613
 21
6.208699710073144
 72
     1
 10
6.40909107770613
 20
6.208699710073144
 11
6.485477501227276
 21
6.195968639486296
 72
     1
 10
6.485477501227276
 20
6.195968639486296
 11
6.485477501227276
 21
6.221430780660007
 97
        0
 75
     2
 76
     1
 98
        0
  0
ENDBLK
  5
1AE
330
1AB
100
AcDbEntity
  8
0
100
AcDbBlockEnd
  0
BLOCK
  5
1B8
330
1B6
100
AcDbEntity
  8
0
100
AcDbBlockBegin
  2
block 46
 70
     0
 10
0.0
 20
0.0
 30
0.0
  3
block 46
  1

  0
MTEXT
  5
1BA
330
1B6
100
AcDbEntity
  8
3
 62
     3
420
    65280
100
AcDbMText
 10
6.559485541449653
 20
6.231783548990885
 30
0.0
 40
0.0763864223957062
 41
0.0
 46
0.0
 71
     7
 72
     1
  1
\fMyriad Pro|b0|i0|c0|p34;\W1;5 [1/4]
 73
     1
 44
1.0
  0
ENDBLK
  5
1B9
330
1B6
100
AcDbEntity
  8
0
100
AcDbBlockEnd
  0
BLOCK
  5
1BD
330
1BB
100
AcDbEntity
  8
0
100
AcDbBlockBegin
  2
block 47
 70
     0
 10
0.0
 20
0.0
 30
0.0
  3
block 47
  1

  0
POLYLINE
  5
1BF
330
1BB
100
AcDbEntity
  8
3
 62
     3
420
    65280
370
    20
100
AcDb2dPolyline
 66
     1
 10
0.0
 20
0.0
 30
0.0
  0
VERTEX
  5
1C0
330
1BF
100
AcDbEntity
  8
3
 62
     3
420
    65280
370
    20
100
AcDbVertex
100
AcDb2dVertex
 10
1.482096000397506
 20
5.863524040764736
 30
0.0
  0
VERTEX
  5
1C1
330
1BF
100
AcDbEntity
  8
3
 62
     3
420
    65280
370
    20
100
AcDbVertex
100
AcDb2dVertex
 10
1.482096000397506
 20
6.142457800916518
 30
0.0
  0
SEQEND
  5
1C2
330
1BF
100
AcDbEntity
  8
3
 62
     3
420
    65280
370
    20
  0
ENDBLK
  5
1BE
330
1BB
100
AcDbEntity
  8
0
100
AcDbBlockEnd
  0
BLOCK
  5
1C5
330
1C3
100
AcDbEntity
  8
0
100
AcDbBlockBegin
  2
block 48
 70
     0
 10
0.0
 20
0.0
 30
0.0
  3
block 48
  1

  0
POLYLINE
  5
1C7
330
1C3
100
AcDbEntity
  8
3
 62
     3
420
    65280
370
    20
100
AcDb2dPolyline
 66
     1
 10
0.0
 20
0.0
 30
0.0
  0
VERTEX
  5
1C8
330
1C7
100
AcDbEntity
  8
3
 62
     3
420
    65280
370
    20
100
AcDbVertex
100
AcDb2dVertex
 10
1.452756870173478
 20
5.926621108159957
 30
0.0
  0
VERTEX
  5
1C9
330
1C7
100
AcDbEntity
  8
3
 62
     3
420
    65280
370
    20
100
AcDbVertex
100
AcDb2dVertex
 10
1.452756870173478
 20
6.142457800916518
 30
0.0
  0
SEQEND
  5
1CA
330
1C7
100
AcDbEntity
  8
3
 62
     3
420
    65280
370
    20
  0
ENDBLK
  5
1C6
330
1C3
100
AcDbEntity
  8
0
100
AcDbBlockEnd
  0
BLOCK
  5
1CD
330
1CB
100
AcDbEntity
  8
0
100
AcDbBlockBegin
  2
block 49
 70
     0
 10
0.0
 20
0.0
 30
0.0
  3
block 49
  1

  0
POLYLINE
  5
1CF
330
1CB
100
AcDbEntity
  8
3
 62
     3
420
    65280
370
    20
100
AcDb2dPolyline
 66
     1
 10
0.0
 20
0.0
 30
0.0
  0
VERTEX
  5
1D0
330
1CF
100
AcDbEntity
  8
3
 62
     3
420
    65280
370
    20
100
AcDbVertex
100
AcDb2dVertex
 10
1.558482423918652
 20
6.135112952501029
 30
0.0
  0
VERTEX
  5
1D1
330
1CF
100
AcDbEntity
  8
3
 62
     3
420
    65280
370
    20
100
AcDbVertex
100
AcDb2dVertex
 10
1.634868847439798
 20
6.135112952501029
 30
0.0
  0
SEQEND
  5
1D2
330
1CF
100
AcDbEntity
  8
3
 62
     3
420
    65280
370
    20
  0
ENDBLK
  5
1CE
330
1CB
100
AcDbEntity
  8
0
100
AcDbBlockEnd
  0
BLOCK
  5
1D5
330
1D3
100
AcDbEntity
  8
0
100
AcDbBlockBegin
  2
block 50
 70
     0
 10
0.0
 20
0.0
 30
0.0
  3
block 50
  1

  0
POLYLINE
  5
1D7
330
1D3
100
AcDbEntity
  8
3
 62
     3
420
    65280
370
    20
100
AcDb2dPolyline
 66
     1
 10
0.0
 20
0.0
 30
0.0
  0
VERTEX
  5
1D8
330
1D7
100
AcDbEntity
  8
3
 62
     3
420
    65280
370
    20
100
AcDbVertex
100
AcDb2dVertex
 10
1.376370446652332
 20
6.135112952501029
 30
0.0
  0
VERTEX
  5
1D9
330
1D7
100
AcDbEntity
  8
3
 62
     3
420
    65280
370
    20
100
AcDbVertex
100
AcDb2dVertex
 10
0.8318723507836441
 20
6.135112952501029
 30
0.0
  0
SEQEND
  5
1DA
330
1D7
100
AcDbEntity
  8
3
 62
     3
420
    65280
370
    20
  0
ENDBLK
  5
1D6
330
1D3
100
AcDbEntity
  8
0
100
AcDbBlockEnd
  0
BLOCK
  5
1DD
330
1DB
100
AcDbEntity
  8
0
100
AcDbBlockBegin
  2
block 51
 70
     0
 10
0.0
 20
0.0
 30
0.0
  3
block 51
  1

  0
POLYLINE
  5
1DF
330
1DB
100
AcDbEntity
  8
3
 62
     3
420
    65280
370
    20
100
AcDb2dPolyline
 66
     1
 10
0.0
 20
0.0
 30
0.0
  0
VERTEX
  5
1E0
330
1DF
100
AcDbEntity
  8
3
 62
     3
420
    65280
370
    20
100
AcDbVertex
100
AcDb2dVertex
 10
1.482096000397506
 20
6.135112952501029
 30
0.0
  0
VERTEX
  5
1E1
330
1DF
100
AcDbEntity
  8
3
 62
     3
420
    65280
370
    20
100
AcDbVertex
100
AcDb2dVertex
 10
1.452756870173478
 20
6.135112952501029
 30
0.0
  0
SEQEND
  5
1E2
330
1DF
100
AcDbEntity
  8
3
 62
     3
420
    65280
370
    20
  0
ENDBLK
  5
1DE
330
1DB
100
AcDbEntity
  8
0
100
AcDbBlockEnd
  0
BLOCK
  5
1E5
330
1E3
100
AcDbEntity
  8
0
100
AcDbBlockBegin
  2
block 52
 70
     0
 10
0.0
 20
0.0
 30
0.0
  3
block 52
  1

  0
POLYLINE
  5
1E7
330
1E3
100
AcDbEntity
  8
3
370
     0
100
AcDb2dPolyline
 66
     1
 10
0.0
 20
0.0
 30
0.0
  0
VERTEX
  5
1E8
330
1E7
100
AcDbEntity
  8
3
370
     0
100
AcDbVertex
100
AcDb2dVertex
 10
1.558482423918652
 20
6.147844023087878
 30
0.0
  0
VERTEX
  5
1E9
330
1E7
100
AcDbEntity
  8
3
370
     0
100
AcDbVertex
100
AcDb2dVertex
 10
1.482096000397506
 20
6.135112952501029
 30
0.0
  0
VERTEX
  5
1EA
330
1E7
100
AcDbEntity
  8
3
370
     0
100
AcDbVertex
100
AcDb2dVertex
 10
1.558482423918652
 20
6.122381881914166
 30
0.0
  0
VERTEX
  5
1EB
330
1E7
100
AcDbEntity
  8
3
370
     0
100
AcDbVertex
100
AcDb2dVertex
 10
1.558482423918652
 20
6.147844023087878
 30
0.0
  0
SEQEND
  5
1ED
330
1E7
100
AcDbEntity
  8
3
370
     0
  0
HATCH
  5
1EC
330
1E3
100
AcDbEntity
  8
3
 62
     3
420
    65280
100
AcDbHatch
 10
0.0
 20
0.0
 30
0.0
210
0.0
220
0.0
230
1.0
  2
SOLID
 70
     1
 71
     0
 91
        1
 92
        1
 93
        3
 72
     1
 10
1.558482423918652
 20
6.147844023087878
 11
1.482096000397506
 21
6.135112952501029
 72
     1
 10
1.482096000397506
 20
6.135112952501029
 11
1.558482423918652
 21
6.122381881914166
 72
     1
 10
1.558482423918652
 20
6.122381881914166
 11
1.558482423918652
 21
6.147844023087878
 97
        0
 75
     2
 76
     1
 98
        0
  0
ENDBLK
  5
1E6
330
1E3
100
AcDbEntity
  8
0
100
AcDbBlockEnd
  0
BLOCK
  5
1F0
330
1EE
100
AcDbEntity
  8
0
100
AcDbBlockBegin
  2
block 53
 70
     0
 10
0.0
 20
0.0
 30
0.0
  3
block 53
  1

  0
POLYLINE
  5
1F2
330
1EE
100
AcDbEntity
  8
3
370
     0
100
AcDb2dPolyline
 66
     1
 10
0.0
 20
0.0
 30
0.0
  0
VERTEX
  5
1F3
330
1F2
100
AcDbEntity
  8
3
370
     0
100
AcDbVertex
100
AcDb2dVertex
 10
1.376370446652332
 20
6.147844023087878
 30
0.0
  0
VERTEX
  5
1F4
330
1F2
100
AcDbEntity
  8
3
370
     0
100
AcDbVertex
100
AcDb2dVertex
 10
1.452756870173478
 20
6.135112952501029
 30
0.0
  0
VERTEX
  5
1F5
330
1F2
100
AcDbEntity
  8
3
370
     0
100
AcDbVertex
100
AcDb2dVertex
 10
1.376370446652332
 20
6.122381881914166
 30
0.0
  0
VERTEX
  5
1F6
330
1F2
100
AcDbEntity
  8
3
370
     0
100
AcDbVertex
100
AcDb2dVertex
 10
1.376370446652332
 20
6.147844023087878
 30
0.0
  0
SEQEND
  5
1F8
330
1F2
100
AcDbEntity
  8
3
370
     0
  0
HATCH
  5
1F7
330
1EE
100
AcDbEntity
  8
3
 62
     3
420
    65280
100
AcDbHatch
 10
0.0
 20
0.0
 30
0.0
210
0.0
220
0.0
230
1.0
  2
SOLID
 70
     1
 71
     0
 91
        1
 92
        1
 93
        3
 72
     1
 10
1.376370446652332
 20
6.147844023087878
 11
1.452756870173478
 21
6.135112952501029
 72
     1
 10
1.452756870173478
 20
6.135112952501029
 11
1.376370446652332
 21
6.122381881914166
 72
     1
 10
1.376370446652332
 20
6.122381881914166
 11
1.376370446652332
 21
6.147844023087878
 97
        0
 75
     2
 76
     1
 98
        0
  0
ENDBLK
  5
1F1
330
1EE
100
AcDbEntity
  8
0
100
AcDbBlockEnd
  0
BLOCK
  5
1FB
330
1F9
100
AcDbEntity
  8
0
100
AcDbBlockBegin
  2
block 54
 70
     0
 10
0.0
 20
0.0
 30
0.0
  3
block 54
  1

  0
MTEXT
  5
1FD
330
1F9
100
AcDbEntity
  8
3
 62
     3
420
    65280
100
AcDbMText
 10
0.8294939994812012
 20
6.158196767171224
 30
0.0
 40
0.0763864223957062
 41
0.0
 46
0.0
 71
     7
 72
     1
  1
\fMyriad Pro|b0|i0|c0|p34;\W1;5 [1/4]
 73
     1
 44
1.0
  0
ENDBLK
  5
1FC
330
1F9
100
AcDbEntity
  8
0
100
AcDbBlockEnd
  0
BLOCK
  5
200
330
1FE
100
AcDbEntity
  8
0
100
AcDbBlockBegin
  2
block 55
 70
     0
 10
0.0
 20
0.0
 30
0.0
  3
block 55
  1

  0
POLYLINE
  5
202
330
1FE
100
AcDbEntity
  8
3
 62
     3
420
    65280
370
    20
100
AcDb2dPolyline
 66
     1
 10
0.0
 20
0.0
 30
0.0
  0
VERTEX
  5
203
330
202
100
AcDbEntity
  8
3
 62
     3
420
    65280
370
    20
100
AcDbVertex
100
AcDb2dVertex
 10
2.529849978878499
 20
5.51950944085431
 30
0.0
  0
VERTEX
  5
204
330
202
100
AcDbEntity
  8
3
 62
     3
420
    65280
370
    20
100
AcDbVertex
100
AcDb2dVertex
 10
2.529849978878499
 20
7.006991396089549
 30
0.0
  0
SEQEND
  5
205
330
202
100
AcDbEntity
  8
3
 62
     3
420
    65280
370
    20
  0
ENDBLK
  5
201
330
1FE
100
AcDbEntity
  8
0
100
AcDbBlockEnd
  0
BLOCK
  5
208
330
206
100
AcDbEntity
  8
0
100
AcDbBlockBegin
  2
block 56
 70
     0
 10
0.0
 20
0.0
 30
0.0
  3
block 56
  1

  0
POLYLINE
  5
20A
330
206
100
AcDbEntity
  8
3
 62
     3
420
    65280
370
    20
100
AcDb2dPolyline
 66
     1
 10
0.0
 20
0.0
 30
0.0
  0
VERTEX
  5
20B
330
20A
100
AcDbEntity
  8
3
 62
     3
420
    65280
370
    20
100
AcDbVertex
100
AcDb2dVertex
 10
5.38384822032789
 20
5.519509440854272
 30
0.0
  0
VERTEX
  5
20C
330
20A
100
AcDbEntity
  8
3
 62
     3
420
    65280
370
    20
100
AcDbVertex
100
AcDb2dVertex
 10
5.38384822032789
 20
7.006991396089549
 30
0.0
  0
SEQEND
  5
20D
330
20A
100
AcDbEntity
  8
3
 62
     3
420
    65280
370
    20
  0
ENDBLK
  5
209
330
206
100
AcDbEntity
  8
0
100
AcDbBlockEnd
  0
BLOCK
  5
210
330
20E
100
AcDbEntity
  8
0
100
AcDbBlockBegin
  2
block 57
 70
     0
 10
0.0
 20
0.0
 30
0.0
  3
block 57
  1

  0
POLYLINE
  5
212
330
20E
100
AcDbEntity
  8
3
 62
     3
420
    65280
370
    20
100
AcDb2dPolyline
 66
     1
 10
0.0
 20
0.0
 30
0.0
  0
VERTEX
  5
213
330
212
100
AcDbEntity
  8
3
 62
     3
420
    65280
370
    20
100
AcDbVertex
100
AcDb2dVertex
 10
2.61379110362701
 20
6.996498755495988
 30
0.0
  0
VERTEX
  5
214
330
212
100
AcDbEntity
  8
3
 62
     3
420
    65280
370
    20
100
AcDbVertex
100
AcDb2dVertex
 10
5.299907095579379
 20
6.996498755495988
 30
0.0
  0
SEQEND
  5
215
330
212
100
AcDbEntity
  8
3
 62
     3
420
    65280
370
    20
  0
ENDBLK
  5
211
330
20E
100
AcDbEntity
  8
0
100
AcDbBlockEnd
  0
BLOCK
  5
218
330
216
100
AcDbEntity
  8
0
100
AcDbBlockBegin
  2
block 58
 70
     0
 10
0.0
 20
0.0
 30
0.0
  3
block 58
  1

  0
POLYLINE
  5
21A
330
216
100
AcDbEntity
  8
3
370
     0
100
AcDb2dPolyline
 66
     1
 10
0.0
 20
0.0
 30
0.0
  0
VERTEX
  5
21B
330
21A
100
AcDbEntity
  8
3
370
     0
100
AcDbVertex
100
AcDb2dVertex
 10
2.61379110362701
 20
7.010488942954074
 30
0.0
  0
VERTEX
  5
21C
330
21A
100
AcDbEntity
  8
3
370
     0
100
AcDbVertex
100
AcDb2dVertex
 10
2.529849978878499
 20
6.996498755495988
 30
0.0
  0
VERTEX
  5
21D
330
21A
100
AcDbEntity
  8
3
370
     0
100
AcDbVertex
100
AcDb2dVertex
 10
2.61379110362701
 20
6.982508568037903
 30
0.0
  0
VERTEX
  5
21E
330
21A
100
AcDbEntity
  8
3
370
     0
100
AcDbVertex
100
AcDb2dVertex
 10
2.61379110362701
 20
7.010488942954074
 30
0.0
  0
SEQEND
  5
220
330
21A
100
AcDbEntity
  8
3
370
     0
  0
HATCH
  5
21F
330
216
100
AcDbEntity
  8
3
 62
     3
420
    65280
100
AcDbHatch
 10
0.0
 20
0.0
 30
0.0
210
0.0
220
0.0
230
1.0
  2
SOLID
 70
     1
 71
     0
 91
        1
 92
        1
 93
        3
 72
     1
 10
2.61379110362701
 20
7.010488942954074
 11
2.529849978878499
 21
6.996498755495988
 72
     1
 10
2.529849978878499
 20
6.996498755495988
 11
2.61379110362701
 21
6.982508568037903
 72
     1
 10
2.61379110362701
 20
6.982508568037903
 11
2.61379110362701
 21
7.010488942954074
 97
        0
 75
     2
 76
     1
 98
        0
  0
ENDBLK
  5
219
330
216
100
AcDbEntity
  8
0
100
AcDbBlockEnd
  0
BLOCK
  5
223
330
221
100
AcDbEntity
  8
0
100
AcDbBlockBegin
  2
block 59
 70
     0
 10
0.0
 20
0.0
 30
0.0
  3
block 59
  1

  0
POLYLINE
  5
225
330
221
100
AcDbEntity
  8
3
370
     0
100
AcDb2dPolyline
 66
     1
 10
0.0
 20
0.0
 30
0.0
  0
VERTEX
  5
226
330
225
100
AcDbEntity
  8
3
370
     0
100
AcDbVertex
100
AcDb2dVertex
 10
5.299907095579379
 20
7.010488942954074
 30
0.0
  0
VERTEX
  5
227
330
225
100
AcDbEntity
  8
3
370
     0
100
AcDbVertex
100
AcDb2dVertex
 10
5.38384822032789
 20
6.996498755495988
 30
0.0
  0
VERTEX
  5
228
330
225
100
AcDbEntity
  8
3
370
     0
100
AcDbVertex
100
AcDb2dVertex
 10
5.299907095579379
 20
6.982508568037903
 30
0.0
  0
VERTEX
  5
229
330
225
100
AcDbEntity
  8
3
370
     0
100
AcDbVertex
100
AcDb2dVertex
 10
5.299907095579379
 20
7.010488942954074
 30
0.0
  0
SEQEND
  5
22B
330
225
100
AcDbEntity
  8
3
370
     0
  0
HATCH
  5
22A
330
221
100
AcDbEntity
  8
3
 62
     3
420
    65280
100
AcDbHatch
 10
0.0
 20
0.0
 30
0.0
210
0.0
220
0.0
230
1.0
  2
SOLID
 70
     1
 71
     0
 91
        1
 92
        1
 93
        3
 72
     1
 10
5.299907095579379
 20
7.010488942954074
 11
5.38384822032789
 21
6.996498755495988
 72
     1
 10
5.38384822032789
 20
6.996498755495988
 11
5.299907095579379
 21
6.982508568037903
 72
     1
 10
5.299907095579379
 20
6.982508568037903
 11
5.299907095579379
 21
7.010488942954074
 97
        0
 75
     2
 76
     1
 98
        0
  0
ENDBLK
  5
224
330
221
100
AcDbEntity
  8
0
100
AcDbBlockEnd
  0
BLOCK
  5
22E
330
22C
100
AcDbEntity
  8
0
100
AcDbBlockBegin
  2
block 60
 70
     0
 10
0.0
 20
0.0
 30
0.0
  3
block 60
  1

  0
MTEXT
  5
230
330
22C
100
AcDbEntity
  8
3
 62
     3
420
    65280
100
AcDbMText
 10
3.402837753295898
 20
7.028875986735025
 30
0.0
 40
0.1007293512026469
 41
0.0
 46
0.0
 71
     7
 72
     1
  1
\fMyriad Pro|b0|i0|c0|p34;\W1;340 [13 3/8]
 73
     1
 44
1.0
  0
ENDBLK
  5
22F
330
22C
100
AcDbEntity
  8
0
100
AcDbBlockEnd
  0
BLOCK
  5
233
330
231
100
AcDbEntity
  8
0
100
AcDbBlockBegin
  2
block 61
 70
     0
 10
0.0
 20
0.0
 30
0.0
  3
block 61
  1

  0
POLYLINE
  5
235
330
231
100
AcDbEntity
  8
3
 62
     3
420
    65280
370
    20
100
AcDb2dPolyline
 66
     1
 10
0.0
 20
0.0
 30
0.0
  0
VERTEX
  5
236
330
235
100
AcDbEntity
  8
3
 62
     3
420
    65280
370
    20
100
AcDbVertex
100
AcDb2dVertex
 10
2.445908854129988
 20
5.51950944085431
 30
0.0
  0
VERTEX
  5
237
330
235
100
AcDbEntity
  8
3
 62
     3
420
    65280
370
    20
100
AcDbVertex
100
AcDb2dVertex
 10
2.445908854129988
 20
7.284385345593389
 30
0.0
  0
SEQEND
  5
238
330
235
100
AcDbEntity
  8
3
 62
     3
420
    65280
370
    20
  0
ENDBLK
  5
234
330
231
100
AcDbEntity
  8
0
100
AcDbBlockEnd
  0
BLOCK
  5
23B
330
239
100
AcDbEntity
  8
0
100
AcDbBlockBegin
  2
block 62
 70
     0
 10
0.0
 20
0.0
 30
0.0
  3
block 62
  1

  0
POLYLINE
  5
23D
330
239
100
AcDbEntity
  8
3
 62
     3
420
    65280
370
    20
100
AcDb2dPolyline
 66
     1
 10
0.0
 20
0.0
 30
0.0
  0
VERTEX
  5
23E
330
23D
100
AcDbEntity
  8
3
 62
     3
420
    65280
370
    20
100
AcDbVertex
100
AcDb2dVertex
 10
5.4677893450764
 20
5.519509440854272
 30
0.0
  0
VERTEX
  5
23F
330
23D
100
AcDbEntity
  8
3
 62
     3
420
    65280
370
    20
100
AcDbVertex
100
AcDb2dVertex
 10
5.4677893450764
 20
7.284385345593389
 30
0.0
  0
SEQEND
  5
240
330
23D
100
AcDbEntity
  8
3
 62
     3
420
    65280
370
    20
  0
ENDBLK
  5
23C
330
239
100
AcDbEntity
  8
0
100
AcDbBlockEnd
  0
BLOCK
  5
243
330
241
100
AcDbEntity
  8
0
100
AcDbBlockBegin
  2
block 63
 70
     0
 10
0.0
 20
0.0
 30
0.0
  3
block 63
  1

  0
POLYLINE
  5
245
330
241
100
AcDbEntity
  8
3
 62
     3
420
    65280
370
    20
100
AcDb2dPolyline
 66
     1
 10
0.0
 20
0.0
 30
0.0
  0
VERTEX
  5
246
330
245
100
AcDbEntity
  8
3
 62
     3
420
    65280
370
    20
100
AcDbVertex
100
AcDb2dVertex
 10
2.529849978878499
 20
7.273892704999828
 30
0.0
  0
VERTEX
  5
247
330
245
100
AcDbEntity
  8
3
 62
     3
420
    65280
370
    20
100
AcDbVertex
100
AcDb2dVertex
 10
5.38384822032789
 20
7.273892704999828
 30
0.0
  0
SEQEND
  5
248
330
245
100
AcDbEntity
  8
3
 62
     3
420
    65280
370
    20
  0
ENDBLK
  5
244
330
241
100
AcDbEntity
  8
0
100
AcDbBlockEnd
  0
BLOCK
  5
24B
330
249
100
AcDbEntity
  8
0
100
AcDbBlockBegin
  2
block 64
 70
     0
 10
0.0
 20
0.0
 30
0.0
  3
block 64
  1

  0
POLYLINE
  5
24D
330
249
100
AcDbEntity
  8
3
370
     0
100
AcDb2dPolyline
 66
     1
 10
0.0
 20
0.0
 30
0.0
  0
VERTEX
  5
24E
330
24D
100
AcDbEntity
  8
3
370
     0
100
AcDbVertex
100
AcDb2dVertex
 10
2.529849978878499
 20
7.287882892457901
 30
0.0
  0
VERTEX
  5
24F
330
24D
100
AcDbEntity
  8
3
370
     0
100
AcDbVertex
100
AcDb2dVertex
 10
2.445908854129988
 20
7.273892704999828
 30
0.0
  0
VERTEX
  5
250
330
24D
100
AcDbEntity
  8
3
370
     0
100
AcDbVertex
100
AcDb2dVertex
 10
2.529849978878499
 20
7.259902517541731
 30
0.0
  0
VERTEX
  5
251
330
24D
100
AcDbEntity
  8
3
370
     0
100
AcDbVertex
100
AcDb2dVertex
 10
2.529849978878499
 20
7.287882892457901
 30
0.0
  0
SEQEND
  5
253
330
24D
100
AcDbEntity
  8
3
370
     0
  0
HATCH
  5
252
330
249
100
AcDbEntity
  8
3
 62
     3
420
    65280
100
AcDbHatch
 10
0.0
 20
0.0
 30
0.0
210
0.0
220
0.0
230
1.0
  2
SOLID
 70
     1
 71
     0
 91
        1
 92
        1
 93
        3
 72
     1
 10
2.529849978878499
 20
7.287882892457901
 11
2.445908854129988
 21
7.273892704999828
 72
     1
 10
2.445908854129988
 20
7.273892704999828
 11
2.529849978878499
 21
7.259902517541731
 72
     1
 10
2.529849978878499
 20
7.259902517541731
 11
2.529849978878499
 21
7.287882892457901
 97
        0
 75
     2
 76
     1
 98
        0
  0
ENDBLK
  5
24C
330
249
100
AcDbEntity
  8
0
100
AcDbBlockEnd
  0
BLOCK
  5
256
330
254
100
AcDbEntity
  8
0
100
AcDbBlockBegin
  2
block 65
 70
     0
 10
0.0
 20
0.0
 30
0.0
  3
block 65
  1

  0
POLYLINE
  5
258
330
254
100
AcDbEntity
  8
3
370
     0
100
AcDb2dPolyline
 66
     1
 10
0.0
 20
0.0
 30
0.0
  0
VERTEX
  5
259
330
258
100
AcDbEntity
  8
3
370
     0
100
AcDbVertex
100
AcDb2dVertex
 10
5.38384822032789
 20
7.287882892457901
 30
0.0
  0
VERTEX
  5
25A
330
258
100
AcDbEntity
  8
3
370
     0
100
AcDbVertex
100
AcDb2dVertex
 10
5.4677893450764
 20
7.273892704999828
 30
0.0
  0
VERTEX
  5
25B
330
258
100
AcDbEntity
  8
3
370
     0
100
AcDbVertex
100
AcDb2dVertex
 10
5.38384822032789
 20
7.259902517541731
 30
0.0
  0
VERTEX
  5
25C
330
258
100
AcDbEntity
  8
3
370
     0
100
AcDbVertex
100
AcDb2dVertex
 10
5.38384822032789
 20
7.287882892457901
 30
0.0
  0
SEQEND
  5
25E
330
258
100
AcDbEntity
  8
3
370
     0
  0
HATCH
  5
25D
330
254
100
AcDbEntity
  8
3
 62
     3
420
    65280
100
AcDbHatch
 10
0.0
 20
0.0
 30
0.0
210
0.0
220
0.0
230
1.0
  2
SOLID
 70
     1
 71
     0
 91
        1
 92
        1
 93
        3
 72
     1
 10
5.38384822032789
 20
7.287882892457901
 11
5.4677893450764
 21
7.273892704999828
 72
     1
 10
5.4677893450764
 20
7.273892704999828
 11
5.38384822032789
 21
7.259902517541731
 72
     1
 10
5.38384822032789
 20
7.259902517541731
 11
5.38384822032789
 21
7.287882892457901
 97
        0
 75
     2
 76
     1
 98
        0
  0
ENDBLK
  5
257
330
254
100
AcDbEntity
  8
0
100
AcDbBlockEnd
  0
BLOCK
  5
261
330
25F
100
AcDbEntity
  8
0
100
AcDbBlockBegin
  2
block 66
 70
     0
 10
0.0
 20
0.0
 30
0.0
  3
block 66
  1

  0
MTEXT
  5
263
330
25F
100
AcDbEntity
  8
3
 62
     3
420
    65280
100
AcDbMText
 10
3.402837753295898
 20
7.306270175509982
 30
0.0
 40
0.1007293512026469
 41
0.0
 46
0.0
 71
     7
 72
     1
  1
\fMyriad Pro|b0|i0|c0|p34;\W1;360 [14 1/8]
 73
     1
 44
1.0
  0
ENDBLK
  5
262
330
25F
100
AcDbEntity
  8
0
100
AcDbBlockEnd
  0
BLOCK
  5
266
330
264
100
AcDbEntity
  8
0
100
AcDbBlockBegin
  2
block 67
 70
     0
 10
0.0
 20
0.0
 30
0.0
  3
block 67
  1

  0
POLYLINE
  5
268
330
264
100
AcDbEntity
  8
3
 62
     3
420
    65280
370
    20
100
AcDb2dPolyline
 66
     1
 10
0.0
 20
0.0
 30
0.0
  0
VERTEX
  5
269
330
268
100
AcDbEntity
  8
3
 62
     3
420
    65280
370
    20
100
AcDbVertex
100
AcDb2dVertex
 10
3.98203143702776
 20
6.711473412283137
 30
0.0
  0
VERTEX
  5
26A
330
268
100
AcDbEntity
  8
3
 62
     3
420
    65280
370
    20
100
AcDbVertex
100
AcDb2dVertex
 10
7.318654946555625
 20
6.711473412283137
 30
0.0
  0
SEQEND
  5
26B
330
268
100
AcDbEntity
  8
3
 62
     3
420
    65280
370
    20
  0
ENDBLK
  5
267
330
264
100
AcDbEntity
  8
0
100
AcDbBlockEnd
  0
BLOCK
  5
26E
330
26C
100
AcDbEntity
  8
0
100
AcDbBlockBegin
  2
block 68
 70
     0
 10
0.0
 20
0.0
 30
0.0
  3
block 68
  1

  0
POLYLINE
  5
270
330
26C
100
AcDbEntity
  8
3
 62
     3
420
    65280
370
    20
100
AcDb2dPolyline
 66
     1
 10
0.0
 20
0.0
 30
0.0
  0
VERTEX
  5
271
330
270
100
AcDbEntity
  8
3
 62
     3
420
    65280
370
    20
100
AcDbVertex
100
AcDb2dVertex
 10
3.982031437027735
 20
4.2771807945763
 30
0.0
  0
VERTEX
  5
272
330
270
100
AcDbEntity
  8
3
 62
     3
420
    65280
370
    20
100
AcDbVertex
100
AcDb2dVertex
 10
7.318654946555625
 20
4.2771807945763
 30
0.0
  0
SEQEND
  5
273
330
270
100
AcDbEntity
  8
3
 62
     3
420
    65280
370
    20
  0
ENDBLK
  5
26F
330
26C
100
AcDbEntity
  8
0
100
AcDbBlockEnd
  0
BLOCK
  5
276
330
274
100
AcDbEntity
  8
0
100
AcDbBlockBegin
  2
block 69
 70
     0
 10
0.0
 20
0.0
 30
0.0
  3
block 69
  1

  0
POLYLINE
  5
278
330
274
100
AcDbEntity
  8
3
 62
     3
420
    65280
370
    20
100
AcDb2dPolyline
 66
     1
 10
0.0
 20
0.0
 30
0.0
  0
VERTEX
  5
279
330
278
100
AcDbEntity
  8
3
 62
     3
420
    65280
370
    20
100
AcDbVertex
100
AcDb2dVertex
 10
7.308162305962064
 20
6.627532287534627
 30
0.0
  0
VERTEX
  5
27A
330
278
100
AcDbEntity
  8
3
 62
     3
420
    65280
370
    20
100
AcDbVertex
100
AcDb2dVertex
 10
7.308162305962064
 20
4.361121919324811
 30
0.0
  0
SEQEND
  5
27B
330
278
100
AcDbEntity
  8
3
 62
     3
420
    65280
370
    20
  0
ENDBLK
  5
277
330
274
100
AcDbEntity
  8
0
100
AcDbBlockEnd
  0
BLOCK
  5
27E
330
27C
100
AcDbEntity
  8
0
100
AcDbBlockBegin
  2
block 70
 70
     0
 10
0.0
 20
0.0
 30
0.0
  3
block 70
  1

  0
POLYLINE
  5
280
330
27C
100
AcDbEntity
  8
3
370
     0
100
AcDb2dPolyline
 66
     1
 10
0.0
 20
0.0
 30
0.0
  0
VERTEX
  5
281
330
280
100
AcDbEntity
  8
3
370
     0
100
AcDbVertex
100
AcDb2dVertex
 10
7.294172118503992
 20
6.627532287534627
 30
0.0
  0
VERTEX
  5
282
330
280
100
AcDbEntity
  8
3
370
     0
100
AcDbVertex
100
AcDb2dVertex
 10
7.308162305962064
 20
6.711473412283137
 30
0.0
  0
VERTEX
  5
283
330
280
100
AcDbEntity
  8
3
370
     0
100
AcDbVertex
100
AcDb2dVertex
 10
7.322152493420163
 20
6.627532287534627
 30
0.0
  0
VERTEX
  5
284
330
280
100
AcDbEntity
  8
3
370
     0
100
AcDbVertex
100
AcDb2dVertex
 10
7.294172118503992
 20
6.627532287534627
 30
0.0
  0
SEQEND
  5
286
330
280
100
AcDbEntity
  8
3
370
     0
  0
HATCH
  5
285
330
27C
100
AcDbEntity
  8
3
 62
     3
420
    65280
100
AcDbHatch
 10
0.0
 20
0.0
 30
0.0
210
0.0
220
0.0
230
1.0
  2
SOLID
 70
     1
 71
     0
 91
        1
 92
        1
 93
        3
 72
     1
 10
7.294172118503992
 20
6.627532287534627
 11
7.308162305962064
 21
6.711473412283137
 72
     1
 10
7.308162305962064
 20
6.711473412283137
 11
7.322152493420163
 21
6.627532287534627
 72
     1
 10
7.322152493420163
 20
6.627532287534627
 11
7.294172118503992
 21
6.627532287534627
 97
        0
 75
     2
 76
     1
 98
        0
  0
ENDBLK
  5
27F
330
27C
100
AcDbEntity
  8
0
100
AcDbBlockEnd
  0
BLOCK
  5
289
330
287
100
AcDbEntity
  8
0
100
AcDbBlockBegin
  2
block 71
 70
     0
 10
0.0
 20
0.0
 30
0.0
  3
block 71
  1

  0
POLYLINE
  5
28B
330
287
100
AcDbEntity
  8
3
370
     0
100
AcDb2dPolyline
 66
     1
 10
0.0
 20
0.0
 30
0.0
  0
VERTEX
  5
28C
330
28B
100
AcDbEntity
  8
3
370
     0
100
AcDbVertex
100
AcDb2dVertex
 10
7.294172118503992
 20
4.361121919324811
 30
0.0
  0
VERTEX
  5
28D
330
28B
100
AcDbEntity
  8
3
370
     0
100
AcDbVertex
100
AcDb2dVertex
 10
7.308162305962064
 20
4.2771807945763
 30
0.0
  0
VERTEX
  5
28E
330
28B
100
AcDbEntity
  8
3
370
     0
100
AcDbVertex
100
AcDb2dVertex
 10
7.322152493420163
 20
4.361121919324811
 30
0.0
  0
VERTEX
  5
28F
330
28B
100
AcDbEntity
  8
3
370
     0
100
AcDbVertex
100
AcDb2dVertex
 10
7.294172118503992
 20
4.361121919324811
 30
0.0
  0
SEQEND
  5
291
330
28B
100
AcDbEntity
  8
3
370
     0
  0
HATCH
  5
290
330
287
100
AcDbEntity
  8
3
 62
     3
420
    65280
100
AcDbHatch
 10
0.0
 20
0.0
 30
0.0
210
0.0
220
0.0
230
1.0
  2
SOLID
 70
     1
 71
     0
 91
        1
 92
        1
 93
        3
 72
     1
 10
7.294172118503992
 20
4.361121919324811
 11
7.308162305962064
 21
4.2771807945763
 72
     1
 10
7.308162305962064
 20
4.2771807945763
 11
7.322152493420163
 21
4.361121919324811
 72
     1
 10
7.322152493420163
 20
4.361121919324811
 11
7.294172118503992
 21
4.361121919324811
 97
        0
 75
     2
 76
     1
 98
        0
  0
ENDBLK
  5
28A
330
287
100
AcDbEntity
  8
0
100
AcDbBlockEnd
  0
BLOCK
  5
294
330
292
100
AcDbEntity
  8
0
100
AcDbBlockBegin
  2
block 72
 70
     0
 10
0.0
 20
0.0
 30
0.0
  3
block 72
  1

  0
MTEXT
  5
296
330
292
100
AcDbEntity
  8
3
 62
     3
420
    65280
100
AcDbMText
 10
7.27578502231174
 20
4.995537651909722
 30
0.0
 40
0.1007293512026469
 41
0.0
 46
0.0
 71
     7
 72
     1
  1
\fMyriad Pro|b0|i0|c0|p34;\W1;290 [11 3/8]
 11
6.123233995736766E-17
 21
1.0
 31
0.0
 73
     1
 44
1.0
  0
ENDBLK
  5
295
330
292
100
AcDbEntity
  8
0
100
AcDbBlockEnd
  0
BLOCK
  5
299
330
297
100
AcDbEntity
  8
0
100
AcDbBlockBegin
  2
block 73
 70
     0
 10
0.0
 20
0.0
 30
0.0
  3
block 73
  1

  0
POLYLINE
  5
29B
330
297
100
AcDbEntity
  8
3
 62
     3
420
    65280
370
    20
100
AcDb2dPolyline
 66
     1
 10
0.0
 20
0.0
 30
0.0
  0
VERTEX
  5
29C
330
29B
100
AcDbEntity
  8
3
 62
     3
420
    65280
370
    20
100
AcDbVertex
100
AcDb2dVertex
 10
3.98203143702776
 20
6.795414537031648
 30
0.0
  0
VERTEX
  5
29D
330
29B
100
AcDbEntity
  8
3
 62
     3
420
    65280
370
    20
100
AcDbVertex
100
AcDb2dVertex
 10
7.704369172308689
 20
6.795414537031648
 30
0.0
  0
SEQEND
  5
29E
330
29B
100
AcDbEntity
  8
3
 62
     3
420
    65280
370
    20
  0
ENDBLK
  5
29A
330
297
100
AcDbEntity
  8
0
100
AcDbBlockEnd
  0
BLOCK
  5
2A1
330
29F
100
AcDbEntity
  8
0
100
AcDbBlockBegin
  2
block 74
 70
     0
 10
0.0
 20
0.0
 30
0.0
  3
block 74
  1

  0
POLYLINE
  5
2A3
330
29F
100
AcDbEntity
  8
3
 62
     3
420
    65280
370
    20
100
AcDb2dPolyline
 66
     1
 10
0.0
 20
0.0
 30
0.0
  0
VERTEX
  5
2A4
330
2A3
100
AcDbEntity
  8
3
 62
     3
420
    65280
370
    20
100
AcDbVertex
100
AcDb2dVertex
 10
3.982031437027735
 20
4.19323966982779
 30
0.0
  0
VERTEX
  5
2A5
330
2A3
100
AcDbEntity
  8
3
 62
     3
420
    65280
370
    20
100
AcDbVertex
100
AcDb2dVertex
 10
7.704369172308689
 20
4.19323966982779
 30
0.0
  0
SEQEND
  5
2A6
330
2A3
100
AcDbEntity
  8
3
 62
     3
420
    65280
370
    20
  0
ENDBLK
  5
2A2
330
29F
100
AcDbEntity
  8
0
100
AcDbBlockEnd
  0
BLOCK
  5
2A9
330
2A7
100
AcDbEntity
  8
0
100
AcDbBlockBegin
  2
block 75
 70
     0
 10
0.0
 20
0.0
 30
0.0
  3
block 75
  1

  0
POLYLINE
  5
2AB
330
2A7
100
AcDbEntity
  8
3
 62
     3
420
    65280
370
    20
100
AcDb2dPolyline
 66
     1
 10
0.0
 20
0.0
 30
0.0
  0
VERTEX
  5
2AC
330
2AB
100
AcDbEntity
  8
3
 62
     3
420
    65280
370
    20
100
AcDbVertex
100
AcDb2dVertex
 10
7.693876531715128
 20
6.711473412283137
 30
0.0
  0
VERTEX
  5
2AD
330
2AB
100
AcDbEntity
  8
3
 62
     3
420
    65280
370
    20
100
AcDbVertex
100
AcDb2dVertex
 10
7.693876531715128
 20
4.2771807945763
 30
0.0
  0
SEQEND
  5
2AE
330
2AB
100
AcDbEntity
  8
3
 62
     3
420
    65280
370
    20
  0
ENDBLK
  5
2AA
330
2A7
100
AcDbEntity
  8
0
100
AcDbBlockEnd
  0
BLOCK
  5
2B1
330
2AF
100
AcDbEntity
  8
0
100
AcDbBlockBegin
  2
block 76
 70
     0
 10
0.0
 20
0.0
 30
0.0
  3
block 76
  1

  0
POLYLINE
  5
2B3
330
2AF
100
AcDbEntity
  8
3
370
     0
100
AcDb2dPolyline
 66
     1
 10
0.0
 20
0.0
 30
0.0
  0
VERTEX
  5
2B4
330
2B3
100
AcDbEntity
  8
3
370
     0
100
AcDbVertex
100
AcDb2dVertex
 10
7.679886344257056
 20
6.711473412283137
 30
0.0
  0
VERTEX
  5
2B5
330
2B3
100
AcDbEntity
  8
3
370
     0
100
AcDbVertex
100
AcDb2dVertex
 10
7.693876531715128
 20
6.795414537031648
 30
0.0
  0
VERTEX
  5
2B6
330
2B3
100
AcDbEntity
  8
3
370
     0
100
AcDbVertex
100
AcDb2dVertex
 10
7.707866719173226
 20
6.711473412283137
 30
0.0
  0
VERTEX
  5
2B7
330
2B3
100
AcDbEntity
  8
3
370
     0
100
AcDbVertex
100
AcDb2dVertex
 10
7.679886344257056
 20
6.711473412283137
 30
0.0
  0
SEQEND
  5
2B9
330
2B3
100
AcDbEntity
  8
3
370
     0
  0
HATCH
  5
2B8
330
2AF
100
AcDbEntity
  8
3
 62
     3
420
    65280
100
AcDbHatch
 10
0.0
 20
0.0
 30
0.0
210
0.0
220
0.0
230
1.0
  2
SOLID
 70
     1
 71
     0
 91
        1
 92
        1
 93
        3
 72
     1
 10
7.679886344257056
 20
6.711473412283137
 11
7.693876531715128
 21
6.795414537031648
 72
     1
 10
7.693876531715128
 20
6.795414537031648
 11
7.707866719173226
 21
6.711473412283137
 72
     1
 10
7.707866719173226
 20
6.711473412283137
 11
7.679886344257056
 21
6.711473412283137
 97
        0
 75
     2
 76
     1
 98
        0
  0
ENDBLK
  5
2B2
330
2AF
100
AcDbEntity
  8
0
100
AcDbBlockEnd
  0
BLOCK
  5
2BC
330
2BA
100
AcDbEntity
  8
0
100
AcDbBlockBegin
  2
block 77
 70
     0
 10
0.0
 20
0.0
 30
0.0
  3
block 77
  1

  0
POLYLINE
  5
2BE
330
2BA
100
AcDbEntity
  8
3
370
     0
100
AcDb2dPolyline
 66
     1
 10
0.0
 20
0.0
 30
0.0
  0
VERTEX
  5
2BF
330
2BE
100
AcDbEntity
  8
3
370
     0
100
AcDbVertex
100
AcDb2dVertex
 10
7.679886344257056
 20
4.2771807945763
 30
0.0
  0
VERTEX
  5
2C0
330
2BE
100
AcDbEntity
  8
3
370
     0
100
AcDbVertex
100
AcDb2dVertex
 10
7.693876531715128
 20
4.19323966982779
 30
0.0
  0
VERTEX
  5
2C1
330
2BE
100
AcDbEntity
  8
3
370
     0
100
AcDbVertex
100
AcDb2dVertex
 10
7.707866719173226
 20
4.2771807945763
 30
0.0
  0
VERTEX
  5
2C2
330
2BE
100
AcDbEntity
  8
3
370
     0
100
AcDbVertex
100
AcDb2dVertex
 10
7.679886344257056
 20
4.2771807945763
 30
0.0
  0
SEQEND
  5
2C4
330
2BE
100
AcDbEntity
  8
3
370
     0
  0
HATCH
  5
2C3
330
2BA
100
AcDbEntity
  8
3
 62
     3
420
    65280
100
AcDbHatch
 10
0.0
 20
0.0
 30
0.0
210
0.0
220
0.0
230
1.0
  2
SOLID
 70
     1
 71
     0
 91
        1
 92
        1
 93
        3
 72
     1
 10
7.679886344257056
 20
4.2771807945763
 11
7.693876531715128
 21
4.19323966982779
 72
     1
 10
7.693876531715128
 20
4.19323966982779
 11
7.707866719173226
 21
4.2771807945763
 72
     1
 10
7.707866719173226
 20
4.2771807945763
 11
7.679886344257056
 21
4.2771807945763
 97
        0
 75
     2
 76
     1
 98
        0
  0
ENDBLK
  5
2BD
330
2BA
100
AcDbEntity
  8
0
100
AcDbBlockEnd
  0
BLOCK
  5
2C7
330
2C5
100
AcDbEntity
  8
0
100
AcDbBlockBegin
  2
block 78
 70
     0
 10
0.0
 20
0.0
 30
0.0
  3
block 78
  1

  0
MTEXT
  5
2C9
330
2C5
100
AcDbEntity
  8
3
 62
     3
420
    65280
100
AcDbMText
 10
7.661499235365126
 20
4.995537651909722
 30
0.0
 40
0.1007293512026469
 41
0.0
 46
0.0
 71
     7
 72
     1
  1
\fMyriad Pro|b0|i0|c0|p34;\W1;310 [12 1/4]
 11
6.123233995736766E-17
 21
1.0
 31
0.0
 73
     1
 44
1.0
  0
ENDBLK
  5
2C8
330
2C5
100
AcDbEntity
  8
0
100
AcDbBlockEnd
  0
BLOCK
  5
2CC
330
2CA
100
AcDbEntity
  8
0
100
AcDbBlockBegin
  2
block 79
 70
     0
 10
0.0
 20
0.0
 30
0.0
  3
block 79
  1

  0
MTEXT
  5
2CE
330
2CA
100
AcDbEntity
  8
3
 62
     3
420
    65280
100
AcDbMText
 10
3.126006656222873
 20
3.463558620876736
 30
0.0
 40
0.125911691347758
 41
0.0
 46
0.0
 71
     7
 72
     1
  1
\fMyriad Pro|b0|i0|c0|p34;\W1;HU207008
 73
     1
 44
1.0
  0
ENDBLK
  5
2CD
330
2CA
100
AcDbEntity
  8
0
100
AcDbBlockEnd
  0
BLOCK
  5
2D1
330
2CF
100
AcDbEntity
  8
0
100
AcDbBlockBegin
  2
block 80
 70
     0
 10
0.0
 20
0.0
 30
0.0
  3
block 80
  1

  0
POLYLINE
  5
2D3
330
2CF
100
AcDbEntity
  8
3
370
     0
100
AcDb2dPolyline
 66
     1
 10
0.0
 20
0.0
 30
0.0
  0
VERTEX
  5
2D4
330
2D3
100
AcDbEntity
  8
3
370
     0
100
AcDbVertex
100
AcDb2dVertex
 10
5.4677893450764
 20
5.480336915971621
 30
0.0
  0
VERTEX
  5
2D5
330
2D3
100
AcDbEntity
  8
3
370
     0
100
AcDbVertex
100
AcDb2dVertex
 10
5.38384822032789
 20
5.494327103429719
 30
0.0
  0
VERTEX
  5
2D6
330
2D3
100
AcDbEntity
  8
3
370
     0
100
AcDbVertex
100
AcDb2dVertex
 10
5.4677893450764
 20
5.508317290887804
 30
0.0
  0
VERTEX
  5
2D7
330
2D3
100
AcDbEntity
  8
3
370
     0
100
AcDbVertex
100
AcDb2dVertex
 10
5.4677893450764
 20
5.480336915971621
 30
0.0
  0
SEQEND
  5
2D9
330
2D3
100
AcDbEntity
  8
3
370
     0
  0
HATCH
  5
2D8
330
2CF
100
AcDbEntity
  8
3
 62
     3
420
    65280
100
AcDbHatch
 10
0.0
 20
0.0
 30
0.0
210
0.0
220
0.0
230
1.0
  2
SOLID
 70
     1
 71
     0
 91
        1
 92
        1
 93
        3
 72
     1
 10
5.4677893450764
 20
5.480336915971621
 11
5.38384822032789
 21
5.494327103429719
 72
     1
 10
5.38384822032789
 20
5.494327103429719
 11
5.4677893450764
 21
5.508317290887804
 72
     1
 10
5.4677893450764
 20
5.508317290887804
 11
5.4677893450764
 21
5.480336915971621
 97
        0
 75
     2
 76
     1
 98
        0
  0
POLYLINE
  5
2DA
330
2CF
100
AcDbEntity
  8
3
 62
     3
420
    65280
370
    20
100
AcDb2dPolyline
 66
     1
 10
0.0
 20
0.0
 30
0.0
  0
VERTEX
  5
2DB
330
2DA
100
AcDbEntity
  8
3
 62
     3
420
    65280
370
    20
100
AcDbVertex
100
AcDb2dVertex
 10
5.4677893450764
 20
5.494327103429719
 30
0.0
  0
VERTEX
  5
2DC
330
2DA
100
AcDbEntity
  8
3
 62
     3
420
    65280
370
    20
100
AcDbVertex
100
AcDb2dVertex
 10
6.261223846026016
 20
5.494327103429719
 30
0.0
  0
SEQEND
  5
2DD
330
2DA
100
AcDbEntity
  8
3
 62
     3
420
    65280
370
    20
  0
ENDBLK
  5
2D2
330
2CF
100
AcDbEntity
  8
0
100
AcDbBlockEnd
  0
BLOCK
  5
2E0
330
2DE
100
AcDbEntity
  8
0
100
AcDbBlockBegin
  2
block 81
 70
     0
 10
0.0
 20
0.0
 30
0.0
  3
block 81
  1

  0
POLYLINE
  5
2E2
330
2DE
100
AcDbEntity
  8
3
370
     0
100
AcDb2dPolyline
 66
     1
 10
0.0
 20
0.0
 30
0.0
  0
VERTEX
  5
2E3
330
2E2
100
AcDbEntity
  8
3
370
     0
100
AcDbVertex
100
AcDb2dVertex
 10
2.361967729381465
 20
5.508317290887842
 30
0.0
  0
VERTEX
  5
2E4
330
2E2
100
AcDbEntity
  8
3
370
     0
100
AcDbVertex
100
AcDb2dVertex
 10
2.445908854129988
 20
5.494327103429744
 30
0.0
  0
VERTEX
  5
2E5
330
2E2
100
AcDbEntity
  8
3
370
     0
100
AcDbVertex
100
AcDb2dVertex
 10
2.361967729381465
 20
5.480336915971671
 30
0.0
  0
VERTEX
  5
2E6
330
2E2
100
AcDbEntity
  8
3
370
     0
100
AcDbVertex
100
AcDb2dVertex
 10
2.361967729381465
 20
5.508317290887842
 30
0.0
  0
SEQEND
  5
2E8
330
2E2
100
AcDbEntity
  8
3
370
     0
  0
HATCH
  5
2E7
330
2DE
100
AcDbEntity
  8
3
 62
     3
420
    65280
100
AcDbHatch
 10
0.0
 20
0.0
 30
0.0
210
0.0
220
0.0
230
1.0
  2
SOLID
 70
     1
 71
     0
 91
        1
 92
        1
 93
        3
 72
     1
 10
2.361967729381465
 20
5.508317290887842
 11
2.445908854129988
 21
5.494327103429744
 72
     1
 10
2.445908854129988
 20
5.494327103429744
 11
2.361967729381465
 21
5.480336915971671
 72
     1
 10
2.361967729381465
 20
5.480336915971671
 11
2.361967729381465
 21
5.508317290887842
 97
        0
 75
     2
 76
     1
 98
        0
  0
POLYLINE
  5
2E9
330
2DE
100
AcDbEntity
  8
3
 62
     3
420
    65280
370
    20
100
AcDb2dPolyline
 66
     1
 10
0.0
 20
0.0
 30
0.0
  0
VERTEX
  5
2EA
330
2E9
100
AcDbEntity
  8
3
 62
     3
420
    65280
370
    20
100
AcDbVertex
100
AcDb2dVertex
 10
2.361967729381465
 20
5.494327103429744
 30
0.0
  0
VERTEX
  5
2EB
330
2E9
100
AcDbEntity
  8
3
 62
     3
420
    65280
370
    20
100
AcDbVertex
100
AcDb2dVertex
 10
1.643674264760509
 20
5.494327103429744
 30
0.0
  0
SEQEND
  5
2EC
330
2E9
100
AcDbEntity
  8
3
 62
     3
420
    65280
370
    20
  0
ENDBLK
  5
2E1
330
2DE
100
AcDbEntity
  8
0
100
AcDbBlockEnd
  0
BLOCK
  5
2EF
330
2ED
100
AcDbEntity
  8
0
100
AcDbBlockBegin
  2
block 82
 70
     0
 10
0.0
 20
0.0
 30
0.0
  3
block 82
  1

  0
MTEXT
  5
2F1
330
2ED
100
AcDbEntity
  8
3
 62
     3
420
    65280
100
AcDbMText
 10
5.584410349527994
 20
5.583581288655599
 30
0.0
 40
0.1091234645843506
 41
0.0
 46
0.0
 71
     7
 72
     1
  1
\fMyriad Pro|b0|i0|c0|p34;\W1;Cut-Out
 73
     1
 44
1.0
  0
ENDBLK
  5
2F0
330
2ED
100
AcDbEntity
  8
0
100
AcDbBlockEnd
  0
BLOCK
  5
2F5
330
2F3
100
AcDbEntity
  8
0
100
AcDbBlockBegin
  2
block 83
 70
     0
 10
0.0
 20
0.0
 30
0.0
  3
block 83
  1

  0
POLYLINE
  5
2F7
330
2F3
100
AcDbEntity
  8
Defpoints
370
     0
100
AcDb2dPolyline
 66
     1
 10
0.0
 20
0.0
 30
0.0
  0
VERTEX
  5
2F8
330
2F7
100
AcDbEntity
  8
Defpoints
370
     0
100
AcDbVertex
100
AcDb2dVertex
 10
6.40909107770613
 20
5.863450547789057
 30
0.0
  0
VERTEX
  5
2F9
330
2F7
100
AcDbEntity
  8
Defpoints
370
     0
100
AcDbVertex
100
AcDb2dVertex
 10
6.40909107770613
 20
5.863450547789057
 30
0.0
  0
SEQEND
  5
2FA
330
2F7
100
AcDbEntity
  8
Defpoints
370
     0
  0
ENDBLK
  5
2F6
330
2F3
100
AcDbEntity
  8
0
100
AcDbBlockEnd
  0
BLOCK
  5
2FD
330
2FB
100
AcDbEntity
  8
0
100
AcDbBlockBegin
  2
block 84
 70
     0
 10
0.0
 20
0.0
 30
0.0
  3
block 84
  1

  0
POLYLINE
  5
2FF
330
2FB
100
AcDbEntity
  8
Defpoints
370
     0
100
AcDb2dPolyline
 66
     1
 10
0.0
 20
0.0
 30
0.0
  0
VERTEX
  5
300
330
2FF
100
AcDbEntity
  8
Defpoints
370
     0
100
AcDbVertex
100
AcDb2dVertex
 10
6.379711684044145
 20
5.961802887578642
 30
0.0
  0
VERTEX
  5
301
330
2FF
100
AcDbEntity
  8
Defpoints
370
     0
100
AcDbVertex
100
AcDb2dVertex
 10
6.379711684044145
 20
5.961802887578642
 30
0.0
  0
SEQEND
  5
302
330
2FF
100
AcDbEntity
  8
Defpoints
370
     0
  0
ENDBLK
  5
2FE
330
2FB
100
AcDbEntity
  8
0
100
AcDbBlockEnd
  0
BLOCK
  5
305
330
303
100
AcDbEntity
  8
0
100
AcDbBlockBegin
  2
block 85
 70
     0
 10
0.0
 20
0.0
 30
0.0
  3
block 85
  1

  0
POLYLINE
  5
307
330
303
100
AcDbEntity
  8
Defpoints
370
     0
100
AcDb2dPolyline
 66
     1
 10
0.0
 20
0.0
 30
0.0
  0
VERTEX
  5
308
330
307
100
AcDbEntity
  8
Defpoints
370
     0
100
AcDbVertex
100
AcDb2dVertex
 10
6.379711684044145
 20
6.208699710073144
 30
0.0
  0
VERTEX
  5
309
330
307
100
AcDbEntity
  8
Defpoints
370
     0
100
AcDbVertex
100
AcDb2dVertex
 10
6.379711684044145
 20
6.208699710073144
 30
0.0
  0
SEQEND
  5
30A
330
307
100
AcDbEntity
  8
Defpoints
370
     0
  0
ENDBLK
  5
306
330
303
100
AcDbEntity
  8
0
100
AcDbBlockEnd
  0
BLOCK
  5
30D
330
30B
100
AcDbEntity
  8
0
100
AcDbBlockBegin
  2
block 86
 70
     0
 10
0.0
 20
0.0
 30
0.0
  3
block 86
  1

  0
POLYLINE
  5
30F
330
30B
100
AcDbEntity
  8
Defpoints
370
     0
100
AcDb2dPolyline
 66
     1
 10
0.0
 20
0.0
 30
0.0
  0
VERTEX
  5
310
330
30F
100
AcDbEntity
  8
Defpoints
370
     0
100
AcDbVertex
100
AcDb2dVertex
 10
1.482096000397506
 20
5.834144647102764
 30
0.0
  0
VERTEX
  5
311
330
30F
100
AcDbEntity
  8
Defpoints
370
     0
100
AcDbVertex
100
AcDb2dVertex
 10
1.482096000397506
 20
5.834144647102764
 30
0.0
  0
SEQEND
  5
312
330
30F
100
AcDbEntity
  8
Defpoints
370
     0
  0
ENDBLK
  5
30E
330
30B
100
AcDbEntity
  8
0
100
AcDbBlockEnd
  0
BLOCK
  5
315
330
313
100
AcDbEntity
  8
0
100
AcDbBlockBegin
  2
block 87
 70
     0
 10
0.0
 20
0.0
 30
0.0
  3
block 87
  1

  0
POLYLINE
  5
317
330
313
100
AcDbEntity
  8
Defpoints
370
     0
100
AcDb2dPolyline
 66
     1
 10
0.0
 20
0.0
 30
0.0
  0
VERTEX
  5
318
330
317
100
AcDbEntity
  8
Defpoints
370
     0
100
AcDbVertex
100
AcDb2dVertex
 10
1.452756870173478
 20
5.897241714497972
 30
0.0
  0
VERTEX
  5
319
330
317
100
AcDbEntity
  8
Defpoints
370
     0
100
AcDbVertex
100
AcDb2dVertex
 10
1.452756870173478
 20
5.897241714497972
 30
0.0
  0
SEQEND
  5
31A
330
317
100
AcDbEntity
  8
Defpoints
370
     0
  0
ENDBLK
  5
316
330
313
100
AcDbEntity
  8
0
100
AcDbBlockEnd
  0
BLOCK
  5
31D
330
31B
100
AcDbEntity
  8
0
100
AcDbBlockBegin
  2
block 88
 70
     0
 10
0.0
 20
0.0
 30
0.0
  3
block 88
  1

  0
POLYLINE
  5
31F
330
31B
100
AcDbEntity
  8
Defpoints
370
     0
100
AcDb2dPolyline
 66
     1
 10
0.0
 20
0.0
 30
0.0
  0
VERTEX
  5
320
330
31F
100
AcDbEntity
  8
Defpoints
370
     0
100
AcDbVertex
100
AcDb2dVertex
 10
1.452756870173478
 20
6.135112952501029
 30
0.0
  0
VERTEX
  5
321
330
31F
100
AcDbEntity
  8
Defpoints
370
     0
100
AcDbVertex
100
AcDb2dVertex
 10
1.452756870173478
 20
6.135112952501029
 30
0.0
  0
SEQEND
  5
322
330
31F
100
AcDbEntity
  8
Defpoints
370
     0
  0
ENDBLK
  5
31E
330
31B
100
AcDbEntity
  8
0
100
AcDbBlockEnd
  0
BLOCK
  5
325
330
323
100
AcDbEntity
  8
0
100
AcDbBlockBegin
  2
block 89
 70
     0
 10
0.0
 20
0.0
 30
0.0
  3
block 89
  1

  0
POLYLINE
  5
327
330
323
100
AcDbEntity
  8
Defpoints
370
     0
100
AcDb2dPolyline
 66
     1
 10
0.0
 20
0.0
 30
0.0
  0
VERTEX
  5
328
330
327
100
AcDbEntity
  8
Defpoints
370
     0
100
AcDbVertex
100
AcDb2dVertex
 10
2.529849978878499
 20
5.494327103429744
 30
0.0
  0
VERTEX
  5
329
330
327
100
AcDbEntity
  8
Defpoints
370
     0
100
AcDbVertex
100
AcDb2dVertex
 10
2.529849978878499
 20
5.494327103429744
 30
0.0
  0
SEQEND
  5
32A
330
327
100
AcDbEntity
  8
Defpoints
370
     0
  0
ENDBLK
  5
326
330
323
100
AcDbEntity
  8
0
100
AcDbBlockEnd
  0
BLOCK
  5
32D
330
32B
100
AcDbEntity
  8
0
100
AcDbBlockBegin
  2
block 90
 70
     0
 10
0.0
 20
0.0
 30
0.0
  3
block 90
  1

  0
POLYLINE
  5
32F
330
32B
100
AcDbEntity
  8
Defpoints
370
     0
100
AcDb2dPolyline
 66
     1
 10
0.0
 20
0.0
 30
0.0
  0
VERTEX
  5
330
330
32F
100
AcDbEntity
  8
Defpoints
370
     0
100
AcDbVertex
100
AcDb2dVertex
 10
5.38384822032789
 20
5.494327103429719
 30
0.0
  0
VERTEX
  5
331
330
32F
100
AcDbEntity
  8
Defpoints
370
     0
100
AcDbVertex
100
AcDb2dVertex
 10
5.38384822032789
 20
5.494327103429719
 30
0.0
  0
SEQEND
  5
332
330
32F
100
AcDbEntity
  8
Defpoints
370
     0
  0
ENDBLK
  5
32E
330
32B
100
AcDbEntity
  8
0
100
AcDbBlockEnd
  0
BLOCK
  5
335
330
333
100
AcDbEntity
  8
0
100
AcDbBlockBegin
  2
block 91
 70
     0
 10
0.0
 20
0.0
 30
0.0
  3
block 91
  1

  0
POLYLINE
  5
337
330
333
100
AcDbEntity
  8
Defpoints
370
     0
100
AcDb2dPolyline
 66
     1
 10
0.0
 20
0.0
 30
0.0
  0
VERTEX
  5
338
330
337
100
AcDbEntity
  8
Defpoints
370
     0
100
AcDbVertex
100
AcDb2dVertex
 10
5.38384822032789
 20
6.996498755495988
 30
0.0
  0
VERTEX
  5
339
330
337
100
AcDbEntity
  8
Defpoints
370
     0
100
AcDbVertex
100
AcDb2dVertex
 10
5.38384822032789
 20
6.996498755495988
 30
0.0
  0
SEQEND
  5
33A
330
337
100
AcDbEntity
  8
Defpoints
370
     0
  0
ENDBLK
  5
336
330
333
100
AcDbEntity
  8
0
100
AcDbBlockEnd
  0
BLOCK
  5
33D
330
33B
100
AcDbEntity
  8
0
100
AcDbBlockBegin
  2
block 92
 70
     0
 10
0.0
 20
0.0
 30
0.0
  3
block 92
  1

  0
POLYLINE
  5
33F
330
33B
100
AcDbEntity
  8
Defpoints
370
     0
100
AcDb2dPolyline
 66
     1
 10
0.0
 20
0.0
 30
0.0
  0
VERTEX
  5
340
330
33F
100
AcDbEntity
  8
Defpoints
370
     0
100
AcDbVertex
100
AcDb2dVertex
 10
2.445908854129988
 20
5.494327103429744
 30
0.0
  0
VERTEX
  5
341
330
33F
100
AcDbEntity
  8
Defpoints
370
     0
100
AcDbVertex
100
AcDb2dVertex
 10
2.445908854129988
 20
5.494327103429744
 30
0.0
  0
SEQEND
  5
342
330
33F
100
AcDbEntity
  8
Defpoints
370
     0
  0
ENDBLK
  5
33E
330
33B
100
AcDbEntity
  8
0
100
AcDbBlockEnd
  0
BLOCK
  5
345
330
343
100
AcDbEntity
  8
0
100
AcDbBlockBegin
  2
block 93
 70
     0
 10
0.0
 20
0.0
 30
0.0
  3
block 93
  1

  0
POLYLINE
  5
347
330
343
100
AcDbEntity
  8
Defpoints
370
     0
100
AcDb2dPolyline
 66
     1
 10
0.0
 20
0.0
 30
0.0
  0
VERTEX
  5
348
330
347
100
AcDbEntity
  8
Defpoints
370
     0
100
AcDbVertex
100
AcDb2dVertex
 10
5.4677893450764
 20
5.494327103429719
 30
0.0
  0
VERTEX
  5
349
330
347
100
AcDbEntity
  8
Defpoints
370
     0
100
AcDbVertex
100
AcDb2dVertex
 10
5.4677893450764
 20
5.494327103429719
 30
0.0
  0
SEQEND
  5
34A
330
347
100
AcDbEntity
  8
Defpoints
370
     0
  0
ENDBLK
  5
346
330
343
100
AcDbEntity
  8
0
100
AcDbBlockEnd
  0
BLOCK
  5
34D
330
34B
100
AcDbEntity
  8
0
100
AcDbBlockBegin
  2
block 94
 70
     0
 10
0.0
 20
0.0
 30
0.0
  3
block 94
  1

  0
POLYLINE
  5
34F
330
34B
100
AcDbEntity
  8
Defpoints
370
     0
100
AcDb2dPolyline
 66
     1
 10
0.0
 20
0.0
 30
0.0
  0
VERTEX
  5
350
330
34F
100
AcDbEntity
  8
Defpoints
370
     0
100
AcDbVertex
100
AcDb2dVertex
 10
5.4677893450764
 20
7.273892704999828
 30
0.0
  0
VERTEX
  5
351
330
34F
100
AcDbEntity
  8
Defpoints
370
     0
100
AcDbVertex
100
AcDb2dVertex
 10
5.4677893450764
 20
7.273892704999828
 30
0.0
  0
SEQEND
  5
352
330
34F
100
AcDbEntity
  8
Defpoints
370
     0
  0
ENDBLK
  5
34E
330
34B
100
AcDbEntity
  8
0
100
AcDbBlockEnd
  0
BLOCK
  5
355
330
353
100
AcDbEntity
  8
0
100
AcDbBlockBegin
  2
block 95
 70
     0
 10
0.0
 20
0.0
 30
0.0
  3
block 95
  1

  0
POLYLINE
  5
357
330
353
100
AcDbEntity
  8
Defpoints
370
     0
100
AcDb2dPolyline
 66
     1
 10
0.0
 20
0.0
 30
0.0
  0
VERTEX
  5
358
330
357
100
AcDbEntity
  8
Defpoints
370
     0
100
AcDbVertex
100
AcDb2dVertex
 10
3.956849099603207
 20
6.711473412283137
 30
0.0
  0
VERTEX
  5
359
330
357
100
AcDbEntity
  8
Defpoints
370
     0
100
AcDbVertex
100
AcDb2dVertex
 10
3.956849099603207
 20
6.711473412283137
 30
0.0
  0
SEQEND
  5
35A
330
357
100
AcDbEntity
  8
Defpoints
370
     0
  0
ENDBLK
  5
356
330
353
100
AcDbEntity
  8
0
100
AcDbBlockEnd
  0
BLOCK
  5
35D
330
35B
100
AcDbEntity
  8
0
100
AcDbBlockBegin
  2
block 96
 70
     0
 10
0.0
 20
0.0
 30
0.0
  3
block 96
  1

  0
POLYLINE
  5
35F
330
35B
100
AcDbEntity
  8
Defpoints
370
     0
100
AcDb2dPolyline
 66
     1
 10
0.0
 20
0.0
 30
0.0
  0
VERTEX
  5
360
330
35F
100
AcDbEntity
  8
Defpoints
370
     0
100
AcDbVertex
100
AcDb2dVertex
 10
3.956849099603182
 20
4.2771807945763
 30
0.0
  0
VERTEX
  5
361
330
35F
100
AcDbEntity
  8
Defpoints
370
     0
100
AcDbVertex
100
AcDb2dVertex
 10
3.956849099603182
 20
4.2771807945763
 30
0.0
  0
SEQEND
  5
362
330
35F
100
AcDbEntity
  8
Defpoints
370
     0
  0
ENDBLK
  5
35E
330
35B
100
AcDbEntity
  8
0
100
AcDbBlockEnd
  0
BLOCK
  5
365
330
363
100
AcDbEntity
  8
0
100
AcDbBlockBegin
  2
block 97
 70
     0
 10
0.0
 20
0.0
 30
0.0
  3
block 97
  1

  0
POLYLINE
  5
367
330
363
100
AcDbEntity
  8
Defpoints
370
     0
100
AcDb2dPolyline
 66
     1
 10
0.0
 20
0.0
 30
0.0
  0
VERTEX
  5
368
330
367
100
AcDbEntity
  8
Defpoints
370
     0
100
AcDbVertex
100
AcDb2dVertex
 10
7.308162305962064
 20
4.2771807945763
 30
0.0
  0
VERTEX
  5
369
330
367
100
AcDbEntity
  8
Defpoints
370
     0
100
AcDbVertex
100
AcDb2dVertex
 10
7.308162305962064
 20
4.2771807945763
 30
0.0
  0
SEQEND
  5
36A
330
367
100
AcDbEntity
  8
Defpoints
370
     0
  0
ENDBLK
  5
366
330
363
100
AcDbEntity
  8
0
100
AcDbBlockEnd
  0
BLOCK
  5
36D
330
36B
100
AcDbEntity
  8
0
100
AcDbBlockBegin
  2
block 98
 70
     0
 10
0.0
 20
0.0
 30
0.0
  3
block 98
  1

  0
POLYLINE
  5
36F
330
36B
100
AcDbEntity
  8
Defpoints
370
     0
100
AcDb2dPolyline
 66
     1
 10
0.0
 20
0.0
 30
0.0
  0
VERTEX
  5
370
330
36F
100
AcDbEntity
  8
Defpoints
370
     0
100
AcDbVertex
100
AcDb2dVertex
 10
3.956849099603207
 20
6.795414537031648
 30
0.0
  0
VERTEX
  5
371
330
36F
100
AcDbEntity
  8
Defpoints
370
     0
100
AcDbVertex
100
AcDb2dVertex
 10
3.956849099603207
 20
6.795414537031648
 30
0.0
  0
SEQEND
  5
372
330
36F
100
AcDbEntity
  8
Defpoints
370
     0
  0
ENDBLK
  5
36E
330
36B
100
AcDbEntity
  8
0
100
AcDbBlockEnd
  0
BLOCK
  5
375
330
373
100
AcDbEntity
  8
0
100
AcDbBlockBegin
  2
block 99
 70
     0
 10
0.0
 20
0.0
 30
0.0
  3
block 99
  1

  0
POLYLINE
  5
377
330
373
100
AcDbEntity
  8
Defpoints
370
     0
100
AcDb2dPolyline
 66
     1
 10
0.0
 20
0.0
 30
0.0
  0
VERTEX
  5
378
330
377
100
AcDbEntity
  8
Defpoints
370
     0
100
AcDbVertex
100
AcDb2dVertex
 10
3.956849099603182
 20
4.19323966982779
 30
0.0
  0
VERTEX
  5
379
330
377
100
AcDbEntity
  8
Defpoints
370
     0
100
AcDbVertex
100
AcDb2dVertex
 10
3.956849099603182
 20
4.19323966982779
 30
0.0
  0
SEQEND
  5
37A
330
377
100
AcDbEntity
  8
Defpoints
370
     0
  0
ENDBLK
  5
376
330
373
100
AcDbEntity
  8
0
100
AcDbBlockEnd
  0
BLOCK
  5
37D
330
37B
100
AcDbEntity
  8
0
100
AcDbBlockBegin
  2
block 100
 70
     0
 10
0.0
 20
0.0
 30
0.0
  3
block 100
  1

  0
POLYLINE
  5
37F
330
37B
100
AcDbEntity
  8
Defpoints
370
     0
100
AcDb2dPolyline
 66
     1
 10
0.0
 20
0.0
 30
0.0
  0
VERTEX
  5
380
330
37F
100
AcDbEntity
  8
Defpoints
370
     0
100
AcDbVertex
100
AcDb2dVertex
 10
7.693876531715128
 20
4.19323966982779
 30
0.0
  0
VERTEX
  5
381
330
37F
100
AcDbEntity
  8
Defpoints
370
     0
100
AcDbVertex
100
AcDb2dVertex
 10
7.693876531715128
 20
4.19323966982779
 30
0.0
  0
SEQEND
  5
382
330
37F
100
AcDbEntity
  8
Defpoints
370
     0
  0
ENDBLK
  5
37E
330
37B
100
AcDbEntity
  8
0
100
AcDbBlockEnd
  0
ENDSEC
  0
SECTION
  2
ENTITIES
  0
INSERT
  5
42
330
1F
100
AcDbEntity
  8
1
100
AcDbBlockReference
  2
block 2
 10
0.0
 20
0.0
 30
0.0
  0
INSERT
  5
48
330
1F
100
AcDbEntity
  8
1
100
AcDbBlockReference
  2
block 3
 10
0.0
 20
0.0
 30
0.0
  0
INSERT
  5
4E
330
1F
100
AcDbEntity
  8
1
100
AcDbBlockReference
  2
block 4
 10
0.0
 20
0.0
 30
0.0
  0
INSERT
  5
54
330
1F
100
AcDbEntity
  8
1
100
AcDbBlockReference
  2
block 5
 10
0.0
 20
0.0
 30
0.0
  0
INSERT
  5
5A
330
1F
100
AcDbEntity
  8
1
100
AcDbBlockReference
  2
block 6
 10
0.0
 20
0.0
 30
0.0
  0
INSERT
  5
60
330
1F
100
AcDbEntity
  8
1
100
AcDbBlockReference
  2
block 7
 10
0.0
 20
0.0
 30
0.0
  0
INSERT
  5
66
330
1F
100
AcDbEntity
  8
1
100
AcDbBlockReference
  2
block 8
 10
0.0
 20
0.0
 30
0.0
  0
INSERT
  5
6C
330
1F
100
AcDbEntity
  8
1
100
AcDbBlockReference
  2
block 9
 10
0.0
 20
0.0
 30
0.0
  0
INSERT
  5
73
330
1F
100
AcDbEntity
  8
2
100
AcDbBlockReference
  2
block 10
 10
0.0
 20
0.0
 30
0.0
  0
INSERT
  5
78
330
1F
100
AcDbEntity
  8
2
100
AcDbBlockReference
  2
block 11
 10
0.0
 20
0.0
 30
0.0
  0
INSERT
  5
7D
330
1F
100
AcDbEntity
  8
2
100
AcDbBlockReference
  2
block 12
 10
0.0
 20
0.0
 30
0.0
  0
INSERT
  5
82
330
1F
100
AcDbEntity
  8
2
100
AcDbBlockReference
  2
block 13
 10
0.0
 20
0.0
 30
0.0
  0
INSERT
  5
87
330
1F
100
AcDbEntity
  8
2
100
AcDbBlockReference
  2
block 14
 10
0.0
 20
0.0
 30
0.0
  0
INSERT
  5
8C
330
1F
100
AcDbEntity
  8
2
100
AcDbBlockReference
  2
block 15
 10
0.0
 20
0.0
 30
0.0
  0
INSERT
  5
91
330
1F
100
AcDbEntity
  8
2
100
AcDbBlockReference
  2
block 16
 10
0.0
 20
0.0
 30
0.0
  0
INSERT
  5
96
330
1F
100
AcDbEntity
  8
2
100
AcDbBlockReference
  2
block 17
 10
0.0
 20
0.0
 30
0.0
  0
INSERT
  5
9B
330
1F
100
AcDbEntity
  8
2
100
AcDbBlockReference
  2
block 18
 10
0.0
 20
0.0
 30
0.0
  0
INSERT
  5
D4
330
1F
100
AcDbEntity
  8
2
100
AcDbBlockReference
  2
block 19
 10
0.0
 20
0.0
 30
0.0
  0
INSERT
  5
DC
330
1F
100
AcDbEntity
  8
2
100
AcDbBlockReference
  2
block 20
 10
0.0
 20
0.0
 30
0.0
  0
INSERT
  5
E1
330
1F
100
AcDbEntity
  8
2
100
AcDbBlockReference
  2
block 21
 10
0.0
 20
0.0
 30
0.0
  0
INSERT
  5
E6
330
1F
100
AcDbEntity
  8
2
100
AcDbBlockReference
  2
block 22
 10
0.0
 20
0.0
 30
0.0
  0
INSERT
  5
EE
330
1F
100
AcDbEntity
  8
2
100
AcDbBlockReference
  2
block 23
 10
0.0
 20
0.0
 30
0.0
  0
INSERT
  5
F3
330
1F
100
AcDbEntity
  8
2
100
AcDbBlockReference
  2
block 24
 10
0.0
 20
0.0
 30
0.0
  0
INSERT
  5
F8
330
1F
100
AcDbEntity
  8
2
100
AcDbBlockReference
  2
block 25
 10
0.0
 20
0.0
 30
0.0
  0
INSERT
  5
100
330
1F
100
AcDbEntity
  8
2
100
AcDbBlockReference
  2
block 26
 10
0.0
 20
0.0
 30
0.0
  0
INSERT
  5
108
330
1F
100
AcDbEntity
  8
2
100
AcDbBlockReference
  2
block 27
 10
0.0
 20
0.0
 30
0.0
  0
INSERT
  5
10D
330
1F
100
AcDbEntity
  8
2
100
AcDbBlockReference
  2
block 28
 10
0.0
 20
0.0
 30
0.0
  0
INSERT
  5
112
330
1F
100
AcDbEntity
  8
2
100
AcDbBlockReference
  2
block 29
 10
0.0
 20
0.0
 30
0.0
  0
INSERT
  5
13F
330
1F
100
AcDbEntity
  8
2
100
AcDbBlockReference
  2
block 30
 10
0.0
 20
0.0
 30
0.0
  0
INSERT
  5
147
330
1F
100
AcDbEntity
  8
2
100
AcDbBlockReference
  2
block 31
 10
0.0
 20
0.0
 30
0.0
  0
INSERT
  5
14F
330
1F
100
AcDbEntity
  8
2
100
AcDbBlockReference
  2
block 32
 10
0.0
 20
0.0
 30
0.0
  0
INSERT
  5
154
330
1F
100
AcDbEntity
  8
2
100
AcDbBlockReference
  2
block 33
 10
0.0
 20
0.0
 30
0.0
  0
INSERT
  5
15C
330
1F
100
AcDbEntity
  8
2
100
AcDbBlockReference
  2
block 34
 10
0.0
 20
0.0
 30
0.0
  0
INSERT
  5
161
330
1F
100
AcDbEntity
  8
2
100
AcDbBlockReference
  2
block 35
 10
0.0
 20
0.0
 30
0.0
  0
INSERT
  5
166
330
1F
100
AcDbEntity
  8
2
100
AcDbBlockReference
  2
block 36
 10
0.0
 20
0.0
 30
0.0
  0
INSERT
  5
16E
330
1F
100
AcDbEntity
  8
2
100
AcDbBlockReference
  2
block 37
 10
0.0
 20
0.0
 30
0.0
  0
INSERT
  5
173
330
1F
100
AcDbEntity
  8
2
100
AcDbBlockReference
  2
block 38
 10
0.0
 20
0.0
 30
0.0
  0
INSERT
  5
179
330
1F
100
AcDbEntity
  8
3
100
AcDbBlockReference
  2
block 39
 10
0.0
 20
0.0
 30
0.0
  0
INSERT
  5
181
330
1F
100
AcDbEntity
  8
3
100
AcDbBlockReference
  2
block 40
 10
0.0
 20
0.0
 30
0.0
  0
INSERT
  5
189
330
1F
100
AcDbEntity
  8
3
100
AcDbBlockReference
  2
block 41
 10
0.0
 20
0.0
 30
0.0
  0
INSERT
  5
191
330
1F
100
AcDbEntity
  8
3
100
AcDbBlockReference
  2
block 42
 10
0.0
 20
0.0
 30
0.0
  0
INSERT
  5
199
330
1F
100
AcDbEntity
  8
3
100
AcDbBlockReference
  2
block 43
 10
0.0
 20
0.0
 30
0.0
  0
INSERT
  5
1A1
330
1F
100
AcDbEntity
  8
3
100
AcDbBlockReference
  2
block 44
 10
0.0
 20
0.0
 30
0.0
  0
INSERT
  5
1AC
330
1F
100
AcDbEntity
  8
3
100
AcDbBlockReference
  2
block 45
 10
0.0
 20
0.0
 30
0.0
  0
INSERT
  5
1B7
330
1F
100
AcDbEntity
  8
3
100
AcDbBlockReference
  2
block 46
 10
0.0
 20
0.0
 30
0.0
  0
INSERT
  5
1BC
330
1F
100
AcDbEntity
  8
3
100
AcDbBlockReference
  2
block 47
 10
0.0
 20
0.0
 30
0.0
  0
INSERT
  5
1C4
330
1F
100
AcDbEntity
  8
3
100
AcDbBlockReference
  2
block 48
 10
0.0
 20
0.0
 30
0.0
  0
INSERT
  5
1CC
330
1F
100
AcDbEntity
  8
3
100
AcDbBlockReference
  2
block 49
 10
0.0
 20
0.0
 30
0.0
  0
INSERT
  5
1D4
330
1F
100
AcDbEntity
  8
3
100
AcDbBlockReference
  2
block 50
 10
0.0
 20
0.0
 30
0.0
  0
INSERT
  5
1DC
330
1F
100
AcDbEntity
  8
3
100
AcDbBlockReference
  2
block 51
 10
0.0
 20
0.0
 30
0.0
  0
INSERT
  5
1E4
330
1F
100
AcDbEntity
  8
3
100
AcDbBlockReference
  2
block 52
 10
0.0
 20
0.0
 30
0.0
  0
INSERT
  5
1EF
330
1F
100
AcDbEntity
  8
3
100
AcDbBlockReference
  2
block 53
 10
0.0
 20
0.0
 30
0.0
  0
INSERT
  5
1FA
330
1F
100
AcDbEntity
  8
3
100
AcDbBlockReference
  2
block 54
 10
0.0
 20
0.0
 30
0.0
  0
INSERT
  5
1FF
330
1F
100
AcDbEntity
  8
3
100
AcDbBlockReference
  2
block 55
 10
0.0
 20
0.0
 30
0.0
  0
INSERT
  5
207
330
1F
100
AcDbEntity
  8
3
100
AcDbBlockReference
  2
block 56
 10
0.0
 20
0.0
 30
0.0
  0
INSERT
  5
20F
330
1F
100
AcDbEntity
  8
3
100
AcDbBlockReference
  2
block 57
 10
0.0
 20
0.0
 30
0.0
  0
INSERT
  5
217
330
1F
100
AcDbEntity
  8
3
100
AcDbBlockReference
  2
block 58
 10
0.0
 20
0.0
 30
0.0
  0
INSERT
  5
222
330
1F
100
AcDbEntity
  8
3
100
AcDbBlockReference
  2
block 59
 10
0.0
 20
0.0
 30
0.0
  0
INSERT
  5
22D
330
1F
100
AcDbEntity
  8
3
100
AcDbBlockReference
  2
block 60
 10
0.0
 20
0.0
 30
0.0
  0
INSERT
  5
232
330
1F
100
AcDbEntity
  8
3
100
AcDbBlockReference
  2
block 61
 10
0.0
 20
0.0
 30
0.0
  0
INSERT
  5
23A
330
1F
100
AcDbEntity
  8
3
100
AcDbBlockReference
  2
block 62
 10
0.0
 20
0.0
 30
0.0
  0
INSERT
  5
242
330
1F
100
AcDbEntity
  8
3
100
AcDbBlockReference
  2
block 63
 10
0.0
 20
0.0
 30
0.0
  0
INSERT
  5
24A
330
1F
100
AcDbEntity
  8
3
100
AcDbBlockReference
  2
block 64
 10
0.0
 20
0.0
 30
0.0
  0
INSERT
  5
255
330
1F
100
AcDbEntity
  8
3
100
AcDbBlockReference
  2
block 65
 10
0.0
 20
0.0
 30
0.0
  0
INSERT
  5
260
330
1F
100
AcDbEntity
  8
3
100
AcDbBlockReference
  2
block 66
 10
0.0
 20
0.0
 30
0.0
  0
INSERT
  5
265
330
1F
100
AcDbEntity
  8
3
100
AcDbBlockReference
  2
block 67
 10
0.0
 20
0.0
 30
0.0
  0
INSERT
  5
26D
330
1F
100
AcDbEntity
  8
3
100
AcDbBlockReference
  2
block 68
 10
0.0
 20
0.0
 30
0.0
  0
INSERT
  5
275
330
1F
100
AcDbEntity
  8
3
100
AcDbBlockReference
  2
block 69
 10
0.0
 20
0.0
 30
0.0
  0
INSERT
  5
27D
330
1F
100
AcDbEntity
  8
3
100
AcDbBlockReference
  2
block 70
 10
0.0
 20
0.0
 30
0.0
  0
INSERT
  5
288
330
1F
100
AcDbEntity
  8
3
100
AcDbBlockReference
  2
block 71
 10
0.0
 20
0.0
 30
0.0
  0
INSERT
  5
293
330
1F
100
AcDbEntity
  8
3
100
AcDbBlockReference
  2
block 72
 10
0.0
 20
0.0
 30
0.0
  0
INSERT
  5
298
330
1F
100
AcDbEntity
  8
3
100
AcDbBlockReference
  2
block 73
 10
0.0
 20
0.0
 30
0.0
  0
INSERT
  5
2A0
330
1F
100
AcDbEntity
  8
3
100
AcDbBlockReference
  2
block 74
 10
0.0
 20
0.0
 30
0.0
  0
INSERT
  5
2A8
330
1F
100
AcDbEntity
  8
3
100
AcDbBlockReference
  2
block 75
 10
0.0
 20
0.0
 30
0.0
  0
INSERT
  5
2B0
330
1F
100
AcDbEntity
  8
3
100
AcDbBlockReference
  2
block 76
 10
0.0
 20
0.0
 30
0.0
  0
INSERT
  5
2BB
330
1F
100
AcDbEntity
  8
3
100
AcDbBlockReference
  2
block 77
 10
0.0
 20
0.0
 30
0.0
  0
INSERT
  5
2C6
330
1F
100
AcDbEntity
  8
3
100
AcDbBlockReference
  2
block 78
 10
0.0
 20
0.0
 30
0.0
  0
INSERT
  5
2CB
330
1F
100
AcDbEntity
  8
3
100
AcDbBlockReference
  2
block 79
 10
0.0
 20
0.0
 30
0.0
  0
INSERT
  5
2D0
330
1F
100
AcDbEntity
  8
3
100
AcDbBlockReference
  2
block 80
 10
0.0
 20
0.0
 30
0.0
  0
INSERT
  5
2DF
330
1F
100
AcDbEntity
  8
3
100
AcDbBlockReference
  2
block 81
 10
0.0
 20
0.0
 30
0.0
  0
INSERT
  5
2EE
330
1F
100
AcDbEntity
  8
3
100
AcDbBlockReference
  2
block 82
 10
0.0
 20
0.0
 30
0.0
  0
INSERT
  5
2F4
330
1F
100
AcDbEntity
  8
Defpoints
100
AcDbBlockReference
  2
block 83
 10
0.0
 20
0.0
 30
0.0
  0
INSERT
  5
2FC
330
1F
100
AcDbEntity
  8
Defpoints
100
AcDbBlockReference
  2
block 84
 10
0.0
 20
0.0
 30
0.0
  0
INSERT
  5
304
330
1F
100
AcDbEntity
  8
Defpoints
100
AcDbBlockReference
  2
block 85
 10
0.0
 20
0.0
 30
0.0
  0
INSERT
  5
30C
330
1F
100
AcDbEntity
  8
Defpoints
100
AcDbBlockReference
  2
block 86
 10
0.0
 20
0.0
 30
0.0
  0
INSERT
  5
314
330
1F
100
AcDbEntity
  8
Defpoints
100
AcDbBlockReference
  2
block 87
 10
0.0
 20
0.0
 30
0.0
  0
INSERT
  5
31C
330
1F
100
AcDbEntity
  8
Defpoints
100
AcDbBlockReference
  2
block 88
 10
0.0
 20
0.0
 30
0.0
  0
INSERT
  5
324
330
1F
100
AcDbEntity
  8
Defpoints
100
AcDbBlockReference
  2
block 89
 10
0.0
 20
0.0
 30
0.0
  0
INSERT
  5
32C
330
1F
100
AcDbEntity
  8
Defpoints
100
AcDbBlockReference
  2
block 90
 10
0.0
 20
0.0
 30
0.0
  0
INSERT
  5
334
330
1F
100
AcDbEntity
  8
Defpoints
100
AcDbBlockReference
  2
block 91
 10
0.0
 20
0.0
 30
0.0
  0
INSERT
  5
33C
330
1F
100
AcDbEntity
  8
Defpoints
100
AcDbBlockReference
  2
block 92
 10
0.0
 20
0.0
 30
0.0
  0
INSERT
  5
344
330
1F
100
AcDbEntity
  8
Defpoints
100
AcDbBlockReference
  2
block 93
 10
0.0
 20
0.0
 30
0.0
  0
INSERT
  5
34C
330
1F
100
AcDbEntity
  8
Defpoints
100
AcDbBlockReference
  2
block 94
 10
0.0
 20
0.0
 30
0.0
  0
INSERT
  5
354
330
1F
100
AcDbEntity
  8
Defpoints
100
AcDbBlockReference
  2
block 95
 10
0.0
 20
0.0
 30
0.0
  0
INSERT
  5
35C
330
1F
100
AcDbEntity
  8
Defpoints
100
AcDbBlockReference
  2
block 96
 10
0.0
 20
0.0
 30
0.0
  0
INSERT
  5
364
330
1F
100
AcDbEntity
  8
Defpoints
100
AcDbBlockReference
  2
block 97
 10
0.0
 20
0.0
 30
0.0
  0
INSERT
  5
36C
330
1F
100
AcDbEntity
  8
Defpoints
100
AcDbBlockReference
  2
block 98
 10
0.0
 20
0.0
 30
0.0
  0
INSERT
  5
374
330
1F
100
AcDbEntity
  8
Defpoints
100
AcDbBlockReference
  2
block 99
 10
0.0
 20
0.0
 30
0.0
  0
INSERT
  5
37C
330
1F
100
AcDbEntity
  8
Defpoints
100
AcDbBlockReference
  2
block 100
 10
0.0
 20
0.0
 30
0.0
  0
ENDSEC
  0
SECTION
  2
OBJECTS
  0
DICTIONARY
  5
C
330
0
100
AcDbDictionary
281
     1
  3
ACAD_GROUP
350
D
  3
ACAD_LAYOUT
350
1A
  3
ACAD_MATERIAL
350
3B
  3
ACAD_MLEADERSTYLE
350
384
  3
ACAD_MLINESTYLE
350
17
  3
ACAD_PLOTSETTINGS
350
19
  3
ACAD_PLOTSTYLENAME
350
E
  3
ACAD_TABLESTYLE
350
383
  3
ACAD_VISUALSTYLE
350
2A
  0
SUN
  5
3F
330
29
100
AcDbSun
 90
        1
290
     0
 63
     7
421
 16777215
 40
1.0
291
     1
 91
  2455826
 92
 54000000
292
     0
 70
     2
 71
   256
280
     1
  0
DICTIONARY
  5
D
102
{ACAD_REACTORS
330
C
102
}
330
C
100
AcDbDictionary
281
     1
  0
DICTIONARY
  5
1A
102
{ACAD_REACTORS
330
C
102
}
330
C
100
AcDbDictionary
281
     1
  3
Layout1
350
1E
  3
Layout2
350
26
  3
Model
350
22
  0
DICTIONARY
  5
3B
102
{ACAD_REACTORS
330
C
102
}
330
C
100
AcDbDictionary
281
     1
  3
ByBlock
350
3D
  3
ByLayer
350
3C
  3
Global
350
3E
  0
DICTIONARY
  5
384
102
{ACAD_REACTORS
330
C
102
}
330
C
100
AcDbDictionary
281
     1
  0
DICTIONARY
  5
17
102
{ACAD_REACTORS
330
C
102
}
330
C
100
AcDbDictionary
281
     1
  3
Standard
350
18
  0
DICTIONARY
  5
19
102
{ACAD_REACTORS
330
C
102
}
330
C
100
AcDbDictionary
281
     1
  0
ACDBDICTIONARYWDFLT
  5
E
102
{ACAD_REACTORS
330
C
102
}
330
C
100
AcDbDictionary
281
     1
  3
Normal
350
F
100
AcDbDictionaryWithDefault
340
F
  0
DICTIONARY
  5
383
102
{ACAD_REACTORS
330
C
102
}
330
C
100
AcDbDictionary
281
     1
  0
DICTIONARY
  5
2A
102
{ACAD_REACTORS
330
C
102
}
330
C
100
AcDbDictionary
281
     1
  3
2dWireframe
350
2F
  3
3D Hidden
350
31
  3
3dWireframe
350
30
  3
Basic
350
32
  3
Brighten
350
36
  3
ColorChange
350
3A
  3
Conceptual
350
34
  3
Dim
350
35
  3
Facepattern
350
39
  3
Flat
350
2B
  3
FlatWithEdges
350
2C
  3
Gouraud
350
2D
  3
GouraudWithEdges
350
2E
  3
Linepattern
350
38
  3
Realistic
350
33
  3
Thicken
350
37
  0
LAYOUT
  5
1E
102
{ACAD_REACTORS
330
1A
102
}
330
1A
100
AcDbPlotSettings
  1

  2
none_device
  4

  6

 40
0.0
 41
0.0
 42
0.0
 43
0.0
 44
0.0
 45
0.0
 46
0.0
 47
0.0
 48
0.0
 49
0.0
140
0.0
141
0.0
142
1.0
143
1.0
 70
   688
 72
     0
 73
     0
 74
     5
  7

 75
    16
 76
     0
 77
     2
 78
   300
147
1.0
148
0.0
149
0.0
100
AcDbLayout
  1
Layout1
 70
     1
 71
     1
 10
0.0
 20
0.0
 11
12.0
 21
9.0
 12
0.0
 22
0.0
 32
0.0
 14
1.000000000000000E+20
 24
1.000000000000000E+20
 34
1.000000000000000E+20
 15
-1.000000000000000E+20
 25
-1.000000000000000E+20
 35
-1.000000000000000E+20
146
0.0
 13
0.0
 23
0.0
 33
0.0
 16
1.0
 26
0.0
 36
0.0
 17
0.0
 27
1.0
 37
0.0
 76
     0
330
1B
  0
LAYOUT
  5
26
102
{ACAD_REACTORS
330
1A
102
}
330
1A
100
AcDbPlotSettings
  1

  2
none_device
  4

  6

 40
0.0
 41
0.0
 42
0.0
 43
0.0
 44
0.0
 45
0.0
 46
0.0
 47
0.0
 48
0.0
 49
0.0
140
0.0
141
0.0
142
1.0
143
1.0
 70
   688
 72
     0
 73
     0
 74
     5
  7

 75
    16
 76
     0
 77
     2
 78
   300
147
1.0
148
0.0
149
0.0
100
AcDbLayout
  1
Layout2
 70
     1
 71
     2
 10
0.0
 20
0.0
 11
0.0
 21
0.0
 12
0.0
 22
0.0
 32
0.0
 14
0.0
 24
0.0
 34
0.0
 15
0.0
 25
0.0
 35
0.0
146
0.0
 13
0.0
 23
0.0
 33
0.0
 16
1.0
 26
0.0
 36
0.0
 17
0.0
 27
1.0
 37
0.0
 76
     0
330
23
  0
LAYOUT
  5
22
102
{ACAD_REACTORS
330
1A
102
}
330
1A
100
AcDbPlotSettings
  1

  2
none_device
  4

  6

 40
0.0
 41
0.0
 42
0.0
 43
0.0
 44
0.0
 45
0.0
 46
0.0
 47
0.0
 48
0.0
 49
0.0
140
0.0
141
0.0
142
1.0
143
1.0
 70
  1712
 72
     0
 73
     0
 74
     0
  7

 75
     0
 76
     0
 77
     2
 78
   300
147
1.0
148
0.0
149
0.0
100
AcDbLayout
  1
Model
 70
     1
 71
     0
 10
0.0
 20
0.0
 11
12.0
 21
9.0
 12
0.0
 22
0.0
 32
0.0
 14
1.000000000000000E+20
 24
1.000000000000000E+20
 34
1.000000000000000E+20
 15
-1.000000000000000E+20
 25
-1.000000000000000E+20
 35
-1.000000000000000E+20
146
0.0
 13
0.0
 23
0.0
 33
0.0
 16
1.0
 26
0.0
 36
0.0
 17
0.0
 27
1.0
 37
0.0
 76
     0
330
1F
331
29
  0
MATERIAL
  5
3D
102
{ACAD_REACTORS
330
3B
102
}
330
3B
100
AcDbMaterial
  1
ByBlock
 72
     1
 94
      127
  0
MATERIAL
  5
3C
102
{ACAD_REACTORS
330
3B
102
}
330
3B
100
AcDbMaterial
  1
ByLayer
 72
     1
 94
      127
  0
MATERIAL
  5
3E
102
{ACAD_REACTORS
330
3B
102
}
330
3B
100
AcDbMaterial
  1
Global
 72
     1
 94
      127
  0
MLINESTYLE
  5
18
102
{ACAD_REACTORS
330
17
102
}
330
17
100
AcDbMlineStyle
  2
Standard
 70
     0
  3

 62
   256
 51
90.0
 52
90.0
 71
     2
 49
0.5
 62
   256
  6
BYLAYER
 49
-0.5
 62
   256
  6
BYLAYER
  0
ACDBPLACEHOLDER
  5
F
102
{ACAD_REACTORS
330
E
102
}
330
E
  0
VISUALSTYLE
  5
2F
102
{ACAD_REACTORS
330
2A
102
}
330
2A
100
AcDbVisualStyle
  2
2dWireframe
 70
     4
177
     2
291
     0
 71
     0
176
     1
 72
     2
176
     1
 73
     0
176
     1
 90
        0
176
     1
 40
-0.6
176
     1
 41
-30.0
176
     1
 62
     5
 63
     7
421
 16777215
176
     1
 74
     1
176
     1
 91
        4
176
     1
 64
     7
176
     1
 65
   257
176
     1
 75
     1
176
     1
175
     1
176
     1
 42
1.0
176
     1
 92
        0
176
     1
 66
   257
176
     1
 43
1.0
176
     1
 76
     1
176
     1
 77
     6
176
     1
 78
     2
176
     1
 67
     7
176
     1
 79
     5
176
     1
170
     0
176
     1
171
     0
176
     1
290
     0
176
     1
 93
        1
176
     1
 44
0.0
176
     1
173
     0
176
     1
  0
VISUALSTYLE
  5
31
102
{ACAD_REACTORS
330
2A
102
}
330
2A
100
AcDbVisualStyle
  2
3D Hidden
 70
     6
177
     2
291
     0
 71
     1
176
     1
 72
     2
176
     1
 73
     2
176
     1
 90
        0
176
     1
 40
-0.6
176
     1
 41
-30.0
176
     1
 62
     5
 63
     7
421
 16777215
176
     1
 74
     2
176
     1
 91
        2
176
     1
 64
     7
176
     1
 65
   257
176
     1
 75
     2
176
     1
175
     1
176
     1
 42
40.0
176
     1
 92
        0
176
     1
 66
   257
176
     1
 43
1.0
176
     1
 76
     1
176
     1
 77
     6
176
     1
 78
     2
176
     1
 67
     7
176
     1
 79
     3
176
     1
170
     0
176
     1
171
     0
176
     1
290
     0
176
     1
 93
        1
176
     1
 44
0.0
176
     1
173
     0
176
     1
  0
VISUALSTYLE
  5
30
102
{ACAD_REACTORS
330
2A
102
}
330
2A
100
AcDbVisualStyle
  2
3dWireframe
 70
     5
177
     2
291
     0
 71
     0
176
     1
 72
     2
176
     1
 73
     0
176
     1
 90
        0
176
     1
 40
-0.6
176
     1
 41
-30.0
176
     1
 62
     5
 63
     7
421
 16777215
176
     1
 74
     1
176
     1
 91
        4
176
     1
 64
     7
176
     1
 65
   257
176
     1
 75
     1
176
     1
175
     1
176
     1
 42
1.0
176
     1
 92
        0
176
     1
 66
   257
176
     1
 43
1.0
176
     1
 76
     1
176
     1
 77
     6
176
     1
 78
     2
176
     1
 67
     7
176
     1
 79
     5
176
     1
170
     0
176
     1
171
     0
176
     1
290
     0
176
     1
 93
        1
176
     1
 44
0.0
176
     1
173
     0
176
     1
  0
VISUALSTYLE
  5
32
102
{ACAD_REACTORS
330
2A
102
}
330
2A
100
AcDbVisualStyle
  2
Basic
 70
     7
177
     2
291
     1
 71
     1
176
     1
 72
     0
176
     1
 73
     1
176
     1
 90
        0
176
     1
 40
-0.6
176
     1
 41
-30.0
176
     1
 62
     5
 63
     7
421
 16777215
176
     1
 74
     0
176
     1
 91
        4
176
     1
 64
     7
176
     1
 65
   257
176
     1
 75
     1
176
     1
175
     1
176
     1
 42
1.0
176
     1
 92
        8
176
     1
 66
     7
176
     1
 43
1.0
176
     1
 76
     1
176
     1
 77
     6
176
     1
 78
     2
176
     1
 67
     7
176
     1
 79
     5
176
     1
170
     0
176
     1
171
     0
176
     1
290
     0
176
     1
 93
        1
176
     1
 44
0.0
176
     1
173
     0
176
     1
  0
VISUALSTYLE
  5
36
102
{ACAD_REACTORS
330
2A
102
}
330
2A
100
AcDbVisualStyle
  2
Brighten
 70
    12
177
     2
291
     1
 71
     2
176
     1
 72
     2
176
     1
 73
     0
176
     1
 90
        0
176
     1
 40
-0.6
176
     1
 41
-30.0
176
     1
 62
     5
 63
     7
421
 16777215
176
     1
 74
     1
176
     1
 91
        4
176
     1
 64
     7
176
     1
 65
   257
176
     1
 75
     1
176
     1
175
     1
176
     1
 42
1.0
176
     1
 92
        8
176
     1
 66
     7
176
     1
 43
1.0
176
     1
 76
     1
176
     1
 77
     6
176
     1
 78
     2
176
     1
 67
     7
176
     1
 79
     5
176
     1
170
     0
176
     1
171
     0
176
     1
290
     0
176
     1
 93
        1
176
     1
 44
50.0
176
     1
173
     0
176
     1
  0
VISUALSTYLE
  5
3A
102
{ACAD_REACTORS
330
2A
102
}
330
2A
100
AcDbVisualStyle
  2
ColorChange
 70
    16
177
     2
291
     1
 71
     2
176
     1
 72
     2
176
     1
 73
     3
176
     1
 90
        0
176
     1
 40
-0.6
176
     1
 41
-30.0
176
     1
 62
     5
 63
     8
421
  8421504
176
     1
 74
     1
176
     1
 91
        4
176
     1
 64
     7
176
     1
 65
   257
176
     1
 75
     1
176
     1
175
     1
176
     1
 42
1.0
176
     1
 92
        8
176
     1
 66
     8
424
  8421504
176
     1
 43
1.0
176
     1
 76
     1
176
     1
 77
     6
176
     1
 78
     2
176
     1
 67
     7
176
     1
 79
     5
176
     1
170
     0
176
     1
171
     0
176
     1
290
     0
176
     1
 93
        1
176
     1
 44
0.0
176
     1
173
     0
176
     1
  0
VISUALSTYLE
  5
34
102
{ACAD_REACTORS
330
2A
102
}
330
2A
100
AcDbVisualStyle
  2
Conceptual
 70
     9
177
     2
291
     0
 71
     3
176
     1
 72
     2
176
     1
 73
     0
176
     1
 90
        0
176
     1
 40
-0.6
176
     1
 41
-30.0
176
     1
 62
     5
 63
     7
421
 16777215
176
     1
 74
     2
176
     1
 91
        2
176
     1
 64
     7
176
     1
 65
   257
176
     1
 75
     1
176
     1
175
     1
176
     1
 42
40.0
176
     1
 92
        8
176
     1
 66
     7
176
     1
 43
1.0
176
     1
 76
     1
176
     1
 77
     6
176
     1
 78
     2
176
     1
 67
     7
176
     1
 79
     3
176
     1
170
     0
176
     1
171
     0
176
     1
290
     0
176
     1
 93
        1
176
     1
 44
0.0
176
     1
173
     0
176
     1
  0
VISUALSTYLE
  5
35
102
{ACAD_REACTORS
330
2A
102
}
330
2A
100
AcDbVisualStyle
  2
Dim
 70
    11
177
     2
291
     1
 71
     2
176
     1
 72
     2
176
     1
 73
     0
176
     1
 90
        0
176
     1
 40
-0.6
176
     1
 41
-30.0
176
     1
 62
     5
 63
     7
421
 16777215
176
     1
 74
     1
176
     1
 91
        4
176
     1
 64
     7
176
     1
 65
   257
176
     1
 75
     1
176
     1
175
     1
176
     1
 42
1.0
176
     1
 92
        8
176
     1
 66
     7
176
     1
 43
1.0
176
     1
 76
     1
176
     1
 77
     6
176
     1
 78
     2
176
     1
 67
     7
176
     1
 79
     5
176
     1
170
     0
176
     1
171
     0
176
     1
290
     0
176
     1
 93
        1
176
     1
 44
-50.0
176
     1
173
     0
176
     1
  0
VISUALSTYLE
  5
39
102
{ACAD_REACTORS
330
2A
102
}
330
2A
100
AcDbVisualStyle
  2
Facepattern
 70
    15
177
     2
291
     1
 71
     2
176
     1
 72
     2
176
     1
 73
     0
176
     1
 90
        0
176
     1
 40
-0.6
176
     1
 41
-30.0
176
     1
 62
     5
 63
     7
421
 16777215
176
     1
 74
     1
176
     1
 91
        4
176
     1
 64
     7
176
     1
 65
   257
176
     1
 75
     1
176
     1
175
     1
176
     1
 42
1.0
176
     1
 92
        8
176
     1
 66
     7
176
     1
 43
1.0
176
     1
 76
     1
176
     1
 77
     6
176
     1
 78
     2
176
     1
 67
     7
176
     1
 79
     5
176
     1
170
     0
176
     1
171
     0
176
     1
290
     0
176
     1
 93
        1
176
     1
 44
0.0
176
     1
173
     0
176
     1
  0
VISUALSTYLE
  5
2B
102
{ACAD_REACTORS
330
2A
102
}
330
2A
100
AcDbVisualStyle
  2
Flat
 70
     0
177
     2
291
     1
 71
     2
176
     1
 72
     1
176
     1
 73
     1
176
     1
 90
        2
176
     1
 40
-0.6
176
     1
 41
30.0
176
     1
 62
     5
 63
     7
421
 16777215
176
     1
 74
     0
176
     1
 91
        4
176
     1
 64
     7
176
     1
 65
   257
176
     1
 75
     1
176
     1
175
     1
176
     1
 42
1.0
176
     1
 92
        8
176
     1
 66
     7
176
     1
 43
1.0
176
     1
 76
     1
176
     1
 77
     6
176
     1
 78
     2
176
     1
 67
     7
176
     1
 79
     5
176
     1
170
     0
176
     1
171
     0
176
     1
290
     0
176
     1
 93
       13
176
     1
 44
0.0
176
     1
173
     0
176
     1
  0
VISUALSTYLE
  5
2C
102
{ACAD_REACTORS
330
2A
102
}
330
2A
100
AcDbVisualStyle
  2
FlatWithEdges
 70
     1
177
     2
291
     1
 71
     2
176
     1
 72
     1
176
     1
 73
     1
176
     1
 90
        2
176
     1
 40
-0.6
176
     1
 41
30.0
176
     1
 62
     5
 63
     7
421
 16777215
176
     1
 74
     1
176
     1
 91
        4
176
     1
 64
     7
176
     1
 65
   257
176
     1
 75
     1
176
     1
175
     1
176
     1
 42
1.0
176
     1
 92
        0
176
     1
 66
   257
176
     1
 43
1.0
176
     1
 76
     1
176
     1
 77
     6
176
     1
 78
     2
176
     1
 67
     7
176
     1
 79
     5
176
     1
170
     0
176
     1
171
     0
176
     1
290
     0
176
     1
 93
       13
176
     1
 44
0.0
176
     1
173
     0
176
     1
  0
VISUALSTYLE
  5
2D
102
{ACAD_REACTORS
330
2A
102
}
330
2A
100
AcDbVisualStyle
  2
Gouraud
 70
     2
177
     2
291
     1
 71
     2
176
     1
 72
     2
176
     1
 73
     1
176
     1
 90
        2
176
     1
 40
-0.6
176
     1
 41
30.0
176
     1
 62
     5
 63
     7
421
 16777215
176
     1
 74
     0
176
     1
 91
        4
176
     1
 64
     7
176
     1
 65
   257
176
     1
 75
     1
176
     1
175
     1
176
     1
 42
1.0
176
     1
 92
        0
176
     1
 66
     7
176
     1
 43
1.0
176
     1
 76
     1
176
     1
 77
     6
176
     1
 78
     2
176
     1
 67
     7
176
     1
 79
     5
176
     1
170
     0
176
     1
171
     0
176
     1
290
     0
176
     1
 93
       13
176
     1
 44
0.0
176
     1
173
     0
176
     1
  0
VISUALSTYLE
  5
2E
102
{ACAD_REACTORS
330
2A
102
}
330
2A
100
AcDbVisualStyle
  2
GouraudWithEdges
 70
     3
177
     2
291
     1
 71
     2
176
     1
 72
     2
176
     1
 73
     1
176
     1
 90
        2
176
     1
 40
-0.6
176
     1
 41
30.0
176
     1
 62
     5
 63
     7
421
 16777215
176
     1
 74
     1
176
     1
 91
        4
176
     1
 64
     7
176
     1
 65
   257
176
     1
 75
     1
176
     1
175
     1
176
     1
 42
1.0
176
     1
 92
        0
176
     1
 66
   257
176
     1
 43
1.0
176
     1
 76
     1
176
     1
 77
     6
176
     1
 78
     2
176
     1
 67
     7
176
     1
 79
     5
176
     1
170
     0
176
     1
171
     0
176
     1
290
     0
176
     1
 93
       13
176
     1
 44
0.0
176
     1
173
     0
176
     1
  0
VISUALSTYLE
  5
38
102
{ACAD_REACTORS
330
2A
102
}
330
2A
100
AcDbVisualStyle
  2
Linepattern
 70
    14
177
     2
291
     1
 71
     2
176
     1
 72
     2
176
     1
 73
     0
176
     1
 90
        0
176
     1
 40
-0.6
176
     1
 41
-30.0
176
     1
 62
     5
 63
     7
421
 16777215
176
     1
 74
     1
176
     1
 91
        4
176
     1
 64
     7
176
     1
 65
   257
176
     1
 75
     7
176
     1
175
     7
176
     1
 42
1.0
176
     1
 92
        8
176
     1
 66
     7
176
     1
 43
1.0
176
     1
 76
     1
176
     1
 77
     6
176
     1
 78
     2
176
     1
 67
     7
176
     1
 79
     5
176
     1
170
     0
176
     1
171
     0
176
     1
290
     0
176
     1
 93
        1
176
     1
 44
0.0
176
     1
173
     0
176
     1
  0
VISUALSTYLE
  5
33
102
{ACAD_REACTORS
330
2A
102
}
330
2A
100
AcDbVisualStyle
  2
Realistic
 70
     8
177
     2
291
     0
 71
     2
176
     1
 72
     2
176
     1
 73
     0
176
     1
 90
        0
176
     1
 40
-0.6
176
     1
 41
-30.0
176
     1
 62
     5
 63
     7
421
 16777215
176
     1
 74
     1
176
     1
 91
        0
176
     1
 64
     7
176
     1
 65
   257
176
     1
 75
     1
176
     1
175
     1
176
     1
 42
1.0
176
     1
 92
        8
176
     1
 66
     8
424
  7895160
176
     1
 43
1.0
176
     1
 76
     1
176
     1
 77
     6
176
     1
 78
     2
176
     1
 67
     7
176
     1
 79
     5
176
     1
170
     0
176
     1
171
     0
176
     1
290
     0
176
     1
 93
       13
176
     1
 44
0.0
176
     1
173
     0
176
     1
  0
VISUALSTYLE
  5
37
102
{ACAD_REACTORS
330
2A
102
}
330
2A
100
AcDbVisualStyle
  2
Thicken
 70
    13
177
     2
291
     1
 71
     2
176
     1
 72
     2
176
     1
 73
     0
176
     1
 90
        0
176
     1
 40
-0.6
176
     1
 41
-30.0
176
     1
 62
     5
 63
     7
421
 16777215
176
     1
 74
     1
176
     1
 91
        4
176
     1
 64
     7
176
     1
 65
   257
176
     1
 75
     1
176
     1
175
     1
176
     1
 42
1.0
176
     1
 92
       12
176
     1
 66
     7
176
     1
 43
1.0
176
     1
 76
     1
176
     1
 77
     6
176
     1
 78
     2
176
     1
 67
     7
176
     1
 79
     5
176
     1
170
     0
176
     1
171
     0
176
     1
290
     0
176
     1
 93
        1
176
     1
 44
0.0
176
     1
173
     0
176
     1
  0
ENDSEC
  0
EOF
