  0
SECTION
  2
HEADER
  9
$ACADVER
  1
AC1024
  9
$ACADMAINTVER
 70
     6
  9
$DWGCODEPAGE
  3
UNDEFINED
  9
$INSBASE
 10
0.0
 20
0.0
 30
0.0
  9
$EXTMIN
 10
1.000000000000000E+20
 20
1.000000000000000E+20
 30
1.000000000000000E+20
  9
$EXTMAX
 10
-1.000000000000000E+20
 20
-1.000000000000000E+20
 30
-1.000000000000000E+20
  9
$LIMMIN
 10
0.0
 20
0.0
  9
$LIMMAX
 10
12.0
 20
9.0
  9
$ORTHOMODE
 70
     0
  9
$REGENMODE
 70
     1
  9
$FILLMODE
 70
     1
  9
$QTEXTMODE
 70
     0
  9
$MIRRTEXT
 70
     1
  9
$LTSCALE
 40
1.0
  9
$ATTMODE
 70
     1
  9
$TEXTSIZE
 40
0.2
  9
$TRACEWID
 40
0.05
  9
$TEXTSTYLE
  7
Standard
  9
$CLAYER
  8
0
  9
$CELTYPE
  6
ByLayer
  9
$CECOLOR
 62
   256
  9
$CELTSCALE
 40
1.0
  9
$DISPSILH
 70
     0
  9
$DIMSCALE
 40
1.0
  9
$DIMASZ
 40
0.18
  9
$DIMEXO
 40
0.0625
  9
$DIMDLI
 40
0.38
  9
$DIMRND
 40
0.0
  9
$DIMDLE
 40
0.0
  9
$DIMEXE
 40
0.18
  9
$DIMTP
 40
0.0
  9
$DIMTM
 40
0.0
  9
$DIMTXT
 40
0.18
  9
$DIMCEN
 40
0.09
  9
$DIMTSZ
 40
0.0
  9
$DIMTOL
 70
     0
  9
$DIMLIM
 70
     0
  9
$DIMTIH
 70
     1
  9
$DIMTOH
 70
     1
  9
$DIMSE1
 70
     0
  9
$DIMSE2
 70
     0
  9
$DIMTAD
 70
     0
  9
$DIMZIN
 70
     0
  9
$DIMBLK
  1

  9
$DIMASO
 70
     1
  9
$DIMSHO
 70
     1
  9
$DIMPOST
  1

  9
$DIMAPOST
  1

  9
$DIMALT
 70
     0
  9
$DIMALTD
 70
     2
  9
$DIMALTF
 40
25.4
  9
$DIMLFAC
 40
1.0
  9
$DIMTOFL
 70
     0
  9
$DIMTVP
 40
0.0
  9
$DIMTIX
 70
     0
  9
$DIMSOXD
 70
     0
  9
$DIMSAH
 70
     0
  9
$DIMBLK1
  1

  9
$DIMBLK2
  1

  9
$DIMSTYLE
  2
Standard
  9
$DIMCLRD
 70
     0
  9
$DIMCLRE
 70
     0
  9
$DIMCLRT
 70
     0
  9
$DIMTFAC
 40
1.0
  9
$DIMGAP
 40
0.09
  9
$DIMJUST
 70
     0
  9
$DIMSD1
 70
     0
  9
$DIMSD2
 70
     0
  9
$DIMTOLJ
 70
     1
  9
$DIMTZIN
 70
     0
  9
$DIMALTZ
 70
     0
  9
$DIMALTTZ
 70
     0
  9
$DIMUPT
 70
     0
  9
$DIMDEC
 70
     4
  9
$DIMTDEC
 70
     4
  9
$DIMALTU
 70
     2
  9
$DIMALTTD
 70
     2
  9
$DIMTXSTY
  7
Standard
  9
$DIMAUNIT
 70
     0
  9
$DIMADEC
 70
     0
  9
$DIMALTRND
 40
0.0
  9
$DIMAZIN
 70
     0
  9
$DIMDSEP
 70
    46
  9
$DIMATFIT
 70
     3
  9
$DIMFRAC
 70
     0
  9
$DIMLDRBLK
  1

  9
$DIMLUNIT
 70
     2
  9
$DIMLWD
 70
    -2
  9
$DIMLWE
 70
    -2
  9
$DIMTMOVE
 70
     0
  9
$DIMFXL
 40
1.0
  9
$DIMFXLON
 70
     0
  9
$DIMJOGANG
 40
0.7853981633974483
  9
$DIMTFILL
 70
     0
  9
$DIMTFILLCLR
 70
     0
  9
$DIMARCSYM
 70
     0
  9
$DIMLTYPE
  6

  9
$DIMLTEX1
  6

  9
$DIMLTEX2
  6

  9
$DIMTXTDIRECTION
 70
     0
  9
$LUNITS
 70
     2
  9
$LUPREC
 70
     4
  9
$SKETCHINC
 40
0.1
  9
$FILLETRAD
 40
0.5
  9
$AUNITS
 70
     0
  9
$AUPREC
 70
     0
  9
$MENU
  1
.
  9
$ELEVATION
 40
0.0
  9
$PELEVATION
 40
0.0
  9
$THICKNESS
 40
0.0
  9
$LIMCHECK
 70
     0
  9
$CHAMFERA
 40
0.5
  9
$CHAMFERB
 40
0.5
  9
$CHAMFERC
 40
1.0
  9
$CHAMFERD
 40
0.0
  9
$SKPOLY
 70
     0
  9
$TDCREATE
 40
2458513.404537025
  9
$TDUCREATE
 40
2458513.612870371
  9
$TDUPDATE
 40
2458513.404537025
  9
$TDUUPDATE
 40
2458513.612870371
  9
$TDINDWG
 40
0.0000000116
  9
$TDUSRTIMER
 40
0.0000000116
  9
$USRTIMER
 70
     1
  9
$ANGBASE
 50
0.0
  9
$ANGDIR
 70
     0
  9
$PDMODE
 70
     0
  9
$PDSIZE
 40
0.0
  9
$PLINEWID
 40
0.0
  9
$SPLFRAME
 70
     0
  9
$SPLINETYPE
 70
     6
  9
$SPLINESEGS
 70
     8
  9
$HANDSEED
  5
369
  9
$SURFTAB1
 70
     6
  9
$SURFTAB2
 70
     6
  9
$SURFTYPE
 70
     6
  9
$SURFU
 70
     6
  9
$SURFV
 70
     6
  9
$UCSBASE
  2

  9
$UCSNAME
  2

  9
$UCSORG
 10
0.0
 20
0.0
 30
0.0
  9
$UCSXDIR
 10
1.0
 20
0.0
 30
0.0
  9
$UCSYDIR
 10
0.0
 20
1.0
 30
0.0
  9
$UCSORTHOREF
  2

  9
$UCSORTHOVIEW
 70
     0
  9
$UCSORGTOP
 10
0.0
 20
0.0
 30
0.0
  9
$UCSORGBOTTOM
 10
0.0
 20
0.0
 30
0.0
  9
$UCSORGLEFT
 10
0.0
 20
0.0
 30
0.0
  9
$UCSORGRIGHT
 10
0.0
 20
0.0
 30
0.0
  9
$UCSORGFRONT
 10
0.0
 20
0.0
 30
0.0
  9
$UCSORGBACK
 10
0.0
 20
0.0
 30
0.0
  9
$PUCSBASE
  2

  9
$PUCSNAME
  2

  9
$PUCSORG
 10
0.0
 20
0.0
 30
0.0
  9
$PUCSXDIR
 10
1.0
 20
0.0
 30
0.0
  9
$PUCSYDIR
 10
0.0
 20
1.0
 30
0.0
  9
$PUCSORTHOREF
  2

  9
$PUCSORTHOVIEW
 70
     0
  9
$PUCSORGTOP
 10
0.0
 20
0.0
 30
0.0
  9
$PUCSORGBOTTOM
 10
0.0
 20
0.0
 30
0.0
  9
$PUCSORGLEFT
 10
0.0
 20
0.0
 30
0.0
  9
$PUCSORGRIGHT
 10
0.0
 20
0.0
 30
0.0
  9
$PUCSORGFRONT
 10
0.0
 20
0.0
 30
0.0
  9
$PUCSORGBACK
 10
0.0
 20
0.0
 30
0.0
  9
$USERI1
 70
     0
  9
$USERI2
 70
     0
  9
$USERI3
 70
     0
  9
$USERI4
 70
     0
  9
$USERI5
 70
     0
  9
$USERR1
 40
0.0
  9
$USERR2
 40
0.0
  9
$USERR3
 40
0.0
  9
$USERR4
 40
0.0
  9
$USERR5
 40
0.0
  9
$WORLDVIEW
 70
     1
  9
$SHADEDGE
 70
     3
  9
$SHADEDIF
 70
    70
  9
$TILEMODE
 70
     1
  9
$MAXACTVP
 70
    64
  9
$PINSBASE
 10
0.0
 20
0.0
 30
0.0
  9
$PLIMCHECK
 70
     0
  9
$PEXTMIN
 10
1.000000000000000E+20
 20
1.000000000000000E+20
 30
1.000000000000000E+20
  9
$PEXTMAX
 10
-1.000000000000000E+20
 20
-1.000000000000000E+20
 30
-1.000000000000000E+20
  9
$PLIMMIN
 10
0.0
 20
0.0
  9
$PLIMMAX
 10
12.0
 20
9.0
  9
$UNITMODE
 70
     0
  9
$VISRETAIN
 70
     1
  9
$PLINEGEN
 70
     0
  9
$PSLTSCALE
 70
     1
  9
$TREEDEPTH
 70
  3020
  9
$CMLSTYLE
  2
Standard
  9
$CMLJUST
 70
     0
  9
$CMLSCALE
 40
1.0
  9
$PROXYGRAPHICS
 70
     1
  9
$MEASUREMENT
 70
     0
  9
$CELWEIGHT
370
    -1
  9
$ENDCAPS
280
     0
  9
$JOINSTYLE
280
     0
  9
$LWDISPLAY
290
     1
  9
$INSUNITS
 70
     1
  9
$HYPERLINKBASE
  1

  9
$STYLESHEET
  1

  9
$XEDIT
290
     1
  9
$CEPSNTYPE
380
     0
  9
$PSTYLEMODE
290
     1
  9
$FINGERPRINTGUID
  2
{3F89F6F7-0260-6DF8-E0D6-7BF399E48577}
  9
$VERSIONGUID
  2
{FAEB1C32-E019-11D5-929B-00C0DF256EC4}
  9
$EXTNAMES
290
     1
  9
$PSVPSCALE
 40
0.0
  9
$OLESTARTUP
290
     0
  9
$SORTENTS
280
   127
  9
$INDEXCTL
280
     0
  9
$HIDETEXT
280
     1
  9
$XCLIPFRAME
280
     2
  9
$HALOGAP
280
     0
  9
$OBSCOLOR
 70
   257
  9
$OBSLTYPE
280
     0
  9
$INTERSECTIONDISPLAY
280
     0
  9
$INTERSECTIONCOLOR
 70
   257
  9
$DIMASSOC
280
     2
  9
$PROJECTNAME
  1

  9
$CAMERADISPLAY
290
     0
  9
$LENSLENGTH
 40
50.0
  9
$CAMERAHEIGHT
 40
0.0
  9
$STEPSPERSEC
 40
2.0
  9
$STEPSIZE
 40
6.0
  9
$3DDWFPREC
 40
2.0
  9
$PSOLWIDTH
 40
0.25
  9
$PSOLHEIGHT
 40
4.0
  9
$LOFTANG1
 40
1.570796326794897
  9
$LOFTANG2
 40
1.570796326794897
  9
$LOFTMAG1
 40
0.0
  9
$LOFTMAG2
 40
0.0
  9
$LOFTPARAM
 70
     7
  9
$LOFTNORMALS
280
     1
  9
$LATITUDE
 40
37.795
  9
$LONGITUDE
 40
-122.394
  9
$NORTHDIRECTION
 40
0.0
  9
$TIMEZONE
 70
 -8000
  9
$LIGHTGLYPHDISPLAY
280
     1
  9
$TILEMODELIGHTSYNCH
280
     1
  9
$CMATERIAL
347
3C
  9
$SOLIDHIST
280
     1
  9
$SHOWHIST
280
     1
  9
$DWFFRAME
280
     2
  9
$DGNFRAME
280
     2
  9
$REALWORLDSCALE
290
     1
  9
$INTERFERECOLOR
 62
   256
  9
$CSHADOW
280
     0
  9
$SHADOWPLANELOCATION
 40
0.0
  0
ENDSEC
  0
SECTION
  2
CLASSES
  0
CLASS
  1
ACDBDICTIONARYWDFLT
  2
AcDbDictionaryWithDefault
  3
ObjectDBX Classes
 90
        0
 91
        4
280
     0
281
     0
  0
CLASS
  1
VISUALSTYLE
  2
AcDbVisualStyle
  3
ObjectDBX Classes
 90
     4095
 91
        4
280
     0
281
     0
  0
CLASS
  1
MATERIAL
  2
AcDbMaterial
  3
ObjectDBX Classes
 90
     1153
 91
        4
280
     0
281
     0
  0
CLASS
  1
SUN
  2
AcDbSun
  3
SCENEOE
 90
     1024
 91
        4
280
     0
281
     0
  0
ENDSEC
  0
SECTION
  2
TABLES
  0
TABLE
  2
VPORT
  5
8
330
0
100
AcDbSymbolTable
 70
     1
  0
VPORT
  5
29
330
8
100
AcDbSymbolTableRecord
100
AcDbViewportTableRecord
  2
*Active
 70
     0
 10
0.0
 20
0.0
 11
1.0
 21
1.0
 12
0.0
 22
0.0
 13
0.0
 23
0.0
 14
0.5
 24
0.5
 15
0.5
 25
0.5
 16
0.0
 26
0.0
 36
1.0
 17
4.25
 27
5.5
 37
0.0
 40
11.0
 41
0.7727272727272727
 42
50.0
 43
0.0
 44
0.0
 50
0.0
 51
0.0
 71
     0
 72
   100
 73
     1
 74
     3
 75
     0
 76
     0
 77
     0
 78
     0
281
     0
 65
     1
110
0.0
120
0.0
130
0.0
111
1.0
121
0.0
131
0.0
112
0.0
122
1.0
132
0.0
 79
     0
146
0.0
 60
     3
 61
     5
292
     1
282
     1
141
0.0
142
0.0
 63
   250
361
3F
  0
ENDTAB
  0
TABLE
  2
LTYPE
  5
5
330
0
100
AcDbSymbolTable
 70
     3
  0
LTYPE
  5
14
330
5
100
AcDbSymbolTableRecord
100
AcDbLinetypeTableRecord
  2
ByBlock
 70
     0
  3

 72
    65
 73
     0
 40
0.0
  0
LTYPE
  5
15
330
5
100
AcDbSymbolTableRecord
100
AcDbLinetypeTableRecord
  2
ByLayer
 70
     0
  3

 72
    65
 73
     0
 40
0.0
  0
LTYPE
  5
16
330
5
100
AcDbSymbolTableRecord
100
AcDbLinetypeTableRecord
  2
Continuous
 70
     0
  3
Solid line
 72
    65
 73
     0
 40
0.0
  0
LTYPE
  5
25A
330
5
100
AcDbSymbolTableRecord
100
AcDbLinetypeTableRecord
  2
AI-Linetype-1
 70
     0
  3
Adobe Illustrator Linetype No. 1
 72
    65
 73
     2
 40
0.0590942949056625
 49
0.039396196603775
 74
     0
 49
-0.0196980983018875
 74
     0
  0
LTYPE
  5
265
330
5
100
AcDbSymbolTableRecord
100
AcDbLinetypeTableRecord
  2
AI-Linetype-2
 70
     0
  3
Adobe Illustrator Linetype No. 2
 72
    65
 73
     2
 40
0.0590942949056625
 49
0.039396196603775
 74
     0
 49
-0.0196980983018875
 74
     0
  0
ENDTAB
  0
TABLE
  2
LAYER
  5
2
330
0
100
AcDbSymbolTable
 70
     4
  0
LAYER
  5
10
330
2
100
AcDbSymbolTableRecord
100
AcDbLayerTableRecord
  2
0
 70
     0
 62
     7
  6
Continuous
370
    -3
390
F
347
3E
  0
LAYER
  5
40
330
2
100
AcDbSymbolTableRecord
100
AcDbLayerTableRecord
  2
_U+56FE_U+5C423
 70
     0
 62
     7
  6
Continuous
370
    -3
390
F
347
3E
  0
LAYER
  5
254
330
2
100
AcDbSymbolTableRecord
100
AcDbLayerTableRecord
  2
_U+56FE_U+5C422
 70
     0
 62
     7
  6
Continuous
370
    -3
390
F
347
3E
  0
LAYER
  5
266
330
2
100
AcDbSymbolTableRecord
100
AcDbLayerTableRecord
  2
Defpoints
 70
     0
 62
     7
  6
Continuous
290
     0
370
    -3
390
F
347
3E
  0
ENDTAB
  0
TABLE
  2
STYLE
  5
3
330
0
100
AcDbSymbolTable
 70
     1
  0
STYLE
  5
11
330
3
100
AcDbSymbolTableRecord
100
AcDbTextStyleTableRecord
  2
Standard
 70
     0
 40
0.0
 41
1.0
 50
0.0
 71
     0
 42
0.2
  3
txt
  4

  0
ENDTAB
  0
TABLE
  2
VIEW
  5
6
330
0
100
AcDbSymbolTable
 70
     0
  0
ENDTAB
  0
TABLE
  2
UCS
  5
7
330
0
100
AcDbSymbolTable
 70
     0
  0
ENDTAB
  0
TABLE
  2
APPID
  5
9
330
0
100
AcDbSymbolTable
 70
     1
  0
APPID
  5
12
330
9
100
AcDbSymbolTableRecord
100
AcDbRegAppTableRecord
  2
ACAD
 70
     0
  0
ENDTAB
  0
TABLE
  2
DIMSTYLE
  5
A
330
0
100
AcDbSymbolTable
 70
     1
100
AcDbDimStyleTable
  0
DIMSTYLE
105
27
330
A
100
AcDbSymbolTableRecord
100
AcDbDimStyleTableRecord
  2
Standard
 70
     0
178
     0
340
11
  0
ENDTAB
  0
TABLE
  2
BLOCK_RECORD
  5
1
330
0
100
AcDbSymbolTable
 70
   100
  0
BLOCK_RECORD
  5
1F
330
1
100
AcDbSymbolTableRecord
100
AcDbBlockTableRecord
  2
*Model_Space
340
22
 70
     0
280
     1
281
     0
  0
BLOCK_RECORD
  5
1B
330
1
100
AcDbSymbolTableRecord
100
AcDbBlockTableRecord
  2
*Paper_Space
340
1E
 70
     0
280
     1
281
     0
  0
BLOCK_RECORD
  5
23
330
1
100
AcDbSymbolTableRecord
100
AcDbBlockTableRecord
  2
*Paper_Space0
340
26
 70
     0
280
     1
281
     0
  0
BLOCK_RECORD
  5
41
330
1
100
AcDbSymbolTableRecord
100
AcDbBlockTableRecord
  2
block 2
340
0
102
{BLKREFS
331
42
102
}
 70
     0
280
     1
281
     0
  0
BLOCK_RECORD
  5
47
330
1
100
AcDbSymbolTableRecord
100
AcDbBlockTableRecord
  2
block 3
340
0
102
{BLKREFS
331
48
102
}
 70
     0
280
     1
281
     0
  0
BLOCK_RECORD
  5
52
330
1
100
AcDbSymbolTableRecord
100
AcDbBlockTableRecord
  2
block 4
340
0
102
{BLKREFS
331
53
102
}
 70
     0
280
     1
281
     0
  0
BLOCK_RECORD
  5
5A
330
1
100
AcDbSymbolTableRecord
100
AcDbBlockTableRecord
  2
block 5
340
0
102
{BLKREFS
331
5B
102
}
 70
     0
280
     1
281
     0
  0
BLOCK_RECORD
  5
62
330
1
100
AcDbSymbolTableRecord
100
AcDbBlockTableRecord
  2
block 6
340
0
102
{BLKREFS
331
63
102
}
 70
     0
280
     1
281
     0
  0
BLOCK_RECORD
  5
6A
330
1
100
AcDbSymbolTableRecord
100
AcDbBlockTableRecord
  2
block 7
340
0
102
{BLKREFS
331
6B
102
}
 70
     0
280
     1
281
     0
  0
BLOCK_RECORD
  5
75
330
1
100
AcDbSymbolTableRecord
100
AcDbBlockTableRecord
  2
block 8
340
0
102
{BLKREFS
331
76
102
}
 70
     0
280
     1
281
     0
  0
BLOCK_RECORD
  5
80
330
1
100
AcDbSymbolTableRecord
100
AcDbBlockTableRecord
  2
block 9
340
0
102
{BLKREFS
331
81
102
}
 70
     0
280
     1
281
     0
  0
BLOCK_RECORD
  5
85
330
1
100
AcDbSymbolTableRecord
100
AcDbBlockTableRecord
  2
block 10
340
0
102
{BLKREFS
331
86
102
}
 70
     0
280
     1
281
     0
  0
BLOCK_RECORD
  5
8D
330
1
100
AcDbSymbolTableRecord
100
AcDbBlockTableRecord
  2
block 11
340
0
102
{BLKREFS
331
8E
102
}
 70
     0
280
     1
281
     0
  0
BLOCK_RECORD
  5
95
330
1
100
AcDbSymbolTableRecord
100
AcDbBlockTableRecord
  2
block 12
340
0
102
{BLKREFS
331
96
102
}
 70
     0
280
     1
281
     0
  0
BLOCK_RECORD
  5
9D
330
1
100
AcDbSymbolTableRecord
100
AcDbBlockTableRecord
  2
block 13
340
0
102
{BLKREFS
331
9E
102
}
 70
     0
280
     1
281
     0
  0
BLOCK_RECORD
  5
A8
330
1
100
AcDbSymbolTableRecord
100
AcDbBlockTableRecord
  2
block 14
340
0
102
{BLKREFS
331
A9
102
}
 70
     0
280
     1
281
     0
  0
BLOCK_RECORD
  5
B3
330
1
100
AcDbSymbolTableRecord
100
AcDbBlockTableRecord
  2
block 15
340
0
102
{BLKREFS
331
B4
102
}
 70
     0
280
     1
281
     0
  0
BLOCK_RECORD
  5
B8
330
1
100
AcDbSymbolTableRecord
100
AcDbBlockTableRecord
  2
block 16
340
0
102
{BLKREFS
331
B9
102
}
 70
     0
280
     1
281
     0
  0
BLOCK_RECORD
  5
C0
330
1
100
AcDbSymbolTableRecord
100
AcDbBlockTableRecord
  2
block 17
340
0
102
{BLKREFS
331
C1
102
}
 70
     0
280
     1
281
     0
  0
BLOCK_RECORD
  5
C8
330
1
100
AcDbSymbolTableRecord
100
AcDbBlockTableRecord
  2
block 18
340
0
102
{BLKREFS
331
C9
102
}
 70
     0
280
     1
281
     0
  0
BLOCK_RECORD
  5
D0
330
1
100
AcDbSymbolTableRecord
100
AcDbBlockTableRecord
  2
block 19
340
0
102
{BLKREFS
331
D1
102
}
 70
     0
280
     1
281
     0
  0
BLOCK_RECORD
  5
DB
330
1
100
AcDbSymbolTableRecord
100
AcDbBlockTableRecord
  2
block 20
340
0
102
{BLKREFS
331
DC
102
}
 70
     0
280
     1
281
     0
  0
BLOCK_RECORD
  5
E6
330
1
100
AcDbSymbolTableRecord
100
AcDbBlockTableRecord
  2
block 21
340
0
102
{BLKREFS
331
E7
102
}
 70
     0
280
     1
281
     0
  0
BLOCK_RECORD
  5
EB
330
1
100
AcDbSymbolTableRecord
100
AcDbBlockTableRecord
  2
block 22
340
0
102
{BLKREFS
331
EC
102
}
 70
     0
280
     1
281
     0
  0
BLOCK_RECORD
  5
F3
330
1
100
AcDbSymbolTableRecord
100
AcDbBlockTableRecord
  2
block 23
340
0
102
{BLKREFS
331
F4
102
}
 70
     0
280
     1
281
     0
  0
BLOCK_RECORD
  5
FB
330
1
100
AcDbSymbolTableRecord
100
AcDbBlockTableRecord
  2
block 24
340
0
102
{BLKREFS
331
FC
102
}
 70
     0
280
     1
281
     0
  0
BLOCK_RECORD
  5
103
330
1
100
AcDbSymbolTableRecord
100
AcDbBlockTableRecord
  2
block 25
340
0
102
{BLKREFS
331
104
102
}
 70
     0
280
     1
281
     0
  0
BLOCK_RECORD
  5
10E
330
1
100
AcDbSymbolTableRecord
100
AcDbBlockTableRecord
  2
block 26
340
0
102
{BLKREFS
331
10F
102
}
 70
     0
280
     1
281
     0
  0
BLOCK_RECORD
  5
119
330
1
100
AcDbSymbolTableRecord
100
AcDbBlockTableRecord
  2
block 27
340
0
102
{BLKREFS
331
11A
102
}
 70
     0
280
     1
281
     0
  0
BLOCK_RECORD
  5
11E
330
1
100
AcDbSymbolTableRecord
100
AcDbBlockTableRecord
  2
block 28
340
0
102
{BLKREFS
331
11F
102
}
 70
     0
280
     1
281
     0
  0
BLOCK_RECORD
  5
126
330
1
100
AcDbSymbolTableRecord
100
AcDbBlockTableRecord
  2
block 29
340
0
102
{BLKREFS
331
127
102
}
 70
     0
280
     1
281
     0
  0
BLOCK_RECORD
  5
12E
330
1
100
AcDbSymbolTableRecord
100
AcDbBlockTableRecord
  2
block 30
340
0
102
{BLKREFS
331
12F
102
}
 70
     0
280
     1
281
     0
  0
BLOCK_RECORD
  5
136
330
1
100
AcDbSymbolTableRecord
100
AcDbBlockTableRecord
  2
block 31
340
0
102
{BLKREFS
331
137
102
}
 70
     0
280
     1
281
     0
  0
BLOCK_RECORD
  5
141
330
1
100
AcDbSymbolTableRecord
100
AcDbBlockTableRecord
  2
block 32
340
0
102
{BLKREFS
331
142
102
}
 70
     0
280
     1
281
     0
  0
BLOCK_RECORD
  5
14C
330
1
100
AcDbSymbolTableRecord
100
AcDbBlockTableRecord
  2
block 33
340
0
102
{BLKREFS
331
14D
102
}
 70
     0
280
     1
281
     0
  0
BLOCK_RECORD
  5
151
330
1
100
AcDbSymbolTableRecord
100
AcDbBlockTableRecord
  2
block 34
340
0
102
{BLKREFS
331
152
102
}
 70
     0
280
     1
281
     0
  0
BLOCK_RECORD
  5
159
330
1
100
AcDbSymbolTableRecord
100
AcDbBlockTableRecord
  2
block 35
340
0
102
{BLKREFS
331
15A
102
}
 70
     0
280
     1
281
     0
  0
BLOCK_RECORD
  5
161
330
1
100
AcDbSymbolTableRecord
100
AcDbBlockTableRecord
  2
block 36
340
0
102
{BLKREFS
331
162
102
}
 70
     0
280
     1
281
     0
  0
BLOCK_RECORD
  5
169
330
1
100
AcDbSymbolTableRecord
100
AcDbBlockTableRecord
  2
block 37
340
0
102
{BLKREFS
331
16A
102
}
 70
     0
280
     1
281
     0
  0
BLOCK_RECORD
  5
174
330
1
100
AcDbSymbolTableRecord
100
AcDbBlockTableRecord
  2
block 38
340
0
102
{BLKREFS
331
175
102
}
 70
     0
280
     1
281
     0
  0
BLOCK_RECORD
  5
17F
330
1
100
AcDbSymbolTableRecord
100
AcDbBlockTableRecord
  2
block 39
340
0
102
{BLKREFS
331
180
102
}
 70
     0
280
     1
281
     0
  0
BLOCK_RECORD
  5
184
330
1
100
AcDbSymbolTableRecord
100
AcDbBlockTableRecord
  2
block 40
340
0
102
{BLKREFS
331
185
102
}
 70
     0
280
     1
281
     0
  0
BLOCK_RECORD
  5
18C
330
1
100
AcDbSymbolTableRecord
100
AcDbBlockTableRecord
  2
block 41
340
0
102
{BLKREFS
331
18D
102
}
 70
     0
280
     1
281
     0
  0
BLOCK_RECORD
  5
191
330
1
100
AcDbSymbolTableRecord
100
AcDbBlockTableRecord
  2
block 42
340
0
102
{BLKREFS
331
192
102
}
 70
     0
280
     1
281
     0
  0
BLOCK_RECORD
  5
19C
330
1
100
AcDbSymbolTableRecord
100
AcDbBlockTableRecord
  2
block 43
340
0
102
{BLKREFS
331
19D
102
}
 70
     0
280
     1
281
     0
  0
BLOCK_RECORD
  5
1A4
330
1
100
AcDbSymbolTableRecord
100
AcDbBlockTableRecord
  2
block 44
340
0
102
{BLKREFS
331
1A5
102
}
 70
     0
280
     1
281
     0
  0
BLOCK_RECORD
  5
1A9
330
1
100
AcDbSymbolTableRecord
100
AcDbBlockTableRecord
  2
block 45
340
0
102
{BLKREFS
331
1AA
102
}
 70
     0
280
     1
281
     0
  0
BLOCK_RECORD
  5
1B4
330
1
100
AcDbSymbolTableRecord
100
AcDbBlockTableRecord
  2
block 46
340
0
102
{BLKREFS
331
1B5
102
}
 70
     0
280
     1
281
     0
  0
BLOCK_RECORD
  5
1BC
330
1
100
AcDbSymbolTableRecord
100
AcDbBlockTableRecord
  2
block 47
340
0
102
{BLKREFS
331
1BD
102
}
 70
     0
280
     1
281
     0
  0
BLOCK_RECORD
  5
1C4
330
1
100
AcDbSymbolTableRecord
100
AcDbBlockTableRecord
  2
block 48
340
0
102
{BLKREFS
331
1C5
102
}
 70
     0
280
     1
281
     0
  0
BLOCK_RECORD
  5
1C9
330
1
100
AcDbSymbolTableRecord
100
AcDbBlockTableRecord
  2
block 49
340
0
102
{BLKREFS
331
1CA
102
}
 70
     0
280
     1
281
     0
  0
BLOCK_RECORD
  5
1D4
330
1
100
AcDbSymbolTableRecord
100
AcDbBlockTableRecord
  2
block 50
340
0
102
{BLKREFS
331
1D5
102
}
 70
     0
280
     1
281
     0
  0
BLOCK_RECORD
  5
1DC
330
1
100
AcDbSymbolTableRecord
100
AcDbBlockTableRecord
  2
block 51
340
0
102
{BLKREFS
331
1DD
102
}
 70
     0
280
     1
281
     0
  0
BLOCK_RECORD
  5
1E4
330
1
100
AcDbSymbolTableRecord
100
AcDbBlockTableRecord
  2
block 52
340
0
102
{BLKREFS
331
1E5
102
}
 70
     0
280
     1
281
     0
  0
BLOCK_RECORD
  5
1E9
330
1
100
AcDbSymbolTableRecord
100
AcDbBlockTableRecord
  2
block 53
340
0
102
{BLKREFS
331
1EA
102
}
 70
     0
280
     1
281
     0
  0
BLOCK_RECORD
  5
1F4
330
1
100
AcDbSymbolTableRecord
100
AcDbBlockTableRecord
  2
block 54
340
0
102
{BLKREFS
331
1F5
102
}
 70
     0
280
     1
281
     0
  0
BLOCK_RECORD
  5
1FC
330
1
100
AcDbSymbolTableRecord
100
AcDbBlockTableRecord
  2
block 55
340
0
102
{BLKREFS
331
1FD
102
}
 70
     0
280
     1
281
     0
  0
BLOCK_RECORD
  5
204
330
1
100
AcDbSymbolTableRecord
100
AcDbBlockTableRecord
  2
block 56
340
0
102
{BLKREFS
331
205
102
}
 70
     0
280
     1
281
     0
  0
BLOCK_RECORD
  5
209
330
1
100
AcDbSymbolTableRecord
100
AcDbBlockTableRecord
  2
block 57
340
0
102
{BLKREFS
331
20A
102
}
 70
     0
280
     1
281
     0
  0
BLOCK_RECORD
  5
214
330
1
100
AcDbSymbolTableRecord
100
AcDbBlockTableRecord
  2
block 58
340
0
102
{BLKREFS
331
215
102
}
 70
     0
280
     1
281
     0
  0
BLOCK_RECORD
  5
21C
330
1
100
AcDbSymbolTableRecord
100
AcDbBlockTableRecord
  2
block 59
340
0
102
{BLKREFS
331
21D
102
}
 70
     0
280
     1
281
     0
  0
BLOCK_RECORD
  5
224
330
1
100
AcDbSymbolTableRecord
100
AcDbBlockTableRecord
  2
block 60
340
0
102
{BLKREFS
331
225
102
}
 70
     0
280
     1
281
     0
  0
BLOCK_RECORD
  5
229
330
1
100
AcDbSymbolTableRecord
100
AcDbBlockTableRecord
  2
block 61
340
0
102
{BLKREFS
331
22A
102
}
 70
     0
280
     1
281
     0
  0
BLOCK_RECORD
  5
231
330
1
100
AcDbSymbolTableRecord
100
AcDbBlockTableRecord
  2
block 62
340
0
102
{BLKREFS
331
232
102
}
 70
     0
280
     1
281
     0
  0
BLOCK_RECORD
  5
23C
330
1
100
AcDbSymbolTableRecord
100
AcDbBlockTableRecord
  2
block 63
340
0
102
{BLKREFS
331
23D
102
}
 70
     0
280
     1
281
     0
  0
BLOCK_RECORD
  5
244
330
1
100
AcDbSymbolTableRecord
100
AcDbBlockTableRecord
  2
block 64
340
0
102
{BLKREFS
331
245
102
}
 70
     0
280
     1
281
     0
  0
BLOCK_RECORD
  5
249
330
1
100
AcDbSymbolTableRecord
100
AcDbBlockTableRecord
  2
block 65
340
0
102
{BLKREFS
331
24A
102
}
 70
     0
280
     1
281
     0
  0
BLOCK_RECORD
  5
255
330
1
100
AcDbSymbolTableRecord
100
AcDbBlockTableRecord
  2
block 66
340
0
102
{BLKREFS
331
256
102
}
 70
     0
280
     1
281
     0
  0
BLOCK_RECORD
  5
25B
330
1
100
AcDbSymbolTableRecord
100
AcDbBlockTableRecord
  2
block 67
340
0
102
{BLKREFS
331
25C
102
}
 70
     0
280
     1
281
     0
  0
BLOCK_RECORD
  5
260
330
1
100
AcDbSymbolTableRecord
100
AcDbBlockTableRecord
  2
block 68
340
0
102
{BLKREFS
331
261
102
}
 70
     0
280
     1
281
     0
  0
BLOCK_RECORD
  5
267
330
1
100
AcDbSymbolTableRecord
100
AcDbBlockTableRecord
  2
block 69
340
0
102
{BLKREFS
331
268
102
}
 70
     0
280
     1
281
     0
  0
BLOCK_RECORD
  5
26F
330
1
100
AcDbSymbolTableRecord
100
AcDbBlockTableRecord
  2
block 70
340
0
102
{BLKREFS
331
270
102
}
 70
     0
280
     1
281
     0
  0
BLOCK_RECORD
  5
277
330
1
100
AcDbSymbolTableRecord
100
AcDbBlockTableRecord
  2
block 71
340
0
102
{BLKREFS
331
278
102
}
 70
     0
280
     1
281
     0
  0
BLOCK_RECORD
  5
27F
330
1
100
AcDbSymbolTableRecord
100
AcDbBlockTableRecord
  2
block 72
340
0
102
{BLKREFS
331
280
102
}
 70
     0
280
     1
281
     0
  0
BLOCK_RECORD
  5
287
330
1
100
AcDbSymbolTableRecord
100
AcDbBlockTableRecord
  2
block 73
340
0
102
{BLKREFS
331
288
102
}
 70
     0
280
     1
281
     0
  0
BLOCK_RECORD
  5
28F
330
1
100
AcDbSymbolTableRecord
100
AcDbBlockTableRecord
  2
block 74
340
0
102
{BLKREFS
331
290
102
}
 70
     0
280
     1
281
     0
  0
BLOCK_RECORD
  5
297
330
1
100
AcDbSymbolTableRecord
100
AcDbBlockTableRecord
  2
block 75
340
0
102
{BLKREFS
331
298
102
}
 70
     0
280
     1
281
     0
  0
BLOCK_RECORD
  5
29F
330
1
100
AcDbSymbolTableRecord
100
AcDbBlockTableRecord
  2
block 76
340
0
102
{BLKREFS
331
2A0
102
}
 70
     0
280
     1
281
     0
  0
BLOCK_RECORD
  5
2A7
330
1
100
AcDbSymbolTableRecord
100
AcDbBlockTableRecord
  2
block 77
340
0
102
{BLKREFS
331
2A8
102
}
 70
     0
280
     1
281
     0
  0
BLOCK_RECORD
  5
2AF
330
1
100
AcDbSymbolTableRecord
100
AcDbBlockTableRecord
  2
block 78
340
0
102
{BLKREFS
331
2B0
102
}
 70
     0
280
     1
281
     0
  0
BLOCK_RECORD
  5
2B7
330
1
100
AcDbSymbolTableRecord
100
AcDbBlockTableRecord
  2
block 79
340
0
102
{BLKREFS
331
2B8
102
}
 70
     0
280
     1
281
     0
  0
BLOCK_RECORD
  5
2BF
330
1
100
AcDbSymbolTableRecord
100
AcDbBlockTableRecord
  2
block 80
340
0
102
{BLKREFS
331
2C0
102
}
 70
     0
280
     1
281
     0
  0
BLOCK_RECORD
  5
2C7
330
1
100
AcDbSymbolTableRecord
100
AcDbBlockTableRecord
  2
block 81
340
0
102
{BLKREFS
331
2C8
102
}
 70
     0
280
     1
281
     0
  0
BLOCK_RECORD
  5
2CF
330
1
100
AcDbSymbolTableRecord
100
AcDbBlockTableRecord
  2
block 82
340
0
102
{BLKREFS
331
2D0
102
}
 70
     0
280
     1
281
     0
  0
BLOCK_RECORD
  5
2D7
330
1
100
AcDbSymbolTableRecord
100
AcDbBlockTableRecord
  2
block 83
340
0
102
{BLKREFS
331
2D8
102
}
 70
     0
280
     1
281
     0
  0
BLOCK_RECORD
  5
2DF
330
1
100
AcDbSymbolTableRecord
100
AcDbBlockTableRecord
  2
block 84
340
0
102
{BLKREFS
331
2E0
102
}
 70
     0
280
     1
281
     0
  0
BLOCK_RECORD
  5
2E7
330
1
100
AcDbSymbolTableRecord
100
AcDbBlockTableRecord
  2
block 85
340
0
102
{BLKREFS
331
2E8
102
}
 70
     0
280
     1
281
     0
  0
BLOCK_RECORD
  5
2EF
330
1
100
AcDbSymbolTableRecord
100
AcDbBlockTableRecord
  2
block 86
340
0
102
{BLKREFS
331
2F0
102
}
 70
     0
280
     1
281
     0
  0
BLOCK_RECORD
  5
2F7
330
1
100
AcDbSymbolTableRecord
100
AcDbBlockTableRecord
  2
block 87
340
0
102
{BLKREFS
331
2F8
102
}
 70
     0
280
     1
281
     0
  0
BLOCK_RECORD
  5
2FF
330
1
100
AcDbSymbolTableRecord
100
AcDbBlockTableRecord
  2
block 88
340
0
102
{BLKREFS
331
300
102
}
 70
     0
280
     1
281
     0
  0
BLOCK_RECORD
  5
307
330
1
100
AcDbSymbolTableRecord
100
AcDbBlockTableRecord
  2
block 89
340
0
102
{BLKREFS
331
308
102
}
 70
     0
280
     1
281
     0
  0
BLOCK_RECORD
  5
30F
330
1
100
AcDbSymbolTableRecord
100
AcDbBlockTableRecord
  2
block 90
340
0
102
{BLKREFS
331
310
102
}
 70
     0
280
     1
281
     0
  0
BLOCK_RECORD
  5
317
330
1
100
AcDbSymbolTableRecord
100
AcDbBlockTableRecord
  2
block 91
340
0
102
{BLKREFS
331
318
102
}
 70
     0
280
     1
281
     0
  0
BLOCK_RECORD
  5
31F
330
1
100
AcDbSymbolTableRecord
100
AcDbBlockTableRecord
  2
block 92
340
0
102
{BLKREFS
331
320
102
}
 70
     0
280
     1
281
     0
  0
BLOCK_RECORD
  5
327
330
1
100
AcDbSymbolTableRecord
100
AcDbBlockTableRecord
  2
block 93
340
0
102
{BLKREFS
331
328
102
}
 70
     0
280
     1
281
     0
  0
BLOCK_RECORD
  5
32F
330
1
100
AcDbSymbolTableRecord
100
AcDbBlockTableRecord
  2
block 94
340
0
102
{BLKREFS
331
330
102
}
 70
     0
280
     1
281
     0
  0
BLOCK_RECORD
  5
337
330
1
100
AcDbSymbolTableRecord
100
AcDbBlockTableRecord
  2
block 95
340
0
102
{BLKREFS
331
338
102
}
 70
     0
280
     1
281
     0
  0
BLOCK_RECORD
  5
33F
330
1
100
AcDbSymbolTableRecord
100
AcDbBlockTableRecord
  2
block 96
340
0
102
{BLKREFS
331
340
102
}
 70
     0
280
     1
281
     0
  0
BLOCK_RECORD
  5
347
330
1
100
AcDbSymbolTableRecord
100
AcDbBlockTableRecord
  2
block 97
340
0
102
{BLKREFS
331
348
102
}
 70
     0
280
     1
281
     0
  0
BLOCK_RECORD
  5
34F
330
1
100
AcDbSymbolTableRecord
100
AcDbBlockTableRecord
  2
block 98
340
0
102
{BLKREFS
331
350
102
}
 70
     0
280
     1
281
     0
  0
BLOCK_RECORD
  5
357
330
1
100
AcDbSymbolTableRecord
100
AcDbBlockTableRecord
  2
block 99
340
0
102
{BLKREFS
331
358
102
}
 70
     0
280
     1
281
     0
  0
BLOCK_RECORD
  5
35F
330
1
100
AcDbSymbolTableRecord
100
AcDbBlockTableRecord
  2
block 100
340
0
102
{BLKREFS
331
360
102
}
 70
     0
280
     1
281
     0
  0
ENDTAB
  0
ENDSEC
  0
SECTION
  2
BLOCKS
  0
BLOCK
  5
20
330
1F
100
AcDbEntity
  8
0
100
AcDbBlockBegin
  2
*Model_Space
 70
     0
 10
0.0
 20
0.0
 30
0.0
  3
*Model_Space
  1

  0
ENDBLK
  5
21
330
1F
100
AcDbEntity
  8
0
100
AcDbBlockEnd
  0
BLOCK
  5
1C
330
1B
100
AcDbEntity
 67
     1
  8
0
100
AcDbBlockBegin
  2
*Paper_Space
 70
     0
 10
0.0
 20
0.0
 30
0.0
  3
*Paper_Space
  1

  0
ENDBLK
  5
1D
330
1B
100
AcDbEntity
 67
     1
  8
0
100
AcDbBlockEnd
  0
BLOCK
  5
24
330
23
100
AcDbEntity
  8
0
100
AcDbBlockBegin
  2
*Paper_Space0
 70
     0
 10
0.0
 20
0.0
 30
0.0
  3
*Paper_Space0
  1

  0
ENDBLK
  5
25
330
23
100
AcDbEntity
  8
0
100
AcDbBlockEnd
  0
BLOCK
  5
43
330
41
100
AcDbEntity
  8
0
100
AcDbBlockBegin
  2
block 2
 70
     0
 10
0.0
 20
0.0
 30
0.0
  3
block 2
  1

  0
MTEXT
  5
45
330
41
100
AcDbEntity
  8
_U+56FE_U+5C423
 62
     3
420
    65280
100
AcDbMText
 10
3.750279320610894
 20
3.159159342447917
 30
0.0
 40
0.1861237529118856
 41
0.0
 46
0.0
 71
     7
 72
     1
  1
\fMyriad Pro|b0|i0|c0|p34;\W1;HU207003R
 73
     1
 44
1.0
  0
MTEXT
  5
46
330
41
100
AcDbEntity
  8
_U+56FE_U+5C423
 62
     7
420
 16777215
100
AcDbMText
 10
7.944444444444444
 20
2.777777777777778
 30
0.0
 40
0.118
 41
0.0
 46
0.0
 71
     7
 72
     1
  1
\fMyriad Pro|b0|i0|c0|p34;\W1;Bosco
 73
     1
 44
1.0
  0
ENDBLK
  5
44
330
41
100
AcDbEntity
  8
0
100
AcDbBlockEnd
  0
BLOCK
  5
49
330
47
100
AcDbEntity
  8
0
100
AcDbBlockBegin
  2
block 3
 70
     0
 10
0.0
 20
0.0
 30
0.0
  3
block 3
  1

  0
POLYLINE
  5
4B
330
47
100
AcDbEntity
  8
_U+56FE_U+5C423
 62
     3
420
    65280
370
    25
100
AcDb2dPolyline
 66
     1
 10
0.0
 20
0.0
 30
0.0
  0
VERTEX
  5
4C
330
4B
100
AcDbEntity
  8
_U+56FE_U+5C423
 62
     3
420
    65280
370
    25
100
AcDbVertex
100
AcDb2dVertex
 10
8.498366013071896
 20
2.652158154606645
 30
0.0
  0
VERTEX
  5
4D
330
4B
100
AcDbEntity
  8
_U+56FE_U+5C423
 62
     3
420
    65280
370
    25
100
AcDbVertex
100
AcDb2dVertex
 10
0.0016339869281031
 20
2.652158154606645
 30
0.0
  0
VERTEX
  5
4E
330
4B
100
AcDbEntity
  8
_U+56FE_U+5C423
 62
     3
420
    65280
370
    25
100
AcDbVertex
100
AcDb2dVertex
 10
0.0016339869281031
 20
8.347841845393367
 30
0.0
  0
VERTEX
  5
4F
330
4B
100
AcDbEntity
  8
_U+56FE_U+5C423
 62
     3
420
    65280
370
    25
100
AcDbVertex
100
AcDb2dVertex
 10
8.498366013071896
 20
8.347841845393367
 30
0.0
  0
VERTEX
  5
50
330
4B
100
AcDbEntity
  8
_U+56FE_U+5C423
 62
     3
420
    65280
370
    25
100
AcDbVertex
100
AcDb2dVertex
 10
8.498366013071896
 20
2.652158154606645
 30
0.0
  0
SEQEND
  5
51
330
4B
100
AcDbEntity
  8
_U+56FE_U+5C423
 62
     3
420
    65280
370
    25
  0
ENDBLK
  5
4A
330
47
100
AcDbEntity
  8
0
100
AcDbBlockEnd
  0
BLOCK
  5
54
330
52
100
AcDbEntity
  8
0
100
AcDbBlockBegin
  2
block 4
 70
     0
 10
0.0
 20
0.0
 30
0.0
  3
block 4
  1

  0
POLYLINE
  5
56
330
52
100
AcDbEntity
  8
_U+56FE_U+5C423
 62
     3
420
    65280
370
    25
100
AcDb2dPolyline
 66
     1
 10
0.0
 20
0.0
 30
0.0
  0
VERTEX
  5
57
330
56
100
AcDbEntity
  8
_U+56FE_U+5C423
 62
     3
420
    65280
370
    25
100
AcDbVertex
100
AcDb2dVertex
 10
6.759097455082357
 20
5.946078056449651
 30
0.0
  0
VERTEX
  5
58
330
56
100
AcDbEntity
  8
_U+56FE_U+5C423
 62
     3
420
    65280
370
    25
100
AcDbVertex
100
AcDb2dVertex
 10
6.779672129322257
 20
4.363320646228809
 30
0.0
  0
SEQEND
  5
59
330
56
100
AcDbEntity
  8
_U+56FE_U+5C423
 62
     3
420
    65280
370
    25
  0
ENDBLK
  5
55
330
52
100
AcDbEntity
  8
0
100
AcDbBlockEnd
  0
BLOCK
  5
5C
330
5A
100
AcDbEntity
  8
0
100
AcDbBlockBegin
  2
block 5
 70
     0
 10
0.0
 20
0.0
 30
0.0
  3
block 5
  1

  0
POLYLINE
  5
5E
330
5A
100
AcDbEntity
  8
_U+56FE_U+5C423
 62
     3
420
    65280
370
    25
100
AcDb2dPolyline
 66
     1
 10
0.0
 20
0.0
 30
0.0
  0
VERTEX
  5
5F
330
5E
100
AcDbEntity
  8
_U+56FE_U+5C423
 62
     3
420
    65280
370
    25
100
AcDbVertex
100
AcDb2dVertex
 10
2.199354706024122
 20
5.89418317518645
 30
0.0
  0
VERTEX
  5
60
330
5E
100
AcDbEntity
  8
_U+56FE_U+5C423
 62
     3
420
    65280
370
    25
100
AcDbVertex
100
AcDb2dVertex
 10
2.220025277766707
 20
4.304048613753164
 30
0.0
  0
SEQEND
  5
61
330
5E
100
AcDbEntity
  8
_U+56FE_U+5C423
 62
     3
420
    65280
370
    25
  0
ENDBLK
  5
5D
330
5A
100
AcDbEntity
  8
0
100
AcDbBlockEnd
  0
BLOCK
  5
64
330
62
100
AcDbEntity
  8
0
100
AcDbBlockBegin
  2
block 6
 70
     0
 10
0.0
 20
0.0
 30
0.0
  3
block 6
  1

  0
POLYLINE
  5
66
330
62
100
AcDbEntity
  8
_U+56FE_U+5C423
 62
     3
420
    65280
370
    25
100
AcDb2dPolyline
 66
     1
 10
0.0
 20
0.0
 30
0.0
  0
VERTEX
  5
67
330
66
100
AcDbEntity
  8
_U+56FE_U+5C423
 62
     3
420
    65280
370
    25
100
AcDbVertex
100
AcDb2dVertex
 10
6.68651730916723
 20
4.369865514361209
 30
0.0
  0
VERTEX
  5
68
330
66
100
AcDbEntity
  8
_U+56FE_U+5C423
 62
     3
420
    65280
370
    25
100
AcDbVertex
100
AcDb2dVertex
 10
2.312978492369072
 20
4.313012748517218
 30
0.0
  0
SEQEND
  5
69
330
66
100
AcDbEntity
  8
_U+56FE_U+5C423
 62
     3
420
    65280
370
    25
  0
ENDBLK
  5
65
330
62
100
AcDbEntity
  8
0
100
AcDbBlockEnd
  0
BLOCK
  5
6C
330
6A
100
AcDbEntity
  8
0
100
AcDbBlockBegin
  2
block 7
 70
     0
 10
0.0
 20
0.0
 30
0.0
  3
block 7
  1

  0
POLYLINE
  5
6E
330
6A
100
AcDbEntity
  8
_U+56FE_U+5C423
370
     0
100
AcDb2dPolyline
 66
     1
 10
0.0
 20
0.0
 30
0.0
  0
VERTEX
  5
6F
330
6E
100
AcDbEntity
  8
_U+56FE_U+5C423
370
     0
100
AcDbVertex
100
AcDb2dVertex
 10
6.686315703614607
 20
4.385374517257635
 30
0.0
  0
VERTEX
  5
70
330
6E
100
AcDbEntity
  8
_U+56FE_U+5C423
370
     0
100
AcDbVertex
100
AcDb2dVertex
 10
6.77957132654592
 20
4.371075147677049
 30
0.0
  0
VERTEX
  5
71
330
6E
100
AcDbEntity
  8
_U+56FE_U+5C423
370
     0
100
AcDbVertex
100
AcDb2dVertex
 10
6.686718914719878
 20
4.354356511464756
 30
0.0
  0
VERTEX
  5
72
330
6E
100
AcDbEntity
  8
_U+56FE_U+5C423
370
     0
100
AcDbVertex
100
AcDb2dVertex
 10
6.686315703614607
 20
4.385374517257635
 30
0.0
  0
SEQEND
  5
74
330
6E
100
AcDbEntity
  8
_U+56FE_U+5C423
370
     0
  0
HATCH
  5
73
330
6A
100
AcDbEntity
  8
_U+56FE_U+5C423
 62
     3
420
    65280
100
AcDbHatch
 10
0.0
 20
0.0
 30
0.0
210
0.0
220
0.0
230
1.0
  2
SOLID
 70
     1
 71
     0
 91
        1
 92
        1
 93
        3
 72
     1
 10
6.686315703614607
 20
4.385374517257635
 11
6.77957132654592
 21
4.371075147677049
 72
     1
 10
6.77957132654592
 20
4.371075147677049
 11
6.686718914719878
 21
4.354356511464756
 72
     1
 10
6.686718914719878
 20
4.354356511464756
 11
6.686315703614607
 21
4.385374517257635
 97
        0
 75
     2
 76
     1
 98
        0
  0
ENDBLK
  5
6D
330
6A
100
AcDbEntity
  8
0
100
AcDbBlockEnd
  0
BLOCK
  5
77
330
75
100
AcDbEntity
  8
0
100
AcDbBlockBegin
  2
block 8
 70
     0
 10
0.0
 20
0.0
 30
0.0
  3
block 8
  1

  0
POLYLINE
  5
79
330
75
100
AcDbEntity
  8
_U+56FE_U+5C423
370
     0
100
AcDb2dPolyline
 66
     1
 10
0.0
 20
0.0
 30
0.0
  0
VERTEX
  5
7A
330
79
100
AcDbEntity
  8
_U+56FE_U+5C423
370
     0
100
AcDbVertex
100
AcDb2dVertex
 10
2.312776886816437
 20
4.328521751413669
 30
0.0
  0
VERTEX
  5
7B
330
79
100
AcDbEntity
  8
_U+56FE_U+5C423
370
     0
100
AcDbVertex
100
AcDb2dVertex
 10
2.219924474990383
 20
4.311803115201402
 30
0.0
  0
VERTEX
  5
7C
330
79
100
AcDbEntity
  8
_U+56FE_U+5C423
370
     0
100
AcDbVertex
100
AcDb2dVertex
 10
2.313180097921708
 20
4.297503745620765
 30
0.0
  0
VERTEX
  5
7D
330
79
100
AcDbEntity
  8
_U+56FE_U+5C423
370
     0
100
AcDbVertex
100
AcDb2dVertex
 10
2.312776886816437
 20
4.328521751413669
 30
0.0
  0
SEQEND
  5
7F
330
79
100
AcDbEntity
  8
_U+56FE_U+5C423
370
     0
  0
HATCH
  5
7E
330
75
100
AcDbEntity
  8
_U+56FE_U+5C423
 62
     3
420
    65280
100
AcDbHatch
 10
0.0
 20
0.0
 30
0.0
210
0.0
220
0.0
230
1.0
  2
SOLID
 70
     1
 71
     0
 91
        1
 92
        1
 93
        3
 72
     1
 10
2.312776886816437
 20
4.328521751413669
 11
2.219924474990383
 21
4.311803115201402
 72
     1
 10
2.219924474990383
 20
4.311803115201402
 11
2.313180097921708
 21
4.297503745620765
 72
     1
 10
2.313180097921708
 20
4.297503745620765
 11
2.312776886816437
 21
4.328521751413669
 97
        0
 75
     2
 76
     1
 98
        0
  0
ENDBLK
  5
78
330
75
100
AcDbEntity
  8
0
100
AcDbBlockEnd
  0
BLOCK
  5
82
330
80
100
AcDbEntity
  8
0
100
AcDbBlockBegin
  2
block 9
 70
     0
 10
0.0
 20
0.0
 30
0.0
  3
block 9
  1

  0
MTEXT
  5
84
330
80
100
AcDbEntity
  8
_U+56FE_U+5C423
 62
     3
420
    65280
100
AcDbMText
 10
3.987463391023791
 20
4.372448411537334
 30
0.0
 40
0.093061878305878
 41
0.0
 46
0.0
 71
     7
 72
     1
  1
\fMyriad Pro|b0|i0|c0|p34;\W1;735 [28 7/8]
 11
0.9999155203414812
 21
0.01299816064775143
 31
0.0
 73
     1
 44
1.0
  0
ENDBLK
  5
83
330
80
100
AcDbEntity
  8
0
100
AcDbBlockEnd
  0
BLOCK
  5
87
330
85
100
AcDbEntity
  8
0
100
AcDbBlockBegin
  2
block 10
 70
     0
 10
0.0
 20
0.0
 30
0.0
  3
block 10
  1

  0
POLYLINE
  5
89
330
85
100
AcDbEntity
  8
_U+56FE_U+5C423
 62
     3
420
    65280
370
    25
100
AcDb2dPolyline
 66
     1
 10
0.0
 20
0.0
 30
0.0
  0
VERTEX
  5
8A
330
89
100
AcDbEntity
  8
_U+56FE_U+5C423
 62
     3
420
    65280
370
    25
100
AcDbVertex
100
AcDb2dVertex
 10
6.821133466668167
 20
5.946884478660207
 30
0.0
  0
VERTEX
  5
8B
330
89
100
AcDbEntity
  8
_U+56FE_U+5C423
 62
     3
420
    65280
370
    25
100
AcDbVertex
100
AcDb2dVertex
 10
6.844889197916776
 20
4.119416435639096
 30
0.0
  0
SEQEND
  5
8C
330
89
100
AcDbEntity
  8
_U+56FE_U+5C423
 62
     3
420
    65280
370
    25
  0
ENDBLK
  5
88
330
85
100
AcDbEntity
  8
0
100
AcDbBlockEnd
  0
BLOCK
  5
8F
330
8D
100
AcDbEntity
  8
0
100
AcDbBlockBegin
  2
block 11
 70
     0
 10
0.0
 20
0.0
 30
0.0
  3
block 11
  1

  0
POLYLINE
  5
91
330
8D
100
AcDbEntity
  8
_U+56FE_U+5C423
 62
     3
420
    65280
370
    25
100
AcDb2dPolyline
 66
     1
 10
0.0
 20
0.0
 30
0.0
  0
VERTEX
  5
92
330
91
100
AcDbEntity
  8
_U+56FE_U+5C423
 62
     3
420
    65280
370
    25
100
AcDbVertex
100
AcDb2dVertex
 10
2.137318694438325
 20
5.893376752975933
 30
0.0
  0
VERTEX
  5
93
330
91
100
AcDbEntity
  8
_U+56FE_U+5C423
 62
     3
420
    65280
370
    25
100
AcDbVertex
100
AcDb2dVertex
 10
2.161170323189632
 20
4.058531558742364
 30
0.0
  0
SEQEND
  5
94
330
91
100
AcDbEntity
  8
_U+56FE_U+5C423
 62
     3
420
    65280
370
    25
  0
ENDBLK
  5
90
330
8D
100
AcDbEntity
  8
0
100
AcDbBlockEnd
  0
BLOCK
  5
97
330
95
100
AcDbEntity
  8
0
100
AcDbBlockBegin
  2
block 12
 70
     0
 10
0.0
 20
0.0
 30
0.0
  3
block 12
  1

  0
POLYLINE
  5
99
330
95
100
AcDbEntity
  8
_U+56FE_U+5C423
 62
     3
420
    65280
370
    25
100
AcDb2dPolyline
 66
     1
 10
0.0
 20
0.0
 30
0.0
  0
VERTEX
  5
9A
330
99
100
AcDbEntity
  8
_U+56FE_U+5C423
 62
     3
420
    65280
370
    25
100
AcDbVertex
100
AcDb2dVertex
 10
6.751734377761775
 20
4.125961303771494
 30
0.0
  0
VERTEX
  5
9B
330
99
100
AcDbEntity
  8
_U+56FE_U+5C423
 62
     3
420
    65280
370
    25
100
AcDbVertex
100
AcDb2dVertex
 10
2.25412353779201
 20
4.067495693506418
 30
0.0
  0
SEQEND
  5
9C
330
99
100
AcDbEntity
  8
_U+56FE_U+5C423
 62
     3
420
    65280
370
    25
  0
ENDBLK
  5
98
330
95
100
AcDbEntity
  8
0
100
AcDbBlockEnd
  0
BLOCK
  5
9F
330
9D
100
AcDbEntity
  8
0
100
AcDbBlockBegin
  2
block 13
 70
     0
 10
0.0
 20
0.0
 30
0.0
  3
block 13
  1

  0
POLYLINE
  5
A1
330
9D
100
AcDbEntity
  8
_U+56FE_U+5C423
370
     0
100
AcDb2dPolyline
 66
     1
 10
0.0
 20
0.0
 30
0.0
  0
VERTEX
  5
A2
330
A1
100
AcDbEntity
  8
_U+56FE_U+5C423
370
     0
100
AcDbVertex
100
AcDb2dVertex
 10
6.751532772209126
 20
4.141470306667947
 30
0.0
  0
VERTEX
  5
A3
330
A1
100
AcDbEntity
  8
_U+56FE_U+5C423
370
     0
100
AcDbVertex
100
AcDb2dVertex
 10
6.844788395140464
 20
4.127170937087334
 30
0.0
  0
VERTEX
  5
A4
330
A1
100
AcDbEntity
  8
_U+56FE_U+5C423
370
     0
100
AcDbVertex
100
AcDb2dVertex
 10
6.751935983314397
 20
4.110452300875042
 30
0.0
  0
VERTEX
  5
A5
330
A1
100
AcDbEntity
  8
_U+56FE_U+5C423
370
     0
100
AcDbVertex
100
AcDb2dVertex
 10
6.751532772209126
 20
4.141470306667947
 30
0.0
  0
SEQEND
  5
A7
330
A1
100
AcDbEntity
  8
_U+56FE_U+5C423
370
     0
  0
HATCH
  5
A6
330
9D
100
AcDbEntity
  8
_U+56FE_U+5C423
 62
     3
420
    65280
100
AcDbHatch
 10
0.0
 20
0.0
 30
0.0
210
0.0
220
0.0
230
1.0
  2
SOLID
 70
     1
 71
     0
 91
        1
 92
        1
 93
        3
 72
     1
 10
6.751532772209126
 20
4.141470306667947
 11
6.844788395140464
 21
4.127170937087334
 72
     1
 10
6.844788395140464
 20
4.127170937087334
 11
6.751935983314397
 21
4.110452300875042
 72
     1
 10
6.751935983314397
 20
4.110452300875042
 11
6.751532772209126
 21
4.141470306667947
 97
        0
 75
     2
 76
     1
 98
        0
  0
ENDBLK
  5
A0
330
9D
100
AcDbEntity
  8
0
100
AcDbBlockEnd
  0
BLOCK
  5
AA
330
A8
100
AcDbEntity
  8
0
100
AcDbBlockBegin
  2
block 14
 70
     0
 10
0.0
 20
0.0
 30
0.0
  3
block 14
  1

  0
POLYLINE
  5
AC
330
A8
100
AcDbEntity
  8
_U+56FE_U+5C423
370
     0
100
AcDb2dPolyline
 66
     1
 10
0.0
 20
0.0
 30
0.0
  0
VERTEX
  5
AD
330
AC
100
AcDbEntity
  8
_U+56FE_U+5C423
370
     0
100
AcDbVertex
100
AcDb2dVertex
 10
2.253921932239362
 20
4.083004696402845
 30
0.0
  0
VERTEX
  5
AE
330
AC
100
AcDbEntity
  8
_U+56FE_U+5C423
370
     0
100
AcDbVertex
100
AcDb2dVertex
 10
2.161069520413321
 20
4.066286060190578
 30
0.0
  0
VERTEX
  5
AF
330
AC
100
AcDbEntity
  8
_U+56FE_U+5C423
370
     0
100
AcDbVertex
100
AcDb2dVertex
 10
2.254325143344646
 20
4.051986690609965
 30
0.0
  0
VERTEX
  5
B0
330
AC
100
AcDbEntity
  8
_U+56FE_U+5C423
370
     0
100
AcDbVertex
100
AcDb2dVertex
 10
2.253921932239362
 20
4.083004696402845
 30
0.0
  0
SEQEND
  5
B2
330
AC
100
AcDbEntity
  8
_U+56FE_U+5C423
370
     0
  0
HATCH
  5
B1
330
A8
100
AcDbEntity
  8
_U+56FE_U+5C423
 62
     3
420
    65280
100
AcDbHatch
 10
0.0
 20
0.0
 30
0.0
210
0.0
220
0.0
230
1.0
  2
SOLID
 70
     1
 71
     0
 91
        1
 92
        1
 93
        3
 72
     1
 10
2.253921932239362
 20
4.083004696402845
 11
2.161069520413321
 21
4.066286060190578
 72
     1
 10
2.161069520413321
 20
4.066286060190578
 11
2.254325143344646
 21
4.051986690609965
 72
     1
 10
2.254325143344646
 20
4.051986690609965
 11
2.253921932239362
 21
4.083004696402845
 97
        0
 75
     2
 76
     1
 98
        0
  0
ENDBLK
  5
AB
330
A8
100
AcDbEntity
  8
0
100
AcDbBlockEnd
  0
BLOCK
  5
B5
330
B3
100
AcDbEntity
  8
0
100
AcDbBlockBegin
  2
block 15
 70
     0
 10
0.0
 20
0.0
 30
0.0
  3
block 15
  1

  0
MTEXT
  5
B7
330
B3
100
AcDbEntity
  8
_U+56FE_U+5C423
 62
     3
420
    65280
100
AcDbMText
 10
3.990644424688071
 20
4.127737913151375
 30
0.0
 40
0.093061878305878
 41
0.0
 46
0.0
 71
     7
 72
     1
  1
\fMyriad Pro|b0|i0|c0|p34;\W1;755 [29 3/4]
 11
0.9999155203414812
 21
0.01299816064775143
 31
0.0
 73
     1
 44
1.0
  0
ENDBLK
  5
B6
330
B3
100
AcDbEntity
  8
0
100
AcDbBlockEnd
  0
BLOCK
  5
BA
330
B8
100
AcDbEntity
  8
0
100
AcDbBlockBegin
  2
block 16
 70
     0
 10
0.0
 20
0.0
 30
0.0
  3
block 16
  1

  0
POLYLINE
  5
BC
330
B8
100
AcDbEntity
  8
_U+56FE_U+5C423
 62
     3
420
    65280
370
    25
100
AcDb2dPolyline
 66
     1
 10
0.0
 20
0.0
 30
0.0
  0
VERTEX
  5
BD
330
BC
100
AcDbEntity
  8
_U+56FE_U+5C423
 62
     3
420
    65280
370
    25
100
AcDbVertex
100
AcDb2dVertex
 10
5.4036555143529
 20
7.595580440055123
 30
0.0
  0
VERTEX
  5
BE
330
BC
100
AcDbEntity
  8
_U+56FE_U+5C423
 62
     3
420
    65280
370
    25
100
AcDbVertex
100
AcDb2dVertex
 10
7.058956746087561
 20
7.617098130252934
 30
0.0
  0
SEQEND
  5
BF
330
BC
100
AcDbEntity
  8
_U+56FE_U+5C423
 62
     3
420
    65280
370
    25
  0
ENDBLK
  5
BB
330
B8
100
AcDbEntity
  8
0
100
AcDbBlockEnd
  0
BLOCK
  5
C2
330
C0
100
AcDbEntity
  8
0
100
AcDbBlockBegin
  2
block 17
 70
     0
 10
0.0
 20
0.0
 30
0.0
  3
block 17
  1

  0
POLYLINE
  5
C4
330
C0
100
AcDbEntity
  8
_U+56FE_U+5C423
 62
     3
420
    65280
370
    25
100
AcDb2dPolyline
 66
     1
 10
0.0
 20
0.0
 30
0.0
  0
VERTEX
  5
C5
330
C4
100
AcDbEntity
  8
_U+56FE_U+5C423
 62
     3
420
    65280
370
    25
100
AcDbVertex
100
AcDb2dVertex
 10
5.440750936038335
 20
4.741923907108785
 30
0.0
  0
VERTEX
  5
C6
330
C4
100
AcDbEntity
  8
_U+56FE_U+5C423
 62
     3
420
    65280
370
    25
100
AcDbVertex
100
AcDb2dVertex
 10
7.096052167772566
 20
4.763441597306584
 30
0.0
  0
SEQEND
  5
C7
330
C4
100
AcDbEntity
  8
_U+56FE_U+5C423
 62
     3
420
    65280
370
    25
  0
ENDBLK
  5
C3
330
C0
100
AcDbEntity
  8
0
100
AcDbBlockEnd
  0
BLOCK
  5
CA
330
C8
100
AcDbEntity
  8
0
100
AcDbBlockBegin
  2
block 18
 70
     0
 10
0.0
 20
0.0
 30
0.0
  3
block 18
  1

  0
POLYLINE
  5
CC
330
C8
100
AcDbEntity
  8
_U+56FE_U+5C423
 62
     3
420
    65280
370
    25
100
AcDb2dPolyline
 66
     1
 10
0.0
 20
0.0
 30
0.0
  0
VERTEX
  5
CD
330
CC
100
AcDbEntity
  8
_U+56FE_U+5C423
 62
     3
420
    65280
370
    25
100
AcDbVertex
100
AcDb2dVertex
 10
7.052411877955137
 20
7.523943310097934
 30
0.0
  0
VERTEX
  5
CE
330
CC
100
AcDbEntity
  8
_U+56FE_U+5C423
 62
     3
420
    65280
370
    25
100
AcDbVertex
100
AcDb2dVertex
 10
7.087088033008513
 20
4.856394811908962
 30
0.0
  0
SEQEND
  5
CF
330
CC
100
AcDbEntity
  8
_U+56FE_U+5C423
 62
     3
420
    65280
370
    25
  0
ENDBLK
  5
CB
330
C8
100
AcDbEntity
  8
0
100
AcDbBlockEnd
  0
BLOCK
  5
D2
330
D0
100
AcDbEntity
  8
0
100
AcDbBlockBegin
  2
block 19
 70
     0
 10
0.0
 20
0.0
 30
0.0
  3
block 19
  1

  0
POLYLINE
  5
D4
330
D0
100
AcDbEntity
  8
_U+56FE_U+5C423
370
     0
100
AcDb2dPolyline
 66
     1
 10
0.0
 20
0.0
 30
0.0
  0
VERTEX
  5
D5
330
D4
100
AcDbEntity
  8
_U+56FE_U+5C423
370
     0
100
AcDbVertex
100
AcDb2dVertex
 10
7.067920880851589
 20
7.524144915650557
 30
0.0
  0
VERTEX
  5
D6
330
D4
100
AcDbEntity
  8
_U+56FE_U+5C423
370
     0
100
AcDbVertex
100
AcDb2dVertex
 10
7.051202244639322
 20
7.616997327476611
 30
0.0
  0
VERTEX
  5
D7
330
D4
100
AcDbEntity
  8
_U+56FE_U+5C423
370
     0
100
AcDbVertex
100
AcDb2dVertex
 10
7.036902875058685
 20
7.523741704545285
 30
0.0
  0
VERTEX
  5
D8
330
D4
100
AcDbEntity
  8
_U+56FE_U+5C423
370
     0
100
AcDbVertex
100
AcDb2dVertex
 10
7.067920880851589
 20
7.524144915650557
 30
0.0
  0
SEQEND
  5
DA
330
D4
100
AcDbEntity
  8
_U+56FE_U+5C423
370
     0
  0
HATCH
  5
D9
330
D0
100
AcDbEntity
  8
_U+56FE_U+5C423
 62
     3
420
    65280
100
AcDbHatch
 10
0.0
 20
0.0
 30
0.0
210
0.0
220
0.0
230
1.0
  2
SOLID
 70
     1
 71
     0
 91
        1
 92
        1
 93
        3
 72
     1
 10
7.067920880851589
 20
7.524144915650557
 11
7.051202244639322
 21
7.616997327476611
 72
     1
 10
7.051202244639322
 20
7.616997327476611
 11
7.036902875058685
 21
7.523741704545285
 72
     1
 10
7.036902875058685
 20
7.523741704545285
 11
7.067920880851589
 21
7.524144915650557
 97
        0
 75
     2
 76
     1
 98
        0
  0
ENDBLK
  5
D3
330
D0
100
AcDbEntity
  8
0
100
AcDbBlockEnd
  0
BLOCK
  5
DD
330
DB
100
AcDbEntity
  8
0
100
AcDbBlockBegin
  2
block 20
 70
     0
 10
0.0
 20
0.0
 30
0.0
  3
block 20
  1

  0
POLYLINE
  5
DF
330
DB
100
AcDbEntity
  8
_U+56FE_U+5C423
370
     0
100
AcDb2dPolyline
 66
     1
 10
0.0
 20
0.0
 30
0.0
  0
VERTEX
  5
E0
330
DF
100
AcDbEntity
  8
_U+56FE_U+5C423
370
     0
100
AcDbVertex
100
AcDb2dVertex
 10
7.102597035904965
 20
4.856596417461585
 30
0.0
  0
VERTEX
  5
E1
330
DF
100
AcDbEntity
  8
_U+56FE_U+5C423
370
     0
100
AcDbVertex
100
AcDb2dVertex
 10
7.088297666324352
 20
4.763340794530273
 30
0.0
  0
VERTEX
  5
E2
330
DF
100
AcDbEntity
  8
_U+56FE_U+5C423
370
     0
100
AcDbVertex
100
AcDb2dVertex
 10
7.071579030112085
 20
4.856193206356314
 30
0.0
  0
VERTEX
  5
E3
330
DF
100
AcDbEntity
  8
_U+56FE_U+5C423
370
     0
100
AcDbVertex
100
AcDb2dVertex
 10
7.102597035904965
 20
4.856596417461585
 30
0.0
  0
SEQEND
  5
E5
330
DF
100
AcDbEntity
  8
_U+56FE_U+5C423
370
     0
  0
HATCH
  5
E4
330
DB
100
AcDbEntity
  8
_U+56FE_U+5C423
 62
     3
420
    65280
100
AcDbHatch
 10
0.0
 20
0.0
 30
0.0
210
0.0
220
0.0
230
1.0
  2
SOLID
 70
     1
 71
     0
 91
        1
 92
        1
 93
        3
 72
     1
 10
7.102597035904965
 20
4.856596417461585
 11
7.088297666324352
 21
4.763340794530273
 72
     1
 10
7.088297666324352
 20
4.763340794530273
 11
7.071579030112085
 21
4.856193206356314
 72
     1
 10
7.071579030112085
 20
4.856193206356314
 11
7.102597035904965
 21
4.856596417461585
 97
        0
 75
     2
 76
     1
 98
        0
  0
ENDBLK
  5
DE
330
DB
100
AcDbEntity
  8
0
100
AcDbBlockEnd
  0
BLOCK
  5
E8
330
E6
100
AcDbEntity
  8
0
100
AcDbBlockBegin
  2
block 21
 70
     0
 10
0.0
 20
0.0
 30
0.0
  3
block 21
  1

  0
MTEXT
  5
EA
330
E6
100
AcDbEntity
  8
_U+56FE_U+5C423
 62
     3
420
    65280
100
AcDbMText
 10
7.100753168549595
 20
6.702453643549234
 30
0.0
 40
0.093061878305878
 41
0.0
 46
0.0
 71
     7
 72
     1
  1
\fMyriad Pro|b0|i0|c0|p34;\W1;460 [18 1/8]
 11
0.01299816064775121
 21
-0.9999155203414812
 31
0.0
 73
     1
 44
1.0
  0
ENDBLK
  5
E9
330
E6
100
AcDbEntity
  8
0
100
AcDbBlockEnd
  0
BLOCK
  5
ED
330
EB
100
AcDbEntity
  8
0
100
AcDbBlockBegin
  2
block 22
 70
     0
 10
0.0
 20
0.0
 30
0.0
  3
block 22
  1

  0
POLYLINE
  5
EF
330
EB
100
AcDbEntity
  8
_U+56FE_U+5C423
 62
     3
420
    65280
370
    25
100
AcDb2dPolyline
 66
     1
 10
0.0
 20
0.0
 30
0.0
  0
VERTEX
  5
F0
330
EF
100
AcDbEntity
  8
_U+56FE_U+5C423
 62
     3
420
    65280
370
    25
100
AcDbVertex
100
AcDb2dVertex
 10
5.402849092142333
 20
7.657616451640895
 30
0.0
  0
VERTEX
  5
F1
330
EF
100
AcDbEntity
  8
_U+56FE_U+5C423
 62
     3
420
    65280
370
    25
100
AcDbVertex
100
AcDb2dVertex
 10
7.387496436599526
 20
7.683415397410549
 30
0.0
  0
SEQEND
  5
F2
330
EF
100
AcDbEntity
  8
_U+56FE_U+5C423
 62
     3
420
    65280
370
    25
  0
ENDBLK
  5
EE
330
EB
100
AcDbEntity
  8
0
100
AcDbBlockEnd
  0
BLOCK
  5
F5
330
F3
100
AcDbEntity
  8
0
100
AcDbBlockBegin
  2
block 23
 70
     0
 10
0.0
 20
0.0
 30
0.0
  3
block 23
  1

  0
POLYLINE
  5
F7
330
F3
100
AcDbEntity
  8
_U+56FE_U+5C423
 62
     3
420
    65280
370
    25
100
AcDb2dPolyline
 66
     1
 10
0.0
 20
0.0
 30
0.0
  0
VERTEX
  5
F8
330
F7
100
AcDbEntity
  8
_U+56FE_U+5C423
 62
     3
420
    65280
370
    25
100
AcDbVertex
100
AcDb2dVertex
 10
5.441557358248878
 20
4.679887895522976
 30
0.0
  0
VERTEX
  5
F9
330
F7
100
AcDbEntity
  8
_U+56FE_U+5C423
 62
     3
420
    65280
370
    25
100
AcDbVertex
100
AcDb2dVertex
 10
7.426204702705617
 20
4.705686841292618
 30
0.0
  0
SEQEND
  5
FA
330
F7
100
AcDbEntity
  8
_U+56FE_U+5C423
 62
     3
420
    65280
370
    25
  0
ENDBLK
  5
F6
330
F3
100
AcDbEntity
  8
0
100
AcDbBlockEnd
  0
BLOCK
  5
FD
330
FB
100
AcDbEntity
  8
0
100
AcDbBlockBegin
  2
block 24
 70
     0
 10
0.0
 20
0.0
 30
0.0
  3
block 24
  1

  0
POLYLINE
  5
FF
330
FB
100
AcDbEntity
  8
_U+56FE_U+5C423
 62
     3
420
    65280
370
    25
100
AcDb2dPolyline
 66
     1
 10
0.0
 20
0.0
 30
0.0
  0
VERTEX
  5
100
330
FF
100
AcDbEntity
  8
_U+56FE_U+5C423
 62
     3
420
    65280
370
    25
100
AcDbVertex
100
AcDb2dVertex
 10
7.380951568467101
 20
7.590260577255549
 30
0.0
  0
VERTEX
  5
101
330
FF
100
AcDbEntity
  8
_U+56FE_U+5C423
 62
     3
420
    65280
370
    25
100
AcDbVertex
100
AcDb2dVertex
 10
7.417240567941563
 20
4.798640055894995
 30
0.0
  0
SEQEND
  5
102
330
FF
100
AcDbEntity
  8
_U+56FE_U+5C423
 62
     3
420
    65280
370
    25
  0
ENDBLK
  5
FE
330
FB
100
AcDbEntity
  8
0
100
AcDbBlockEnd
  0
BLOCK
  5
105
330
103
100
AcDbEntity
  8
0
100
AcDbBlockBegin
  2
block 25
 70
     0
 10
0.0
 20
0.0
 30
0.0
  3
block 25
  1

  0
POLYLINE
  5
107
330
103
100
AcDbEntity
  8
_U+56FE_U+5C423
370
     0
100
AcDb2dPolyline
 66
     1
 10
0.0
 20
0.0
 30
0.0
  0
VERTEX
  5
108
330
107
100
AcDbEntity
  8
_U+56FE_U+5C423
370
     0
100
AcDbVertex
100
AcDb2dVertex
 10
7.396460571363554
 20
7.590462182808172
 30
0.0
  0
VERTEX
  5
109
330
107
100
AcDbEntity
  8
_U+56FE_U+5C423
370
     0
100
AcDbVertex
100
AcDb2dVertex
 10
7.379741935151287
 20
7.683314594634226
 30
0.0
  0
VERTEX
  5
10A
330
107
100
AcDbEntity
  8
_U+56FE_U+5C423
370
     0
100
AcDbVertex
100
AcDb2dVertex
 10
7.365442565570649
 20
7.590058971702913
 30
0.0
  0
VERTEX
  5
10B
330
107
100
AcDbEntity
  8
_U+56FE_U+5C423
370
     0
100
AcDbVertex
100
AcDb2dVertex
 10
7.396460571363554
 20
7.590462182808172
 30
0.0
  0
SEQEND
  5
10D
330
107
100
AcDbEntity
  8
_U+56FE_U+5C423
370
     0
  0
HATCH
  5
10C
330
103
100
AcDbEntity
  8
_U+56FE_U+5C423
 62
     3
420
    65280
100
AcDbHatch
 10
0.0
 20
0.0
 30
0.0
210
0.0
220
0.0
230
1.0
  2
SOLID
 70
     1
 71
     0
 91
        1
 92
        1
 93
        3
 72
     1
 10
7.396460571363554
 20
7.590462182808172
 11
7.379741935151287
 21
7.683314594634226
 72
     1
 10
7.379741935151287
 20
7.683314594634226
 11
7.365442565570649
 21
7.590058971702913
 72
     1
 10
7.365442565570649
 20
7.590058971702913
 11
7.396460571363554
 21
7.590462182808172
 97
        0
 75
     2
 76
     1
 98
        0
  0
ENDBLK
  5
106
330
103
100
AcDbEntity
  8
0
100
AcDbBlockEnd
  0
BLOCK
  5
110
330
10E
100
AcDbEntity
  8
0
100
AcDbBlockBegin
  2
block 26
 70
     0
 10
0.0
 20
0.0
 30
0.0
  3
block 26
  1

  0
POLYLINE
  5
112
330
10E
100
AcDbEntity
  8
_U+56FE_U+5C423
370
     0
100
AcDb2dPolyline
 66
     1
 10
0.0
 20
0.0
 30
0.0
  0
VERTEX
  5
113
330
112
100
AcDbEntity
  8
_U+56FE_U+5C423
370
     0
100
AcDbVertex
100
AcDb2dVertex
 10
7.432749570838015
 20
4.798841661447619
 30
0.0
  0
VERTEX
  5
114
330
112
100
AcDbEntity
  8
_U+56FE_U+5C423
370
     0
100
AcDbVertex
100
AcDb2dVertex
 10
7.418450201257403
 20
4.705586038516306
 30
0.0
  0
VERTEX
  5
115
330
112
100
AcDbEntity
  8
_U+56FE_U+5C423
370
     0
100
AcDbVertex
100
AcDb2dVertex
 10
7.401731565045111
 20
4.798438450342347
 30
0.0
  0
VERTEX
  5
116
330
112
100
AcDbEntity
  8
_U+56FE_U+5C423
370
     0
100
AcDbVertex
100
AcDb2dVertex
 10
7.432749570838015
 20
4.798841661447619
 30
0.0
  0
SEQEND
  5
118
330
112
100
AcDbEntity
  8
_U+56FE_U+5C423
370
     0
  0
HATCH
  5
117
330
10E
100
AcDbEntity
  8
_U+56FE_U+5C423
 62
     3
420
    65280
100
AcDbHatch
 10
0.0
 20
0.0
 30
0.0
210
0.0
220
0.0
230
1.0
  2
SOLID
 70
     1
 71
     0
 91
        1
 92
        1
 93
        3
 72
     1
 10
7.432749570838015
 20
4.798841661447619
 11
7.418450201257403
 21
4.705586038516306
 72
     1
 10
7.418450201257403
 20
4.705586038516306
 11
7.401731565045111
 21
4.798438450342347
 72
     1
 10
7.401731565045111
 20
4.798438450342347
 11
7.432749570838015
 21
4.798841661447619
 97
        0
 75
     2
 76
     1
 98
        0
  0
ENDBLK
  5
111
330
10E
100
AcDbEntity
  8
0
100
AcDbBlockEnd
  0
BLOCK
  5
11B
330
119
100
AcDbEntity
  8
0
100
AcDbBlockBegin
  2
block 27
 70
     0
 10
0.0
 20
0.0
 30
0.0
  3
block 27
  1

  0
MTEXT
  5
11D
330
119
100
AcDbEntity
  8
_U+56FE_U+5C423
 62
     3
420
    65280
100
AcDbMText
 10
7.430098871674595
 20
6.706734899483207
 30
0.0
 40
0.093061878305878
 41
0.0
 46
0.0
 71
     7
 72
     1
  1
\fMyriad Pro|b0|i0|c0|p34;\W1;480 [18 7/8]
 11
0.01299816064775121
 21
-0.9999155203414812
 31
0.0
 73
     1
 44
1.0
  0
ENDBLK
  5
11C
330
119
100
AcDbEntity
  8
0
100
AcDbBlockEnd
  0
BLOCK
  5
120
330
11E
100
AcDbEntity
  8
0
100
AcDbBlockBegin
  2
block 28
 70
     0
 10
0.0
 20
0.0
 30
0.0
  3
block 28
  1

  0
POLYLINE
  5
122
330
11E
100
AcDbEntity
  8
_U+56FE_U+5C423
 62
     3
420
    65280
370
    25
100
AcDb2dPolyline
 66
     1
 10
0.0
 20
0.0
 30
0.0
  0
VERTEX
  5
123
330
122
100
AcDbEntity
  8
_U+56FE_U+5C423
 62
     3
420
    65280
370
    25
100
AcDbVertex
100
AcDb2dVertex
 10
3.365998630570895
 20
7.165790195426855
 30
0.0
  0
VERTEX
  5
124
330
122
100
AcDbEntity
  8
_U+56FE_U+5C423
 62
     3
420
    65280
370
    25
100
AcDbVertex
100
AcDb2dVertex
 10
1.755792995861409
 20
7.144858714595342
 30
0.0
  0
SEQEND
  5
125
330
122
100
AcDbEntity
  8
_U+56FE_U+5C423
 62
     3
420
    65280
370
    25
  0
ENDBLK
  5
121
330
11E
100
AcDbEntity
  8
0
100
AcDbBlockEnd
  0
BLOCK
  5
128
330
126
100
AcDbEntity
  8
0
100
AcDbBlockBegin
  2
block 29
 70
     0
 10
0.0
 20
0.0
 30
0.0
  3
block 29
  1

  0
POLYLINE
  5
12A
330
126
100
AcDbEntity
  8
_U+56FE_U+5C423
 62
     3
420
    65280
370
    25
100
AcDb2dPolyline
 66
     1
 10
0.0
 20
0.0
 30
0.0
  0
VERTEX
  5
12B
330
12A
100
AcDbEntity
  8
_U+56FE_U+5C423
 62
     3
420
    65280
370
    25
100
AcDbVertex
100
AcDb2dVertex
 10
3.397852307887736
 20
4.71536773778818
 30
0.0
  0
VERTEX
  5
12C
330
12A
100
AcDbEntity
  8
_U+56FE_U+5C423
 62
     3
420
    65280
370
    25
100
AcDbVertex
100
AcDb2dVertex
 10
1.787646673177884
 20
4.694436256956654
 30
0.0
  0
SEQEND
  5
12D
330
12A
100
AcDbEntity
  8
_U+56FE_U+5C423
 62
     3
420
    65280
370
    25
  0
ENDBLK
  5
129
330
126
100
AcDbEntity
  8
0
100
AcDbBlockEnd
  0
BLOCK
  5
130
330
12E
100
AcDbEntity
  8
0
100
AcDbBlockBegin
  2
block 30
 70
     0
 10
0.0
 20
0.0
 30
0.0
  3
block 30
  1

  0
POLYLINE
  5
132
330
12E
100
AcDbEntity
  8
_U+56FE_U+5C423
 62
     3
420
    65280
370
    25
100
AcDb2dPolyline
 66
     1
 10
0.0
 20
0.0
 30
0.0
  0
VERTEX
  5
133
330
132
100
AcDbEntity
  8
_U+56FE_U+5C423
 62
     3
420
    65280
370
    25
100
AcDbVertex
100
AcDb2dVertex
 10
1.76475713062545
 20
7.051905499992964
 30
0.0
  0
VERTEX
  5
134
330
132
100
AcDbEntity
  8
_U+56FE_U+5C423
 62
     3
420
    65280
370
    25
100
AcDbVertex
100
AcDb2dVertex
 10
1.794191541310296
 20
4.787591077111655
 30
0.0
  0
SEQEND
  5
135
330
132
100
AcDbEntity
  8
_U+56FE_U+5C423
 62
     3
420
    65280
370
    25
  0
ENDBLK
  5
131
330
12E
100
AcDbEntity
  8
0
100
AcDbBlockEnd
  0
BLOCK
  5
138
330
136
100
AcDbEntity
  8
0
100
AcDbBlockBegin
  2
block 31
 70
     0
 10
0.0
 20
0.0
 30
0.0
  3
block 31
  1

  0
POLYLINE
  5
13A
330
136
100
AcDbEntity
  8
_U+56FE_U+5C423
370
     0
100
AcDb2dPolyline
 66
     1
 10
0.0
 20
0.0
 30
0.0
  0
VERTEX
  5
13B
330
13A
100
AcDbEntity
  8
_U+56FE_U+5C423
370
     0
100
AcDbVertex
100
AcDb2dVertex
 10
1.780266133521902
 20
7.0521071055456
 30
0.0
  0
VERTEX
  5
13C
330
13A
100
AcDbEntity
  8
_U+56FE_U+5C423
370
     0
100
AcDbVertex
100
AcDb2dVertex
 10
1.763547497309635
 20
7.144959517371653
 30
0.0
  0
VERTEX
  5
13D
330
13A
100
AcDbEntity
  8
_U+56FE_U+5C423
370
     0
100
AcDbVertex
100
AcDb2dVertex
 10
1.74924812772901
 20
7.051703894440329
 30
0.0
  0
VERTEX
  5
13E
330
13A
100
AcDbEntity
  8
_U+56FE_U+5C423
370
     0
100
AcDbVertex
100
AcDb2dVertex
 10
1.780266133521902
 20
7.0521071055456
 30
0.0
  0
SEQEND
  5
140
330
13A
100
AcDbEntity
  8
_U+56FE_U+5C423
370
     0
  0
HATCH
  5
13F
330
136
100
AcDbEntity
  8
_U+56FE_U+5C423
 62
     3
420
    65280
100
AcDbHatch
 10
0.0
 20
0.0
 30
0.0
210
0.0
220
0.0
230
1.0
  2
SOLID
 70
     1
 71
     0
 91
        1
 92
        1
 93
        3
 72
     1
 10
1.780266133521902
 20
7.0521071055456
 11
1.763547497309635
 21
7.144959517371653
 72
     1
 10
1.763547497309635
 20
7.144959517371653
 11
1.74924812772901
 21
7.051703894440329
 72
     1
 10
1.74924812772901
 20
7.051703894440329
 11
1.780266133521902
 21
7.0521071055456
 97
        0
 75
     2
 76
     1
 98
        0
  0
ENDBLK
  5
139
330
136
100
AcDbEntity
  8
0
100
AcDbBlockEnd
  0
BLOCK
  5
143
330
141
100
AcDbEntity
  8
0
100
AcDbBlockBegin
  2
block 32
 70
     0
 10
0.0
 20
0.0
 30
0.0
  3
block 32
  1

  0
POLYLINE
  5
145
330
141
100
AcDbEntity
  8
_U+56FE_U+5C423
370
     0
100
AcDb2dPolyline
 66
     1
 10
0.0
 20
0.0
 30
0.0
  0
VERTEX
  5
146
330
145
100
AcDbEntity
  8
_U+56FE_U+5C423
370
     0
100
AcDbVertex
100
AcDb2dVertex
 10
1.809700544206748
 20
4.787792682664278
 30
0.0
  0
VERTEX
  5
147
330
145
100
AcDbEntity
  8
_U+56FE_U+5C423
370
     0
100
AcDbVertex
100
AcDb2dVertex
 10
1.79540117462611
 20
4.694537059732966
 30
0.0
  0
VERTEX
  5
148
330
145
100
AcDbEntity
  8
_U+56FE_U+5C423
370
     0
100
AcDbVertex
100
AcDb2dVertex
 10
1.778682538413856
 20
4.787389471559006
 30
0.0
  0
VERTEX
  5
149
330
145
100
AcDbEntity
  8
_U+56FE_U+5C423
370
     0
100
AcDbVertex
100
AcDb2dVertex
 10
1.809700544206748
 20
4.787792682664278
 30
0.0
  0
SEQEND
  5
14B
330
145
100
AcDbEntity
  8
_U+56FE_U+5C423
370
     0
  0
HATCH
  5
14A
330
141
100
AcDbEntity
  8
_U+56FE_U+5C423
 62
     3
420
    65280
100
AcDbHatch
 10
0.0
 20
0.0
 30
0.0
210
0.0
220
0.0
230
1.0
  2
SOLID
 70
     1
 71
     0
 91
        1
 92
        1
 93
        3
 72
     1
 10
1.809700544206748
 20
4.787792682664278
 11
1.79540117462611
 21
4.694537059732966
 72
     1
 10
1.79540117462611
 20
4.694537059732966
 11
1.778682538413856
 21
4.787389471559006
 72
     1
 10
1.778682538413856
 20
4.787389471559006
 11
1.809700544206748
 21
4.787792682664278
 97
        0
 75
     2
 76
     1
 98
        0
  0
ENDBLK
  5
144
330
141
100
AcDbEntity
  8
0
100
AcDbBlockEnd
  0
BLOCK
  5
14E
330
14C
100
AcDbEntity
  8
0
100
AcDbBlockBegin
  2
block 33
 70
     0
 10
0.0
 20
0.0
 30
0.0
  3
block 33
  1

  0
MTEXT
  5
150
330
14C
100
AcDbEntity
  8
_U+56FE_U+5C423
 62
     3
420
    65280
100
AcDbMText
 10
1.810497092160707
 20
6.432032827339652
 30
0.0
 40
0.093061878305878
 41
0.0
 46
0.0
 71
     7
 72
     1
  1
\fMyriad Pro|b0|i0|c0|p34;\W1;395 [15 1/2]
 11
0.01299816064775121
 21
-0.9999155203414812
 31
0.0
 73
     1
 44
1.0
  0
ENDBLK
  5
14F
330
14C
100
AcDbEntity
  8
0
100
AcDbBlockEnd
  0
BLOCK
  5
153
330
151
100
AcDbEntity
  8
0
100
AcDbBlockBegin
  2
block 34
 70
     0
 10
0.0
 20
0.0
 30
0.0
  3
block 34
  1

  0
POLYLINE
  5
155
330
151
100
AcDbEntity
  8
_U+56FE_U+5C423
 62
     3
420
    65280
370
    25
100
AcDb2dPolyline
 66
     1
 10
0.0
 20
0.0
 30
0.0
  0
VERTEX
  5
156
330
155
100
AcDbEntity
  8
_U+56FE_U+5C423
 62
     3
420
    65280
370
    25
100
AcDbVertex
100
AcDb2dVertex
 10
3.365192208360339
 20
7.227826207012653
 30
0.0
  0
VERTEX
  5
157
330
155
100
AcDbEntity
  8
_U+56FE_U+5C423
 62
     3
420
    65280
370
    25
100
AcDbVertex
100
AcDb2dVertex
 10
1.443958300093628
 20
7.202851588953384
 30
0.0
  0
SEQEND
  5
158
330
155
100
AcDbEntity
  8
_U+56FE_U+5C423
 62
     3
420
    65280
370
    25
  0
ENDBLK
  5
154
330
151
100
AcDbEntity
  8
0
100
AcDbBlockEnd
  0
BLOCK
  5
15B
330
159
100
AcDbEntity
  8
0
100
AcDbBlockBegin
  2
block 35
 70
     0
 10
0.0
 20
0.0
 30
0.0
  3
block 35
  1

  0
POLYLINE
  5
15D
330
159
100
AcDbEntity
  8
_U+56FE_U+5C423
 62
     3
420
    65280
370
    25
100
AcDb2dPolyline
 66
     1
 10
0.0
 20
0.0
 30
0.0
  0
VERTEX
  5
15E
330
15D
100
AcDbEntity
  8
_U+56FE_U+5C423
 62
     3
420
    65280
370
    25
100
AcDbVertex
100
AcDb2dVertex
 10
3.398658730098279
 20
4.653331726202396
 30
0.0
  0
VERTEX
  5
15F
330
15D
100
AcDbEntity
  8
_U+56FE_U+5C423
 62
     3
420
    65280
370
    25
100
AcDbVertex
100
AcDb2dVertex
 10
1.477424821831202
 20
4.628357108143089
 30
0.0
  0
SEQEND
  5
160
330
15D
100
AcDbEntity
  8
_U+56FE_U+5C423
 62
     3
420
    65280
370
    25
  0
ENDBLK
  5
15C
330
159
100
AcDbEntity
  8
0
100
AcDbBlockEnd
  0
BLOCK
  5
163
330
161
100
AcDbEntity
  8
0
100
AcDbBlockBegin
  2
block 36
 70
     0
 10
0.0
 20
0.0
 30
0.0
  3
block 36
  1

  0
POLYLINE
  5
165
330
161
100
AcDbEntity
  8
_U+56FE_U+5C423
 62
     3
420
    65280
370
    25
100
AcDb2dPolyline
 66
     1
 10
0.0
 20
0.0
 30
0.0
  0
VERTEX
  5
166
330
165
100
AcDbEntity
  8
_U+56FE_U+5C423
 62
     3
420
    65280
370
    25
100
AcDbVertex
100
AcDb2dVertex
 10
1.452922434857669
 20
7.109898374351006
 30
0.0
  0
VERTEX
  5
167
330
165
100
AcDbEntity
  8
_U+56FE_U+5C423
 62
     3
420
    65280
370
    25
100
AcDbVertex
100
AcDb2dVertex
 10
1.483969689963601
 20
4.72151192829809
 30
0.0
  0
SEQEND
  5
168
330
165
100
AcDbEntity
  8
_U+56FE_U+5C423
 62
     3
420
    65280
370
    25
  0
ENDBLK
  5
164
330
161
100
AcDbEntity
  8
0
100
AcDbBlockEnd
  0
BLOCK
  5
16B
330
169
100
AcDbEntity
  8
0
100
AcDbBlockBegin
  2
block 37
 70
     0
 10
0.0
 20
0.0
 30
0.0
  3
block 37
  1

  0
POLYLINE
  5
16D
330
169
100
AcDbEntity
  8
_U+56FE_U+5C423
370
     0
100
AcDb2dPolyline
 66
     1
 10
0.0
 20
0.0
 30
0.0
  0
VERTEX
  5
16E
330
16D
100
AcDbEntity
  8
_U+56FE_U+5C423
370
     0
100
AcDbVertex
100
AcDb2dVertex
 10
1.468431437754121
 20
7.110099979903642
 30
0.0
  0
VERTEX
  5
16F
330
16D
100
AcDbEntity
  8
_U+56FE_U+5C423
370
     0
100
AcDbVertex
100
AcDb2dVertex
 10
1.451712801541854
 20
7.202952391729696
 30
0.0
  0
VERTEX
  5
170
330
16D
100
AcDbEntity
  8
_U+56FE_U+5C423
370
     0
100
AcDbVertex
100
AcDb2dVertex
 10
1.437413431961229
 20
7.10969676879837
 30
0.0
  0
VERTEX
  5
171
330
16D
100
AcDbEntity
  8
_U+56FE_U+5C423
370
     0
100
AcDbVertex
100
AcDb2dVertex
 10
1.468431437754121
 20
7.110099979903642
 30
0.0
  0
SEQEND
  5
173
330
16D
100
AcDbEntity
  8
_U+56FE_U+5C423
370
     0
  0
HATCH
  5
172
330
169
100
AcDbEntity
  8
_U+56FE_U+5C423
 62
     3
420
    65280
100
AcDbHatch
 10
0.0
 20
0.0
 30
0.0
210
0.0
220
0.0
230
1.0
  2
SOLID
 70
     1
 71
     0
 91
        1
 92
        1
 93
        3
 72
     1
 10
1.468431437754121
 20
7.110099979903642
 11
1.451712801541854
 21
7.202952391729696
 72
     1
 10
1.451712801541854
 20
7.202952391729696
 11
1.437413431961229
 21
7.10969676879837
 72
     1
 10
1.437413431961229
 20
7.10969676879837
 11
1.468431437754121
 21
7.110099979903642
 97
        0
 75
     2
 76
     1
 98
        0
  0
ENDBLK
  5
16C
330
169
100
AcDbEntity
  8
0
100
AcDbBlockEnd
  0
BLOCK
  5
176
330
174
100
AcDbEntity
  8
0
100
AcDbBlockBegin
  2
block 38
 70
     0
 10
0.0
 20
0.0
 30
0.0
  3
block 38
  1

  0
POLYLINE
  5
178
330
174
100
AcDbEntity
  8
_U+56FE_U+5C423
370
     0
100
AcDb2dPolyline
 66
     1
 10
0.0
 20
0.0
 30
0.0
  0
VERTEX
  5
179
330
178
100
AcDbEntity
  8
_U+56FE_U+5C423
370
     0
100
AcDbVertex
100
AcDb2dVertex
 10
1.499478692860053
 20
4.721713533850738
 30
0.0
  0
VERTEX
  5
17A
330
178
100
AcDbEntity
  8
_U+56FE_U+5C423
370
     0
100
AcDbVertex
100
AcDb2dVertex
 10
1.485179323279415
 20
4.628457910919425
 30
0.0
  0
VERTEX
  5
17B
330
178
100
AcDbEntity
  8
_U+56FE_U+5C423
370
     0
100
AcDbVertex
100
AcDb2dVertex
 10
1.468460687067161
 20
4.721310322745467
 30
0.0
  0
VERTEX
  5
17C
330
178
100
AcDbEntity
  8
_U+56FE_U+5C423
370
     0
100
AcDbVertex
100
AcDb2dVertex
 10
1.499478692860053
 20
4.721713533850738
 30
0.0
  0
SEQEND
  5
17E
330
178
100
AcDbEntity
  8
_U+56FE_U+5C423
370
     0
  0
HATCH
  5
17D
330
174
100
AcDbEntity
  8
_U+56FE_U+5C423
 62
     3
420
    65280
100
AcDbHatch
 10
0.0
 20
0.0
 30
0.0
210
0.0
220
0.0
230
1.0
  2
SOLID
 70
     1
 71
     0
 91
        1
 92
        1
 93
        3
 72
     1
 10
1.499478692860053
 20
4.721713533850738
 11
1.485179323279415
 21
4.628457910919425
 72
     1
 10
1.485179323279415
 20
4.628457910919425
 11
1.468460687067161
 21
4.721310322745467
 72
     1
 10
1.468460687067161
 20
4.721310322745467
 11
1.499478692860053
 21
4.721713533850738
 97
        0
 75
     2
 76
     1
 98
        0
  0
ENDBLK
  5
177
330
174
100
AcDbEntity
  8
0
100
AcDbBlockEnd
  0
BLOCK
  5
181
330
17F
100
AcDbEntity
  8
0
100
AcDbBlockBegin
  2
block 39
 70
     0
 10
0.0
 20
0.0
 30
0.0
  3
block 39
  1

  0
MTEXT
  5
183
330
17F
100
AcDbEntity
  8
_U+56FE_U+5C423
 62
     3
420
    65280
100
AcDbMText
 10
1.499461935910707
 20
6.427989778057154
 30
0.0
 40
0.093061878305878
 41
0.0
 46
0.0
 71
     7
 72
     1
  1
\fMyriad Pro|b0|i0|c0|p34;\W1;415 [16 3/8]
 11
0.01299816064775121
 21
-0.9999155203414812
 31
0.0
 73
     1
 44
1.0
  0
ENDBLK
  5
182
330
17F
100
AcDbEntity
  8
0
100
AcDbBlockEnd
  0
BLOCK
  5
186
330
184
100
AcDbEntity
  8
0
100
AcDbBlockBegin
  2
block 40
 70
     0
 10
0.0
 20
0.0
 30
0.0
  3
block 40
  1

  0
POLYLINE
  5
188
330
184
100
AcDbEntity
  8
_U+56FE_U+5C423
 62
     3
420
    65280
370
    25
100
AcDb2dPolyline
 66
     1
 10
0.0
 20
0.0
 30
0.0
  0
VERTEX
  5
189
330
188
100
AcDbEntity
  8
_U+56FE_U+5C423
 62
     3
420
    65280
370
    25
100
AcDbVertex
100
AcDb2dVertex
 10
5.565859414835359
 20
6.334904089156831
 30
0.0
  0
VERTEX
  5
18A
330
188
100
AcDbEntity
  8
_U+56FE_U+5C423
 62
     3
420
    65280
370
    25
100
AcDbVertex
100
AcDb2dVertex
 10
6.35687414727661
 20
7.250285130811044
 30
0.0
  0
SEQEND
  5
18B
330
188
100
AcDbEntity
  8
_U+56FE_U+5C423
 62
     3
420
    65280
370
    25
  0
ENDBLK
  5
187
330
184
100
AcDbEntity
  8
0
100
AcDbBlockEnd
  0
BLOCK
  5
18E
330
18C
100
AcDbEntity
  8
0
100
AcDbBlockBegin
  2
block 41
 70
     0
 10
0.0
 20
0.0
 30
0.0
  3
block 41
  1

  0
MTEXT
  5
190
330
18C
100
AcDbEntity
  8
_U+56FE_U+5C423
 62
     3
420
    65280
100
AcDbMText
 10
5.534459607468711
 20
6.356178585025999
 30
0.0
 40
0.0930618751602066
 41
0.0
 46
0.0
 71
     7
 72
     1
  1
\fMyriad Pro|b0|i0|c0|p34;\W1;R155 [R6 1/8]
 11
0.6538368554552448
 21
0.7566355572191921
 31
0.0
 73
     1
 44
1.0
  0
ENDBLK
  5
18F
330
18C
100
AcDbEntity
  8
0
100
AcDbBlockEnd
  0
BLOCK
  5
193
330
191
100
AcDbEntity
  8
0
100
AcDbBlockBegin
  2
block 42
 70
     0
 10
0.0
 20
0.0
 30
0.0
  3
block 42
  1

  0
POLYLINE
  5
195
330
191
100
AcDbEntity
  8
_U+56FE_U+5C423
370
     0
100
AcDb2dPolyline
 66
     1
 10
0.0
 20
0.0
 30
0.0
  0
VERTEX
  5
196
330
195
100
AcDbEntity
  8
_U+56FE_U+5C423
370
     0
100
AcDbVertex
100
AcDb2dVertex
 10
6.345138492896441
 20
7.260426345329519
 30
0.0
  0
VERTEX
  5
197
330
195
100
AcDbEntity
  8
_U+56FE_U+5C423
370
     0
100
AcDbVertex
100
AcDb2dVertex
 10
6.417721434387481
 20
7.320699057092143
 30
0.0
  0
VERTEX
  5
198
330
195
100
AcDbEntity
  8
_U+56FE_U+5C423
370
     0
100
AcDbVertex
100
AcDb2dVertex
 10
6.368609801656803
 20
7.240143916292557
 30
0.0
  0
VERTEX
  5
199
330
195
100
AcDbEntity
  8
_U+56FE_U+5C423
370
     0
100
AcDbVertex
100
AcDb2dVertex
 10
6.345138492896441
 20
7.260426345329519
 30
0.0
  0
SEQEND
  5
19B
330
195
100
AcDbEntity
  8
_U+56FE_U+5C423
370
     0
  0
HATCH
  5
19A
330
191
100
AcDbEntity
  8
_U+56FE_U+5C423
 62
     3
420
    65280
100
AcDbHatch
 10
0.0
 20
0.0
 30
0.0
210
0.0
220
0.0
230
1.0
  2
SOLID
 70
     1
 71
     0
 91
        1
 92
        1
 93
        3
 72
     1
 10
6.345138492896441
 20
7.260426345329519
 11
6.417721434387481
 21
7.320699057092143
 72
     1
 10
6.417721434387481
 20
7.320699057092143
 11
6.368609801656803
 21
7.240143916292557
 72
     1
 10
6.368609801656803
 20
7.240143916292557
 11
6.345138492896441
 21
7.260426345329519
 97
        0
 75
     2
 76
     1
 98
        0
  0
ENDBLK
  5
194
330
191
100
AcDbEntity
  8
0
100
AcDbBlockEnd
  0
BLOCK
  5
19E
330
19C
100
AcDbEntity
  8
0
100
AcDbBlockBegin
  2
block 43
 70
     0
 10
0.0
 20
0.0
 30
0.0
  3
block 43
  1

  0
POLYLINE
  5
1A0
330
19C
100
AcDbEntity
  8
_U+56FE_U+5C423
 62
     3
420
    65280
370
    25
100
AcDb2dPolyline
 66
     1
 10
0.0
 20
0.0
 30
0.0
  0
VERTEX
  5
1A1
330
1A0
100
AcDbEntity
  8
_U+56FE_U+5C423
 62
     3
420
    65280
370
    25
100
AcDbVertex
100
AcDb2dVertex
 10
5.315334887266317
 20
6.196297362318975
 30
0.0
  0
VERTEX
  5
1A2
330
1A0
100
AcDbEntity
  8
_U+56FE_U+5C423
 62
     3
420
    65280
370
    25
100
AcDbVertex
100
AcDb2dVertex
 10
5.226382314405883
 20
7.496123527213158
 30
0.0
  0
SEQEND
  5
1A3
330
1A0
100
AcDbEntity
  8
_U+56FE_U+5C423
 62
     3
420
    65280
370
    25
  0
ENDBLK
  5
19F
330
19C
100
AcDbEntity
  8
0
100
AcDbBlockEnd
  0
BLOCK
  5
1A6
330
1A4
100
AcDbEntity
  8
0
100
AcDbBlockBegin
  2
block 44
 70
     0
 10
0.0
 20
0.0
 30
0.0
  3
block 44
  1

  0
MTEXT
  5
1A8
330
1A4
100
AcDbEntity
  8
_U+56FE_U+5C423
 62
     3
420
    65280
100
AcDbMText
 10
5.270168461112513
 20
7.408058606502082
 30
0.0
 40
0.0930618787651729
 41
0.0
 46
0.0
 71
     7
 72
     1
  1
\fMyriad Pro|b0|i0|c0|p34;\W1;R445 [R17 1/2]
 11
0.06827451864342314
 21
-0.997666572610313
 31
0.0
 73
     1
 44
1.0
  0
ENDBLK
  5
1A7
330
1A4
100
AcDbEntity
  8
0
100
AcDbBlockEnd
  0
BLOCK
  5
1AB
330
1A9
100
AcDbEntity
  8
0
100
AcDbBlockBegin
  2
block 45
 70
     0
 10
0.0
 20
0.0
 30
0.0
  3
block 45
  1

  0
POLYLINE
  5
1AD
330
1A9
100
AcDbEntity
  8
_U+56FE_U+5C423
370
     0
100
AcDb2dPolyline
 66
     1
 10
0.0
 20
0.0
 30
0.0
  0
VERTEX
  5
1AE
330
1AD
100
AcDbEntity
  8
_U+56FE_U+5C423
370
     0
100
AcDbVertex
100
AcDb2dVertex
 10
5.241856435416543
 20
7.497182486413887
 30
0.0
  0
VERTEX
  5
1AF
330
1AD
100
AcDbEntity
  8
_U+56FE_U+5C423
370
     0
100
AcDbVertex
100
AcDb2dVertex
 10
5.220028559201586
 20
7.588968253277029
 30
0.0
  0
VERTEX
  5
1B0
330
1AD
100
AcDbEntity
  8
_U+56FE_U+5C423
370
     0
100
AcDbVertex
100
AcDb2dVertex
 10
5.210908193395249
 20
7.495064568012443
 30
0.0
  0
VERTEX
  5
1B1
330
1AD
100
AcDbEntity
  8
_U+56FE_U+5C423
370
     0
100
AcDbVertex
100
AcDb2dVertex
 10
5.241856435416543
 20
7.497182486413887
 30
0.0
  0
SEQEND
  5
1B3
330
1AD
100
AcDbEntity
  8
_U+56FE_U+5C423
370
     0
  0
HATCH
  5
1B2
330
1A9
100
AcDbEntity
  8
_U+56FE_U+5C423
 62
     3
420
    65280
100
AcDbHatch
 10
0.0
 20
0.0
 30
0.0
210
0.0
220
0.0
230
1.0
  2
SOLID
 70
     1
 71
     0
 91
        1
 92
        1
 93
        3
 72
     1
 10
5.241856435416543
 20
7.497182486413887
 11
5.220028559201586
 21
7.588968253277029
 72
     1
 10
5.220028559201586
 20
7.588968253277029
 11
5.210908193395249
 21
7.495064568012443
 72
     1
 10
5.210908193395249
 20
7.495064568012443
 11
5.241856435416543
 21
7.497182486413887
 97
        0
 75
     2
 76
     1
 98
        0
  0
ENDBLK
  5
1AC
330
1A9
100
AcDbEntity
  8
0
100
AcDbBlockEnd
  0
BLOCK
  5
1B6
330
1B4
100
AcDbEntity
  8
0
100
AcDbBlockBegin
  2
block 46
 70
     0
 10
0.0
 20
0.0
 30
0.0
  3
block 46
  1

  0
POLYLINE
  5
1B8
330
1B4
100
AcDbEntity
  8
_U+56FE_U+5C423
 62
     3
420
    65280
370
    25
100
AcDb2dPolyline
 66
     1
 10
0.0
 20
0.0
 30
0.0
  0
VERTEX
  5
1B9
330
1B8
100
AcDbEntity
  8
_U+56FE_U+5C423
 62
     3
420
    65280
370
    25
100
AcDbVertex
100
AcDb2dVertex
 10
5.044405999856811
 20
5.449342876876876
 30
0.0
  0
VERTEX
  5
1BA
330
1B8
100
AcDbEntity
  8
_U+56FE_U+5C423
 62
     3
420
    65280
370
    25
100
AcDbVertex
100
AcDb2dVertex
 10
6.10385662723335
 20
5.449342876876876
 30
0.0
  0
SEQEND
  5
1BB
330
1B8
100
AcDbEntity
  8
_U+56FE_U+5C423
 62
     3
420
    65280
370
    25
  0
ENDBLK
  5
1B7
330
1B4
100
AcDbEntity
  8
0
100
AcDbBlockEnd
  0
BLOCK
  5
1BE
330
1BC
100
AcDbEntity
  8
0
100
AcDbBlockBegin
  2
block 47
 70
     0
 10
0.0
 20
0.0
 30
0.0
  3
block 47
  1

  0
POLYLINE
  5
1C0
330
1BC
100
AcDbEntity
  8
_U+56FE_U+5C423
 62
     3
420
    65280
370
    25
100
AcDb2dPolyline
 66
     1
 10
0.0
 20
0.0
 30
0.0
  0
VERTEX
  5
1C1
330
1C0
100
AcDbEntity
  8
_U+56FE_U+5C423
 62
     3
420
    65280
370
    25
100
AcDbVertex
100
AcDb2dVertex
 10
6.10385662723335
 20
5.449342876876876
 30
0.0
  0
VERTEX
  5
1C2
330
1C0
100
AcDbEntity
  8
_U+56FE_U+5C423
 62
     3
420
    65280
370
    25
100
AcDbVertex
100
AcDb2dVertex
 10
6.456493182827671
 20
4.930432905855847
 30
0.0
  0
SEQEND
  5
1C3
330
1C0
100
AcDbEntity
  8
_U+56FE_U+5C423
 62
     3
420
    65280
370
    25
  0
ENDBLK
  5
1BF
330
1BC
100
AcDbEntity
  8
0
100
AcDbBlockEnd
  0
BLOCK
  5
1C6
330
1C4
100
AcDbEntity
  8
0
100
AcDbBlockBegin
  2
block 48
 70
     0
 10
0.0
 20
0.0
 30
0.0
  3
block 48
  1

  0
MTEXT
  5
1C8
330
1C4
100
AcDbEntity
  8
_U+56FE_U+5C423
 62
     3
420
    65280
100
AcDbMText
 10
5.03775872124566
 20
5.487010955810547
 30
0.0
 40
0.0930618764559428
 41
0.0
 46
0.0
 71
     7
 72
     1
  1
\fMyriad Pro|b0|i0|c0|p34;\W1;R95 [R3 3/4]
 73
     1
 44
1.0
  0
ENDBLK
  5
1C7
330
1C4
100
AcDbEntity
  8
0
100
AcDbBlockEnd
  0
BLOCK
  5
1CB
330
1C9
100
AcDbEntity
  8
0
100
AcDbBlockBegin
  2
block 49
 70
     0
 10
0.0
 20
0.0
 30
0.0
  3
block 49
  1

  0
POLYLINE
  5
1CD
330
1C9
100
AcDbEntity
  8
_U+56FE_U+5C423
370
     0
100
AcDb2dPolyline
 66
     1
 10
0.0
 20
0.0
 30
0.0
  0
VERTEX
  5
1CE
330
1CD
100
AcDbEntity
  8
_U+56FE_U+5C423
370
     0
100
AcDbVertex
100
AcDb2dVertex
 10
6.469321625885312
 20
4.939150753317108
 30
0.0
  0
VERTEX
  5
1CF
330
1CD
100
AcDbEntity
  8
_U+56FE_U+5C423
370
     0
100
AcDbVertex
100
AcDb2dVertex
 10
6.508800267595183
 20
4.85346224751
 30
0.0
  0
VERTEX
  5
1D0
330
1CD
100
AcDbEntity
  8
_U+56FE_U+5C423
370
     0
100
AcDbVertex
100
AcDb2dVertex
 10
6.443664739770029
 20
4.921715058394612
 30
0.0
  0
VERTEX
  5
1D1
330
1CD
100
AcDbEntity
  8
_U+56FE_U+5C423
370
     0
100
AcDbVertex
100
AcDb2dVertex
 10
6.469321625885312
 20
4.939150753317108
 30
0.0
  0
SEQEND
  5
1D3
330
1CD
100
AcDbEntity
  8
_U+56FE_U+5C423
370
     0
  0
HATCH
  5
1D2
330
1C9
100
AcDbEntity
  8
_U+56FE_U+5C423
 62
     3
420
    65280
100
AcDbHatch
 10
0.0
 20
0.0
 30
0.0
210
0.0
220
0.0
230
1.0
  2
SOLID
 70
     1
 71
     0
 91
        1
 92
        1
 93
        3
 72
     1
 10
6.469321625885312
 20
4.939150753317108
 11
6.508800267595183
 21
4.85346224751
 72
     1
 10
6.508800267595183
 20
4.85346224751
 11
6.443664739770029
 21
4.921715058394612
 72
     1
 10
6.443664739770029
 20
4.921715058394612
 11
6.469321625885312
 21
4.939150753317108
 97
        0
 75
     2
 76
     1
 98
        0
  0
ENDBLK
  5
1CC
330
1C9
100
AcDbEntity
  8
0
100
AcDbBlockEnd
  0
BLOCK
  5
1D6
330
1D4
100
AcDbEntity
  8
0
100
AcDbBlockBegin
  2
block 50
 70
     0
 10
0.0
 20
0.0
 30
0.0
  3
block 50
  1

  0
POLYLINE
  5
1D8
330
1D4
100
AcDbEntity
  8
_U+56FE_U+5C423
 62
     3
420
    65280
370
    25
100
AcDb2dPolyline
 66
     1
 10
0.0
 20
0.0
 30
0.0
  0
VERTEX
  5
1D9
330
1D8
100
AcDbEntity
  8
_U+56FE_U+5C423
 62
     3
420
    65280
370
    25
100
AcDbVertex
100
AcDb2dVertex
 10
3.951328277459614
 20
5.389391709116024
 30
0.0
  0
VERTEX
  5
1DA
330
1D8
100
AcDbEntity
  8
_U+56FE_U+5C423
 62
     3
420
    65280
370
    25
100
AcDbVertex
100
AcDb2dVertex
 10
2.89662697968692
 20
5.389391709116024
 30
0.0
  0
SEQEND
  5
1DB
330
1D8
100
AcDbEntity
  8
_U+56FE_U+5C423
 62
     3
420
    65280
370
    25
  0
ENDBLK
  5
1D7
330
1D4
100
AcDbEntity
  8
0
100
AcDbBlockEnd
  0
BLOCK
  5
1DE
330
1DC
100
AcDbEntity
  8
0
100
AcDbBlockBegin
  2
block 51
 70
     0
 10
0.0
 20
0.0
 30
0.0
  3
block 51
  1

  0
POLYLINE
  5
1E0
330
1DC
100
AcDbEntity
  8
_U+56FE_U+5C423
 62
     3
420
    65280
370
    25
100
AcDb2dPolyline
 66
     1
 10
0.0
 20
0.0
 30
0.0
  0
VERTEX
  5
1E1
330
1E0
100
AcDbEntity
  8
_U+56FE_U+5C423
 62
     3
420
    65280
370
    25
100
AcDbVertex
100
AcDb2dVertex
 10
2.89662697968692
 20
5.389391709116024
 30
0.0
  0
VERTEX
  5
1E2
330
1E0
100
AcDbEntity
  8
_U+56FE_U+5C423
 62
     3
420
    65280
370
    25
100
AcDbVertex
100
AcDb2dVertex
 10
2.458051702341979
 20
4.915711946841636
 30
0.0
  0
SEQEND
  5
1E3
330
1E0
100
AcDbEntity
  8
_U+56FE_U+5C423
 62
     3
420
    65280
370
    25
  0
ENDBLK
  5
1DF
330
1DC
100
AcDbEntity
  8
0
100
AcDbBlockEnd
  0
BLOCK
  5
1E6
330
1E4
100
AcDbEntity
  8
0
100
AcDbBlockBegin
  2
block 52
 70
     0
 10
0.0
 20
0.0
 30
0.0
  3
block 52
  1

  0
MTEXT
  5
1E8
330
1E4
100
AcDbEntity
  8
_U+56FE_U+5C423
 62
     3
420
    65280
100
AcDbMText
 10
2.921000374688042
 20
5.427059597439236
 30
0.0
 40
0.0930618764559428
 41
0.0
 46
0.0
 71
     7
 72
     1
  1
\fMyriad Pro|b0|i0|c0|p34;\W1;R85 [R3 3/8]
 73
     1
 44
1.0
  0
ENDBLK
  5
1E7
330
1E4
100
AcDbEntity
  8
0
100
AcDbBlockEnd
  0
BLOCK
  5
1EB
330
1E9
100
AcDbEntity
  8
0
100
AcDbBlockBegin
  2
block 53
 70
     0
 10
0.0
 20
0.0
 30
0.0
  3
block 53
  1

  0
POLYLINE
  5
1ED
330
1E9
100
AcDbEntity
  8
_U+56FE_U+5C423
370
     0
100
AcDb2dPolyline
 66
     1
 10
0.0
 20
0.0
 30
0.0
  0
VERTEX
  5
1EE
330
1ED
100
AcDbEntity
  8
_U+56FE_U+5C423
370
     0
100
AcDbVertex
100
AcDb2dVertex
 10
2.446670639709484
 20
4.926249557054411
 30
0.0
  0
VERTEX
  5
1EF
330
1ED
100
AcDbEntity
  8
_U+56FE_U+5C423
370
     0
100
AcDbVertex
100
AcDb2dVertex
 10
2.39482604106537
 20
4.847425571046718
 30
0.0
  0
VERTEX
  5
1F0
330
1ED
100
AcDbEntity
  8
_U+56FE_U+5C423
370
     0
100
AcDbVertex
100
AcDb2dVertex
 10
2.469432764974461
 20
4.905174336628887
 30
0.0
  0
VERTEX
  5
1F1
330
1ED
100
AcDbEntity
  8
_U+56FE_U+5C423
370
     0
100
AcDbVertex
100
AcDb2dVertex
 10
2.446670639709484
 20
4.926249557054411
 30
0.0
  0
SEQEND
  5
1F3
330
1ED
100
AcDbEntity
  8
_U+56FE_U+5C423
370
     0
  0
HATCH
  5
1F2
330
1E9
100
AcDbEntity
  8
_U+56FE_U+5C423
 62
     3
420
    65280
100
AcDbHatch
 10
0.0
 20
0.0
 30
0.0
210
0.0
220
0.0
230
1.0
  2
SOLID
 70
     1
 71
     0
 91
        1
 92
        1
 93
        3
 72
     1
 10
2.446670639709484
 20
4.926249557054411
 11
2.39482604106537
 21
4.847425571046718
 72
     1
 10
2.39482604106537
 20
4.847425571046718
 11
2.469432764974461
 21
4.905174336628887
 72
     1
 10
2.469432764974461
 20
4.905174336628887
 11
2.446670639709484
 21
4.926249557054411
 97
        0
 75
     2
 76
     1
 98
        0
  0
ENDBLK
  5
1EC
330
1E9
100
AcDbEntity
  8
0
100
AcDbBlockEnd
  0
BLOCK
  5
1F6
330
1F4
100
AcDbEntity
  8
0
100
AcDbBlockBegin
  2
block 54
 70
     0
 10
0.0
 20
0.0
 30
0.0
  3
block 54
  1

  0
POLYLINE
  5
1F8
330
1F4
100
AcDbEntity
  8
_U+56FE_U+5C423
 62
     3
420
    65280
370
    25
100
AcDb2dPolyline
 66
     1
 10
0.0
 20
0.0
 30
0.0
  0
VERTEX
  5
1F9
330
1F8
100
AcDbEntity
  8
_U+56FE_U+5C423
 62
     3
420
    65280
370
    25
100
AcDbVertex
100
AcDb2dVertex
 10
3.929279274443792
 20
6.49181641222444
 30
0.0
  0
VERTEX
  5
1FA
330
1F8
100
AcDbEntity
  8
_U+56FE_U+5C423
 62
     3
420
    65280
370
    25
100
AcDbVertex
100
AcDb2dVertex
 10
2.867847509738567
 20
6.49181641222444
 30
0.0
  0
SEQEND
  5
1FB
330
1F8
100
AcDbEntity
  8
_U+56FE_U+5C423
 62
     3
420
    65280
370
    25
  0
ENDBLK
  5
1F7
330
1F4
100
AcDbEntity
  8
0
100
AcDbBlockEnd
  0
BLOCK
  5
1FE
330
1FC
100
AcDbEntity
  8
0
100
AcDbBlockBegin
  2
block 55
 70
     0
 10
0.0
 20
0.0
 30
0.0
  3
block 55
  1

  0
POLYLINE
  5
200
330
1FC
100
AcDbEntity
  8
_U+56FE_U+5C423
 62
     3
420
    65280
370
    25
100
AcDb2dPolyline
 66
     1
 10
0.0
 20
0.0
 30
0.0
  0
VERTEX
  5
201
330
200
100
AcDbEntity
  8
_U+56FE_U+5C423
 62
     3
420
    65280
370
    25
100
AcDbVertex
100
AcDb2dVertex
 10
2.867847509738567
 20
6.49181641222444
 30
0.0
  0
VERTEX
  5
202
330
200
100
AcDbEntity
  8
_U+56FE_U+5C423
 62
     3
420
    65280
370
    25
100
AcDbVertex
100
AcDb2dVertex
 10
2.434146491098722
 20
6.943429562292092
 30
0.0
  0
SEQEND
  5
203
330
200
100
AcDbEntity
  8
_U+56FE_U+5C423
 62
     3
420
    65280
370
    25
  0
ENDBLK
  5
1FF
330
1FC
100
AcDbEntity
  8
0
100
AcDbBlockEnd
  0
BLOCK
  5
206
330
204
100
AcDbEntity
  8
0
100
AcDbBlockBegin
  2
block 56
 70
     0
 10
0.0
 20
0.0
 30
0.0
  3
block 56
  1

  0
MTEXT
  5
208
330
204
100
AcDbEntity
  8
_U+56FE_U+5C423
 62
     3
420
    65280
100
AcDbMText
 10
2.89895142449273
 20
6.529484219021267
 30
0.0
 40
0.0930618764559428
 41
0.0
 46
0.0
 71
     7
 72
     1
  1
\fMyriad Pro|b0|i0|c0|p34;\W1;R85 [R3 3/8]
 73
     1
 44
1.0
  0
ENDBLK
  5
207
330
204
100
AcDbEntity
  8
0
100
AcDbBlockEnd
  0
BLOCK
  5
20B
330
209
100
AcDbEntity
  8
0
100
AcDbBlockBegin
  2
block 57
 70
     0
 10
0.0
 20
0.0
 30
0.0
  3
block 57
  1

  0
POLYLINE
  5
20D
330
209
100
AcDbEntity
  8
_U+56FE_U+5C423
370
     0
100
AcDb2dPolyline
 66
     1
 10
0.0
 20
0.0
 30
0.0
  0
VERTEX
  5
20E
330
20D
100
AcDbEntity
  8
_U+56FE_U+5C423
370
     0
100
AcDbVertex
100
AcDb2dVertex
 10
2.44533354827945
 20
6.954172912201506
 30
0.0
  0
VERTEX
  5
20F
330
20D
100
AcDbEntity
  8
_U+56FE_U+5C423
370
     0
100
AcDbVertex
100
AcDb2dVertex
 10
2.36968639164229
 20
7.010551905376486
 30
0.0
  0
VERTEX
  5
210
330
20D
100
AcDbEntity
  8
_U+56FE_U+5C423
370
     0
100
AcDbVertex
100
AcDb2dVertex
 10
2.422959433917994
 20
6.932686212382678
 30
0.0
  0
VERTEX
  5
211
330
20D
100
AcDbEntity
  8
_U+56FE_U+5C423
370
     0
100
AcDbVertex
100
AcDb2dVertex
 10
2.44533354827945
 20
6.954172912201506
 30
0.0
  0
SEQEND
  5
213
330
20D
100
AcDbEntity
  8
_U+56FE_U+5C423
370
     0
  0
HATCH
  5
212
330
209
100
AcDbEntity
  8
_U+56FE_U+5C423
 62
     3
420
    65280
100
AcDbHatch
 10
0.0
 20
0.0
 30
0.0
210
0.0
220
0.0
230
1.0
  2
SOLID
 70
     1
 71
     0
 91
        1
 92
        1
 93
        3
 72
     1
 10
2.44533354827945
 20
6.954172912201506
 11
2.36968639164229
 21
7.010551905376486
 72
     1
 10
2.36968639164229
 20
7.010551905376486
 11
2.422959433917994
 21
6.932686212382678
 72
     1
 10
2.422959433917994
 20
6.932686212382678
 11
2.44533354827945
 21
6.954172912201506
 97
        0
 75
     2
 76
     1
 98
        0
  0
ENDBLK
  5
20C
330
209
100
AcDbEntity
  8
0
100
AcDbBlockEnd
  0
BLOCK
  5
216
330
214
100
AcDbEntity
  8
0
100
AcDbBlockBegin
  2
block 58
 70
     0
 10
0.0
 20
0.0
 30
0.0
  3
block 58
  1

  0
POLYLINE
  5
218
330
214
100
AcDbEntity
  8
_U+56FE_U+5C423
 62
     3
420
    65280
370
    25
100
AcDb2dPolyline
 66
     1
 10
0.0
 20
0.0
 30
0.0
  0
VERTEX
  5
219
330
218
100
AcDbEntity
  8
_U+56FE_U+5C423
 62
     3
420
    65280
370
    25
100
AcDbVertex
100
AcDb2dVertex
 10
5.804108583911809
 20
5.860591281566863
 30
0.0
  0
VERTEX
  5
21A
330
218
100
AcDbEntity
  8
_U+56FE_U+5C423
 62
     3
420
    65280
370
    25
100
AcDbVertex
100
AcDb2dVertex
 10
4.762071864563293
 20
5.860591281566863
 30
0.0
  0
SEQEND
  5
21B
330
218
100
AcDbEntity
  8
_U+56FE_U+5C423
 62
     3
420
    65280
370
    25
  0
ENDBLK
  5
217
330
214
100
AcDbEntity
  8
0
100
AcDbBlockEnd
  0
BLOCK
  5
21E
330
21C
100
AcDbEntity
  8
0
100
AcDbBlockBegin
  2
block 59
 70
     0
 10
0.0
 20
0.0
 30
0.0
  3
block 59
  1

  0
POLYLINE
  5
220
330
21C
100
AcDbEntity
  8
_U+56FE_U+5C423
 62
     3
420
    65280
370
    25
100
AcDb2dPolyline
 66
     1
 10
0.0
 20
0.0
 30
0.0
  0
VERTEX
  5
221
330
220
100
AcDbEntity
  8
_U+56FE_U+5C423
 62
     3
420
    65280
370
    25
100
AcDbVertex
100
AcDb2dVertex
 10
4.762071864563293
 20
5.860591281566863
 30
0.0
  0
VERTEX
  5
222
330
220
100
AcDbEntity
  8
_U+56FE_U+5C423
 62
     3
420
    65280
370
    25
100
AcDbVertex
100
AcDb2dVertex
 10
4.239678321888568
 20
7.117432037645244
 30
0.0
  0
SEQEND
  5
223
330
220
100
AcDbEntity
  8
_U+56FE_U+5C423
 62
     3
420
    65280
370
    25
  0
ENDBLK
  5
21F
330
21C
100
AcDbEntity
  8
0
100
AcDbBlockEnd
  0
BLOCK
  5
226
330
224
100
AcDbEntity
  8
0
100
AcDbBlockBegin
  2
block 60
 70
     0
 10
0.0
 20
0.0
 30
0.0
  3
block 60
  1

  0
MTEXT
  5
228
330
224
100
AcDbEntity
  8
_U+56FE_U+5C423
 62
     3
420
    65280
100
AcDbMText
 10
4.78153567843967
 20
5.898259056939019
 30
0.0
 40
0.0930618764559428
 41
0.0
 46
0.0
 71
     7
 72
     1
  1
\fMyriad Pro|b0|i0|c0|p34;\W1;R60 [R2 3/8]
 73
     1
 44
1.0
  0
ENDBLK
  5
227
330
224
100
AcDbEntity
  8
0
100
AcDbBlockEnd
  0
BLOCK
  5
22B
330
229
100
AcDbEntity
  8
0
100
AcDbBlockBegin
  2
block 61
 70
     0
 10
0.0
 20
0.0
 30
0.0
  3
block 61
  1

  0
POLYLINE
  5
22D
330
229
100
AcDbEntity
  8
_U+56FE_U+5C423
 62
     3
420
    65280
370
    25
100
AcDb2dPolyline
 66
     1
 10
0.0
 20
0.0
 30
0.0
  0
VERTEX
  5
22E
330
22D
100
AcDbEntity
  8
_U+56FE_U+5C423
 62
     3
420
    65280
370
    25
100
AcDbVertex
100
AcDb2dVertex
 10
4.061089039691928
 20
7.547104822868176
 30
0.0
  0
VERTEX
  5
22F
330
22D
100
AcDbEntity
  8
_U+56FE_U+5C423
 62
     3
420
    65280
370
    25
100
AcDbVertex
100
AcDb2dVertex
 10
4.203960465449224
 20
7.203366594689832
 30
0.0
  0
SEQEND
  5
230
330
22D
100
AcDbEntity
  8
_U+56FE_U+5C423
 62
     3
420
    65280
370
    25
  0
ENDBLK
  5
22C
330
229
100
AcDbEntity
  8
0
100
AcDbBlockEnd
  0
BLOCK
  5
233
330
231
100
AcDbEntity
  8
0
100
AcDbBlockBegin
  2
block 62
 70
     0
 10
0.0
 20
0.0
 30
0.0
  3
block 62
  1

  0
POLYLINE
  5
235
330
231
100
AcDbEntity
  8
_U+56FE_U+5C423
370
     0
100
AcDb2dPolyline
 66
     1
 10
0.0
 20
0.0
 30
0.0
  0
VERTEX
  5
236
330
235
100
AcDbEntity
  8
_U+56FE_U+5C423
370
     0
100
AcDbVertex
100
AcDb2dVertex
 10
4.254000748062658
 20
7.123385013718474
 30
0.0
  0
VERTEX
  5
237
330
235
100
AcDbEntity
  8
_U+56FE_U+5C423
370
     0
100
AcDbVertex
100
AcDb2dVertex
 10
4.203960465449224
 20
7.203366594689832
 30
0.0
  0
VERTEX
  5
238
330
235
100
AcDbEntity
  8
_U+56FE_U+5C423
370
     0
100
AcDbVertex
100
AcDb2dVertex
 10
4.225355895714466
 20
7.111479061572027
 30
0.0
  0
VERTEX
  5
239
330
235
100
AcDbEntity
  8
_U+56FE_U+5C423
370
     0
100
AcDbVertex
100
AcDb2dVertex
 10
4.254000748062658
 20
7.123385013718474
 30
0.0
  0
SEQEND
  5
23B
330
235
100
AcDbEntity
  8
_U+56FE_U+5C423
370
     0
  0
HATCH
  5
23A
330
231
100
AcDbEntity
  8
_U+56FE_U+5C423
 62
     3
420
    65280
100
AcDbHatch
 10
0.0
 20
0.0
 30
0.0
210
0.0
220
0.0
230
1.0
  2
SOLID
 70
     1
 71
     0
 91
        1
 92
        1
 93
        3
 72
     1
 10
4.254000748062658
 20
7.123385013718474
 11
4.203960465449224
 21
7.203366594689832
 72
     1
 10
4.203960465449224
 20
7.203366594689832
 11
4.225355895714466
 21
7.111479061572027
 72
     1
 10
4.225355895714466
 20
7.111479061572027
 11
4.254000748062658
 21
7.123385013718474
 97
        0
 75
     2
 76
     1
 98
        0
  0
ENDBLK
  5
234
330
231
100
AcDbEntity
  8
0
100
AcDbBlockEnd
  0
BLOCK
  5
23E
330
23C
100
AcDbEntity
  8
0
100
AcDbBlockBegin
  2
block 63
 70
     0
 10
0.0
 20
0.0
 30
0.0
  3
block 63
  1

  0
POLYLINE
  5
240
330
23C
100
AcDbEntity
  8
_U+56FE_U+5C423
 62
     3
420
    65280
370
    25
100
AcDb2dPolyline
 66
     1
 10
0.0
 20
0.0
 30
0.0
  0
VERTEX
  5
241
330
240
100
AcDbEntity
  8
_U+56FE_U+5C423
 62
     3
420
    65280
370
    25
100
AcDbVertex
100
AcDb2dVertex
 10
5.177737342212796
 20
6.302752564903862
 30
0.0
  0
VERTEX
  5
242
330
240
100
AcDbEntity
  8
_U+56FE_U+5C423
 62
     3
420
    65280
370
    25
100
AcDbVertex
100
AcDb2dVertex
 10
4.485525070861791
 20
7.29495664156861
 30
0.0
  0
SEQEND
  5
243
330
240
100
AcDbEntity
  8
_U+56FE_U+5C423
 62
     3
420
    65280
370
    25
  0
ENDBLK
  5
23F
330
23C
100
AcDbEntity
  8
0
100
AcDbBlockEnd
  0
BLOCK
  5
246
330
244
100
AcDbEntity
  8
0
100
AcDbBlockBegin
  2
block 64
 70
     0
 10
0.0
 20
0.0
 30
0.0
  3
block 64
  1

  0
MTEXT
  5
248
330
244
100
AcDbEntity
  8
_U+56FE_U+5C423
 62
     3
420
    65280
100
AcDbMText
 10
4.567124562131034
 20
7.243821611007054
 30
0.0
 40
0.0930618768482842
 41
0.0
 46
0.0
 71
     7
 72
     1
  1
\fMyriad Pro|b0|i0|c0|p34;\W1;R155 [R6 1/8]
 11
0.5721687054353776
 21
-0.8201359475845478
 31
0.0
 73
     1
 44
1.0
  0
ENDBLK
  5
247
330
244
100
AcDbEntity
  8
0
100
AcDbBlockEnd
  0
BLOCK
  5
24B
330
249
100
AcDbEntity
  8
0
100
AcDbBlockBegin
  2
block 65
 70
     0
 10
0.0
 20
0.0
 30
0.0
  3
block 65
  1

  0
POLYLINE
  5
24D
330
249
100
AcDbEntity
  8
_U+56FE_U+5C423
370
     0
100
AcDb2dPolyline
 66
     1
 10
0.0
 20
0.0
 30
0.0
  0
VERTEX
  5
24E
330
24D
100
AcDbEntity
  8
_U+56FE_U+5C423
370
     0
100
AcDbVertex
100
AcDb2dVertex
 10
4.498245635947215
 20
7.30383115786799
 30
0.0
  0
VERTEX
  5
24F
330
24D
100
AcDbEntity
  8
_U+56FE_U+5C423
370
     0
100
AcDbVertex
100
AcDb2dVertex
 10
4.432277973065538
 20
7.371280032081282
 30
0.0
  0
VERTEX
  5
250
330
24D
100
AcDbEntity
  8
_U+56FE_U+5C423
370
     0
100
AcDbVertex
100
AcDb2dVertex
 10
4.472804505776341
 20
7.286082125269242
 30
0.0
  0
VERTEX
  5
251
330
24D
100
AcDbEntity
  8
_U+56FE_U+5C423
370
     0
100
AcDbVertex
100
AcDb2dVertex
 10
4.498245635947215
 20
7.30383115786799
 30
0.0
  0
SEQEND
  5
253
330
24D
100
AcDbEntity
  8
_U+56FE_U+5C423
370
     0
  0
HATCH
  5
252
330
249
100
AcDbEntity
  8
_U+56FE_U+5C423
 62
     3
420
    65280
100
AcDbHatch
 10
0.0
 20
0.0
 30
0.0
210
0.0
220
0.0
230
1.0
  2
SOLID
 70
     1
 71
     0
 91
        1
 92
        1
 93
        3
 72
     1
 10
4.498245635947215
 20
7.30383115786799
 11
4.432277973065538
 21
7.371280032081282
 72
     1
 10
4.432277973065538
 20
7.371280032081282
 11
4.472804505776341
 21
7.286082125269242
 72
     1
 10
4.472804505776341
 20
7.286082125269242
 11
4.498245635947215
 21
7.30383115786799
 97
        0
 75
     2
 76
     1
 98
        0
  0
ENDBLK
  5
24C
330
249
100
AcDbEntity
  8
0
100
AcDbBlockEnd
  0
BLOCK
  5
257
330
255
100
AcDbEntity
  8
0
100
AcDbBlockBegin
  2
block 66
 70
     0
 10
0.0
 20
0.0
 30
0.0
  3
block 66
  1

  0
SPLINE
  5
259
330
255
100
AcDbEntity
  8
_U+56FE_U+5C422
  6
AI-Linetype-1
 62
    22
420
 15540004
370
    35
100
AcDbSpline
210
0.0
220
0.0
230
1.0
 70
    11
 71
     3
 72
    38
 73
    34
 74
     0
 42
0.0000000001
 43
0.0000000001
 12
1.0
 22
0.0
 32
0.0
 13
1.0
 23
0.0
 33
0.0
 40
0.0
 40
0.0
 40
0.0
 40
0.0
 40
1.0
 40
1.0
 40
1.0
 40
2.0
 40
2.0
 40
2.0
 40
3.0
 40
3.0
 40
3.0
 40
4.0
 40
4.0
 40
4.0
 40
5.0
 40
5.0
 40
5.0
 40
6.0
 40
6.0
 40
6.0
 40
7.0
 40
7.0
 40
7.0
 40
8.0
 40
8.0
 40
8.0
 40
9.0
 40
9.0
 40
9.0
 40
10.0
 40
10.0
 40
10.0
 40
11.0
 40
11.0
 40
11.0
 40
11.0
 10
2.760765799299747
 20
4.645039590486349
 30
0.0
 10
2.760765799299747
 20
4.645039590486349
 30
0.0
 10
6.185989497278367
 20
4.689564962049618
 30
0.0
 10
6.185989497278367
 20
4.689564962049618
 30
0.0
 10
6.545735700239523
 20
4.694241396282172
 30
0.0
 10
6.833576619950892
 20
4.989664313950066
 30
0.0
 10
6.828900185718364
 20
5.349410516911221
 30
0.0
 10
6.828900185718364
 20
5.349410516911221
 30
0.0
 10
6.812560325407402
 20
6.606394451994977
 30
0.0
 10
6.812560325407402
 20
6.606394451994977
 30
0.0
 10
6.806360630140438
 20
7.083320709019656
 30
0.0
 10
6.471606575208726
 20
7.492766884504564
 30
0.0
 10
6.005424975044914
 20
7.593622186687311
 30
0.0
 10
5.587841328514413
 20
7.683963649926492
 30
0.0
 10
5.155198481471012
 20
7.678339613303655
 30
0.0
 10
4.74010427088524
 20
7.577173951132774
 30
0.0
 10
4.56555549286395
 20
7.534633385017147
 30
0.0
 10
4.405276291682715
 20
7.446904835355465
 30
0.0
 10
4.275370189444175
 20
7.322802537732248
 30
0.0
 10
4.218662596608738
 20
7.268628465519403
 30
0.0
 10
4.143540166494113
 20
7.237944154071656
 30
0.0
 10
4.065121150744694
 20
7.236924764939229
 30
0.0
 10
4.065121150744694
 20
7.236924764939229
 30
0.0
 10
2.727299277561795
 20
7.21953407129662
 30
0.0
 10
2.727299277561795
 20
7.21953407129662
 30
0.0
 10
2.413474725377013
 20
7.215454584517412
 30
0.0
 10
2.157893310252398
 20
6.966166674709193
 30
0.0
 10
2.145992276252956
 20
6.652541329502368
 30
0.0
 10
2.127577638142093
 20
6.167264400232916
 30
0.0
 10
2.133893977603811
 20
5.681364454895388
 30
0.0
 10
2.164916743173686
 20
5.196730175263458
 30
0.0
 10
2.184966172631966
 20
4.883520162421013
 30
0.0
 10
2.446941247114965
 20
4.64096010370713
 30
0.0
 10
2.760765799299747
 20
4.645039590486349
 30
0.0
  0
ENDBLK
  5
258
330
255
100
AcDbEntity
  8
0
100
AcDbBlockEnd
  0
BLOCK
  5
25D
330
25B
100
AcDbEntity
  8
0
100
AcDbBlockBegin
  2
block 67
 70
     0
 10
0.0
 20
0.0
 30
0.0
  3
block 67
  1

  0
SPLINE
  5
25F
330
25B
100
AcDbEntity
  8
_U+56FE_U+5C422
 62
     2
420
 16776960
370
    35
100
AcDbSpline
210
0.0
220
0.0
230
1.0
 70
    11
 71
     3
 72
    38
 73
    34
 74
     0
 42
0.0000000001
 43
0.0000000001
 12
1.0
 22
0.0
 32
0.0
 13
1.0
 23
0.0
 33
0.0
 40
0.0
 40
0.0
 40
0.0
 40
0.0
 40
1.0
 40
1.0
 40
1.0
 40
2.0
 40
2.0
 40
2.0
 40
3.0
 40
3.0
 40
3.0
 40
4.0
 40
4.0
 40
4.0
 40
5.0
 40
5.0
 40
5.0
 40
6.0
 40
6.0
 40
6.0
 40
7.0
 40
7.0
 40
7.0
 40
8.0
 40
8.0
 40
8.0
 40
9.0
 40
9.0
 40
9.0
 40
10.0
 40
10.0
 40
10.0
 40
11.0
 40
11.0
 40
11.0
 40
11.0
 10
2.760362588194463
 20
4.676057596279255
 30
0.0
 10
2.760362588194463
 20
4.676057596279255
 30
0.0
 10
6.185586286173071
 20
4.720582967842524
 30
0.0
 10
6.185586286173071
 20
4.720582967842524
 30
0.0
 10
6.528201717564671
 20
4.72503671473065
 30
0.0
 10
6.802335926813586
 20
5.006391874414374
 30
0.0
 10
6.797882179925459
 20
5.34900730580595
 30
0.0
 10
6.797882179925459
 20
5.34900730580595
 30
0.0
 10
6.781542319614522
 20
6.605991240889706
 30
0.0
 10
6.781542319614522
 20
6.605991240889706
 30
0.0
 10
6.775530500984764
 20
7.068465172394503
 30
0.0
 10
6.450920514240023
 20
7.465503892853298
 30
0.0
 10
5.998865630690034
 20
7.563302980493922
 30
0.0
 10
5.585870758702185
 20
7.652651686233526
 30
0.0
 10
5.157982228742159
 20
7.647089445834909
 30
0.0
 10
4.747449494488895
 20
7.54703548811992
 30
0.0
 10
4.578190113796128
 20
7.505784039919162
 30
0.0
 10
4.422767858105241
 20
7.420713931156317
 30
0.0
 10
4.296798304419402
 20
7.300372309218649
 30
0.0
 10
4.234419952300426
 20
7.240780829784525
 30
0.0
 10
4.15178527917433
 20
7.207028087192017
 30
0.0
 10
4.065524361849965
 20
7.205906759146337
 30
0.0
 10
4.065524361849965
 20
7.205906759146337
 30
0.0
 10
2.727702488667079
 20
7.188516065503727
 30
0.0
 10
2.727702488667079
 20
7.188516065503727
 30
0.0
 10
2.43039500991415
 20
7.184651284016631
 30
0.0
 10
2.188265251736311
 20
6.948483786906094
 30
0.0
 10
2.176990592374788
 20
6.651365038647403
 30
0.0
 10
2.158615898717117
 20
6.167140566391304
 30
0.0
 10
2.164918544016473
 20
5.682294634044259
 30
0.0
 10
2.195874022289975
 20
5.198711622291486
 30
0.0
 10
2.214868205035537
 20
4.901986559164722
 30
0.0
 10
2.463055117703624
 20
4.672192819330525
 30
0.0
 10
2.760362588194463
 20
4.676057596279255
 30
0.0
  0
ENDBLK
  5
25E
330
25B
100
AcDbEntity
  8
0
100
AcDbBlockEnd
  0
BLOCK
  5
262
330
260
100
AcDbEntity
  8
0
100
AcDbBlockBegin
  2
block 68
 70
     0
 10
0.0
 20
0.0
 30
0.0
  3
block 68
  1

  0
SPLINE
  5
264
330
260
100
AcDbEntity
  8
_U+56FE_U+5C422
  6
AI-Linetype-2
 62
    22
420
 15540004
370
    35
100
AcDbSpline
210
0.0
220
0.0
230
1.0
 70
    11
 71
     3
 72
    38
 73
    34
 74
     0
 42
0.0000000001
 43
0.0000000001
 12
1.0
 22
0.0
 32
0.0
 13
1.0
 23
0.0
 33
0.0
 40
0.0
 40
0.0
 40
0.0
 40
0.0
 40
1.0
 40
1.0
 40
1.0
 40
2.0
 40
2.0
 40
2.0
 40
3.0
 40
3.0
 40
3.0
 40
4.0
 40
4.0
 40
4.0
 40
5.0
 40
5.0
 40
5.0
 40
6.0
 40
6.0
 40
6.0
 40
7.0
 40
7.0
 40
7.0
 40
8.0
 40
8.0
 40
8.0
 40
9.0
 40
9.0
 40
9.0
 40
10.0
 40
10.0
 40
10.0
 40
11.0
 40
11.0
 40
11.0
 40
11.0
 10
2.759959377089192
 20
4.707075602072134
 30
0.0
 10
2.759959377089192
 20
4.707075602072134
 30
0.0
 10
6.185183075067824
 20
4.751600973635428
 30
0.0
 10
6.185183075067824
 20
4.751600973635428
 30
0.0
 10
6.51066773488982
 20
4.755832033179154
 30
0.0
 10
6.77109523367628
 20
5.023119434878683
 30
0.0
 10
6.766864174132555
 20
5.348604094700678
 30
0.0
 10
6.766864174132555
 20
5.348604094700678
 30
0.0
 10
6.750524313821617
 20
6.605588029784421
 30
0.0
 10
6.750524313821617
 20
6.605588029784421
 30
0.0
 10
6.744700357661738
 20
7.053609665171241
 30
0.0
 10
6.430234427271342
 20
7.438240920929792
 30
0.0
 10
5.992306257420497
 20
7.532983780555999
 30
0.0
 10
5.583900272875199
 20
7.621339717255182
 30
0.0
 10
5.160766059832743
 20
7.615839285832863
 30
0.0
 10
4.754794798930182
 20
7.51689704480859
 30
0.0
 10
4.590824734728358
 20
7.476934694821175
 30
0.0
 10
4.440259424527792
 20
7.394523026957168
 30
0.0
 10
4.318226419394628
 20
7.277942080705063
 30
0.0
 10
4.250177307992114
 20
7.212933194049646
 30
0.0
 10
4.160030391854548
 20
7.176112020312353
 30
0.0
 10
4.065927572955236
 20
7.174888753353431
 30
0.0
 10
4.065927572955236
 20
7.174888753353431
 30
0.0
 10
2.72810569977235
 20
7.157498059710835
 30
0.0
 10
2.72810569977235
 20
7.157498059710835
 30
0.0
 10
2.447315310975442
 20
7.153847992592596
 30
0.0
 10
2.218637202706052
 20
6.93080091539577
 30
0.0
 10
2.20798890912762
 20
6.650188764421247
 30
0.0
 10
2.189654160986846
 20
6.167017158055336
 30
0.0
 10
2.195943097674318
 20
5.683225238511
 30
0.0
 10
2.226831274239544
 20
5.200693493714803
 30
0.0
 10
2.244770237439083
 20
4.920452955908432
 30
0.0
 10
2.479168988292284
 20
4.703425534953895
 30
0.0
 10
2.759959377089192
 20
4.707075602072134
 30
0.0
  0
ENDBLK
  5
263
330
260
100
AcDbEntity
  8
0
100
AcDbBlockEnd
  0
BLOCK
  5
269
330
267
100
AcDbEntity
  8
0
100
AcDbBlockBegin
  2
block 69
 70
     0
 10
0.0
 20
0.0
 30
0.0
  3
block 69
  1

  0
POLYLINE
  5
26B
330
267
100
AcDbEntity
  8
Defpoints
370
     0
100
AcDb2dPolyline
 66
     1
 10
0.0
 20
0.0
 30
0.0
  0
VERTEX
  5
26C
330
26B
100
AcDbEntity
  8
Defpoints
370
     0
100
AcDbVertex
100
AcDb2dVertex
 10
6.758694243977086
 20
5.977096062242556
 30
0.0
  0
VERTEX
  5
26D
330
26B
100
AcDbEntity
  8
Defpoints
370
     0
100
AcDbVertex
100
AcDb2dVertex
 10
6.758694243977086
 20
5.977096062242556
 30
0.0
  0
SEQEND
  5
26E
330
26B
100
AcDbEntity
  8
Defpoints
370
     0
  0
ENDBLK
  5
26A
330
267
100
AcDbEntity
  8
0
100
AcDbBlockEnd
  0
BLOCK
  5
271
330
26F
100
AcDbEntity
  8
0
100
AcDbBlockBegin
  2
block 70
 70
     0
 10
0.0
 20
0.0
 30
0.0
  3
block 70
  1

  0
POLYLINE
  5
273
330
26F
100
AcDbEntity
  8
Defpoints
370
     0
100
AcDb2dPolyline
 66
     1
 10
0.0
 20
0.0
 30
0.0
  0
VERTEX
  5
274
330
273
100
AcDbEntity
  8
Defpoints
370
     0
100
AcDbVertex
100
AcDb2dVertex
 10
2.198951494918851
 20
5.925201180979343
 30
0.0
  0
VERTEX
  5
275
330
273
100
AcDbEntity
  8
Defpoints
370
     0
100
AcDbVertex
100
AcDb2dVertex
 10
2.198951494918851
 20
5.925201180979343
 30
0.0
  0
SEQEND
  5
276
330
273
100
AcDbEntity
  8
Defpoints
370
     0
  0
ENDBLK
  5
272
330
26F
100
AcDbEntity
  8
0
100
AcDbBlockEnd
  0
BLOCK
  5
279
330
277
100
AcDbEntity
  8
0
100
AcDbBlockBegin
  2
block 71
 70
     0
 10
0.0
 20
0.0
 30
0.0
  3
block 71
  1

  0
POLYLINE
  5
27B
330
277
100
AcDbEntity
  8
Defpoints
370
     0
100
AcDb2dPolyline
 66
     1
 10
0.0
 20
0.0
 30
0.0
  0
VERTEX
  5
27C
330
27B
100
AcDbEntity
  8
Defpoints
370
     0
100
AcDbVertex
100
AcDb2dVertex
 10
2.219924474990383
 20
4.311803115201402
 30
0.0
  0
VERTEX
  5
27D
330
27B
100
AcDbEntity
  8
Defpoints
370
     0
100
AcDbVertex
100
AcDb2dVertex
 10
2.219924474990383
 20
4.311803115201402
 30
0.0
  0
SEQEND
  5
27E
330
27B
100
AcDbEntity
  8
Defpoints
370
     0
  0
ENDBLK
  5
27A
330
277
100
AcDbEntity
  8
0
100
AcDbBlockEnd
  0
BLOCK
  5
281
330
27F
100
AcDbEntity
  8
0
100
AcDbBlockBegin
  2
block 72
 70
     0
 10
0.0
 20
0.0
 30
0.0
  3
block 72
  1

  0
POLYLINE
  5
283
330
27F
100
AcDbEntity
  8
Defpoints
370
     0
100
AcDb2dPolyline
 66
     1
 10
0.0
 20
0.0
 30
0.0
  0
VERTEX
  5
284
330
283
100
AcDbEntity
  8
Defpoints
370
     0
100
AcDbVertex
100
AcDb2dVertex
 10
6.820730255562871
 20
5.977902484453112
 30
0.0
  0
VERTEX
  5
285
330
283
100
AcDbEntity
  8
Defpoints
370
     0
100
AcDbVertex
100
AcDb2dVertex
 10
6.820730255562871
 20
5.977902484453112
 30
0.0
  0
SEQEND
  5
286
330
283
100
AcDbEntity
  8
Defpoints
370
     0
  0
ENDBLK
  5
282
330
27F
100
AcDbEntity
  8
0
100
AcDbBlockEnd
  0
BLOCK
  5
289
330
287
100
AcDbEntity
  8
0
100
AcDbBlockBegin
  2
block 73
 70
     0
 10
0.0
 20
0.0
 30
0.0
  3
block 73
  1

  0
POLYLINE
  5
28B
330
287
100
AcDbEntity
  8
Defpoints
370
     0
100
AcDb2dPolyline
 66
     1
 10
0.0
 20
0.0
 30
0.0
  0
VERTEX
  5
28C
330
28B
100
AcDbEntity
  8
Defpoints
370
     0
100
AcDbVertex
100
AcDb2dVertex
 10
2.136915483333054
 20
5.924394758768837
 30
0.0
  0
VERTEX
  5
28D
330
28B
100
AcDbEntity
  8
Defpoints
370
     0
100
AcDbVertex
100
AcDb2dVertex
 10
2.136915483333054
 20
5.924394758768837
 30
0.0
  0
SEQEND
  5
28E
330
28B
100
AcDbEntity
  8
Defpoints
370
     0
  0
ENDBLK
  5
28A
330
287
100
AcDbEntity
  8
0
100
AcDbBlockEnd
  0
BLOCK
  5
291
330
28F
100
AcDbEntity
  8
0
100
AcDbBlockBegin
  2
block 74
 70
     0
 10
0.0
 20
0.0
 30
0.0
  3
block 74
  1

  0
POLYLINE
  5
293
330
28F
100
AcDbEntity
  8
Defpoints
370
     0
100
AcDb2dPolyline
 66
     1
 10
0.0
 20
0.0
 30
0.0
  0
VERTEX
  5
294
330
293
100
AcDbEntity
  8
Defpoints
370
     0
100
AcDbVertex
100
AcDb2dVertex
 10
2.161069520413321
 20
4.066286060190578
 30
0.0
  0
VERTEX
  5
295
330
293
100
AcDbEntity
  8
Defpoints
370
     0
100
AcDbVertex
100
AcDb2dVertex
 10
2.161069520413321
 20
4.066286060190578
 30
0.0
  0
SEQEND
  5
296
330
293
100
AcDbEntity
  8
Defpoints
370
     0
  0
ENDBLK
  5
292
330
28F
100
AcDbEntity
  8
0
100
AcDbBlockEnd
  0
BLOCK
  5
299
330
297
100
AcDbEntity
  8
0
100
AcDbBlockBegin
  2
block 75
 70
     0
 10
0.0
 20
0.0
 30
0.0
  3
block 75
  1

  0
POLYLINE
  5
29B
330
297
100
AcDbEntity
  8
Defpoints
370
     0
100
AcDb2dPolyline
 66
     1
 10
0.0
 20
0.0
 30
0.0
  0
VERTEX
  5
29C
330
29B
100
AcDbEntity
  8
Defpoints
370
     0
100
AcDbVertex
100
AcDb2dVertex
 10
5.372637508559996
 20
7.595177228949839
 30
0.0
  0
VERTEX
  5
29D
330
29B
100
AcDbEntity
  8
Defpoints
370
     0
100
AcDbVertex
100
AcDb2dVertex
 10
5.372637508559996
 20
7.595177228949839
 30
0.0
  0
SEQEND
  5
29E
330
29B
100
AcDbEntity
  8
Defpoints
370
     0
  0
ENDBLK
  5
29A
330
297
100
AcDbEntity
  8
0
100
AcDbBlockEnd
  0
BLOCK
  5
2A1
330
29F
100
AcDbEntity
  8
0
100
AcDbBlockBegin
  2
block 76
 70
     0
 10
0.0
 20
0.0
 30
0.0
  3
block 76
  1

  0
POLYLINE
  5
2A3
330
29F
100
AcDbEntity
  8
Defpoints
370
     0
100
AcDb2dPolyline
 66
     1
 10
0.0
 20
0.0
 30
0.0
  0
VERTEX
  5
2A4
330
2A3
100
AcDbEntity
  8
Defpoints
370
     0
100
AcDbVertex
100
AcDb2dVertex
 10
5.40973293024543
 20
4.741520696003514
 30
0.0
  0
VERTEX
  5
2A5
330
2A3
100
AcDbEntity
  8
Defpoints
370
     0
100
AcDbVertex
100
AcDb2dVertex
 10
5.40973293024543
 20
4.741520696003514
 30
0.0
  0
SEQEND
  5
2A6
330
2A3
100
AcDbEntity
  8
Defpoints
370
     0
  0
ENDBLK
  5
2A2
330
29F
100
AcDbEntity
  8
0
100
AcDbBlockEnd
  0
BLOCK
  5
2A9
330
2A7
100
AcDbEntity
  8
0
100
AcDbBlockBegin
  2
block 77
 70
     0
 10
0.0
 20
0.0
 30
0.0
  3
block 77
  1

  0
POLYLINE
  5
2AB
330
2A7
100
AcDbEntity
  8
Defpoints
370
     0
100
AcDb2dPolyline
 66
     1
 10
0.0
 20
0.0
 30
0.0
  0
VERTEX
  5
2AC
330
2AB
100
AcDbEntity
  8
Defpoints
370
     0
100
AcDbVertex
100
AcDb2dVertex
 10
7.088297666324352
 20
4.763340794530273
 30
0.0
  0
VERTEX
  5
2AD
330
2AB
100
AcDbEntity
  8
Defpoints
370
     0
100
AcDbVertex
100
AcDb2dVertex
 10
7.088297666324352
 20
4.763340794530273
 30
0.0
  0
SEQEND
  5
2AE
330
2AB
100
AcDbEntity
  8
Defpoints
370
     0
  0
ENDBLK
  5
2AA
330
2A7
100
AcDbEntity
  8
0
100
AcDbBlockEnd
  0
BLOCK
  5
2B1
330
2AF
100
AcDbEntity
  8
0
100
AcDbBlockBegin
  2
block 78
 70
     0
 10
0.0
 20
0.0
 30
0.0
  3
block 78
  1

  0
POLYLINE
  5
2B3
330
2AF
100
AcDbEntity
  8
Defpoints
370
     0
100
AcDb2dPolyline
 66
     1
 10
0.0
 20
0.0
 30
0.0
  0
VERTEX
  5
2B4
330
2B3
100
AcDbEntity
  8
Defpoints
370
     0
100
AcDbVertex
100
AcDb2dVertex
 10
5.371831086349453
 20
7.657213240535636
 30
0.0
  0
VERTEX
  5
2B5
330
2B3
100
AcDbEntity
  8
Defpoints
370
     0
100
AcDbVertex
100
AcDb2dVertex
 10
5.371831086349453
 20
7.657213240535636
 30
0.0
  0
SEQEND
  5
2B6
330
2B3
100
AcDbEntity
  8
Defpoints
370
     0
  0
ENDBLK
  5
2B2
330
2AF
100
AcDbEntity
  8
0
100
AcDbBlockEnd
  0
BLOCK
  5
2B9
330
2B7
100
AcDbEntity
  8
0
100
AcDbBlockBegin
  2
block 79
 70
     0
 10
0.0
 20
0.0
 30
0.0
  3
block 79
  1

  0
POLYLINE
  5
2BB
330
2B7
100
AcDbEntity
  8
Defpoints
370
     0
100
AcDb2dPolyline
 66
     1
 10
0.0
 20
0.0
 30
0.0
  0
VERTEX
  5
2BC
330
2BB
100
AcDbEntity
  8
Defpoints
370
     0
100
AcDbVertex
100
AcDb2dVertex
 10
5.410539352455973
 20
4.679484684417704
 30
0.0
  0
VERTEX
  5
2BD
330
2BB
100
AcDbEntity
  8
Defpoints
370
     0
100
AcDbVertex
100
AcDb2dVertex
 10
5.410539352455973
 20
4.679484684417704
 30
0.0
  0
SEQEND
  5
2BE
330
2BB
100
AcDbEntity
  8
Defpoints
370
     0
  0
ENDBLK
  5
2BA
330
2B7
100
AcDbEntity
  8
0
100
AcDbBlockEnd
  0
BLOCK
  5
2C1
330
2BF
100
AcDbEntity
  8
0
100
AcDbBlockBegin
  2
block 80
 70
     0
 10
0.0
 20
0.0
 30
0.0
  3
block 80
  1

  0
POLYLINE
  5
2C3
330
2BF
100
AcDbEntity
  8
Defpoints
370
     0
100
AcDb2dPolyline
 66
     1
 10
0.0
 20
0.0
 30
0.0
  0
VERTEX
  5
2C4
330
2C3
100
AcDbEntity
  8
Defpoints
370
     0
100
AcDbVertex
100
AcDb2dVertex
 10
7.418450201257403
 20
4.705586038516306
 30
0.0
  0
VERTEX
  5
2C5
330
2C3
100
AcDbEntity
  8
Defpoints
370
     0
100
AcDbVertex
100
AcDb2dVertex
 10
7.418450201257403
 20
4.705586038516306
 30
0.0
  0
SEQEND
  5
2C6
330
2C3
100
AcDbEntity
  8
Defpoints
370
     0
  0
ENDBLK
  5
2C2
330
2BF
100
AcDbEntity
  8
0
100
AcDbBlockEnd
  0
BLOCK
  5
2C9
330
2C7
100
AcDbEntity
  8
0
100
AcDbBlockBegin
  2
block 81
 70
     0
 10
0.0
 20
0.0
 30
0.0
  3
block 81
  1

  0
POLYLINE
  5
2CB
330
2C7
100
AcDbEntity
  8
Defpoints
370
     0
100
AcDb2dPolyline
 66
     1
 10
0.0
 20
0.0
 30
0.0
  0
VERTEX
  5
2CC
330
2CB
100
AcDbEntity
  8
Defpoints
370
     0
100
AcDbVertex
100
AcDb2dVertex
 10
3.3970166363638
 20
7.166193406532127
 30
0.0
  0
VERTEX
  5
2CD
330
2CB
100
AcDbEntity
  8
Defpoints
370
     0
100
AcDbVertex
100
AcDb2dVertex
 10
3.3970166363638
 20
7.166193406532127
 30
0.0
  0
SEQEND
  5
2CE
330
2CB
100
AcDbEntity
  8
Defpoints
370
     0
  0
ENDBLK
  5
2CA
330
2C7
100
AcDbEntity
  8
0
100
AcDbBlockEnd
  0
BLOCK
  5
2D1
330
2CF
100
AcDbEntity
  8
0
100
AcDbBlockBegin
  2
block 82
 70
     0
 10
0.0
 20
0.0
 30
0.0
  3
block 82
  1

  0
POLYLINE
  5
2D3
330
2CF
100
AcDbEntity
  8
Defpoints
370
     0
100
AcDb2dPolyline
 66
     1
 10
0.0
 20
0.0
 30
0.0
  0
VERTEX
  5
2D4
330
2D3
100
AcDbEntity
  8
Defpoints
370
     0
100
AcDbVertex
100
AcDb2dVertex
 10
3.428870313680628
 20
4.715770948893451
 30
0.0
  0
VERTEX
  5
2D5
330
2D3
100
AcDbEntity
  8
Defpoints
370
     0
100
AcDbVertex
100
AcDb2dVertex
 10
3.428870313680628
 20
4.715770948893451
 30
0.0
  0
SEQEND
  5
2D6
330
2D3
100
AcDbEntity
  8
Defpoints
370
     0
  0
ENDBLK
  5
2D2
330
2CF
100
AcDbEntity
  8
0
100
AcDbBlockEnd
  0
BLOCK
  5
2D9
330
2D7
100
AcDbEntity
  8
0
100
AcDbBlockBegin
  2
block 83
 70
     0
 10
0.0
 20
0.0
 30
0.0
  3
block 83
  1

  0
POLYLINE
  5
2DB
330
2D7
100
AcDbEntity
  8
Defpoints
370
     0
100
AcDb2dPolyline
 66
     1
 10
0.0
 20
0.0
 30
0.0
  0
VERTEX
  5
2DC
330
2DB
100
AcDbEntity
  8
Defpoints
370
     0
100
AcDbVertex
100
AcDb2dVertex
 10
1.79540117462611
 20
4.694537059732966
 30
0.0
  0
VERTEX
  5
2DD
330
2DB
100
AcDbEntity
  8
Defpoints
370
     0
100
AcDbVertex
100
AcDb2dVertex
 10
1.79540117462611
 20
4.694537059732966
 30
0.0
  0
SEQEND
  5
2DE
330
2DB
100
AcDbEntity
  8
Defpoints
370
     0
  0
ENDBLK
  5
2DA
330
2D7
100
AcDbEntity
  8
0
100
AcDbBlockEnd
  0
BLOCK
  5
2E1
330
2DF
100
AcDbEntity
  8
0
100
AcDbBlockBegin
  2
block 84
 70
     0
 10
0.0
 20
0.0
 30
0.0
  3
block 84
  1

  0
POLYLINE
  5
2E3
330
2DF
100
AcDbEntity
  8
Defpoints
370
     0
100
AcDb2dPolyline
 66
     1
 10
0.0
 20
0.0
 30
0.0
  0
VERTEX
  5
2E4
330
2E3
100
AcDbEntity
  8
Defpoints
370
     0
100
AcDbVertex
100
AcDb2dVertex
 10
3.396210214153244
 20
7.228229418117924
 30
0.0
  0
VERTEX
  5
2E5
330
2E3
100
AcDbEntity
  8
Defpoints
370
     0
100
AcDbVertex
100
AcDb2dVertex
 10
3.396210214153244
 20
7.228229418117924
 30
0.0
  0
SEQEND
  5
2E6
330
2E3
100
AcDbEntity
  8
Defpoints
370
     0
  0
ENDBLK
  5
2E2
330
2DF
100
AcDbEntity
  8
0
100
AcDbBlockEnd
  0
BLOCK
  5
2E9
330
2E7
100
AcDbEntity
  8
0
100
AcDbBlockBegin
  2
block 85
 70
     0
 10
0.0
 20
0.0
 30
0.0
  3
block 85
  1

  0
POLYLINE
  5
2EB
330
2E7
100
AcDbEntity
  8
Defpoints
370
     0
100
AcDb2dPolyline
 66
     1
 10
0.0
 20
0.0
 30
0.0
  0
VERTEX
  5
2EC
330
2EB
100
AcDbEntity
  8
Defpoints
370
     0
100
AcDbVertex
100
AcDb2dVertex
 10
3.429676735891184
 20
4.653734937307667
 30
0.0
  0
VERTEX
  5
2ED
330
2EB
100
AcDbEntity
  8
Defpoints
370
     0
100
AcDbVertex
100
AcDb2dVertex
 10
3.429676735891184
 20
4.653734937307667
 30
0.0
  0
SEQEND
  5
2EE
330
2EB
100
AcDbEntity
  8
Defpoints
370
     0
  0
ENDBLK
  5
2EA
330
2E7
100
AcDbEntity
  8
0
100
AcDbBlockEnd
  0
BLOCK
  5
2F1
330
2EF
100
AcDbEntity
  8
0
100
AcDbBlockBegin
  2
block 86
 70
     0
 10
0.0
 20
0.0
 30
0.0
  3
block 86
  1

  0
POLYLINE
  5
2F3
330
2EF
100
AcDbEntity
  8
Defpoints
370
     0
100
AcDb2dPolyline
 66
     1
 10
0.0
 20
0.0
 30
0.0
  0
VERTEX
  5
2F4
330
2F3
100
AcDbEntity
  8
Defpoints
370
     0
100
AcDbVertex
100
AcDb2dVertex
 10
1.485179323279415
 20
4.628457910919425
 30
0.0
  0
VERTEX
  5
2F5
330
2F3
100
AcDbEntity
  8
Defpoints
370
     0
100
AcDbVertex
100
AcDb2dVertex
 10
1.485179323279415
 20
4.628457910919425
 30
0.0
  0
SEQEND
  5
2F6
330
2F3
100
AcDbEntity
  8
Defpoints
370
     0
  0
ENDBLK
  5
2F2
330
2EF
100
AcDbEntity
  8
0
100
AcDbBlockEnd
  0
BLOCK
  5
2F9
330
2F7
100
AcDbEntity
  8
0
100
AcDbBlockBegin
  2
block 87
 70
     0
 10
0.0
 20
0.0
 30
0.0
  3
block 87
  1

  0
POLYLINE
  5
2FB
330
2F7
100
AcDbEntity
  8
Defpoints
370
     0
100
AcDb2dPolyline
 66
     1
 10
0.0
 20
0.0
 30
0.0
  0
VERTEX
  5
2FC
330
2FB
100
AcDbEntity
  8
Defpoints
370
     0
100
AcDbVertex
100
AcDb2dVertex
 10
6.417721434387481
 20
7.320699057092143
 30
0.0
  0
VERTEX
  5
2FD
330
2FB
100
AcDbEntity
  8
Defpoints
370
     0
100
AcDbVertex
100
AcDb2dVertex
 10
6.417721434387481
 20
7.320699057092143
 30
0.0
  0
SEQEND
  5
2FE
330
2FB
100
AcDbEntity
  8
Defpoints
370
     0
  0
ENDBLK
  5
2FA
330
2F7
100
AcDbEntity
  8
0
100
AcDbBlockEnd
  0
BLOCK
  5
301
330
2FF
100
AcDbEntity
  8
0
100
AcDbBlockBegin
  2
block 88
 70
     0
 10
0.0
 20
0.0
 30
0.0
  3
block 88
  1

  0
POLYLINE
  5
303
330
2FF
100
AcDbEntity
  8
Defpoints
370
     0
100
AcDb2dPolyline
 66
     1
 10
0.0
 20
0.0
 30
0.0
  0
VERTEX
  5
304
330
303
100
AcDbEntity
  8
Defpoints
370
     0
100
AcDbVertex
100
AcDb2dVertex
 10
5.788966134241895
 20
6.593088485520866
 30
0.0
  0
VERTEX
  5
305
330
303
100
AcDbEntity
  8
Defpoints
370
     0
100
AcDbVertex
100
AcDb2dVertex
 10
5.788966134241895
 20
6.593088485520866
 30
0.0
  0
SEQEND
  5
306
330
303
100
AcDbEntity
  8
Defpoints
370
     0
  0
ENDBLK
  5
302
330
2FF
100
AcDbEntity
  8
0
100
AcDbBlockEnd
  0
BLOCK
  5
309
330
307
100
AcDbEntity
  8
0
100
AcDbBlockBegin
  2
block 89
 70
     0
 10
0.0
 20
0.0
 30
0.0
  3
block 89
  1

  0
POLYLINE
  5
30B
330
307
100
AcDbEntity
  8
Defpoints
370
     0
100
AcDb2dPolyline
 66
     1
 10
0.0
 20
0.0
 30
0.0
  0
VERTEX
  5
30C
330
30B
100
AcDbEntity
  8
Defpoints
370
     0
100
AcDbVertex
100
AcDb2dVertex
 10
5.220028559201586
 20
7.588968253277029
 30
0.0
  0
VERTEX
  5
30D
330
30B
100
AcDbEntity
  8
Defpoints
370
     0
100
AcDbVertex
100
AcDb2dVertex
 10
5.220028559201586
 20
7.588968253277029
 30
0.0
  0
SEQEND
  5
30E
330
30B
100
AcDbEntity
  8
Defpoints
370
     0
  0
ENDBLK
  5
30A
330
307
100
AcDbEntity
  8
0
100
AcDbBlockEnd
  0
BLOCK
  5
311
330
30F
100
AcDbEntity
  8
0
100
AcDbBlockBegin
  2
block 90
 70
     0
 10
0.0
 20
0.0
 30
0.0
  3
block 90
  1

  0
POLYLINE
  5
313
330
30F
100
AcDbEntity
  8
Defpoints
370
     0
100
AcDb2dPolyline
 66
     1
 10
0.0
 20
0.0
 30
0.0
  0
VERTEX
  5
314
330
313
100
AcDbEntity
  8
Defpoints
370
     0
100
AcDbVertex
100
AcDb2dVertex
 10
5.408523296929616
 20
4.834574713382204
 30
0.0
  0
VERTEX
  5
315
330
313
100
AcDbEntity
  8
Defpoints
370
     0
100
AcDbVertex
100
AcDb2dVertex
 10
5.408523296929616
 20
4.834574713382204
 30
0.0
  0
SEQEND
  5
316
330
313
100
AcDbEntity
  8
Defpoints
370
     0
  0
ENDBLK
  5
312
330
30F
100
AcDbEntity
  8
0
100
AcDbBlockEnd
  0
BLOCK
  5
319
330
317
100
AcDbEntity
  8
0
100
AcDbBlockBegin
  2
block 91
 70
     0
 10
0.0
 20
0.0
 30
0.0
  3
block 91
  1

  0
POLYLINE
  5
31B
330
317
100
AcDbEntity
  8
Defpoints
370
     0
100
AcDb2dPolyline
 66
     1
 10
0.0
 20
0.0
 30
0.0
  0
VERTEX
  5
31C
330
31B
100
AcDbEntity
  8
Defpoints
370
     0
100
AcDbVertex
100
AcDb2dVertex
 10
6.508800267595183
 20
4.85346224751
 30
0.0
  0
VERTEX
  5
31D
330
31B
100
AcDbEntity
  8
Defpoints
370
     0
100
AcDbVertex
100
AcDb2dVertex
 10
6.508800267595183
 20
4.85346224751
 30
0.0
  0
SEQEND
  5
31E
330
31B
100
AcDbEntity
  8
Defpoints
370
     0
  0
ENDBLK
  5
31A
330
317
100
AcDbEntity
  8
0
100
AcDbBlockEnd
  0
BLOCK
  5
321
330
31F
100
AcDbEntity
  8
0
100
AcDbBlockBegin
  2
block 92
 70
     0
 10
0.0
 20
0.0
 30
0.0
  3
block 92
  1

  0
POLYLINE
  5
323
330
31F
100
AcDbEntity
  8
Defpoints
370
     0
100
AcDb2dPolyline
 66
     1
 10
0.0
 20
0.0
 30
0.0
  0
VERTEX
  5
324
330
323
100
AcDbEntity
  8
Defpoints
370
     0
100
AcDbVertex
100
AcDb2dVertex
 10
6.177522064067564
 20
5.340943083700418
 30
0.0
  0
VERTEX
  5
325
330
323
100
AcDbEntity
  8
Defpoints
370
     0
100
AcDbVertex
100
AcDb2dVertex
 10
6.177522064067564
 20
5.340943083700418
 30
0.0
  0
SEQEND
  5
326
330
323
100
AcDbEntity
  8
Defpoints
370
     0
  0
ENDBLK
  5
322
330
31F
100
AcDbEntity
  8
0
100
AcDbBlockEnd
  0
BLOCK
  5
329
330
327
100
AcDbEntity
  8
0
100
AcDbBlockBegin
  2
block 93
 70
     0
 10
0.0
 20
0.0
 30
0.0
  3
block 93
  1

  0
POLYLINE
  5
32B
330
327
100
AcDbEntity
  8
Defpoints
370
     0
100
AcDb2dPolyline
 66
     1
 10
0.0
 20
0.0
 30
0.0
  0
VERTEX
  5
32C
330
32B
100
AcDbEntity
  8
Defpoints
370
     0
100
AcDbVertex
100
AcDb2dVertex
 10
2.39482604106537
 20
4.847425571046718
 30
0.0
  0
VERTEX
  5
32D
330
32B
100
AcDbEntity
  8
Defpoints
370
     0
100
AcDbVertex
100
AcDb2dVertex
 10
2.39482604106537
 20
4.847425571046718
 30
0.0
  0
SEQEND
  5
32E
330
32B
100
AcDbEntity
  8
Defpoints
370
     0
  0
ENDBLK
  5
32A
330
327
100
AcDbEntity
  8
0
100
AcDbBlockEnd
  0
BLOCK
  5
331
330
32F
100
AcDbEntity
  8
0
100
AcDbBlockBegin
  2
block 94
 70
     0
 10
0.0
 20
0.0
 30
0.0
  3
block 94
  1

  0
POLYLINE
  5
333
330
32F
100
AcDbEntity
  8
Defpoints
370
     0
100
AcDb2dPolyline
 66
     1
 10
0.0
 20
0.0
 30
0.0
  0
VERTEX
  5
334
330
333
100
AcDbEntity
  8
Defpoints
370
     0
100
AcDbVertex
100
AcDb2dVertex
 10
2.753104788299487
 20
5.23438170055134
 30
0.0
  0
VERTEX
  5
335
330
333
100
AcDbEntity
  8
Defpoints
370
     0
100
AcDbVertex
100
AcDb2dVertex
 10
2.753104788299487
 20
5.23438170055134
 30
0.0
  0
SEQEND
  5
336
330
333
100
AcDbEntity
  8
Defpoints
370
     0
  0
ENDBLK
  5
332
330
32F
100
AcDbEntity
  8
0
100
AcDbBlockEnd
  0
BLOCK
  5
339
330
337
100
AcDbEntity
  8
0
100
AcDbBlockBegin
  2
block 95
 70
     0
 10
0.0
 20
0.0
 30
0.0
  3
block 95
  1

  0
POLYLINE
  5
33B
330
337
100
AcDbEntity
  8
Defpoints
370
     0
100
AcDb2dPolyline
 66
     1
 10
0.0
 20
0.0
 30
0.0
  0
VERTEX
  5
33C
330
33B
100
AcDbEntity
  8
Defpoints
370
     0
100
AcDbVertex
100
AcDb2dVertex
 10
2.36968639164229
 20
7.010551905376486
 30
0.0
  0
VERTEX
  5
33D
330
33B
100
AcDbEntity
  8
Defpoints
370
     0
100
AcDbVertex
100
AcDb2dVertex
 10
2.36968639164229
 20
7.010551905376486
 30
0.0
  0
SEQEND
  5
33E
330
33B
100
AcDbEntity
  8
Defpoints
370
     0
  0
ENDBLK
  5
33A
330
337
100
AcDbEntity
  8
0
100
AcDbBlockEnd
  0
BLOCK
  5
341
330
33F
100
AcDbEntity
  8
0
100
AcDbBlockBegin
  2
block 96
 70
     0
 10
0.0
 20
0.0
 30
0.0
  3
block 96
  1

  0
POLYLINE
  5
343
330
33F
100
AcDbEntity
  8
Defpoints
370
     0
100
AcDb2dPolyline
 66
     1
 10
0.0
 20
0.0
 30
0.0
  0
VERTEX
  5
344
330
343
100
AcDbEntity
  8
Defpoints
370
     0
100
AcDbVertex
100
AcDb2dVertex
 10
2.734960288562054
 20
6.630191961231604
 30
0.0
  0
VERTEX
  5
345
330
343
100
AcDbEntity
  8
Defpoints
370
     0
100
AcDbVertex
100
AcDb2dVertex
 10
2.734960288562054
 20
6.630191961231604
 30
0.0
  0
SEQEND
  5
346
330
343
100
AcDbEntity
  8
Defpoints
370
     0
  0
ENDBLK
  5
342
330
33F
100
AcDbEntity
  8
0
100
AcDbBlockEnd
  0
BLOCK
  5
349
330
347
100
AcDbEntity
  8
0
100
AcDbBlockBegin
  2
block 97
 70
     0
 10
0.0
 20
0.0
 30
0.0
  3
block 97
  1

  0
POLYLINE
  5
34B
330
347
100
AcDbEntity
  8
Defpoints
370
     0
100
AcDb2dPolyline
 66
     1
 10
0.0
 20
0.0
 30
0.0
  0
VERTEX
  5
34C
330
34B
100
AcDbEntity
  8
Defpoints
370
     0
100
AcDbVertex
100
AcDb2dVertex
 10
4.203960465449224
 20
7.203366594689832
 30
0.0
  0
VERTEX
  5
34D
330
34B
100
AcDbEntity
  8
Defpoints
370
     0
100
AcDbVertex
100
AcDb2dVertex
 10
4.203960465449224
 20
7.203366594689832
 30
0.0
  0
SEQEND
  5
34E
330
34B
100
AcDbEntity
  8
Defpoints
370
     0
  0
ENDBLK
  5
34A
330
347
100
AcDbEntity
  8
0
100
AcDbBlockEnd
  0
BLOCK
  5
351
330
34F
100
AcDbEntity
  8
0
100
AcDbBlockBegin
  2
block 98
 70
     0
 10
0.0
 20
0.0
 30
0.0
  3
block 98
  1

  0
POLYLINE
  5
353
330
34F
100
AcDbEntity
  8
Defpoints
370
     0
100
AcDb2dPolyline
 66
     1
 10
0.0
 20
0.0
 30
0.0
  0
VERTEX
  5
354
330
353
100
AcDbEntity
  8
Defpoints
370
     0
100
AcDbVertex
100
AcDb2dVertex
 10
4.061089039691928
 20
7.547104822868176
 30
0.0
  0
VERTEX
  5
355
330
353
100
AcDbEntity
  8
Defpoints
370
     0
100
AcDbVertex
100
AcDb2dVertex
 10
4.061089039691928
 20
7.547104822868176
 30
0.0
  0
SEQEND
  5
356
330
353
100
AcDbEntity
  8
Defpoints
370
     0
  0
ENDBLK
  5
352
330
34F
100
AcDbEntity
  8
0
100
AcDbBlockEnd
  0
BLOCK
  5
359
330
357
100
AcDbEntity
  8
0
100
AcDbBlockBegin
  2
block 99
 70
     0
 10
0.0
 20
0.0
 30
0.0
  3
block 99
  1

  0
POLYLINE
  5
35B
330
357
100
AcDbEntity
  8
Defpoints
370
     0
100
AcDb2dPolyline
 66
     1
 10
0.0
 20
0.0
 30
0.0
  0
VERTEX
  5
35C
330
35B
100
AcDbEntity
  8
Defpoints
370
     0
100
AcDbVertex
100
AcDb2dVertex
 10
4.432277973065538
 20
7.371280032081282
 30
0.0
  0
VERTEX
  5
35D
330
35B
100
AcDbEntity
  8
Defpoints
370
     0
100
AcDbVertex
100
AcDb2dVertex
 10
4.432277973065538
 20
7.371280032081282
 30
0.0
  0
SEQEND
  5
35E
330
35B
100
AcDbEntity
  8
Defpoints
370
     0
  0
ENDBLK
  5
35A
330
357
100
AcDbEntity
  8
0
100
AcDbBlockEnd
  0
BLOCK
  5
361
330
35F
100
AcDbEntity
  8
0
100
AcDbBlockBegin
  2
block 100
 70
     0
 10
0.0
 20
0.0
 30
0.0
  3
block 100
  1

  0
POLYLINE
  5
363
330
35F
100
AcDbEntity
  8
Defpoints
370
     0
100
AcDb2dPolyline
 66
     1
 10
0.0
 20
0.0
 30
0.0
  0
VERTEX
  5
364
330
363
100
AcDbEntity
  8
Defpoints
370
     0
100
AcDbVertex
100
AcDb2dVertex
 10
4.982497983626596
 20
6.582604996783679
 30
0.0
  0
VERTEX
  5
365
330
363
100
AcDbEntity
  8
Defpoints
370
     0
100
AcDbVertex
100
AcDb2dVertex
 10
4.982497983626596
 20
6.582604996783679
 30
0.0
  0
SEQEND
  5
366
330
363
100
AcDbEntity
  8
Defpoints
370
     0
  0
ENDBLK
  5
362
330
35F
100
AcDbEntity
  8
0
100
AcDbBlockEnd
  0
ENDSEC
  0
SECTION
  2
ENTITIES
  0
INSERT
  5
42
330
1F
100
AcDbEntity
  8
_U+56FE_U+5C423
100
AcDbBlockReference
  2
block 2
 10
0.0
 20
0.0
 30
0.0
  0
INSERT
  5
48
330
1F
100
AcDbEntity
  8
_U+56FE_U+5C423
100
AcDbBlockReference
  2
block 3
 10
0.0
 20
0.0
 30
0.0
  0
INSERT
  5
53
330
1F
100
AcDbEntity
  8
_U+56FE_U+5C423
100
AcDbBlockReference
  2
block 4
 10
0.0
 20
0.0
 30
0.0
  0
INSERT
  5
5B
330
1F
100
AcDbEntity
  8
_U+56FE_U+5C423
100
AcDbBlockReference
  2
block 5
 10
0.0
 20
0.0
 30
0.0
  0
INSERT
  5
63
330
1F
100
AcDbEntity
  8
_U+56FE_U+5C423
100
AcDbBlockReference
  2
block 6
 10
0.0
 20
0.0
 30
0.0
  0
INSERT
  5
6B
330
1F
100
AcDbEntity
  8
_U+56FE_U+5C423
100
AcDbBlockReference
  2
block 7
 10
0.0
 20
0.0
 30
0.0
  0
INSERT
  5
76
330
1F
100
AcDbEntity
  8
_U+56FE_U+5C423
100
AcDbBlockReference
  2
block 8
 10
0.0
 20
0.0
 30
0.0
  0
INSERT
  5
81
330
1F
100
AcDbEntity
  8
_U+56FE_U+5C423
100
AcDbBlockReference
  2
block 9
 10
0.0
 20
0.0
 30
0.0
  0
INSERT
  5
86
330
1F
100
AcDbEntity
  8
_U+56FE_U+5C423
100
AcDbBlockReference
  2
block 10
 10
0.0
 20
0.0
 30
0.0
  0
INSERT
  5
8E
330
1F
100
AcDbEntity
  8
_U+56FE_U+5C423
100
AcDbBlockReference
  2
block 11
 10
0.0
 20
0.0
 30
0.0
  0
INSERT
  5
96
330
1F
100
AcDbEntity
  8
_U+56FE_U+5C423
100
AcDbBlockReference
  2
block 12
 10
0.0
 20
0.0
 30
0.0
  0
INSERT
  5
9E
330
1F
100
AcDbEntity
  8
_U+56FE_U+5C423
100
AcDbBlockReference
  2
block 13
 10
0.0
 20
0.0
 30
0.0
  0
INSERT
  5
A9
330
1F
100
AcDbEntity
  8
_U+56FE_U+5C423
100
AcDbBlockReference
  2
block 14
 10
0.0
 20
0.0
 30
0.0
  0
INSERT
  5
B4
330
1F
100
AcDbEntity
  8
_U+56FE_U+5C423
100
AcDbBlockReference
  2
block 15
 10
0.0
 20
0.0
 30
0.0
  0
INSERT
  5
B9
330
1F
100
AcDbEntity
  8
_U+56FE_U+5C423
100
AcDbBlockReference
  2
block 16
 10
0.0
 20
0.0
 30
0.0
  0
INSERT
  5
C1
330
1F
100
AcDbEntity
  8
_U+56FE_U+5C423
100
AcDbBlockReference
  2
block 17
 10
0.0
 20
0.0
 30
0.0
  0
INSERT
  5
C9
330
1F
100
AcDbEntity
  8
_U+56FE_U+5C423
100
AcDbBlockReference
  2
block 18
 10
0.0
 20
0.0
 30
0.0
  0
INSERT
  5
D1
330
1F
100
AcDbEntity
  8
_U+56FE_U+5C423
100
AcDbBlockReference
  2
block 19
 10
0.0
 20
0.0
 30
0.0
  0
INSERT
  5
DC
330
1F
100
AcDbEntity
  8
_U+56FE_U+5C423
100
AcDbBlockReference
  2
block 20
 10
0.0
 20
0.0
 30
0.0
  0
INSERT
  5
E7
330
1F
100
AcDbEntity
  8
_U+56FE_U+5C423
100
AcDbBlockReference
  2
block 21
 10
0.0
 20
0.0
 30
0.0
  0
INSERT
  5
EC
330
1F
100
AcDbEntity
  8
_U+56FE_U+5C423
100
AcDbBlockReference
  2
block 22
 10
0.0
 20
0.0
 30
0.0
  0
INSERT
  5
F4
330
1F
100
AcDbEntity
  8
_U+56FE_U+5C423
100
AcDbBlockReference
  2
block 23
 10
0.0
 20
0.0
 30
0.0
  0
INSERT
  5
FC
330
1F
100
AcDbEntity
  8
_U+56FE_U+5C423
100
AcDbBlockReference
  2
block 24
 10
0.0
 20
0.0
 30
0.0
  0
INSERT
  5
104
330
1F
100
AcDbEntity
  8
_U+56FE_U+5C423
100
AcDbBlockReference
  2
block 25
 10
0.0
 20
0.0
 30
0.0
  0
INSERT
  5
10F
330
1F
100
AcDbEntity
  8
_U+56FE_U+5C423
100
AcDbBlockReference
  2
block 26
 10
0.0
 20
0.0
 30
0.0
  0
INSERT
  5
11A
330
1F
100
AcDbEntity
  8
_U+56FE_U+5C423
100
AcDbBlockReference
  2
block 27
 10
0.0
 20
0.0
 30
0.0
  0
INSERT
  5
11F
330
1F
100
AcDbEntity
  8
_U+56FE_U+5C423
100
AcDbBlockReference
  2
block 28
 10
0.0
 20
0.0
 30
0.0
  0
INSERT
  5
127
330
1F
100
AcDbEntity
  8
_U+56FE_U+5C423
100
AcDbBlockReference
  2
block 29
 10
0.0
 20
0.0
 30
0.0
  0
INSERT
  5
12F
330
1F
100
AcDbEntity
  8
_U+56FE_U+5C423
100
AcDbBlockReference
  2
block 30
 10
0.0
 20
0.0
 30
0.0
  0
INSERT
  5
137
330
1F
100
AcDbEntity
  8
_U+56FE_U+5C423
100
AcDbBlockReference
  2
block 31
 10
0.0
 20
0.0
 30
0.0
  0
INSERT
  5
142
330
1F
100
AcDbEntity
  8
_U+56FE_U+5C423
100
AcDbBlockReference
  2
block 32
 10
0.0
 20
0.0
 30
0.0
  0
INSERT
  5
14D
330
1F
100
AcDbEntity
  8
_U+56FE_U+5C423
100
AcDbBlockReference
  2
block 33
 10
0.0
 20
0.0
 30
0.0
  0
INSERT
  5
152
330
1F
100
AcDbEntity
  8
_U+56FE_U+5C423
100
AcDbBlockReference
  2
block 34
 10
0.0
 20
0.0
 30
0.0
  0
INSERT
  5
15A
330
1F
100
AcDbEntity
  8
_U+56FE_U+5C423
100
AcDbBlockReference
  2
block 35
 10
0.0
 20
0.0
 30
0.0
  0
INSERT
  5
162
330
1F
100
AcDbEntity
  8
_U+56FE_U+5C423
100
AcDbBlockReference
  2
block 36
 10
0.0
 20
0.0
 30
0.0
  0
INSERT
  5
16A
330
1F
100
AcDbEntity
  8
_U+56FE_U+5C423
100
AcDbBlockReference
  2
block 37
 10
0.0
 20
0.0
 30
0.0
  0
INSERT
  5
175
330
1F
100
AcDbEntity
  8
_U+56FE_U+5C423
100
AcDbBlockReference
  2
block 38
 10
0.0
 20
0.0
 30
0.0
  0
INSERT
  5
180
330
1F
100
AcDbEntity
  8
_U+56FE_U+5C423
100
AcDbBlockReference
  2
block 39
 10
0.0
 20
0.0
 30
0.0
  0
INSERT
  5
185
330
1F
100
AcDbEntity
  8
_U+56FE_U+5C423
100
AcDbBlockReference
  2
block 40
 10
0.0
 20
0.0
 30
0.0
  0
INSERT
  5
18D
330
1F
100
AcDbEntity
  8
_U+56FE_U+5C423
100
AcDbBlockReference
  2
block 41
 10
0.0
 20
0.0
 30
0.0
  0
INSERT
  5
192
330
1F
100
AcDbEntity
  8
_U+56FE_U+5C423
100
AcDbBlockReference
  2
block 42
 10
0.0
 20
0.0
 30
0.0
  0
INSERT
  5
19D
330
1F
100
AcDbEntity
  8
_U+56FE_U+5C423
100
AcDbBlockReference
  2
block 43
 10
0.0
 20
0.0
 30
0.0
  0
INSERT
  5
1A5
330
1F
100
AcDbEntity
  8
_U+56FE_U+5C423
100
AcDbBlockReference
  2
block 44
 10
0.0
 20
0.0
 30
0.0
  0
INSERT
  5
1AA
330
1F
100
AcDbEntity
  8
_U+56FE_U+5C423
100
AcDbBlockReference
  2
block 45
 10
0.0
 20
0.0
 30
0.0
  0
INSERT
  5
1B5
330
1F
100
AcDbEntity
  8
_U+56FE_U+5C423
100
AcDbBlockReference
  2
block 46
 10
0.0
 20
0.0
 30
0.0
  0
INSERT
  5
1BD
330
1F
100
AcDbEntity
  8
_U+56FE_U+5C423
100
AcDbBlockReference
  2
block 47
 10
0.0
 20
0.0
 30
0.0
  0
INSERT
  5
1C5
330
1F
100
AcDbEntity
  8
_U+56FE_U+5C423
100
AcDbBlockReference
  2
block 48
 10
0.0
 20
0.0
 30
0.0
  0
INSERT
  5
1CA
330
1F
100
AcDbEntity
  8
_U+56FE_U+5C423
100
AcDbBlockReference
  2
block 49
 10
0.0
 20
0.0
 30
0.0
  0
INSERT
  5
1D5
330
1F
100
AcDbEntity
  8
_U+56FE_U+5C423
100
AcDbBlockReference
  2
block 50
 10
0.0
 20
0.0
 30
0.0
  0
INSERT
  5
1DD
330
1F
100
AcDbEntity
  8
_U+56FE_U+5C423
100
AcDbBlockReference
  2
block 51
 10
0.0
 20
0.0
 30
0.0
  0
INSERT
  5
1E5
330
1F
100
AcDbEntity
  8
_U+56FE_U+5C423
100
AcDbBlockReference
  2
block 52
 10
0.0
 20
0.0
 30
0.0
  0
INSERT
  5
1EA
330
1F
100
AcDbEntity
  8
_U+56FE_U+5C423
100
AcDbBlockReference
  2
block 53
 10
0.0
 20
0.0
 30
0.0
  0
INSERT
  5
1F5
330
1F
100
AcDbEntity
  8
_U+56FE_U+5C423
100
AcDbBlockReference
  2
block 54
 10
0.0
 20
0.0
 30
0.0
  0
INSERT
  5
1FD
330
1F
100
AcDbEntity
  8
_U+56FE_U+5C423
100
AcDbBlockReference
  2
block 55
 10
0.0
 20
0.0
 30
0.0
  0
INSERT
  5
205
330
1F
100
AcDbEntity
  8
_U+56FE_U+5C423
100
AcDbBlockReference
  2
block 56
 10
0.0
 20
0.0
 30
0.0
  0
INSERT
  5
20A
330
1F
100
AcDbEntity
  8
_U+56FE_U+5C423
100
AcDbBlockReference
  2
block 57
 10
0.0
 20
0.0
 30
0.0
  0
INSERT
  5
215
330
1F
100
AcDbEntity
  8
_U+56FE_U+5C423
100
AcDbBlockReference
  2
block 58
 10
0.0
 20
0.0
 30
0.0
  0
INSERT
  5
21D
330
1F
100
AcDbEntity
  8
_U+56FE_U+5C423
100
AcDbBlockReference
  2
block 59
 10
0.0
 20
0.0
 30
0.0
  0
INSERT
  5
225
330
1F
100
AcDbEntity
  8
_U+56FE_U+5C423
100
AcDbBlockReference
  2
block 60
 10
0.0
 20
0.0
 30
0.0
  0
INSERT
  5
22A
330
1F
100
AcDbEntity
  8
_U+56FE_U+5C423
100
AcDbBlockReference
  2
block 61
 10
0.0
 20
0.0
 30
0.0
  0
INSERT
  5
232
330
1F
100
AcDbEntity
  8
_U+56FE_U+5C423
100
AcDbBlockReference
  2
block 62
 10
0.0
 20
0.0
 30
0.0
  0
INSERT
  5
23D
330
1F
100
AcDbEntity
  8
_U+56FE_U+5C423
100
AcDbBlockReference
  2
block 63
 10
0.0
 20
0.0
 30
0.0
  0
INSERT
  5
245
330
1F
100
AcDbEntity
  8
_U+56FE_U+5C423
100
AcDbBlockReference
  2
block 64
 10
0.0
 20
0.0
 30
0.0
  0
INSERT
  5
24A
330
1F
100
AcDbEntity
  8
_U+56FE_U+5C423
100
AcDbBlockReference
  2
block 65
 10
0.0
 20
0.0
 30
0.0
  0
INSERT
  5
256
330
1F
100
AcDbEntity
  8
_U+56FE_U+5C422
100
AcDbBlockReference
  2
block 66
 10
0.0
 20
0.0
 30
0.0
  0
INSERT
  5
25C
330
1F
100
AcDbEntity
  8
_U+56FE_U+5C422
100
AcDbBlockReference
  2
block 67
 10
0.0
 20
0.0
 30
0.0
  0
INSERT
  5
261
330
1F
100
AcDbEntity
  8
_U+56FE_U+5C422
100
AcDbBlockReference
  2
block 68
 10
0.0
 20
0.0
 30
0.0
  0
INSERT
  5
268
330
1F
100
AcDbEntity
  8
Defpoints
100
AcDbBlockReference
  2
block 69
 10
0.0
 20
0.0
 30
0.0
  0
INSERT
  5
270
330
1F
100
AcDbEntity
  8
Defpoints
100
AcDbBlockReference
  2
block 70
 10
0.0
 20
0.0
 30
0.0
  0
INSERT
  5
278
330
1F
100
AcDbEntity
  8
Defpoints
100
AcDbBlockReference
  2
block 71
 10
0.0
 20
0.0
 30
0.0
  0
INSERT
  5
280
330
1F
100
AcDbEntity
  8
Defpoints
100
AcDbBlockReference
  2
block 72
 10
0.0
 20
0.0
 30
0.0
  0
INSERT
  5
288
330
1F
100
AcDbEntity
  8
Defpoints
100
AcDbBlockReference
  2
block 73
 10
0.0
 20
0.0
 30
0.0
  0
INSERT
  5
290
330
1F
100
AcDbEntity
  8
Defpoints
100
AcDbBlockReference
  2
block 74
 10
0.0
 20
0.0
 30
0.0
  0
INSERT
  5
298
330
1F
100
AcDbEntity
  8
Defpoints
100
AcDbBlockReference
  2
block 75
 10
0.0
 20
0.0
 30
0.0
  0
INSERT
  5
2A0
330
1F
100
AcDbEntity
  8
Defpoints
100
AcDbBlockReference
  2
block 76
 10
0.0
 20
0.0
 30
0.0
  0
INSERT
  5
2A8
330
1F
100
AcDbEntity
  8
Defpoints
100
AcDbBlockReference
  2
block 77
 10
0.0
 20
0.0
 30
0.0
  0
INSERT
  5
2B0
330
1F
100
AcDbEntity
  8
Defpoints
100
AcDbBlockReference
  2
block 78
 10
0.0
 20
0.0
 30
0.0
  0
INSERT
  5
2B8
330
1F
100
AcDbEntity
  8
Defpoints
100
AcDbBlockReference
  2
block 79
 10
0.0
 20
0.0
 30
0.0
  0
INSERT
  5
2C0
330
1F
100
AcDbEntity
  8
Defpoints
100
AcDbBlockReference
  2
block 80
 10
0.0
 20
0.0
 30
0.0
  0
INSERT
  5
2C8
330
1F
100
AcDbEntity
  8
Defpoints
100
AcDbBlockReference
  2
block 81
 10
0.0
 20
0.0
 30
0.0
  0
INSERT
  5
2D0
330
1F
100
AcDbEntity
  8
Defpoints
100
AcDbBlockReference
  2
block 82
 10
0.0
 20
0.0
 30
0.0
  0
INSERT
  5
2D8
330
1F
100
AcDbEntity
  8
Defpoints
100
AcDbBlockReference
  2
block 83
 10
0.0
 20
0.0
 30
0.0
  0
INSERT
  5
2E0
330
1F
100
AcDbEntity
  8
Defpoints
100
AcDbBlockReference
  2
block 84
 10
0.0
 20
0.0
 30
0.0
  0
INSERT
  5
2E8
330
1F
100
AcDbEntity
  8
Defpoints
100
AcDbBlockReference
  2
block 85
 10
0.0
 20
0.0
 30
0.0
  0
INSERT
  5
2F0
330
1F
100
AcDbEntity
  8
Defpoints
100
AcDbBlockReference
  2
block 86
 10
0.0
 20
0.0
 30
0.0
  0
INSERT
  5
2F8
330
1F
100
AcDbEntity
  8
Defpoints
100
AcDbBlockReference
  2
block 87
 10
0.0
 20
0.0
 30
0.0
  0
INSERT
  5
300
330
1F
100
AcDbEntity
  8
Defpoints
100
AcDbBlockReference
  2
block 88
 10
0.0
 20
0.0
 30
0.0
  0
INSERT
  5
308
330
1F
100
AcDbEntity
  8
Defpoints
100
AcDbBlockReference
  2
block 89
 10
0.0
 20
0.0
 30
0.0
  0
INSERT
  5
310
330
1F
100
AcDbEntity
  8
Defpoints
100
AcDbBlockReference
  2
block 90
 10
0.0
 20
0.0
 30
0.0
  0
INSERT
  5
318
330
1F
100
AcDbEntity
  8
Defpoints
100
AcDbBlockReference
  2
block 91
 10
0.0
 20
0.0
 30
0.0
  0
INSERT
  5
320
330
1F
100
AcDbEntity
  8
Defpoints
100
AcDbBlockReference
  2
block 92
 10
0.0
 20
0.0
 30
0.0
  0
INSERT
  5
328
330
1F
100
AcDbEntity
  8
Defpoints
100
AcDbBlockReference
  2
block 93
 10
0.0
 20
0.0
 30
0.0
  0
INSERT
  5
330
330
1F
100
AcDbEntity
  8
Defpoints
100
AcDbBlockReference
  2
block 94
 10
0.0
 20
0.0
 30
0.0
  0
INSERT
  5
338
330
1F
100
AcDbEntity
  8
Defpoints
100
AcDbBlockReference
  2
block 95
 10
0.0
 20
0.0
 30
0.0
  0
INSERT
  5
340
330
1F
100
AcDbEntity
  8
Defpoints
100
AcDbBlockReference
  2
block 96
 10
0.0
 20
0.0
 30
0.0
  0
INSERT
  5
348
330
1F
100
AcDbEntity
  8
Defpoints
100
AcDbBlockReference
  2
block 97
 10
0.0
 20
0.0
 30
0.0
  0
INSERT
  5
350
330
1F
100
AcDbEntity
  8
Defpoints
100
AcDbBlockReference
  2
block 98
 10
0.0
 20
0.0
 30
0.0
  0
INSERT
  5
358
330
1F
100
AcDbEntity
  8
Defpoints
100
AcDbBlockReference
  2
block 99
 10
0.0
 20
0.0
 30
0.0
  0
INSERT
  5
360
330
1F
100
AcDbEntity
  8
Defpoints
100
AcDbBlockReference
  2
block 100
 10
0.0
 20
0.0
 30
0.0
  0
ENDSEC
  0
SECTION
  2
OBJECTS
  0
DICTIONARY
  5
C
330
0
100
AcDbDictionary
281
     1
  3
ACAD_GROUP
350
D
  3
ACAD_LAYOUT
350
1A
  3
ACAD_MATERIAL
350
3B
  3
ACAD_MLEADERSTYLE
350
368
  3
ACAD_MLINESTYLE
350
17
  3
ACAD_PLOTSETTINGS
350
19
  3
ACAD_PLOTSTYLENAME
350
E
  3
ACAD_TABLESTYLE
350
367
  3
ACAD_VISUALSTYLE
350
2A
  0
SUN
  5
3F
330
29
100
AcDbSun
 90
        1
290
     0
 63
     7
421
 16777215
 40
1.0
291
     1
 91
  2455826
 92
 54000000
292
     0
 70
     2
 71
   256
280
     1
  0
DICTIONARY
  5
D
102
{ACAD_REACTORS
330
C
102
}
330
C
100
AcDbDictionary
281
     1
  0
DICTIONARY
  5
1A
102
{ACAD_REACTORS
330
C
102
}
330
C
100
AcDbDictionary
281
     1
  3
Layout1
350
1E
  3
Layout2
350
26
  3
Model
350
22
  0
DICTIONARY
  5
3B
102
{ACAD_REACTORS
330
C
102
}
330
C
100
AcDbDictionary
281
     1
  3
ByBlock
350
3D
  3
ByLayer
350
3C
  3
Global
350
3E
  0
DICTIONARY
  5
368
102
{ACAD_REACTORS
330
C
102
}
330
C
100
AcDbDictionary
281
     1
  0
DICTIONARY
  5
17
102
{ACAD_REACTORS
330
C
102
}
330
C
100
AcDbDictionary
281
     1
  3
Standard
350
18
  0
DICTIONARY
  5
19
102
{ACAD_REACTORS
330
C
102
}
330
C
100
AcDbDictionary
281
     1
  0
ACDBDICTIONARYWDFLT
  5
E
102
{ACAD_REACTORS
330
C
102
}
330
C
100
AcDbDictionary
281
     1
  3
Normal
350
F
100
AcDbDictionaryWithDefault
340
F
  0
DICTIONARY
  5
367
102
{ACAD_REACTORS
330
C
102
}
330
C
100
AcDbDictionary
281
     1
  0
DICTIONARY
  5
2A
102
{ACAD_REACTORS
330
C
102
}
330
C
100
AcDbDictionary
281
     1
  3
2dWireframe
350
2F
  3
3D Hidden
350
31
  3
3dWireframe
350
30
  3
Basic
350
32
  3
Brighten
350
36
  3
ColorChange
350
3A
  3
Conceptual
350
34
  3
Dim
350
35
  3
Facepattern
350
39
  3
Flat
350
2B
  3
FlatWithEdges
350
2C
  3
Gouraud
350
2D
  3
GouraudWithEdges
350
2E
  3
Linepattern
350
38
  3
Realistic
350
33
  3
Thicken
350
37
  0
LAYOUT
  5
1E
102
{ACAD_REACTORS
330
1A
102
}
330
1A
100
AcDbPlotSettings
  1

  2
none_device
  4

  6

 40
0.0
 41
0.0
 42
0.0
 43
0.0
 44
0.0
 45
0.0
 46
0.0
 47
0.0
 48
0.0
 49
0.0
140
0.0
141
0.0
142
1.0
143
1.0
 70
   688
 72
     0
 73
     0
 74
     5
  7

 75
    16
 76
     0
 77
     2
 78
   300
147
1.0
148
0.0
149
0.0
100
AcDbLayout
  1
Layout1
 70
     1
 71
     1
 10
0.0
 20
0.0
 11
12.0
 21
9.0
 12
0.0
 22
0.0
 32
0.0
 14
1.000000000000000E+20
 24
1.000000000000000E+20
 34
1.000000000000000E+20
 15
-1.000000000000000E+20
 25
-1.000000000000000E+20
 35
-1.000000000000000E+20
146
0.0
 13
0.0
 23
0.0
 33
0.0
 16
1.0
 26
0.0
 36
0.0
 17
0.0
 27
1.0
 37
0.0
 76
     0
330
1B
  0
LAYOUT
  5
26
102
{ACAD_REACTORS
330
1A
102
}
330
1A
100
AcDbPlotSettings
  1

  2
none_device
  4

  6

 40
0.0
 41
0.0
 42
0.0
 43
0.0
 44
0.0
 45
0.0
 46
0.0
 47
0.0
 48
0.0
 49
0.0
140
0.0
141
0.0
142
1.0
143
1.0
 70
   688
 72
     0
 73
     0
 74
     5
  7

 75
    16
 76
     0
 77
     2
 78
   300
147
1.0
148
0.0
149
0.0
100
AcDbLayout
  1
Layout2
 70
     1
 71
     2
 10
0.0
 20
0.0
 11
0.0
 21
0.0
 12
0.0
 22
0.0
 32
0.0
 14
0.0
 24
0.0
 34
0.0
 15
0.0
 25
0.0
 35
0.0
146
0.0
 13
0.0
 23
0.0
 33
0.0
 16
1.0
 26
0.0
 36
0.0
 17
0.0
 27
1.0
 37
0.0
 76
     0
330
23
  0
LAYOUT
  5
22
102
{ACAD_REACTORS
330
1A
102
}
330
1A
100
AcDbPlotSettings
  1

  2
none_device
  4

  6

 40
0.0
 41
0.0
 42
0.0
 43
0.0
 44
0.0
 45
0.0
 46
0.0
 47
0.0
 48
0.0
 49
0.0
140
0.0
141
0.0
142
1.0
143
1.0
 70
  1712
 72
     0
 73
     0
 74
     0
  7

 75
     0
 76
     0
 77
     2
 78
   300
147
1.0
148
0.0
149
0.0
100
AcDbLayout
  1
Model
 70
     1
 71
     0
 10
0.0
 20
0.0
 11
12.0
 21
9.0
 12
0.0
 22
0.0
 32
0.0
 14
1.000000000000000E+20
 24
1.000000000000000E+20
 34
1.000000000000000E+20
 15
-1.000000000000000E+20
 25
-1.000000000000000E+20
 35
-1.000000000000000E+20
146
0.0
 13
0.0
 23
0.0
 33
0.0
 16
1.0
 26
0.0
 36
0.0
 17
0.0
 27
1.0
 37
0.0
 76
     0
330
1F
331
29
  0
MATERIAL
  5
3D
102
{ACAD_REACTORS
330
3B
102
}
330
3B
100
AcDbMaterial
  1
ByBlock
 72
     1
 94
      127
  0
MATERIAL
  5
3C
102
{ACAD_REACTORS
330
3B
102
}
330
3B
100
AcDbMaterial
  1
ByLayer
 72
     1
 94
      127
  0
MATERIAL
  5
3E
102
{ACAD_REACTORS
330
3B
102
}
330
3B
100
AcDbMaterial
  1
Global
 72
     1
 94
      127
  0
MLINESTYLE
  5
18
102
{ACAD_REACTORS
330
17
102
}
330
17
100
AcDbMlineStyle
  2
Standard
 70
     0
  3

 62
   256
 51
90.0
 52
90.0
 71
     2
 49
0.5
 62
   256
  6
BYLAYER
 49
-0.5
 62
   256
  6
BYLAYER
  0
ACDBPLACEHOLDER
  5
F
102
{ACAD_REACTORS
330
E
102
}
330
E
  0
VISUALSTYLE
  5
2F
102
{ACAD_REACTORS
330
2A
102
}
330
2A
100
AcDbVisualStyle
  2
2dWireframe
 70
     4
177
     2
291
     0
 71
     0
176
     1
 72
     2
176
     1
 73
     0
176
     1
 90
        0
176
     1
 40
-0.6
176
     1
 41
-30.0
176
     1
 62
     5
 63
     7
421
 16777215
176
     1
 74
     1
176
     1
 91
        4
176
     1
 64
     7
176
     1
 65
   257
176
     1
 75
     1
176
     1
175
     1
176
     1
 42
1.0
176
     1
 92
        0
176
     1
 66
   257
176
     1
 43
1.0
176
     1
 76
     1
176
     1
 77
     6
176
     1
 78
     2
176
     1
 67
     7
176
     1
 79
     5
176
     1
170
     0
176
     1
171
     0
176
     1
290
     0
176
     1
 93
        1
176
     1
 44
0.0
176
     1
173
     0
176
     1
  0
VISUALSTYLE
  5
31
102
{ACAD_REACTORS
330
2A
102
}
330
2A
100
AcDbVisualStyle
  2
3D Hidden
 70
     6
177
     2
291
     0
 71
     1
176
     1
 72
     2
176
     1
 73
     2
176
     1
 90
        0
176
     1
 40
-0.6
176
     1
 41
-30.0
176
     1
 62
     5
 63
     7
421
 16777215
176
     1
 74
     2
176
     1
 91
        2
176
     1
 64
     7
176
     1
 65
   257
176
     1
 75
     2
176
     1
175
     1
176
     1
 42
40.0
176
     1
 92
        0
176
     1
 66
   257
176
     1
 43
1.0
176
     1
 76
     1
176
     1
 77
     6
176
     1
 78
     2
176
     1
 67
     7
176
     1
 79
     3
176
     1
170
     0
176
     1
171
     0
176
     1
290
     0
176
     1
 93
        1
176
     1
 44
0.0
176
     1
173
     0
176
     1
  0
VISUALSTYLE
  5
30
102
{ACAD_REACTORS
330
2A
102
}
330
2A
100
AcDbVisualStyle
  2
3dWireframe
 70
     5
177
     2
291
     0
 71
     0
176
     1
 72
     2
176
     1
 73
     0
176
     1
 90
        0
176
     1
 40
-0.6
176
     1
 41
-30.0
176
     1
 62
     5
 63
     7
421
 16777215
176
     1
 74
     1
176
     1
 91
        4
176
     1
 64
     7
176
     1
 65
   257
176
     1
 75
     1
176
     1
175
     1
176
     1
 42
1.0
176
     1
 92
        0
176
     1
 66
   257
176
     1
 43
1.0
176
     1
 76
     1
176
     1
 77
     6
176
     1
 78
     2
176
     1
 67
     7
176
     1
 79
     5
176
     1
170
     0
176
     1
171
     0
176
     1
290
     0
176
     1
 93
        1
176
     1
 44
0.0
176
     1
173
     0
176
     1
  0
VISUALSTYLE
  5
32
102
{ACAD_REACTORS
330
2A
102
}
330
2A
100
AcDbVisualStyle
  2
Basic
 70
     7
177
     2
291
     1
 71
     1
176
     1
 72
     0
176
     1
 73
     1
176
     1
 90
        0
176
     1
 40
-0.6
176
     1
 41
-30.0
176
     1
 62
     5
 63
     7
421
 16777215
176
     1
 74
     0
176
     1
 91
        4
176
     1
 64
     7
176
     1
 65
   257
176
     1
 75
     1
176
     1
175
     1
176
     1
 42
1.0
176
     1
 92
        8
176
     1
 66
     7
176
     1
 43
1.0
176
     1
 76
     1
176
     1
 77
     6
176
     1
 78
     2
176
     1
 67
     7
176
     1
 79
     5
176
     1
170
     0
176
     1
171
     0
176
     1
290
     0
176
     1
 93
        1
176
     1
 44
0.0
176
     1
173
     0
176
     1
  0
VISUALSTYLE
  5
36
102
{ACAD_REACTORS
330
2A
102
}
330
2A
100
AcDbVisualStyle
  2
Brighten
 70
    12
177
     2
291
     1
 71
     2
176
     1
 72
     2
176
     1
 73
     0
176
     1
 90
        0
176
     1
 40
-0.6
176
     1
 41
-30.0
176
     1
 62
     5
 63
     7
421
 16777215
176
     1
 74
     1
176
     1
 91
        4
176
     1
 64
     7
176
     1
 65
   257
176
     1
 75
     1
176
     1
175
     1
176
     1
 42
1.0
176
     1
 92
        8
176
     1
 66
     7
176
     1
 43
1.0
176
     1
 76
     1
176
     1
 77
     6
176
     1
 78
     2
176
     1
 67
     7
176
     1
 79
     5
176
     1
170
     0
176
     1
171
     0
176
     1
290
     0
176
     1
 93
        1
176
     1
 44
50.0
176
     1
173
     0
176
     1
  0
VISUALSTYLE
  5
3A
102
{ACAD_REACTORS
330
2A
102
}
330
2A
100
AcDbVisualStyle
  2
ColorChange
 70
    16
177
     2
291
     1
 71
     2
176
     1
 72
     2
176
     1
 73
     3
176
     1
 90
        0
176
     1
 40
-0.6
176
     1
 41
-30.0
176
     1
 62
     5
 63
     8
421
  8421504
176
     1
 74
     1
176
     1
 91
        4
176
     1
 64
     7
176
     1
 65
   257
176
     1
 75
     1
176
     1
175
     1
176
     1
 42
1.0
176
     1
 92
        8
176
     1
 66
     8
424
  8421504
176
     1
 43
1.0
176
     1
 76
     1
176
     1
 77
     6
176
     1
 78
     2
176
     1
 67
     7
176
     1
 79
     5
176
     1
170
     0
176
     1
171
     0
176
     1
290
     0
176
     1
 93
        1
176
     1
 44
0.0
176
     1
173
     0
176
     1
  0
VISUALSTYLE
  5
34
102
{ACAD_REACTORS
330
2A
102
}
330
2A
100
AcDbVisualStyle
  2
Conceptual
 70
     9
177
     2
291
     0
 71
     3
176
     1
 72
     2
176
     1
 73
     0
176
     1
 90
        0
176
     1
 40
-0.6
176
     1
 41
-30.0
176
     1
 62
     5
 63
     7
421
 16777215
176
     1
 74
     2
176
     1
 91
        2
176
     1
 64
     7
176
     1
 65
   257
176
     1
 75
     1
176
     1
175
     1
176
     1
 42
40.0
176
     1
 92
        8
176
     1
 66
     7
176
     1
 43
1.0
176
     1
 76
     1
176
     1
 77
     6
176
     1
 78
     2
176
     1
 67
     7
176
     1
 79
     3
176
     1
170
     0
176
     1
171
     0
176
     1
290
     0
176
     1
 93
        1
176
     1
 44
0.0
176
     1
173
     0
176
     1
  0
VISUALSTYLE
  5
35
102
{ACAD_REACTORS
330
2A
102
}
330
2A
100
AcDbVisualStyle
  2
Dim
 70
    11
177
     2
291
     1
 71
     2
176
     1
 72
     2
176
     1
 73
     0
176
     1
 90
        0
176
     1
 40
-0.6
176
     1
 41
-30.0
176
     1
 62
     5
 63
     7
421
 16777215
176
     1
 74
     1
176
     1
 91
        4
176
     1
 64
     7
176
     1
 65
   257
176
     1
 75
     1
176
     1
175
     1
176
     1
 42
1.0
176
     1
 92
        8
176
     1
 66
     7
176
     1
 43
1.0
176
     1
 76
     1
176
     1
 77
     6
176
     1
 78
     2
176
     1
 67
     7
176
     1
 79
     5
176
     1
170
     0
176
     1
171
     0
176
     1
290
     0
176
     1
 93
        1
176
     1
 44
-50.0
176
     1
173
     0
176
     1
  0
VISUALSTYLE
  5
39
102
{ACAD_REACTORS
330
2A
102
}
330
2A
100
AcDbVisualStyle
  2
Facepattern
 70
    15
177
     2
291
     1
 71
     2
176
     1
 72
     2
176
     1
 73
     0
176
     1
 90
        0
176
     1
 40
-0.6
176
     1
 41
-30.0
176
     1
 62
     5
 63
     7
421
 16777215
176
     1
 74
     1
176
     1
 91
        4
176
     1
 64
     7
176
     1
 65
   257
176
     1
 75
     1
176
     1
175
     1
176
     1
 42
1.0
176
     1
 92
        8
176
     1
 66
     7
176
     1
 43
1.0
176
     1
 76
     1
176
     1
 77
     6
176
     1
 78
     2
176
     1
 67
     7
176
     1
 79
     5
176
     1
170
     0
176
     1
171
     0
176
     1
290
     0
176
     1
 93
        1
176
     1
 44
0.0
176
     1
173
     0
176
     1
  0
VISUALSTYLE
  5
2B
102
{ACAD_REACTORS
330
2A
102
}
330
2A
100
AcDbVisualStyle
  2
Flat
 70
     0
177
     2
291
     1
 71
     2
176
     1
 72
     1
176
     1
 73
     1
176
     1
 90
        2
176
     1
 40
-0.6
176
     1
 41
30.0
176
     1
 62
     5
 63
     7
421
 16777215
176
     1
 74
     0
176
     1
 91
        4
176
     1
 64
     7
176
     1
 65
   257
176
     1
 75
     1
176
     1
175
     1
176
     1
 42
1.0
176
     1
 92
        8
176
     1
 66
     7
176
     1
 43
1.0
176
     1
 76
     1
176
     1
 77
     6
176
     1
 78
     2
176
     1
 67
     7
176
     1
 79
     5
176
     1
170
     0
176
     1
171
     0
176
     1
290
     0
176
     1
 93
       13
176
     1
 44
0.0
176
     1
173
     0
176
     1
  0
VISUALSTYLE
  5
2C
102
{ACAD_REACTORS
330
2A
102
}
330
2A
100
AcDbVisualStyle
  2
FlatWithEdges
 70
     1
177
     2
291
     1
 71
     2
176
     1
 72
     1
176
     1
 73
     1
176
     1
 90
        2
176
     1
 40
-0.6
176
     1
 41
30.0
176
     1
 62
     5
 63
     7
421
 16777215
176
     1
 74
     1
176
     1
 91
        4
176
     1
 64
     7
176
     1
 65
   257
176
     1
 75
     1
176
     1
175
     1
176
     1
 42
1.0
176
     1
 92
        0
176
     1
 66
   257
176
     1
 43
1.0
176
     1
 76
     1
176
     1
 77
     6
176
     1
 78
     2
176
     1
 67
     7
176
     1
 79
     5
176
     1
170
     0
176
     1
171
     0
176
     1
290
     0
176
     1
 93
       13
176
     1
 44
0.0
176
     1
173
     0
176
     1
  0
VISUALSTYLE
  5
2D
102
{ACAD_REACTORS
330
2A
102
}
330
2A
100
AcDbVisualStyle
  2
Gouraud
 70
     2
177
     2
291
     1
 71
     2
176
     1
 72
     2
176
     1
 73
     1
176
     1
 90
        2
176
     1
 40
-0.6
176
     1
 41
30.0
176
     1
 62
     5
 63
     7
421
 16777215
176
     1
 74
     0
176
     1
 91
        4
176
     1
 64
     7
176
     1
 65
   257
176
     1
 75
     1
176
     1
175
     1
176
     1
 42
1.0
176
     1
 92
        0
176
     1
 66
     7
176
     1
 43
1.0
176
     1
 76
     1
176
     1
 77
     6
176
     1
 78
     2
176
     1
 67
     7
176
     1
 79
     5
176
     1
170
     0
176
     1
171
     0
176
     1
290
     0
176
     1
 93
       13
176
     1
 44
0.0
176
     1
173
     0
176
     1
  0
VISUALSTYLE
  5
2E
102
{ACAD_REACTORS
330
2A
102
}
330
2A
100
AcDbVisualStyle
  2
GouraudWithEdges
 70
     3
177
     2
291
     1
 71
     2
176
     1
 72
     2
176
     1
 73
     1
176
     1
 90
        2
176
     1
 40
-0.6
176
     1
 41
30.0
176
     1
 62
     5
 63
     7
421
 16777215
176
     1
 74
     1
176
     1
 91
        4
176
     1
 64
     7
176
     1
 65
   257
176
     1
 75
     1
176
     1
175
     1
176
     1
 42
1.0
176
     1
 92
        0
176
     1
 66
   257
176
     1
 43
1.0
176
     1
 76
     1
176
     1
 77
     6
176
     1
 78
     2
176
     1
 67
     7
176
     1
 79
     5
176
     1
170
     0
176
     1
171
     0
176
     1
290
     0
176
     1
 93
       13
176
     1
 44
0.0
176
     1
173
     0
176
     1
  0
VISUALSTYLE
  5
38
102
{ACAD_REACTORS
330
2A
102
}
330
2A
100
AcDbVisualStyle
  2
Linepattern
 70
    14
177
     2
291
     1
 71
     2
176
     1
 72
     2
176
     1
 73
     0
176
     1
 90
        0
176
     1
 40
-0.6
176
     1
 41
-30.0
176
     1
 62
     5
 63
     7
421
 16777215
176
     1
 74
     1
176
     1
 91
        4
176
     1
 64
     7
176
     1
 65
   257
176
     1
 75
     7
176
     1
175
     7
176
     1
 42
1.0
176
     1
 92
        8
176
     1
 66
     7
176
     1
 43
1.0
176
     1
 76
     1
176
     1
 77
     6
176
     1
 78
     2
176
     1
 67
     7
176
     1
 79
     5
176
     1
170
     0
176
     1
171
     0
176
     1
290
     0
176
     1
 93
        1
176
     1
 44
0.0
176
     1
173
     0
176
     1
  0
VISUALSTYLE
  5
33
102
{ACAD_REACTORS
330
2A
102
}
330
2A
100
AcDbVisualStyle
  2
Realistic
 70
     8
177
     2
291
     0
 71
     2
176
     1
 72
     2
176
     1
 73
     0
176
     1
 90
        0
176
     1
 40
-0.6
176
     1
 41
-30.0
176
     1
 62
     5
 63
     7
421
 16777215
176
     1
 74
     1
176
     1
 91
        0
176
     1
 64
     7
176
     1
 65
   257
176
     1
 75
     1
176
     1
175
     1
176
     1
 42
1.0
176
     1
 92
        8
176
     1
 66
     8
424
  7895160
176
     1
 43
1.0
176
     1
 76
     1
176
     1
 77
     6
176
     1
 78
     2
176
     1
 67
     7
176
     1
 79
     5
176
     1
170
     0
176
     1
171
     0
176
     1
290
     0
176
     1
 93
       13
176
     1
 44
0.0
176
     1
173
     0
176
     1
  0
VISUALSTYLE
  5
37
102
{ACAD_REACTORS
330
2A
102
}
330
2A
100
AcDbVisualStyle
  2
Thicken
 70
    13
177
     2
291
     1
 71
     2
176
     1
 72
     2
176
     1
 73
     0
176
     1
 90
        0
176
     1
 40
-0.6
176
     1
 41
-30.0
176
     1
 62
     5
 63
     7
421
 16777215
176
     1
 74
     1
176
     1
 91
        4
176
     1
 64
     7
176
     1
 65
   257
176
     1
 75
     1
176
     1
175
     1
176
     1
 42
1.0
176
     1
 92
       12
176
     1
 66
     7
176
     1
 43
1.0
176
     1
 76
     1
176
     1
 77
     6
176
     1
 78
     2
176
     1
 67
     7
176
     1
 79
     5
176
     1
170
     0
176
     1
171
     0
176
     1
290
     0
176
     1
 93
        1
176
     1
 44
0.0
176
     1
173
     0
176
     1
  0
ENDSEC
  0
EOF
