  0
SECTION
  2
HEADER
  9
$ACADVER
  1
AC1009
  9
$FILLMODE
 70
 0
  9
$SPLFRAME
 70
 1
  9
$EXTMIN
 10
0
 20
0
 30
0.0
  9
$EXTMAX
 10
41.6667
 20
41.6667
 30
0.0
  0
ENDSEC
  0
SECTION
  2
TABLES
  0
TABLE
  2
LAYER
 70
1
  0
LAYER
  2
0
 70
     0
 62
     7
  6
CONTINUOUS
  0
ENDTAB
  0
ENDSEC
  0
SECTION
  2
ENTITIES
  0
POLYLINE
  8
0
 62
     0
 66
     1
 10
0
 20
0
 30
0.0
 40
0.72
 41
0.72
  0
VERTEX
  8
0
 10
6.74832
 20
5.42833
 30
0.0
 40
0.01
 41
0.01
  0
VERTEX
  8
0
 10
6.74832
 20
3.22667
 30
0.0
 40
0.01
 41
0.01
  0
VERTEX
  8
0
 10
6.74501
 20
3.20503
 30
0.0
 40
0.01
 41
0.01
  0
SEQEND
 8
0
  0
POLYLINE
  8
0
 62
     0
 66
     1
 10
0
 20
0
 30
0.0
 40
0.72
 41
0.72
  0
VERTEX
  8
0
 10
6.74501
 20
5.44997
 30
0.0
 40
0.01
 41
0.01
  0
VERTEX
  8
0
 10
6.74832
 20
5.42833
 30
0.0
 40
0.01
 41
0.01
  0
SEQEND
 8
0
  0
POLYLINE
  8
0
 62
     0
 66
     1
 10
0
 20
0
 30
0.0
 40
0.72
 41
0.72
  0
VERTEX
  8
0
 10
6.74501
 20
3.20503
 30
0.0
 40
0.01
 41
0.01
  0
VERTEX
  8
0
 10
6.73665
 20
3.185
 30
0.0
 40
0.01
 41
0.01
  0
SEQEND
 8
0
  0
POLYLINE
  8
0
 62
     0
 66
     1
 10
0
 20
0
 30
0.0
 40
0.72
 41
0.72
  0
VERTEX
  8
0
 10
6.73665
 20
5.47
 30
0.0
 40
0.01
 41
0.01
  0
VERTEX
  8
0
 10
6.74501
 20
5.44997
 30
0.0
 40
0.01
 41
0.01
  0
SEQEND
 8
0
  0
POLYLINE
  8
0
 62
     0
 66
     1
 10
0
 20
0
 30
0.0
 40
0.72
 41
0.72
  0
VERTEX
  8
0
 10
6.73665
 20
3.185
 30
0.0
 40
0.01
 41
0.01
  0
VERTEX
  8
0
 10
6.72331
 20
3.16835
 30
0.0
 40
0.01
 41
0.01
  0
SEQEND
 8
0
  0
POLYLINE
  8
0
 62
     0
 66
     1
 10
0
 20
0
 30
0.0
 40
0.72
 41
0.72
  0
VERTEX
  8
0
 10
6.72331
 20
5.48665
 30
0.0
 40
0.01
 41
0.01
  0
VERTEX
  8
0
 10
6.73665
 20
5.47
 30
0.0
 40
0.01
 41
0.01
  0
SEQEND
 8
0
  0
POLYLINE
  8
0
 62
     0
 66
     1
 10
0
 20
0
 30
0.0
 40
0.72
 41
0.72
  0
VERTEX
  8
0
 10
6.72331
 20
3.16835
 30
0.0
 40
0.01
 41
0.01
  0
VERTEX
  8
0
 10
6.70665
 20
3.155
 30
0.0
 40
0.01
 41
0.01
  0
SEQEND
 8
0
  0
POLYLINE
  8
0
 62
     0
 66
     1
 10
0
 20
0
 30
0.0
 40
0.72
 41
0.72
  0
VERTEX
  8
0
 10
6.70665
 20
5.5
 30
0.0
 40
0.01
 41
0.01
  0
VERTEX
  8
0
 10
6.72331
 20
5.48665
 30
0.0
 40
0.01
 41
0.01
  0
SEQEND
 8
0
  0
POLYLINE
  8
0
 62
     0
 66
     1
 10
0
 20
0
 30
0.0
 40
0.72
 41
0.72
  0
VERTEX
  8
0
 10
6.70665
 20
3.155
 30
0.0
 40
0.01
 41
0.01
  0
VERTEX
  8
0
 10
6.68668
 20
3.14665
 30
0.0
 40
0.01
 41
0.01
  0
SEQEND
 8
0
  0
POLYLINE
  8
0
 62
     0
 66
     1
 10
0
 20
0
 30
0.0
 40
0.72
 41
0.72
  0
VERTEX
  8
0
 10
6.68668
 20
5.50836
 30
0.0
 40
0.01
 41
0.01
  0
VERTEX
  8
0
 10
6.70665
 20
5.5
 30
0.0
 40
0.01
 41
0.01
  0
SEQEND
 8
0
  0
POLYLINE
  8
0
 62
     0
 66
     1
 10
0
 20
0
 30
0.0
 40
0.72
 41
0.72
  0
VERTEX
  8
0
 10
6.68668
 20
3.14665
 30
0.0
 40
0.01
 41
0.01
  0
VERTEX
  8
0
 10
6.66667
 20
3.14501
 30
0.0
 40
0.01
 41
0.01
  0
SEQEND
 8
0
  0
POLYLINE
  8
0
 62
     0
 66
     1
 10
0
 20
0
 30
0.0
 40
0.72
 41
0.72
  0
VERTEX
  8
0
 10
6.68668
 20
5.50836
 30
0.0
 40
0.01
 41
0.01
  0
VERTEX
  8
0
 10
6.66667
 20
5.51167
 30
0.0
 40
0.01
 41
0.01
  0
VERTEX
  8
0
 10
2.37999
 20
5.51167
 30
0.0
 40
0.01
 41
0.01
  0
SEQEND
 8
0
  0
POLYLINE
  8
0
 62
     0
 66
     1
 10
0
 20
0
 30
0.0
 40
0.72
 41
0.72
  0
VERTEX
  8
0
 10
2.37999
 20
3.14501
 30
0.0
 40
0.01
 41
0.01
  0
VERTEX
  8
0
 10
6.66667
 20
3.14501
 30
0.0
 40
0.01
 41
0.01
  0
SEQEND
 8
0
  0
POLYLINE
  8
0
 62
     0
 66
     1
 10
0
 20
0
 30
0.0
 40
0.72
 41
0.72
  0
VERTEX
  8
0
 10
2.35835
 20
5.50836
 30
0.0
 40
0.01
 41
0.01
  0
VERTEX
  8
0
 10
2.37999
 20
5.51167
 30
0.0
 40
0.01
 41
0.01
  0
SEQEND
 8
0
  0
POLYLINE
  8
0
 62
     0
 66
     1
 10
0
 20
0
 30
0.0
 40
0.72
 41
0.72
  0
VERTEX
  8
0
 10
2.37999
 20
3.14501
 30
0.0
 40
0.01
 41
0.01
  0
VERTEX
  8
0
 10
2.35835
 20
3.14665
 30
0.0
 40
0.01
 41
0.01
  0
SEQEND
 8
0
  0
POLYLINE
  8
0
 62
     0
 66
     1
 10
0
 20
0
 30
0.0
 40
0.72
 41
0.72
  0
VERTEX
  8
0
 10
2.33832
 20
5.5
 30
0.0
 40
0.01
 41
0.01
  0
VERTEX
  8
0
 10
2.35835
 20
5.50836
 30
0.0
 40
0.01
 41
0.01
  0
SEQEND
 8
0
  0
POLYLINE
  8
0
 62
     0
 66
     1
 10
0
 20
0
 30
0.0
 40
0.72
 41
0.72
  0
VERTEX
  8
0
 10
2.35835
 20
3.14665
 30
0.0
 40
0.01
 41
0.01
  0
VERTEX
  8
0
 10
2.33832
 20
3.155
 30
0.0
 40
0.01
 41
0.01
  0
SEQEND
 8
0
  0
POLYLINE
  8
0
 62
     0
 66
     1
 10
0
 20
0
 30
0.0
 40
0.72
 41
0.72
  0
VERTEX
  8
0
 10
2.32167
 20
5.48665
 30
0.0
 40
0.01
 41
0.01
  0
VERTEX
  8
0
 10
2.33832
 20
5.5
 30
0.0
 40
0.01
 41
0.01
  0
SEQEND
 8
0
  0
POLYLINE
  8
0
 62
     0
 66
     1
 10
0
 20
0
 30
0.0
 40
0.72
 41
0.72
  0
VERTEX
  8
0
 10
2.33832
 20
3.155
 30
0.0
 40
0.01
 41
0.01
  0
VERTEX
  8
0
 10
2.32167
 20
3.16835
 30
0.0
 40
0.01
 41
0.01
  0
SEQEND
 8
0
  0
POLYLINE
  8
0
 62
     0
 66
     1
 10
0
 20
0
 30
0.0
 40
0.72
 41
0.72
  0
VERTEX
  8
0
 10
2.30832
 20
5.47
 30
0.0
 40
0.01
 41
0.01
  0
VERTEX
  8
0
 10
2.32167
 20
5.48665
 30
0.0
 40
0.01
 41
0.01
  0
SEQEND
 8
0
  0
POLYLINE
  8
0
 62
     0
 66
     1
 10
0
 20
0
 30
0.0
 40
0.72
 41
0.72
  0
VERTEX
  8
0
 10
2.32167
 20
3.16835
 30
0.0
 40
0.01
 41
0.01
  0
VERTEX
  8
0
 10
2.30832
 20
3.185
 30
0.0
 40
0.01
 41
0.01
  0
SEQEND
 8
0
  0
POLYLINE
  8
0
 62
     0
 66
     1
 10
0
 20
0
 30
0.0
 40
0.72
 41
0.72
  0
VERTEX
  8
0
 10
2.30003
 20
5.44997
 30
0.0
 40
0.01
 41
0.01
  0
VERTEX
  8
0
 10
2.30832
 20
5.47
 30
0.0
 40
0.01
 41
0.01
  0
SEQEND
 8
0
  0
POLYLINE
  8
0
 62
     0
 66
     1
 10
0
 20
0
 30
0.0
 40
0.72
 41
0.72
  0
VERTEX
  8
0
 10
2.30832
 20
3.185
 30
0.0
 40
0.01
 41
0.01
  0
VERTEX
  8
0
 10
2.30003
 20
3.20503
 30
0.0
 40
0.01
 41
0.01
  0
SEQEND
 8
0
  0
POLYLINE
  8
0
 62
     0
 66
     1
 10
0
 20
0
 30
0.0
 40
0.72
 41
0.72
  0
VERTEX
  8
0
 10
2.30003
 20
5.44997
 30
0.0
 40
0.01
 41
0.01
  0
VERTEX
  8
0
 10
2.29833
 20
5.42833
 30
0.0
 40
0.01
 41
0.01
  0
VERTEX
  8
0
 10
2.29833
 20
3.22667
 30
0.0
 40
0.01
 41
0.01
  0
VERTEX
  8
0
 10
2.30003
 20
3.20503
 30
0.0
 40
0.01
 41
0.01
  0
SEQEND
 8
0
  0
POLYLINE
  8
0
 62
     0
 66
     1
 10
0
 20
0
 30
0.0
 40
0.72
 41
0.72
  0
VERTEX
  8
0
 10
2.29833
 20
5.875
 30
0.0
 40
0.01
 41
0.01
  0
VERTEX
  8
0
 10
2.29833
 20
5.42503
 30
0.0
 40
0.01
 41
0.01
  0
SEQEND
 8
0
  0
POLYLINE
  8
0
 62
     0
 66
     1
 10
0
 20
0
 30
0.0
 40
0.72
 41
0.72
  0
VERTEX
  8
0
 10
6.74832
 20
5.875
 30
0.0
 40
0.01
 41
0.01
  0
VERTEX
  8
0
 10
6.74832
 20
5.42503
 30
0.0
 40
0.01
 41
0.01
  0
SEQEND
 8
0
  0
POLYLINE
  8
0
 62
     0
 66
     1
 10
0
 20
0
 30
0.0
 40
0.72
 41
0.72
  0
VERTEX
  8
0
 10
6.66667
 20
5.86833
 30
0.0
 40
0.01
 41
0.01
  0
VERTEX
  8
0
 10
2.37999
 20
5.86833
 30
0.0
 40
0.01
 41
0.01
  0
SEQEND
 8
0
  0
POLYLINE
  8
0
 62
     0
 66
     1
 10
0
 20
0
 30
0.0
 70
     1
 40
0.72
 41
0.72
  0
VERTEX
  8
0
 10
2.37999
 20
5.88167
 30
0.0
 40
0.01
 41
0.01
  0
VERTEX
  8
0
 10
2.37999
 20
5.85499
 30
0.0
 40
0.01
 41
0.01
  0
VERTEX
  8
0
 10
2.29833
 20
5.86833
 30
0.0
 40
0.01
 41
0.01
  0
VERTEX
  8
0
 10
2.37999
 20
5.88167
 30
0.0
 40
0.01
 41
0.01
  0
SEQEND
 8
0
  0
POLYLINE
  8
0
 62
     0
 66
     1
 10
0
 20
0
 30
0.0
 70
     1
 40
0.72
 41
0.72
  0
VERTEX
  8
0
 10
6.74832
 20
5.86833
 30
0.0
 40
0.01
 41
0.01
  0
VERTEX
  8
0
 10
6.66667
 20
5.85499
 30
0.0
 40
0.01
 41
0.01
  0
VERTEX
  8
0
 10
6.66667
 20
5.88167
 30
0.0
 40
0.01
 41
0.01
  0
VERTEX
  8
0
 10
6.74832
 20
5.86833
 30
0.0
 40
0.01
 41
0.01
  0
SEQEND
 8
0
  0
POLYLINE
  8
0
 62
     0
 66
     1
 10
0
 20
0
 30
0.0
 70
     1
 40
0.72
 41
0.72
  0
VERTEX
  8
0
 10
4.68001
 20
5.99001
 30
0.0
 40
0.01
 41
0.01
  0
VERTEX
  8
0
 10
4.70167
 20
6.035
 30
0.0
 40
0.01
 41
0.01
  0
VERTEX
  8
0
 10
4.68001
 20
5.99001
 30
0.0
 40
0.01
 41
0.01
  0
SEQEND
 8
0
  0
POLYLINE
  8
0
 62
     0
 66
     1
 10
0
 20
0
 30
0.0
 70
     1
 40
0.72
 41
0.72
  0
VERTEX
  8
0
 10
4.68001
 20
6.035
 30
0.0
 40
0.01
 41
0.01
  0
VERTEX
  8
0
 10
4.65668
 20
5.99001
 30
0.0
 40
0.01
 41
0.01
  0
VERTEX
  8
0
 10
4.68001
 20
6.035
 30
0.0
 40
0.01
 41
0.01
  0
SEQEND
 8
0
  0
POLYLINE
  8
0
 62
     0
 66
     1
 10
0
 20
0
 30
0.0
 70
     1
 40
0.72
 41
0.72
  0
VERTEX
  8
0
 10
4.61165
 20
5.89833
 30
0.0
 40
0.01
 41
0.01
  0
VERTEX
  8
0
 10
4.52001
 20
5.89833
 30
0.0
 40
0.01
 41
0.01
  0
VERTEX
  8
0
 10
4.61165
 20
5.89833
 30
0.0
 40
0.01
 41
0.01
  0
SEQEND
 8
0
  0
POLYLINE
  8
0
 62
     0
 66
     1
 10
0
 20
0
 30
0.0
 70
     1
 40
0.72
 41
0.72
  0
VERTEX
  8
0
 10
4.52001
 20
5.89833
 30
0.0
 40
0.01
 41
0.01
  0
VERTEX
  8
0
 10
4.52001
 20
5.94336
 30
0.0
 40
0.01
 41
0.01
  0
VERTEX
  8
0
 10
4.52001
 20
5.89833
 30
0.0
 40
0.01
 41
0.01
  0
SEQEND
 8
0
  0
POLYLINE
  8
0
 62
     0
 66
     1
 10
0
 20
0
 30
0.0
 70
     1
 40
0.72
 41
0.72
  0
VERTEX
  8
0
 10
4.52001
 20
5.94336
 30
0.0
 40
0.01
 41
0.01
  0
VERTEX
  8
0
 10
4.54335
 20
5.96669
 30
0.0
 40
0.01
 41
0.01
  0
VERTEX
  8
0
 10
4.52001
 20
5.94336
 30
0.0
 40
0.01
 41
0.01
  0
SEQEND
 8
0
  0
POLYLINE
  8
0
 62
     0
 66
     1
 10
0
 20
0
 30
0.0
 70
     1
 40
0.72
 41
0.72
  0
VERTEX
  8
0
 10
4.54335
 20
5.96669
 30
0.0
 40
0.01
 41
0.01
  0
VERTEX
  8
0
 10
4.58832
 20
5.96669
 30
0.0
 40
0.01
 41
0.01
  0
VERTEX
  8
0
 10
4.54335
 20
5.96669
 30
0.0
 40
0.01
 41
0.01
  0
SEQEND
 8
0
  0
POLYLINE
  8
0
 62
     0
 66
     1
 10
0
 20
0
 30
0.0
 70
     1
 40
0.72
 41
0.72
  0
VERTEX
  8
0
 10
4.58832
 20
5.96669
 30
0.0
 40
0.01
 41
0.01
  0
VERTEX
  8
0
 10
4.61165
 20
5.99001
 30
0.0
 40
0.01
 41
0.01
  0
VERTEX
  8
0
 10
4.58832
 20
5.96669
 30
0.0
 40
0.01
 41
0.01
  0
SEQEND
 8
0
  0
POLYLINE
  8
0
 62
     0
 66
     1
 10
0
 20
0
 30
0.0
 70
     1
 40
0.72
 41
0.72
  0
VERTEX
  8
0
 10
4.61165
 20
5.99001
 30
0.0
 40
0.01
 41
0.01
  0
VERTEX
  8
0
 10
4.61165
 20
6.01167
 30
0.0
 40
0.01
 41
0.01
  0
VERTEX
  8
0
 10
4.61165
 20
5.99001
 30
0.0
 40
0.01
 41
0.01
  0
SEQEND
 8
0
  0
POLYLINE
  8
0
 62
     0
 66
     1
 10
0
 20
0
 30
0.0
 70
     1
 40
0.72
 41
0.72
  0
VERTEX
  8
0
 10
4.61165
 20
6.01167
 30
0.0
 40
0.01
 41
0.01
  0
VERTEX
  8
0
 10
4.58832
 20
6.035
 30
0.0
 40
0.01
 41
0.01
  0
VERTEX
  8
0
 10
4.61165
 20
6.01167
 30
0.0
 40
0.01
 41
0.01
  0
SEQEND
 8
0
  0
POLYLINE
  8
0
 62
     0
 66
     1
 10
0
 20
0
 30
0.0
 70
     1
 40
0.72
 41
0.72
  0
VERTEX
  8
0
 10
4.58832
 20
6.035
 30
0.0
 40
0.01
 41
0.01
  0
VERTEX
  8
0
 10
4.54335
 20
6.035
 30
0.0
 40
0.01
 41
0.01
  0
VERTEX
  8
0
 10
4.58832
 20
6.035
 30
0.0
 40
0.01
 41
0.01
  0
SEQEND
 8
0
  0
POLYLINE
  8
0
 62
     0
 66
     1
 10
0
 20
0
 30
0.0
 70
     1
 40
0.72
 41
0.72
  0
VERTEX
  8
0
 10
4.54335
 20
6.035
 30
0.0
 40
0.01
 41
0.01
  0
VERTEX
  8
0
 10
4.52001
 20
6.01167
 30
0.0
 40
0.01
 41
0.01
  0
VERTEX
  8
0
 10
4.54335
 20
6.035
 30
0.0
 40
0.01
 41
0.01
  0
SEQEND
 8
0
  0
POLYLINE
  8
0
 62
     0
 66
     1
 10
0
 20
0
 30
0.0
 70
     1
 40
0.72
 41
0.72
  0
VERTEX
  8
0
 10
4.38336
 20
5.92165
 30
0.0
 40
0.01
 41
0.01
  0
VERTEX
  8
0
 10
4.40668
 20
5.89833
 30
0.0
 40
0.01
 41
0.01
  0
VERTEX
  8
0
 10
4.38336
 20
5.92165
 30
0.0
 40
0.01
 41
0.01
  0
SEQEND
 8
0
  0
POLYLINE
  8
0
 62
     0
 66
     1
 10
0
 20
0
 30
0.0
 70
     1
 40
0.72
 41
0.72
  0
VERTEX
  8
0
 10
4.40668
 20
5.89833
 30
0.0
 40
0.01
 41
0.01
  0
VERTEX
  8
0
 10
4.45167
 20
5.89833
 30
0.0
 40
0.01
 41
0.01
  0
VERTEX
  8
0
 10
4.40668
 20
5.89833
 30
0.0
 40
0.01
 41
0.01
  0
SEQEND
 8
0
  0
POLYLINE
  8
0
 62
     0
 66
     1
 10
0
 20
0
 30
0.0
 70
     1
 40
0.72
 41
0.72
  0
VERTEX
  8
0
 10
4.45167
 20
5.89833
 30
0.0
 40
0.01
 41
0.01
  0
VERTEX
  8
0
 10
4.47499
 20
5.92165
 30
0.0
 40
0.01
 41
0.01
  0
VERTEX
  8
0
 10
4.45167
 20
5.89833
 30
0.0
 40
0.01
 41
0.01
  0
SEQEND
 8
0
  0
POLYLINE
  8
0
 62
     0
 66
     1
 10
0
 20
0
 30
0.0
 70
     1
 40
0.72
 41
0.72
  0
VERTEX
  8
0
 10
4.47499
 20
5.92165
 30
0.0
 40
0.01
 41
0.01
  0
VERTEX
  8
0
 10
4.47499
 20
5.94336
 30
0.0
 40
0.01
 41
0.01
  0
VERTEX
  8
0
 10
4.47499
 20
5.92165
 30
0.0
 40
0.01
 41
0.01
  0
SEQEND
 8
0
  0
POLYLINE
  8
0
 62
     0
 66
     1
 10
0
 20
0
 30
0.0
 70
     1
 40
0.72
 41
0.72
  0
VERTEX
  8
0
 10
4.47499
 20
5.94336
 30
0.0
 40
0.01
 41
0.01
  0
VERTEX
  8
0
 10
4.45167
 20
5.96669
 30
0.0
 40
0.01
 41
0.01
  0
VERTEX
  8
0
 10
4.47499
 20
5.94336
 30
0.0
 40
0.01
 41
0.01
  0
SEQEND
 8
0
  0
POLYLINE
  8
0
 62
     0
 66
     1
 10
0
 20
0
 30
0.0
 70
     1
 40
0.72
 41
0.72
  0
VERTEX
  8
0
 10
4.42833
 20
5.96669
 30
0.0
 40
0.01
 41
0.01
  0
VERTEX
  8
0
 10
4.45167
 20
5.96669
 30
0.0
 40
0.01
 41
0.01
  0
VERTEX
  8
0
 10
4.42833
 20
5.96669
 30
0.0
 40
0.01
 41
0.01
  0
SEQEND
 8
0
  0
POLYLINE
  8
0
 62
     0
 66
     1
 10
0
 20
0
 30
0.0
 70
     1
 40
0.72
 41
0.72
  0
VERTEX
  8
0
 10
4.45167
 20
5.96669
 30
0.0
 40
0.01
 41
0.01
  0
VERTEX
  8
0
 10
4.47499
 20
5.99001
 30
0.0
 40
0.01
 41
0.01
  0
VERTEX
  8
0
 10
4.45167
 20
5.96669
 30
0.0
 40
0.01
 41
0.01
  0
SEQEND
 8
0
  0
POLYLINE
  8
0
 62
     0
 66
     1
 10
0
 20
0
 30
0.0
 70
     1
 40
0.72
 41
0.72
  0
VERTEX
  8
0
 10
4.47499
 20
5.99001
 30
0.0
 40
0.01
 41
0.01
  0
VERTEX
  8
0
 10
4.47499
 20
6.01167
 30
0.0
 40
0.01
 41
0.01
  0
VERTEX
  8
0
 10
4.47499
 20
5.99001
 30
0.0
 40
0.01
 41
0.01
  0
SEQEND
 8
0
  0
POLYLINE
  8
0
 62
     0
 66
     1
 10
0
 20
0
 30
0.0
 70
     1
 40
0.72
 41
0.72
  0
VERTEX
  8
0
 10
4.47499
 20
6.01167
 30
0.0
 40
0.01
 41
0.01
  0
VERTEX
  8
0
 10
4.45167
 20
6.035
 30
0.0
 40
0.01
 41
0.01
  0
VERTEX
  8
0
 10
4.47499
 20
6.01167
 30
0.0
 40
0.01
 41
0.01
  0
SEQEND
 8
0
  0
POLYLINE
  8
0
 62
     0
 66
     1
 10
0
 20
0
 30
0.0
 70
     1
 40
0.72
 41
0.72
  0
VERTEX
  8
0
 10
4.45167
 20
6.035
 30
0.0
 40
0.01
 41
0.01
  0
VERTEX
  8
0
 10
4.40668
 20
6.035
 30
0.0
 40
0.01
 41
0.01
  0
VERTEX
  8
0
 10
4.45167
 20
6.035
 30
0.0
 40
0.01
 41
0.01
  0
SEQEND
 8
0
  0
POLYLINE
  8
0
 62
     0
 66
     1
 10
0
 20
0
 30
0.0
 70
     1
 40
0.72
 41
0.72
  0
VERTEX
  8
0
 10
4.40668
 20
6.035
 30
0.0
 40
0.01
 41
0.01
  0
VERTEX
  8
0
 10
4.38336
 20
6.01167
 30
0.0
 40
0.01
 41
0.01
  0
VERTEX
  8
0
 10
4.40668
 20
6.035
 30
0.0
 40
0.01
 41
0.01
  0
SEQEND
 8
0
  0
POLYLINE
  8
0
 62
     0
 66
     1
 10
0
 20
0
 30
0.0
 40
0.72
 41
0.72
  0
VERTEX
  8
0
 10
1.91997
 20
5.51167
 30
0.0
 40
0.01
 41
0.01
  0
VERTEX
  8
0
 10
2.35335
 20
5.51167
 30
0.0
 40
0.01
 41
0.01
  0
SEQEND
 8
0
  0
POLYLINE
  8
0
 62
     0
 66
     1
 10
0
 20
0
 30
0.0
 40
0.72
 41
0.72
  0
VERTEX
  8
0
 10
1.91997
 20
3.14501
 30
0.0
 40
0.01
 41
0.01
  0
VERTEX
  8
0
 10
2.35335
 20
3.14501
 30
0.0
 40
0.01
 41
0.01
  0
SEQEND
 8
0
  0
POLYLINE
  8
0
 62
     0
 66
     1
 10
0
 20
0
 30
0.0
 40
0.72
 41
0.72
  0
VERTEX
  8
0
 10
1.92665
 20
3.22667
 30
0.0
 40
0.01
 41
0.01
  0
VERTEX
  8
0
 10
1.92665
 20
5.42833
 30
0.0
 40
0.01
 41
0.01
  0
SEQEND
 8
0
  0
POLYLINE
  8
0
 62
     0
 66
     1
 10
0
 20
0
 30
0.0
 70
     1
 40
0.72
 41
0.72
  0
VERTEX
  8
0
 10
1.92665
 20
5.51167
 30
0.0
 40
0.01
 41
0.01
  0
VERTEX
  8
0
 10
1.94
 20
5.42833
 30
0.0
 40
0.01
 41
0.01
  0
VERTEX
  8
0
 10
1.91336
 20
5.42833
 30
0.0
 40
0.01
 41
0.01
  0
VERTEX
  8
0
 10
1.92665
 20
5.51167
 30
0.0
 40
0.01
 41
0.01
  0
SEQEND
 8
0
  0
POLYLINE
  8
0
 62
     0
 66
     1
 10
0
 20
0
 30
0.0
 70
     1
 40
0.72
 41
0.72
  0
VERTEX
  8
0
 10
1.91336
 20
3.22667
 30
0.0
 40
0.01
 41
0.01
  0
VERTEX
  8
0
 10
1.94
 20
3.22667
 30
0.0
 40
0.01
 41
0.01
  0
VERTEX
  8
0
 10
1.92665
 20
3.14501
 30
0.0
 40
0.01
 41
0.01
  0
VERTEX
  8
0
 10
1.91336
 20
3.22667
 30
0.0
 40
0.01
 41
0.01
  0
SEQEND
 8
0
  0
POLYLINE
  8
0
 62
     0
 66
     1
 10
0
 20
0
 30
0.0
 70
     1
 40
0.72
 41
0.72
  0
VERTEX
  8
0
 10
1.80832
 20
4.43164
 30
0.0
 40
0.01
 41
0.01
  0
VERTEX
  8
0
 10
1.76335
 20
4.45503
 30
0.0
 40
0.01
 41
0.01
  0
VERTEX
  8
0
 10
1.80832
 20
4.43164
 30
0.0
 40
0.01
 41
0.01
  0
SEQEND
 8
0
  0
POLYLINE
  8
0
 62
     0
 66
     1
 10
0
 20
0
 30
0.0
 70
     1
 40
0.72
 41
0.72
  0
VERTEX
  8
0
 10
1.76335
 20
4.43164
 30
0.0
 40
0.01
 41
0.01
  0
VERTEX
  8
0
 10
1.80832
 20
4.41
 30
0.0
 40
0.01
 41
0.01
  0
VERTEX
  8
0
 10
1.76335
 20
4.43164
 30
0.0
 40
0.01
 41
0.01
  0
SEQEND
 8
0
  0
POLYLINE
  8
0
 62
     0
 66
     1
 10
0
 20
0
 30
0.0
 70
     1
 40
0.72
 41
0.72
  0
VERTEX
  8
0
 10
1.90001
 20
4.29497
 30
0.0
 40
0.01
 41
0.01
  0
VERTEX
  8
0
 10
1.76335
 20
4.36333
 30
0.0
 40
0.01
 41
0.01
  0
VERTEX
  8
0
 10
1.90001
 20
4.29497
 30
0.0
 40
0.01
 41
0.01
  0
SEQEND
 8
0
  0
POLYLINE
  8
0
 62
     0
 66
     1
 10
0
 20
0
 30
0.0
 70
     1
 40
0.72
 41
0.72
  0
VERTEX
  8
0
 10
1.76335
 20
4.36333
 30
0.0
 40
0.01
 41
0.01
  0
VERTEX
  8
0
 10
1.76335
 20
4.27333
 30
0.0
 40
0.01
 41
0.01
  0
VERTEX
  8
0
 10
1.76335
 20
4.36333
 30
0.0
 40
0.01
 41
0.01
  0
SEQEND
 8
0
  0
POLYLINE
  8
0
 62
     0
 66
     1
 10
0
 20
0
 30
0.0
 70
     1
 40
0.72
 41
0.72
  0
VERTEX
  8
0
 10
1.90001
 20
4.22667
 30
0.0
 40
0.01
 41
0.01
  0
VERTEX
  8
0
 10
1.90001
 20
4.18164
 30
0.0
 40
0.01
 41
0.01
  0
VERTEX
  8
0
 10
1.90001
 20
4.22667
 30
0.0
 40
0.01
 41
0.01
  0
SEQEND
 8
0
  0
POLYLINE
  8
0
 62
     0
 66
     1
 10
0
 20
0
 30
0.0
 70
     1
 40
0.72
 41
0.72
  0
VERTEX
  8
0
 10
1.90001
 20
4.20503
 30
0.0
 40
0.01
 41
0.01
  0
VERTEX
  8
0
 10
1.76335
 20
4.20503
 30
0.0
 40
0.01
 41
0.01
  0
VERTEX
  8
0
 10
1.90001
 20
4.20503
 30
0.0
 40
0.01
 41
0.01
  0
SEQEND
 8
0
  0
POLYLINE
  8
0
 62
     0
 66
     1
 10
0
 20
0
 30
0.0
 70
     1
 40
0.72
 41
0.72
  0
VERTEX
  8
0
 10
1.76335
 20
4.20503
 30
0.0
 40
0.01
 41
0.01
  0
VERTEX
  8
0
 10
1.785
 20
4.18164
 30
0.0
 40
0.01
 41
0.01
  0
VERTEX
  8
0
 10
1.76335
 20
4.20503
 30
0.0
 40
0.01
 41
0.01
  0
SEQEND
 8
0
  0
POLYLINE
  8
0
 62
     0
 66
     1
 10
0
 20
0
 30
0.0
 40
0.72
 41
0.72
  0
VERTEX
  8
0
 10
2.37999
 20
3.22667
 30
0.0
 40
0.01
 41
0.01
  0
VERTEX
  8
0
 10
2.83832
 20
3.44667
 30
0.0
 40
0.01
 41
0.01
  0
SEQEND
 8
0
  0
POLYLINE
  8
0
 62
     0
 66
     1
 10
0
 20
0
 30
0.0
 70
     1
 40
0.72
 41
0.72
  0
VERTEX
  8
0
 10
2.72168
 20
3.57335
 30
0.0
 40
0.01
 41
0.01
  0
VERTEX
  8
0
 10
2.63835
 20
3.535
 30
0.0
 40
0.01
 41
0.01
  0
VERTEX
  8
0
 10
2.72168
 20
3.57335
 30
0.0
 40
0.01
 41
0.01
  0
SEQEND
 8
0
  0
POLYLINE
  8
0
 62
     0
 66
     1
 10
0
 20
0
 30
0.0
 70
     1
 40
0.72
 41
0.72
  0
VERTEX
  8
0
 10
2.63835
 20
3.535
 30
0.0
 40
0.01
 41
0.01
  0
VERTEX
  8
0
 10
2.65831
 20
3.49333
 30
0.0
 40
0.01
 41
0.01
  0
VERTEX
  8
0
 10
2.63835
 20
3.535
 30
0.0
 40
0.01
 41
0.01
  0
SEQEND
 8
0
  0
POLYLINE
  8
0
 62
     0
 66
     1
 10
0
 20
0
 30
0.0
 70
     1
 40
0.72
 41
0.72
  0
VERTEX
  8
0
 10
2.65831
 20
3.49333
 30
0.0
 40
0.01
 41
0.01
  0
VERTEX
  8
0
 10
2.72
 20
3.52333
 30
0.0
 40
0.01
 41
0.01
  0
VERTEX
  8
0
 10
2.65831
 20
3.49333
 30
0.0
 40
0.01
 41
0.01
  0
SEQEND
 8
0
  0
POLYLINE
  8
0
 62
     0
 66
     1
 10
0
 20
0
 30
0.0
 70
     1
 40
0.72
 41
0.72
  0
VERTEX
  8
0
 10
2.72
 20
3.52333
 30
0.0
 40
0.01
 41
0.01
  0
VERTEX
  8
0
 10
2.75
 20
3.51167
 30
0.0
 40
0.01
 41
0.01
  0
VERTEX
  8
0
 10
2.72
 20
3.52333
 30
0.0
 40
0.01
 41
0.01
  0
SEQEND
 8
0
  0
POLYLINE
  8
0
 62
     0
 66
     1
 10
0
 20
0
 30
0.0
 70
     1
 40
0.72
 41
0.72
  0
VERTEX
  8
0
 10
2.75
 20
3.51167
 30
0.0
 40
0.01
 41
0.01
  0
VERTEX
  8
0
 10
2.77001
 20
3.47168
 30
0.0
 40
0.01
 41
0.01
  0
VERTEX
  8
0
 10
2.75
 20
3.51167
 30
0.0
 40
0.01
 41
0.01
  0
SEQEND
 8
0
  0
POLYLINE
  8
0
 62
     0
 66
     1
 10
0
 20
0
 30
0.0
 70
     1
 40
0.72
 41
0.72
  0
VERTEX
  8
0
 10
2.77001
 20
3.47168
 30
0.0
 40
0.01
 41
0.01
  0
VERTEX
  8
0
 10
2.75999
 20
3.44
 30
0.0
 40
0.01
 41
0.01
  0
VERTEX
  8
0
 10
2.77001
 20
3.47168
 30
0.0
 40
0.01
 41
0.01
  0
SEQEND
 8
0
  0
POLYLINE
  8
0
 62
     0
 66
     1
 10
0
 20
0
 30
0.0
 70
     1
 40
0.72
 41
0.72
  0
VERTEX
  8
0
 10
2.75999
 20
3.44
 30
0.0
 40
0.01
 41
0.01
  0
VERTEX
  8
0
 10
2.71832
 20
3.42165
 30
0.0
 40
0.01
 41
0.01
  0
VERTEX
  8
0
 10
2.75999
 20
3.44
 30
0.0
 40
0.01
 41
0.01
  0
SEQEND
 8
0
  0
POLYLINE
  8
0
 62
     0
 66
     1
 10
0
 20
0
 30
0.0
 70
     1
 40
0.72
 41
0.72
  0
VERTEX
  8
0
 10
2.71832
 20
3.42165
 30
0.0
 40
0.01
 41
0.01
  0
VERTEX
  8
0
 10
2.68832
 20
3.43164
 30
0.0
 40
0.01
 41
0.01
  0
VERTEX
  8
0
 10
2.71832
 20
3.42165
 30
0.0
 40
0.01
 41
0.01
  0
SEQEND
 8
0
  0
POLYLINE
  8
0
 62
     0
 66
     1
 10
0
 20
0
 30
0.0
 70
     1
 40
0.72
 41
0.72
  0
VERTEX
  8
0
 10
2.65668
 20
3.39165
 30
0.0
 40
0.01
 41
0.01
  0
VERTEX
  8
0
 10
2.61664
 20
3.37169
 30
0.0
 40
0.01
 41
0.01
  0
VERTEX
  8
0
 10
2.65668
 20
3.39165
 30
0.0
 40
0.01
 41
0.01
  0
SEQEND
 8
0
  0
POLYLINE
  8
0
 62
     0
 66
     1
 10
0
 20
0
 30
0.0
 70
     1
 40
0.72
 41
0.72
  0
VERTEX
  8
0
 10
2.63667
 20
3.38167
 30
0.0
 40
0.01
 41
0.01
  0
VERTEX
  8
0
 10
2.57667
 20
3.50499
 30
0.0
 40
0.01
 41
0.01
  0
VERTEX
  8
0
 10
2.63667
 20
3.38167
 30
0.0
 40
0.01
 41
0.01
  0
SEQEND
 8
0
  0
POLYLINE
  8
0
 62
     0
 66
     1
 10
0
 20
0
 30
0.0
 70
     1
 40
0.72
 41
0.72
  0
VERTEX
  8
0
 10
2.57667
 20
3.50499
 30
0.0
 40
0.01
 41
0.01
  0
VERTEX
  8
0
 10
2.56668
 20
3.47499
 30
0.0
 40
0.01
 41
0.01
  0
VERTEX
  8
0
 10
2.57667
 20
3.50499
 30
0.0
 40
0.01
 41
0.01
  0
SEQEND
 8
0
  0
POLYLINE
  8
0
 62
     0
 66
     1
 10
0
 20
0
 30
0.0
 70
     1
 40
0.72
 41
0.72
  0
VERTEX
  8
0
 10
2.57497
 20
3.35167
 30
0.0
 40
0.01
 41
0.01
  0
VERTEX
  8
0
 10
2.48335
 20
3.38499
 30
0.0
 40
0.01
 41
0.01
  0
VERTEX
  8
0
 10
2.57497
 20
3.35167
 30
0.0
 40
0.01
 41
0.01
  0
SEQEND
 8
0
  0
POLYLINE
  8
0
 62
     0
 66
     1
 10
0
 20
0
 30
0.0
 70
     1
 40
0.72
 41
0.72
  0
VERTEX
  8
0
 10
2.46332
 20
3.375
 30
0.0
 40
0.01
 41
0.01
  0
VERTEX
  8
0
 10
2.52501
 20
3.40332
 30
0.0
 40
0.01
 41
0.01
  0
VERTEX
  8
0
 10
2.46332
 20
3.375
 30
0.0
 40
0.01
 41
0.01
  0
SEQEND
 8
0
  0
POLYLINE
  8
0
 62
     0
 66
     1
 10
0
 20
0
 30
0.0
 70
     1
 40
0.72
 41
0.72
  0
VERTEX
  8
0
 10
2.52501
 20
3.40332
 30
0.0
 40
0.01
 41
0.01
  0
VERTEX
  8
0
 10
2.535
 20
3.435
 30
0.0
 40
0.01
 41
0.01
  0
VERTEX
  8
0
 10
2.52501
 20
3.40332
 30
0.0
 40
0.01
 41
0.01
  0
SEQEND
 8
0
  0
POLYLINE
  8
0
 62
     0
 66
     1
 10
0
 20
0
 30
0.0
 70
     1
 40
0.72
 41
0.72
  0
VERTEX
  8
0
 10
2.535
 20
3.435
 30
0.0
 40
0.01
 41
0.01
  0
VERTEX
  8
0
 10
2.52501
 20
3.45503
 30
0.0
 40
0.01
 41
0.01
  0
VERTEX
  8
0
 10
2.535
 20
3.435
 30
0.0
 40
0.01
 41
0.01
  0
SEQEND
 8
0
  0
POLYLINE
  8
0
 62
     0
 66
     1
 10
0
 20
0
 30
0.0
 70
     1
 40
0.72
 41
0.72
  0
VERTEX
  8
0
 10
2.52501
 20
3.45503
 30
0.0
 40
0.01
 41
0.01
  0
VERTEX
  8
0
 10
2.49501
 20
3.465
 30
0.0
 40
0.01
 41
0.01
  0
VERTEX
  8
0
 10
2.52501
 20
3.45503
 30
0.0
 40
0.01
 41
0.01
  0
SEQEND
 8
0
  0
POLYLINE
  8
0
 62
     0
 66
     1
 10
0
 20
0
 30
0.0
 70
     1
 40
0.72
 41
0.72
  0
VERTEX
  8
0
 10
2.49501
 20
3.465
 30
0.0
 40
0.01
 41
0.01
  0
VERTEX
  8
0
 10
2.43332
 20
3.43668
 30
0.0
 40
0.01
 41
0.01
  0
VERTEX
  8
0
 10
2.49501
 20
3.465
 30
0.0
 40
0.01
 41
0.01
  0
SEQEND
 8
0
  0
POLYLINE
  8
0
 62
     0
 66
     1
 10
0
 20
0
 30
0.0
 70
     1
 40
0.72
 41
0.72
  0
VERTEX
  8
0
 10
2.43332
 20
3.43668
 30
0.0
 40
0.01
 41
0.01
  0
VERTEX
  8
0
 10
2.49333
 20
3.31332
 30
0.0
 40
0.01
 41
0.01
  0
VERTEX
  8
0
 10
2.43332
 20
3.43668
 30
0.0
 40
0.01
 41
0.01
  0
SEQEND
 8
0
  0
POLYLINE
  8
0
 62
     0
 66
     1
 10
0
 20
0
 30
0.0
 70
     1
 40
0.72
 41
0.72
  0
VERTEX
  8
0
 10
2.37332
 20
3.23833
 30
0.0
 40
0.01
 41
0.01
  0
VERTEX
  8
0
 10
2.38667
 20
3.21332
 30
0.0
 40
0.01
 41
0.01
  0
VERTEX
  8
0
 10
2.30664
 20
3.19168
 30
0.0
 40
0.01
 41
0.01
  0
VERTEX
  8
0
 10
2.37332
 20
3.23833
 30
0.0
 40
0.01
 41
0.01
  0
SEQEND
 8
0
  0
POLYLINE
  8
0
 62
     0
 66
     1
 10
0
 20
0
 30
0.0
 70
     1
 40
0.72
 41
0.72
  0
VERTEX
  8
0
 10
5.78331
 20
7.65668
 30
0.0
 40
0.01
 41
0.01
  0
VERTEX
  8
0
 10
5.63835
 20
7.65668
 30
0.0
 40
0.01
 41
0.01
  0
VERTEX
  8
0
 10
5.78331
 20
7.65668
 30
0.0
 40
0.01
 41
0.01
  0
SEQEND
 8
0
  0
POLYLINE
  8
0
 62
     0
 66
     1
 10
0
 20
0
 30
0.0
 70
     1
 40
0.72
 41
0.72
  0
VERTEX
  8
0
 10
5.71164
 20
7.76497
 30
0.0
 40
0.01
 41
0.01
  0
VERTEX
  8
0
 10
5.63835
 20
7.76497
 30
0.0
 40
0.01
 41
0.01
  0
VERTEX
  8
0
 10
5.71164
 20
7.76497
 30
0.0
 40
0.01
 41
0.01
  0
SEQEND
 8
0
  0
POLYLINE
  8
0
 62
     0
 66
     1
 10
0
 20
0
 30
0.0
 70
     1
 40
0.72
 41
0.72
  0
VERTEX
  8
0
 10
5.78331
 20
7.875
 30
0.0
 40
0.01
 41
0.01
  0
VERTEX
  8
0
 10
5.63835
 20
7.875
 30
0.0
 40
0.01
 41
0.01
  0
VERTEX
  8
0
 10
5.78331
 20
7.875
 30
0.0
 40
0.01
 41
0.01
  0
SEQEND
 8
0
  0
POLYLINE
  8
0
 62
     0
 66
     1
 10
0
 20
0
 30
0.0
 70
     1
 40
0.72
 41
0.72
  0
VERTEX
  8
0
 10
5.63835
 20
7.875
 30
0.0
 40
0.01
 41
0.01
  0
VERTEX
  8
0
 10
5.63835
 20
7.65668
 30
0.0
 40
0.01
 41
0.01
  0
VERTEX
  8
0
 10
5.63835
 20
7.875
 30
0.0
 40
0.01
 41
0.01
  0
SEQEND
 8
0
  0
POLYLINE
  8
0
 62
     0
 66
     1
 10
0
 20
0
 30
0.0
 70
     1
 40
0.72
 41
0.72
  0
VERTEX
  8
0
 10
5.49333
 20
7.65668
 30
0.0
 40
0.01
 41
0.01
  0
VERTEX
  8
0
 10
5.49333
 20
7.875
 30
0.0
 40
0.01
 41
0.01
  0
VERTEX
  8
0
 10
5.49333
 20
7.65668
 30
0.0
 40
0.01
 41
0.01
  0
SEQEND
 8
0
  0
POLYLINE
  8
0
 62
     0
 66
     1
 10
0
 20
0
 30
0.0
 70
     1
 40
0.72
 41
0.72
  0
VERTEX
  8
0
 10
5.565
 20
7.875
 30
0.0
 40
0.01
 41
0.01
  0
VERTEX
  8
0
 10
5.41997
 20
7.875
 30
0.0
 40
0.01
 41
0.01
  0
VERTEX
  8
0
 10
5.565
 20
7.875
 30
0.0
 40
0.01
 41
0.01
  0
SEQEND
 8
0
  0
POLYLINE
  8
0
 62
     0
 66
     1
 10
0
 20
0
 30
0.0
 70
     1
 40
0.72
 41
0.72
  0
VERTEX
  8
0
 10
5.34668
 20
7.72835
 30
0.0
 40
0.01
 41
0.01
  0
VERTEX
  8
0
 10
5.20167
 20
7.72835
 30
0.0
 40
0.01
 41
0.01
  0
VERTEX
  8
0
 10
5.34668
 20
7.72835
 30
0.0
 40
0.01
 41
0.01
  0
VERTEX
  8
0
 10
5.34668
 20
7.65668
 30
0.0
 40
0.01
 41
0.01
  0
VERTEX
  8
0
 10
5.34668
 20
7.72835
 30
0.0
 40
0.01
 41
0.01
  0
VERTEX
  8
0
 10
5.27333
 20
7.875
 30
0.0
 40
0.01
 41
0.01
  0
VERTEX
  8
0
 10
5.34668
 20
7.72835
 30
0.0
 40
0.01
 41
0.01
  0
SEQEND
 8
0
  0
POLYLINE
  8
0
 62
     0
 66
     1
 10
0
 20
0
 30
0.0
 70
     1
 40
0.72
 41
0.72
  0
VERTEX
  8
0
 10
5.27333
 20
7.875
 30
0.0
 40
0.01
 41
0.01
  0
VERTEX
  8
0
 10
5.20167
 20
7.72835
 30
0.0
 40
0.01
 41
0.01
  0
VERTEX
  8
0
 10
5.27333
 20
7.875
 30
0.0
 40
0.01
 41
0.01
  0
SEQEND
 8
0
  0
POLYLINE
  8
0
 62
     0
 66
     1
 10
0
 20
0
 30
0.0
 70
     1
 40
0.72
 41
0.72
  0
VERTEX
  8
0
 10
5.20167
 20
7.72835
 30
0.0
 40
0.01
 41
0.01
  0
VERTEX
  8
0
 10
5.20167
 20
7.65668
 30
0.0
 40
0.01
 41
0.01
  0
VERTEX
  8
0
 10
5.20167
 20
7.72835
 30
0.0
 40
0.01
 41
0.01
  0
SEQEND
 8
0
  0
POLYLINE
  8
0
 62
     0
 66
     1
 10
0
 20
0
 30
0.0
 70
     1
 40
0.72
 41
0.72
  0
VERTEX
  8
0
 10
5.12831
 20
7.65668
 30
0.0
 40
0.01
 41
0.01
  0
VERTEX
  8
0
 10
4.98167
 20
7.65668
 30
0.0
 40
0.01
 41
0.01
  0
VERTEX
  8
0
 10
5.12831
 20
7.65668
 30
0.0
 40
0.01
 41
0.01
  0
SEQEND
 8
0
  0
POLYLINE
  8
0
 62
     0
 66
     1
 10
0
 20
0
 30
0.0
 70
     1
 40
0.72
 41
0.72
  0
VERTEX
  8
0
 10
4.98167
 20
7.65668
 30
0.0
 40
0.01
 41
0.01
  0
VERTEX
  8
0
 10
4.98167
 20
7.875
 30
0.0
 40
0.01
 41
0.01
  0
VERTEX
  8
0
 10
4.98167
 20
7.65668
 30
0.0
 40
0.01
 41
0.01
  0
SEQEND
 8
0
  0
POLYLINE
  8
0
 62
     0
 66
     1
 10
0
 20
0
 30
0.0
 70
     1
 40
0.72
 41
0.72
  0
VERTEX
  8
0
 10
4.76335
 20
7.76497
 30
0.0
 40
0.01
 41
0.01
  0
VERTEX
  8
0
 10
4.87332
 20
7.76497
 30
0.0
 40
0.01
 41
0.01
  0
VERTEX
  8
0
 10
4.76335
 20
7.76497
 30
0.0
 40
0.01
 41
0.01
  0
SEQEND
 8
0
  0
POLYLINE
  8
0
 62
     0
 66
     1
 10
0
 20
0
 30
0.0
 70
     1
 40
0.72
 41
0.72
  0
VERTEX
  8
0
 10
4.87332
 20
7.76497
 30
0.0
 40
0.01
 41
0.01
  0
VERTEX
  8
0
 10
4.91
 20
7.80165
 30
0.0
 40
0.01
 41
0.01
  0
VERTEX
  8
0
 10
4.87332
 20
7.76497
 30
0.0
 40
0.01
 41
0.01
  0
SEQEND
 8
0
  0
POLYLINE
  8
0
 62
     0
 66
     1
 10
0
 20
0
 30
0.0
 70
     1
 40
0.72
 41
0.72
  0
VERTEX
  8
0
 10
4.91
 20
7.80165
 30
0.0
 40
0.01
 41
0.01
  0
VERTEX
  8
0
 10
4.91
 20
7.83832
 30
0.0
 40
0.01
 41
0.01
  0
VERTEX
  8
0
 10
4.91
 20
7.80165
 30
0.0
 40
0.01
 41
0.01
  0
SEQEND
 8
0
  0
POLYLINE
  8
0
 62
     0
 66
     1
 10
0
 20
0
 30
0.0
 70
     1
 40
0.72
 41
0.72
  0
VERTEX
  8
0
 10
4.91
 20
7.83832
 30
0.0
 40
0.01
 41
0.01
  0
VERTEX
  8
0
 10
4.87332
 20
7.875
 30
0.0
 40
0.01
 41
0.01
  0
VERTEX
  8
0
 10
4.91
 20
7.83832
 30
0.0
 40
0.01
 41
0.01
  0
SEQEND
 8
0
  0
POLYLINE
  8
0
 62
     0
 66
     1
 10
0
 20
0
 30
0.0
 70
     1
 40
0.72
 41
0.72
  0
VERTEX
  8
0
 10
4.87332
 20
7.875
 30
0.0
 40
0.01
 41
0.01
  0
VERTEX
  8
0
 10
4.76335
 20
7.875
 30
0.0
 40
0.01
 41
0.01
  0
VERTEX
  8
0
 10
4.87332
 20
7.875
 30
0.0
 40
0.01
 41
0.01
  0
SEQEND
 8
0
  0
POLYLINE
  8
0
 62
     0
 66
     1
 10
0
 20
0
 30
0.0
 70
     1
 40
0.72
 41
0.72
  0
VERTEX
  8
0
 10
4.76335
 20
7.875
 30
0.0
 40
0.01
 41
0.01
  0
VERTEX
  8
0
 10
4.76335
 20
7.65668
 30
0.0
 40
0.01
 41
0.01
  0
VERTEX
  8
0
 10
4.76335
 20
7.875
 30
0.0
 40
0.01
 41
0.01
  0
SEQEND
 8
0
  0
POLYLINE
  8
0
 62
     0
 66
     1
 10
0
 20
0
 30
0.0
 70
     1
 40
0.72
 41
0.72
  0
VERTEX
  8
0
 10
4.69
 20
7.65668
 30
0.0
 40
0.01
 41
0.01
  0
VERTEX
  8
0
 10
4.69
 20
7.875
 30
0.0
 40
0.01
 41
0.01
  0
VERTEX
  8
0
 10
4.69
 20
7.65668
 30
0.0
 40
0.01
 41
0.01
  0
SEQEND
 8
0
  0
POLYLINE
  8
0
 62
     0
 66
     1
 10
0
 20
0
 30
0.0
 70
     1
 40
0.72
 41
0.72
  0
VERTEX
  8
0
 10
4.69
 20
7.875
 30
0.0
 40
0.01
 41
0.01
  0
VERTEX
  8
0
 10
4.61833
 20
7.72835
 30
0.0
 40
0.01
 41
0.01
  0
VERTEX
  8
0
 10
4.69
 20
7.875
 30
0.0
 40
0.01
 41
0.01
  0
SEQEND
 8
0
  0
POLYLINE
  8
0
 62
     0
 66
     1
 10
0
 20
0
 30
0.0
 70
     1
 40
0.72
 41
0.72
  0
VERTEX
  8
0
 10
4.61833
 20
7.72835
 30
0.0
 40
0.01
 41
0.01
  0
VERTEX
  8
0
 10
4.54497
 20
7.875
 30
0.0
 40
0.01
 41
0.01
  0
VERTEX
  8
0
 10
4.61833
 20
7.72835
 30
0.0
 40
0.01
 41
0.01
  0
SEQEND
 8
0
  0
POLYLINE
  8
0
 62
     0
 66
     1
 10
0
 20
0
 30
0.0
 70
     1
 40
0.72
 41
0.72
  0
VERTEX
  8
0
 10
4.54497
 20
7.875
 30
0.0
 40
0.01
 41
0.01
  0
VERTEX
  8
0
 10
4.54497
 20
7.65668
 30
0.0
 40
0.01
 41
0.01
  0
VERTEX
  8
0
 10
4.54497
 20
7.875
 30
0.0
 40
0.01
 41
0.01
  0
SEQEND
 8
0
  0
POLYLINE
  8
0
 62
     0
 66
     1
 10
0
 20
0
 30
0.0
 70
     1
 40
0.72
 41
0.72
  0
VERTEX
  8
0
 10
4.47168
 20
7.65668
 30
0.0
 40
0.01
 41
0.01
  0
VERTEX
  8
0
 10
4.32667
 20
7.65668
 30
0.0
 40
0.01
 41
0.01
  0
VERTEX
  8
0
 10
4.47168
 20
7.65668
 30
0.0
 40
0.01
 41
0.01
  0
SEQEND
 8
0
  0
POLYLINE
  8
0
 62
     0
 66
     1
 10
0
 20
0
 30
0.0
 70
     1
 40
0.72
 41
0.72
  0
VERTEX
  8
0
 10
4.39833
 20
7.76497
 30
0.0
 40
0.01
 41
0.01
  0
VERTEX
  8
0
 10
4.32667
 20
7.76497
 30
0.0
 40
0.01
 41
0.01
  0
VERTEX
  8
0
 10
4.39833
 20
7.76497
 30
0.0
 40
0.01
 41
0.01
  0
SEQEND
 8
0
  0
POLYLINE
  8
0
 62
     0
 66
     1
 10
0
 20
0
 30
0.0
 70
     1
 40
0.72
 41
0.72
  0
VERTEX
  8
0
 10
4.47168
 20
7.875
 30
0.0
 40
0.01
 41
0.01
  0
VERTEX
  8
0
 10
4.32667
 20
7.875
 30
0.0
 40
0.01
 41
0.01
  0
VERTEX
  8
0
 10
4.47168
 20
7.875
 30
0.0
 40
0.01
 41
0.01
  0
SEQEND
 8
0
  0
POLYLINE
  8
0
 62
     0
 66
     1
 10
0
 20
0
 30
0.0
 70
     1
 40
0.72
 41
0.72
  0
VERTEX
  8
0
 10
4.32667
 20
7.875
 30
0.0
 40
0.01
 41
0.01
  0
VERTEX
  8
0
 10
4.32667
 20
7.65668
 30
0.0
 40
0.01
 41
0.01
  0
VERTEX
  8
0
 10
4.32667
 20
7.875
 30
0.0
 40
0.01
 41
0.01
  0
SEQEND
 8
0
  0
POLYLINE
  8
0
 62
     0
 66
     1
 10
0
 20
0
 30
0.0
 70
     1
 40
0.72
 41
0.72
  0
VERTEX
  8
0
 10
4.18001
 20
7.65668
 30
0.0
 40
0.01
 41
0.01
  0
VERTEX
  8
0
 10
4.18001
 20
7.875
 30
0.0
 40
0.01
 41
0.01
  0
VERTEX
  8
0
 10
4.18001
 20
7.65668
 30
0.0
 40
0.01
 41
0.01
  0
SEQEND
 8
0
  0
POLYLINE
  8
0
 62
     0
 66
     1
 10
0
 20
0
 30
0.0
 70
     1
 40
0.72
 41
0.72
  0
VERTEX
  8
0
 10
4.25331
 20
7.875
 30
0.0
 40
0.01
 41
0.01
  0
VERTEX
  8
0
 10
4.10835
 20
7.875
 30
0.0
 40
0.01
 41
0.01
  0
VERTEX
  8
0
 10
4.25331
 20
7.875
 30
0.0
 40
0.01
 41
0.01
  0
SEQEND
 8
0
  0
POLYLINE
  8
0
 62
     0
 66
     1
 10
0
 20
0
 30
0.0
 70
     1
 40
0.72
 41
0.72
  0
VERTEX
  8
0
 10
3.56168
 20
7.875
 30
0.0
 40
0.01
 41
0.01
  0
VERTEX
  8
0
 10
3.52501
 20
7.875
 30
0.0
 40
0.01
 41
0.01
  0
VERTEX
  8
0
 10
3.56168
 20
7.875
 30
0.0
 40
0.01
 41
0.01
  0
SEQEND
 8
0
  0
POLYLINE
  8
0
 62
     0
 66
     1
 10
0
 20
0
 30
0.0
 70
     1
 40
0.72
 41
0.72
  0
VERTEX
  8
0
 10
3.52501
 20
7.875
 30
0.0
 40
0.01
 41
0.01
  0
VERTEX
  8
0
 10
3.45167
 20
7.80165
 30
0.0
 40
0.01
 41
0.01
  0
VERTEX
  8
0
 10
3.52501
 20
7.875
 30
0.0
 40
0.01
 41
0.01
  0
SEQEND
 8
0
  0
POLYLINE
  8
0
 62
     0
 66
     1
 10
0
 20
0
 30
0.0
 70
     1
 40
0.72
 41
0.72
  0
VERTEX
  8
0
 10
3.45167
 20
7.80165
 30
0.0
 40
0.01
 41
0.01
  0
VERTEX
  8
0
 10
3.45167
 20
7.69336
 30
0.0
 40
0.01
 41
0.01
  0
VERTEX
  8
0
 10
3.45167
 20
7.80165
 30
0.0
 40
0.01
 41
0.01
  0
SEQEND
 8
0
  0
POLYLINE
  8
0
 62
     0
 66
     1
 10
0
 20
0
 30
0.0
 70
     1
 40
0.72
 41
0.72
  0
VERTEX
  8
0
 10
3.45167
 20
7.69336
 30
0.0
 40
0.01
 41
0.01
  0
VERTEX
  8
0
 10
3.48833
 20
7.65668
 30
0.0
 40
0.01
 41
0.01
  0
VERTEX
  8
0
 10
3.45167
 20
7.69336
 30
0.0
 40
0.01
 41
0.01
  0
SEQEND
 8
0
  0
POLYLINE
  8
0
 62
     0
 66
     1
 10
0
 20
0
 30
0.0
 70
     1
 40
0.72
 41
0.72
  0
VERTEX
  8
0
 10
3.48833
 20
7.65668
 30
0.0
 40
0.01
 41
0.01
  0
VERTEX
  8
0
 10
3.56168
 20
7.65668
 30
0.0
 40
0.01
 41
0.01
  0
VERTEX
  8
0
 10
3.48833
 20
7.65668
 30
0.0
 40
0.01
 41
0.01
  0
SEQEND
 8
0
  0
POLYLINE
  8
0
 62
     0
 66
     1
 10
0
 20
0
 30
0.0
 70
     1
 40
0.72
 41
0.72
  0
VERTEX
  8
0
 10
3.56168
 20
7.65668
 30
0.0
 40
0.01
 41
0.01
  0
VERTEX
  8
0
 10
3.59668
 20
7.69336
 30
0.0
 40
0.01
 41
0.01
  0
VERTEX
  8
0
 10
3.56168
 20
7.65668
 30
0.0
 40
0.01
 41
0.01
  0
SEQEND
 8
0
  0
POLYLINE
  8
0
 62
     0
 66
     1
 10
0
 20
0
 30
0.0
 70
     1
 40
0.72
 41
0.72
  0
VERTEX
  8
0
 10
3.59668
 20
7.69336
 30
0.0
 40
0.01
 41
0.01
  0
VERTEX
  8
0
 10
3.59668
 20
7.72835
 30
0.0
 40
0.01
 41
0.01
  0
VERTEX
  8
0
 10
3.59668
 20
7.69336
 30
0.0
 40
0.01
 41
0.01
  0
SEQEND
 8
0
  0
POLYLINE
  8
0
 62
     0
 66
     1
 10
0
 20
0
 30
0.0
 70
     1
 40
0.72
 41
0.72
  0
VERTEX
  8
0
 10
3.59668
 20
7.72835
 30
0.0
 40
0.01
 41
0.01
  0
VERTEX
  8
0
 10
3.56168
 20
7.76497
 30
0.0
 40
0.01
 41
0.01
  0
VERTEX
  8
0
 10
3.59668
 20
7.72835
 30
0.0
 40
0.01
 41
0.01
  0
SEQEND
 8
0
  0
POLYLINE
  8
0
 62
     0
 66
     1
 10
0
 20
0
 30
0.0
 70
     1
 40
0.72
 41
0.72
  0
VERTEX
  8
0
 10
3.56168
 20
7.76497
 30
0.0
 40
0.01
 41
0.01
  0
VERTEX
  8
0
 10
3.45167
 20
7.76497
 30
0.0
 40
0.01
 41
0.01
  0
VERTEX
  8
0
 10
3.56168
 20
7.76497
 30
0.0
 40
0.01
 41
0.01
  0
SEQEND
 8
0
  0
POLYLINE
  8
0
 62
     0
 66
     1
 10
0
 20
0
 30
0.0
 70
     1
 40
0.72
 41
0.72
  0
VERTEX
  8
0
 10
3.37831
 20
7.875
 30
0.0
 40
0.01
 41
0.01
  0
VERTEX
  8
0
 10
3.23335
 20
7.875
 30
0.0
 40
0.01
 41
0.01
  0
VERTEX
  8
0
 10
3.37831
 20
7.875
 30
0.0
 40
0.01
 41
0.01
  0
SEQEND
 8
0
  0
POLYLINE
  8
0
 62
     0
 66
     1
 10
0
 20
0
 30
0.0
 70
     1
 40
0.72
 41
0.72
  0
VERTEX
  8
0
 10
3.23335
 20
7.875
 30
0.0
 40
0.01
 41
0.01
  0
VERTEX
  8
0
 10
3.23335
 20
7.80165
 30
0.0
 40
0.01
 41
0.01
  0
VERTEX
  8
0
 10
3.23335
 20
7.875
 30
0.0
 40
0.01
 41
0.01
  0
SEQEND
 8
0
  0
POLYLINE
  8
0
 62
     0
 66
     1
 10
0
 20
0
 30
0.0
 70
     1
 40
0.72
 41
0.72
  0
VERTEX
  8
0
 10
3.23335
 20
7.80165
 30
0.0
 40
0.01
 41
0.01
  0
VERTEX
  8
0
 10
3.34169
 20
7.80165
 30
0.0
 40
0.01
 41
0.01
  0
VERTEX
  8
0
 10
3.23335
 20
7.80165
 30
0.0
 40
0.01
 41
0.01
  0
SEQEND
 8
0
  0
POLYLINE
  8
0
 62
     0
 66
     1
 10
0
 20
0
 30
0.0
 70
     1
 40
0.72
 41
0.72
  0
VERTEX
  8
0
 10
3.34169
 20
7.80165
 30
0.0
 40
0.01
 41
0.01
  0
VERTEX
  8
0
 10
3.37831
 20
7.76497
 30
0.0
 40
0.01
 41
0.01
  0
VERTEX
  8
0
 10
3.34169
 20
7.80165
 30
0.0
 40
0.01
 41
0.01
  0
SEQEND
 8
0
  0
POLYLINE
  8
0
 62
     0
 66
     1
 10
0
 20
0
 30
0.0
 70
     1
 40
0.72
 41
0.72
  0
VERTEX
  8
0
 10
3.37831
 20
7.76497
 30
0.0
 40
0.01
 41
0.01
  0
VERTEX
  8
0
 10
3.37831
 20
7.69336
 30
0.0
 40
0.01
 41
0.01
  0
VERTEX
  8
0
 10
3.37831
 20
7.76497
 30
0.0
 40
0.01
 41
0.01
  0
SEQEND
 8
0
  0
POLYLINE
  8
0
 62
     0
 66
     1
 10
0
 20
0
 30
0.0
 70
     1
 40
0.72
 41
0.72
  0
VERTEX
  8
0
 10
3.37831
 20
7.69336
 30
0.0
 40
0.01
 41
0.01
  0
VERTEX
  8
0
 10
3.34169
 20
7.65668
 30
0.0
 40
0.01
 41
0.01
  0
VERTEX
  8
0
 10
3.37831
 20
7.69336
 30
0.0
 40
0.01
 41
0.01
  0
SEQEND
 8
0
  0
POLYLINE
  8
0
 62
     0
 66
     1
 10
0
 20
0
 30
0.0
 70
     1
 40
0.72
 41
0.72
  0
VERTEX
  8
0
 10
3.34169
 20
7.65668
 30
0.0
 40
0.01
 41
0.01
  0
VERTEX
  8
0
 10
3.27001
 20
7.65668
 30
0.0
 40
0.01
 41
0.01
  0
VERTEX
  8
0
 10
3.34169
 20
7.65668
 30
0.0
 40
0.01
 41
0.01
  0
SEQEND
 8
0
  0
POLYLINE
  8
0
 62
     0
 66
     1
 10
0
 20
0
 30
0.0
 70
     1
 40
0.72
 41
0.72
  0
VERTEX
  8
0
 10
3.27001
 20
7.65668
 30
0.0
 40
0.01
 41
0.01
  0
VERTEX
  8
0
 10
3.23335
 20
7.69336
 30
0.0
 40
0.01
 41
0.01
  0
VERTEX
  8
0
 10
3.27001
 20
7.65668
 30
0.0
 40
0.01
 41
0.01
  0
SEQEND
 8
0
  0
POLYLINE
  8
0
 62
     0
 66
     1
 10
0
 20
0
 30
0.0
 70
     1
 40
0.72
 41
0.72
  0
VERTEX
  8
0
 10
3.08664
 20
7.65668
 30
0.0
 40
0.01
 41
0.01
  0
VERTEX
  8
0
 10
3.12332
 20
7.65668
 30
0.0
 40
0.01
 41
0.01
  0
VERTEX
  8
0
 10
3.08664
 20
7.65668
 30
0.0
 40
0.01
 41
0.01
  0
SEQEND
 8
0
  0
POLYLINE
  8
0
 62
     0
 66
     1
 10
0
 20
0
 30
0.0
 70
     1
 40
0.72
 41
0.72
  0
VERTEX
  8
0
 10
3.12332
 20
7.65668
 30
0.0
 40
0.01
 41
0.01
  0
VERTEX
  8
0
 10
3.16
 20
7.69336
 30
0.0
 40
0.01
 41
0.01
  0
VERTEX
  8
0
 10
3.12332
 20
7.65668
 30
0.0
 40
0.01
 41
0.01
  0
SEQEND
 8
0
  0
POLYLINE
  8
0
 62
     0
 66
     1
 10
0
 20
0
 30
0.0
 70
     1
 40
0.72
 41
0.72
  0
VERTEX
  8
0
 10
3.16
 20
7.69336
 30
0.0
 40
0.01
 41
0.01
  0
VERTEX
  8
0
 10
3.16
 20
7.83832
 30
0.0
 40
0.01
 41
0.01
  0
VERTEX
  8
0
 10
3.16
 20
7.69336
 30
0.0
 40
0.01
 41
0.01
  0
SEQEND
 8
0
  0
POLYLINE
  8
0
 62
     0
 66
     1
 10
0
 20
0
 30
0.0
 70
     1
 40
0.72
 41
0.72
  0
VERTEX
  8
0
 10
3.16
 20
7.83832
 30
0.0
 40
0.01
 41
0.01
  0
VERTEX
  8
0
 10
3.12332
 20
7.875
 30
0.0
 40
0.01
 41
0.01
  0
VERTEX
  8
0
 10
3.16
 20
7.83832
 30
0.0
 40
0.01
 41
0.01
  0
SEQEND
 8
0
  0
POLYLINE
  8
0
 62
     0
 66
     1
 10
0
 20
0
 30
0.0
 70
     1
 40
0.72
 41
0.72
  0
VERTEX
  8
0
 10
3.12332
 20
7.875
 30
0.0
 40
0.01
 41
0.01
  0
VERTEX
  8
0
 10
3.08664
 20
7.875
 30
0.0
 40
0.01
 41
0.01
  0
VERTEX
  8
0
 10
3.12332
 20
7.875
 30
0.0
 40
0.01
 41
0.01
  0
SEQEND
 8
0
  0
POLYLINE
  8
0
 62
     0
 66
     1
 10
0
 20
0
 30
0.0
 70
     1
 40
0.72
 41
0.72
  0
VERTEX
  8
0
 10
3.08664
 20
7.875
 30
0.0
 40
0.01
 41
0.01
  0
VERTEX
  8
0
 10
3.05003
 20
7.83832
 30
0.0
 40
0.01
 41
0.01
  0
VERTEX
  8
0
 10
3.08664
 20
7.875
 30
0.0
 40
0.01
 41
0.01
  0
SEQEND
 8
0
  0
POLYLINE
  8
0
 62
     0
 66
     1
 10
0
 20
0
 30
0.0
 70
     1
 40
0.72
 41
0.72
  0
VERTEX
  8
0
 10
3.05003
 20
7.83832
 30
0.0
 40
0.01
 41
0.01
  0
VERTEX
  8
0
 10
3.05003
 20
7.69336
 30
0.0
 40
0.01
 41
0.01
  0
VERTEX
  8
0
 10
3.05003
 20
7.83832
 30
0.0
 40
0.01
 41
0.01
  0
SEQEND
 8
0
  0
POLYLINE
  8
0
 62
     0
 66
     1
 10
0
 20
0
 30
0.0
 70
     1
 40
0.72
 41
0.72
  0
VERTEX
  8
0
 10
3.05003
 20
7.69336
 30
0.0
 40
0.01
 41
0.01
  0
VERTEX
  8
0
 10
3.08664
 20
7.65668
 30
0.0
 40
0.01
 41
0.01
  0
VERTEX
  8
0
 10
3.05003
 20
7.69336
 30
0.0
 40
0.01
 41
0.01
  0
SEQEND
 8
0
  0
POLYLINE
  8
0
 62
     0
 66
     1
 10
0
 20
0
 30
0.0
 70
     1
 40
0.72
 41
0.72
  0
VERTEX
  8
0
 10
2.86833
 20
7.65668
 30
0.0
 40
0.01
 41
0.01
  0
VERTEX
  8
0
 10
2.94168
 20
7.65668
 30
0.0
 40
0.01
 41
0.01
  0
VERTEX
  8
0
 10
2.86833
 20
7.65668
 30
0.0
 40
0.01
 41
0.01
  0
SEQEND
 8
0
  0
POLYLINE
  8
0
 62
     0
 66
     1
 10
0
 20
0
 30
0.0
 70
     1
 40
0.72
 41
0.72
  0
VERTEX
  8
0
 10
2.94168
 20
7.65668
 30
0.0
 40
0.01
 41
0.01
  0
VERTEX
  8
0
 10
2.97835
 20
7.69336
 30
0.0
 40
0.01
 41
0.01
  0
VERTEX
  8
0
 10
2.94168
 20
7.65668
 30
0.0
 40
0.01
 41
0.01
  0
SEQEND
 8
0
  0
POLYLINE
  8
0
 62
     0
 66
     1
 10
0
 20
0
 30
0.0
 70
     1
 40
0.72
 41
0.72
  0
VERTEX
  8
0
 10
2.97835
 20
7.69336
 30
0.0
 40
0.01
 41
0.01
  0
VERTEX
  8
0
 10
2.97835
 20
7.72835
 30
0.0
 40
0.01
 41
0.01
  0
VERTEX
  8
0
 10
2.97835
 20
7.69336
 30
0.0
 40
0.01
 41
0.01
  0
SEQEND
 8
0
  0
POLYLINE
  8
0
 62
     0
 66
     1
 10
0
 20
0
 30
0.0
 70
     1
 40
0.72
 41
0.72
  0
VERTEX
  8
0
 10
2.97835
 20
7.72835
 30
0.0
 40
0.01
 41
0.01
  0
VERTEX
  8
0
 10
2.94168
 20
7.76497
 30
0.0
 40
0.01
 41
0.01
  0
VERTEX
  8
0
 10
2.97835
 20
7.72835
 30
0.0
 40
0.01
 41
0.01
  0
SEQEND
 8
0
  0
POLYLINE
  8
0
 62
     0
 66
     1
 10
0
 20
0
 30
0.0
 70
     1
 40
0.72
 41
0.72
  0
VERTEX
  8
0
 10
2.86833
 20
7.76497
 30
0.0
 40
0.01
 41
0.01
  0
VERTEX
  8
0
 10
2.83165
 20
7.80165
 30
0.0
 40
0.01
 41
0.01
  0
VERTEX
  8
0
 10
2.86833
 20
7.76497
 30
0.0
 40
0.01
 41
0.01
  0
SEQEND
 8
0
  0
POLYLINE
  8
0
 62
     0
 66
     1
 10
0
 20
0
 30
0.0
 70
     1
 40
0.72
 41
0.72
  0
VERTEX
  8
0
 10
2.83165
 20
7.80165
 30
0.0
 40
0.01
 41
0.01
  0
VERTEX
  8
0
 10
2.83165
 20
7.83832
 30
0.0
 40
0.01
 41
0.01
  0
VERTEX
  8
0
 10
2.83165
 20
7.80165
 30
0.0
 40
0.01
 41
0.01
  0
SEQEND
 8
0
  0
POLYLINE
  8
0
 62
     0
 66
     1
 10
0
 20
0
 30
0.0
 70
     1
 40
0.72
 41
0.72
  0
VERTEX
  8
0
 10
2.83165
 20
7.83832
 30
0.0
 40
0.01
 41
0.01
  0
VERTEX
  8
0
 10
2.86833
 20
7.875
 30
0.0
 40
0.01
 41
0.01
  0
VERTEX
  8
0
 10
2.83165
 20
7.83832
 30
0.0
 40
0.01
 41
0.01
  0
SEQEND
 8
0
  0
POLYLINE
  8
0
 62
     0
 66
     1
 10
0
 20
0
 30
0.0
 70
     1
 40
0.72
 41
0.72
  0
VERTEX
  8
0
 10
2.86833
 20
7.875
 30
0.0
 40
0.01
 41
0.01
  0
VERTEX
  8
0
 10
2.94168
 20
7.875
 30
0.0
 40
0.01
 41
0.01
  0
VERTEX
  8
0
 10
2.86833
 20
7.875
 30
0.0
 40
0.01
 41
0.01
  0
SEQEND
 8
0
  0
POLYLINE
  8
0
 62
     0
 66
     1
 10
0
 20
0
 30
0.0
 70
     1
 40
0.72
 41
0.72
  0
VERTEX
  8
0
 10
2.94168
 20
7.875
 30
0.0
 40
0.01
 41
0.01
  0
VERTEX
  8
0
 10
2.97835
 20
7.83832
 30
0.0
 40
0.01
 41
0.01
  0
VERTEX
  8
0
 10
2.94168
 20
7.875
 30
0.0
 40
0.01
 41
0.01
  0
SEQEND
 8
0
  0
POLYLINE
  8
0
 62
     0
 66
     1
 10
0
 20
0
 30
0.0
 70
     1
 40
0.72
 41
0.72
  0
VERTEX
  8
0
 10
2.97835
 20
7.83832
 30
0.0
 40
0.01
 41
0.01
  0
VERTEX
  8
0
 10
2.97835
 20
7.80165
 30
0.0
 40
0.01
 41
0.01
  0
VERTEX
  8
0
 10
2.97835
 20
7.83832
 30
0.0
 40
0.01
 41
0.01
  0
SEQEND
 8
0
  0
POLYLINE
  8
0
 62
     0
 66
     1
 10
0
 20
0
 30
0.0
 70
     1
 40
0.72
 41
0.72
  0
VERTEX
  8
0
 10
2.97835
 20
7.80165
 30
0.0
 40
0.01
 41
0.01
  0
VERTEX
  8
0
 10
2.94168
 20
7.76497
 30
0.0
 40
0.01
 41
0.01
  0
VERTEX
  8
0
 10
2.97835
 20
7.80165
 30
0.0
 40
0.01
 41
0.01
  0
SEQEND
 8
0
  0
POLYLINE
  8
0
 62
     0
 66
     1
 10
0
 20
0
 30
0.0
 70
     1
 40
0.72
 41
0.72
  0
VERTEX
  8
0
 10
2.94168
 20
7.76497
 30
0.0
 40
0.01
 41
0.01
  0
VERTEX
  8
0
 10
2.86833
 20
7.76497
 30
0.0
 40
0.01
 41
0.01
  0
VERTEX
  8
0
 10
2.94168
 20
7.76497
 30
0.0
 40
0.01
 41
0.01
  0
SEQEND
 8
0
  0
POLYLINE
  8
0
 62
     0
 66
     1
 10
0
 20
0
 30
0.0
 70
     1
 40
0.72
 41
0.72
  0
VERTEX
  8
0
 10
2.86833
 20
7.76497
 30
0.0
 40
0.01
 41
0.01
  0
VERTEX
  8
0
 10
2.83165
 20
7.72835
 30
0.0
 40
0.01
 41
0.01
  0
VERTEX
  8
0
 10
2.86833
 20
7.76497
 30
0.0
 40
0.01
 41
0.01
  0
SEQEND
 8
0
  0
POLYLINE
  8
0
 62
     0
 66
     1
 10
0
 20
0
 30
0.0
 70
     1
 40
0.72
 41
0.72
  0
VERTEX
  8
0
 10
2.83165
 20
7.72835
 30
0.0
 40
0.01
 41
0.01
  0
VERTEX
  8
0
 10
2.83165
 20
7.69336
 30
0.0
 40
0.01
 41
0.01
  0
VERTEX
  8
0
 10
2.83165
 20
7.72835
 30
0.0
 40
0.01
 41
0.01
  0
SEQEND
 8
0
  0
POLYLINE
  8
0
 62
     0
 66
     1
 10
0
 20
0
 30
0.0
 70
     1
 40
0.72
 41
0.72
  0
VERTEX
  8
0
 10
2.83165
 20
7.69336
 30
0.0
 40
0.01
 41
0.01
  0
VERTEX
  8
0
 10
2.86833
 20
7.65668
 30
0.0
 40
0.01
 41
0.01
  0
VERTEX
  8
0
 10
2.83165
 20
7.69336
 30
0.0
 40
0.01
 41
0.01
  0
SEQEND
 8
0
  0
POLYLINE
  8
0
 62
     0
 66
     1
 10
0
 20
0
 30
0.0
 70
     1
 40
0.72
 41
0.72
  0
VERTEX
  8
0
 10
2.68668
 20
7.65668
 30
0.0
 40
0.01
 41
0.01
  0
VERTEX
  8
0
 10
2.72331
 20
7.65668
 30
0.0
 40
0.01
 41
0.01
  0
VERTEX
  8
0
 10
2.68668
 20
7.65668
 30
0.0
 40
0.01
 41
0.01
  0
SEQEND
 8
0
  0
POLYLINE
  8
0
 62
     0
 66
     1
 10
0
 20
0
 30
0.0
 70
     1
 40
0.72
 41
0.72
  0
VERTEX
  8
0
 10
2.72331
 20
7.65668
 30
0.0
 40
0.01
 41
0.01
  0
VERTEX
  8
0
 10
2.75836
 20
7.69336
 30
0.0
 40
0.01
 41
0.01
  0
VERTEX
  8
0
 10
2.72331
 20
7.65668
 30
0.0
 40
0.01
 41
0.01
  0
SEQEND
 8
0
  0
POLYLINE
  8
0
 62
     0
 66
     1
 10
0
 20
0
 30
0.0
 70
     1
 40
0.72
 41
0.72
  0
VERTEX
  8
0
 10
2.75836
 20
7.69336
 30
0.0
 40
0.01
 41
0.01
  0
VERTEX
  8
0
 10
2.75836
 20
7.83832
 30
0.0
 40
0.01
 41
0.01
  0
VERTEX
  8
0
 10
2.75836
 20
7.69336
 30
0.0
 40
0.01
 41
0.01
  0
SEQEND
 8
0
  0
POLYLINE
  8
0
 62
     0
 66
     1
 10
0
 20
0
 30
0.0
 70
     1
 40
0.72
 41
0.72
  0
VERTEX
  8
0
 10
2.75836
 20
7.83832
 30
0.0
 40
0.01
 41
0.01
  0
VERTEX
  8
0
 10
2.72331
 20
7.875
 30
0.0
 40
0.01
 41
0.01
  0
VERTEX
  8
0
 10
2.75836
 20
7.83832
 30
0.0
 40
0.01
 41
0.01
  0
SEQEND
 8
0
  0
POLYLINE
  8
0
 62
     0
 66
     1
 10
0
 20
0
 30
0.0
 70
     1
 40
0.72
 41
0.72
  0
VERTEX
  8
0
 10
2.72331
 20
7.875
 30
0.0
 40
0.01
 41
0.01
  0
VERTEX
  8
0
 10
2.68668
 20
7.875
 30
0.0
 40
0.01
 41
0.01
  0
VERTEX
  8
0
 10
2.72331
 20
7.875
 30
0.0
 40
0.01
 41
0.01
  0
SEQEND
 8
0
  0
POLYLINE
  8
0
 62
     0
 66
     1
 10
0
 20
0
 30
0.0
 70
     1
 40
0.72
 41
0.72
  0
VERTEX
  8
0
 10
2.68668
 20
7.875
 30
0.0
 40
0.01
 41
0.01
  0
VERTEX
  8
0
 10
2.65001
 20
7.83832
 30
0.0
 40
0.01
 41
0.01
  0
VERTEX
  8
0
 10
2.68668
 20
7.875
 30
0.0
 40
0.01
 41
0.01
  0
SEQEND
 8
0
  0
POLYLINE
  8
0
 62
     0
 66
     1
 10
0
 20
0
 30
0.0
 70
     1
 40
0.72
 41
0.72
  0
VERTEX
  8
0
 10
2.65001
 20
7.83832
 30
0.0
 40
0.01
 41
0.01
  0
VERTEX
  8
0
 10
2.65001
 20
7.69336
 30
0.0
 40
0.01
 41
0.01
  0
VERTEX
  8
0
 10
2.65001
 20
7.83832
 30
0.0
 40
0.01
 41
0.01
  0
SEQEND
 8
0
  0
POLYLINE
  8
0
 62
     0
 66
     1
 10
0
 20
0
 30
0.0
 70
     1
 40
0.72
 41
0.72
  0
VERTEX
  8
0
 10
2.65001
 20
7.69336
 30
0.0
 40
0.01
 41
0.01
  0
VERTEX
  8
0
 10
2.68668
 20
7.65668
 30
0.0
 40
0.01
 41
0.01
  0
VERTEX
  8
0
 10
2.65001
 20
7.69336
 30
0.0
 40
0.01
 41
0.01
  0
SEQEND
 8
0
  0
POLYLINE
  8
0
 62
     0
 66
     1
 10
0
 20
0
 30
0.0
 70
     1
 40
0.72
 41
0.72
  0
VERTEX
  8
0
 10
2.57667
 20
7.65668
 30
0.0
 40
0.01
 41
0.01
  0
VERTEX
  8
0
 10
2.43164
 20
7.65668
 30
0.0
 40
0.01
 41
0.01
  0
VERTEX
  8
0
 10
2.57667
 20
7.65668
 30
0.0
 40
0.01
 41
0.01
  0
SEQEND
 8
0
  0
POLYLINE
  8
0
 62
     0
 66
     1
 10
0
 20
0
 30
0.0
 70
     1
 40
0.72
 41
0.72
  0
VERTEX
  8
0
 10
2.43164
 20
7.65668
 30
0.0
 40
0.01
 41
0.01
  0
VERTEX
  8
0
 10
2.43164
 20
7.72835
 30
0.0
 40
0.01
 41
0.01
  0
VERTEX
  8
0
 10
2.43164
 20
7.65668
 30
0.0
 40
0.01
 41
0.01
  0
SEQEND
 8
0
  0
POLYLINE
  8
0
 62
     0
 66
     1
 10
0
 20
0
 30
0.0
 70
     1
 40
0.72
 41
0.72
  0
VERTEX
  8
0
 10
2.43164
 20
7.72835
 30
0.0
 40
0.01
 41
0.01
  0
VERTEX
  8
0
 10
2.46832
 20
7.76497
 30
0.0
 40
0.01
 41
0.01
  0
VERTEX
  8
0
 10
2.43164
 20
7.72835
 30
0.0
 40
0.01
 41
0.01
  0
SEQEND
 8
0
  0
POLYLINE
  8
0
 62
     0
 66
     1
 10
0
 20
0
 30
0.0
 70
     1
 40
0.72
 41
0.72
  0
VERTEX
  8
0
 10
2.46832
 20
7.76497
 30
0.0
 40
0.01
 41
0.01
  0
VERTEX
  8
0
 10
2.53999
 20
7.76497
 30
0.0
 40
0.01
 41
0.01
  0
VERTEX
  8
0
 10
2.46832
 20
7.76497
 30
0.0
 40
0.01
 41
0.01
  0
SEQEND
 8
0
  0
POLYLINE
  8
0
 62
     0
 66
     1
 10
0
 20
0
 30
0.0
 70
     1
 40
0.72
 41
0.72
  0
VERTEX
  8
0
 10
2.53999
 20
7.76497
 30
0.0
 40
0.01
 41
0.01
  0
VERTEX
  8
0
 10
2.57667
 20
7.80165
 30
0.0
 40
0.01
 41
0.01
  0
VERTEX
  8
0
 10
2.53999
 20
7.76497
 30
0.0
 40
0.01
 41
0.01
  0
SEQEND
 8
0
  0
POLYLINE
  8
0
 62
     0
 66
     1
 10
0
 20
0
 30
0.0
 70
     1
 40
0.72
 41
0.72
  0
VERTEX
  8
0
 10
2.57667
 20
7.80165
 30
0.0
 40
0.01
 41
0.01
  0
VERTEX
  8
0
 10
2.57667
 20
7.83832
 30
0.0
 40
0.01
 41
0.01
  0
VERTEX
  8
0
 10
2.57667
 20
7.80165
 30
0.0
 40
0.01
 41
0.01
  0
SEQEND
 8
0
  0
POLYLINE
  8
0
 62
     0
 66
     1
 10
0
 20
0
 30
0.0
 70
     1
 40
0.72
 41
0.72
  0
VERTEX
  8
0
 10
2.57667
 20
7.83832
 30
0.0
 40
0.01
 41
0.01
  0
VERTEX
  8
0
 10
2.53999
 20
7.875
 30
0.0
 40
0.01
 41
0.01
  0
VERTEX
  8
0
 10
2.57667
 20
7.83832
 30
0.0
 40
0.01
 41
0.01
  0
SEQEND
 8
0
  0
POLYLINE
  8
0
 62
     0
 66
     1
 10
0
 20
0
 30
0.0
 70
     1
 40
0.72
 41
0.72
  0
VERTEX
  8
0
 10
2.53999
 20
7.875
 30
0.0
 40
0.01
 41
0.01
  0
VERTEX
  8
0
 10
2.46832
 20
7.875
 30
0.0
 40
0.01
 41
0.01
  0
VERTEX
  8
0
 10
2.53999
 20
7.875
 30
0.0
 40
0.01
 41
0.01
  0
SEQEND
 8
0
  0
POLYLINE
  8
0
 62
     0
 66
     1
 10
0
 20
0
 30
0.0
 70
     1
 40
0.72
 41
0.72
  0
VERTEX
  8
0
 10
2.46832
 20
7.875
 30
0.0
 40
0.01
 41
0.01
  0
VERTEX
  8
0
 10
2.43164
 20
7.83832
 30
0.0
 40
0.01
 41
0.01
  0
VERTEX
  8
0
 10
2.46832
 20
7.875
 30
0.0
 40
0.01
 41
0.01
  0
SEQEND
 8
0
  0
ENDSEC
  0
EOF
