  0
SECTION
  2
HEADER
  9
$ACADVER
  1
AC1015
  9
$ACADMAINTVER
 70
    20
  9
$DWGCODEPAGE
  3
ANSI_1252
  9
$INSBASE
 10
0.0
 20
0.0
 30
0.0
  9
$EXTMIN
 10
-25.21399840898919
 20
-16.24648925997796
 30
-0.0015258207003583
  9
$EXTMAX
 10
28.11691041582614
 20
17.45907618587056
 30
0.0000000349246037
  9
$LIMMIN
 10
0.0
 20
0.0
  9
$LIMMAX
 10
12.0
 20
9.0
  9
$ORTHOMODE
 70
     0
  9
$REGENMODE
 70
     1
  9
$FILLMODE
 70
     1
  9
$QTEXTMODE
 70
     0
  9
$MIRRTEXT
 70
     1
  9
$LTSCALE
 40
1.0
  9
$ATTMODE
 70
     1
  9
$TEXTSIZE
 40
0.2
  9
$TRACEWID
 40
0.05
  9
$TEXTSTYLE
  7
Standard
  9
$CLAYER
  8
0
  9
$CELTYPE
  6
ByLayer
  9
$CECOLOR
 62
   256
  9
$CELTSCALE
 40
1.0
  9
$DISPSILH
 70
     0
  9
$DIMSCALE
 40
1.0
  9
$DIMASZ
 40
0.18
  9
$DIMEXO
 40
0.0625
  9
$DIMDLI
 40
0.38
  9
$DIMRND
 40
0.0
  9
$DIMDLE
 40
0.0
  9
$DIMEXE
 40
0.18
  9
$DIMTP
 40
0.0
  9
$DIMTM
 40
0.0
  9
$DIMTXT
 40
0.18
  9
$DIMCEN
 40
0.09
  9
$DIMTSZ
 40
0.0
  9
$DIMTOL
 70
     0
  9
$DIMLIM
 70
     0
  9
$DIMTIH
 70
     1
  9
$DIMTOH
 70
     1
  9
$DIMSE1
 70
     0
  9
$DIMSE2
 70
     0
  9
$DIMTAD
 70
     0
  9
$DIMZIN
 70
     0
  9
$DIMBLK
  1

  9
$DIMASO
 70
     1
  9
$DIMSHO
 70
     1
  9
$DIMPOST
  1

  9
$DIMAPOST
  1

  9
$DIMALT
 70
     0
  9
$DIMALTD
 70
     2
  9
$DIMALTF
 40
25.4
  9
$DIMLFAC
 40
1.0
  9
$DIMTOFL
 70
     0
  9
$DIMTVP
 40
0.0
  9
$DIMTIX
 70
     0
  9
$DIMSOXD
 70
     0
  9
$DIMSAH
 70
     0
  9
$DIMBLK1
  1

  9
$DIMBLK2
  1

  9
$DIMSTYLE
  2
Standard
  9
$DIMCLRD
 70
     0
  9
$DIMCLRE
 70
     0
  9
$DIMCLRT
 70
     0
  9
$DIMTFAC
 40
1.0
  9
$DIMGAP
 40
0.09
  9
$DIMJUST
 70
     0
  9
$DIMSD1
 70
     0
  9
$DIMSD2
 70
     0
  9
$DIMTOLJ
 70
     1
  9
$DIMTZIN
 70
     0
  9
$DIMALTZ
 70
     0
  9
$DIMALTTZ
 70
     0
  9
$DIMUPT
 70
     0
  9
$DIMDEC
 70
     4
  9
$DIMTDEC
 70
     4
  9
$DIMALTU
 70
     2
  9
$DIMALTTD
 70
     2
  9
$DIMTXSTY
  7
Standard
  9
$DIMAUNIT
 70
     0
  9
$DIMADEC
 70
     0
  9
$DIMALTRND
 40
0.0
  9
$DIMAZIN
 70
     0
  9
$DIMDSEP
 70
    46
  9
$DIMATFIT
 70
     3
  9
$DIMFRAC
 70
     0
  9
$DIMLDRBLK
  1

  9
$DIMLUNIT
 70
     2
  9
$DIMLWD
 70
    -2
  9
$DIMLWE
 70
    -2
  9
$DIMTMOVE
 70
     0
  9
$LUNITS
 70
     2
  9
$LUPREC
 70
     4
  9
$SKETCHINC
 40
0.1
  9
$FILLETRAD
 40
0.0
  9
$AUNITS
 70
     0
  9
$AUPREC
 70
     0
  9
$MENU
  1
.
  9
$ELEVATION
 40
0.0
  9
$PELEVATION
 40
0.0
  9
$THICKNESS
 40
0.0
  9
$LIMCHECK
 70
     0
  9
$CHAMFERA
 40
0.5
  9
$CHAMFERB
 40
0.5
  9
$CHAMFERC
 40
1.0
  9
$CHAMFERD
 40
0.0
  9
$SKPOLY
 70
     0
  9
$TDCREATE
 40
2457474.222303773
  9
$TDUCREATE
 40
2457474.388970440
  9
$TDUPDATE
 40
2457523.423457651
  9
$TDUUPDATE
 40
2457523.590124317
  9
$TDINDWG
 40
0.0250334722
  9
$TDUSRTIMER
 40
0.0250334491
  9
$USRTIMER
 70
     1
  9
$ANGBASE
 50
0.0
  9
$ANGDIR
 70
     0
  9
$PDMODE
 70
     0
  9
$PDSIZE
 40
0.0
  9
$PLINEWID
 40
0.0
  9
$SPLFRAME
 70
     0
  9
$SPLINETYPE
 70
     6
  9
$SPLINESEGS
 70
     8
  9
$HANDSEED
  5
1BE
  9
$SURFTAB1
 70
     6
  9
$SURFTAB2
 70
     6
  9
$SURFTYPE
 70
     6
  9
$SURFU
 70
     6
  9
$SURFV
 70
     6
  9
$UCSBASE
  2

  9
$UCSNAME
  2

  9
$UCSORG
 10
0.0
 20
0.0
 30
0.0
  9
$UCSXDIR
 10
1.0
 20
0.0
 30
0.0
  9
$UCSYDIR
 10
0.0
 20
1.0
 30
0.0
  9
$UCSORTHOREF
  2

  9
$UCSORTHOVIEW
 70
     0
  9
$UCSORGTOP
 10
0.0
 20
0.0
 30
0.0
  9
$UCSORGBOTTOM
 10
0.0
 20
0.0
 30
0.0
  9
$UCSORGLEFT
 10
0.0
 20
0.0
 30
0.0
  9
$UCSORGRIGHT
 10
0.0
 20
0.0
 30
0.0
  9
$UCSORGFRONT
 10
0.0
 20
0.0
 30
0.0
  9
$UCSORGBACK
 10
0.0
 20
0.0
 30
0.0
  9
$PUCSBASE
  2

  9
$PUCSNAME
  2

  9
$PUCSORG
 10
0.0
 20
0.0
 30
0.0
  9
$PUCSXDIR
 10
1.0
 20
0.0
 30
0.0
  9
$PUCSYDIR
 10
0.0
 20
1.0
 30
0.0
  9
$PUCSORTHOREF
  2

  9
$PUCSORTHOVIEW
 70
     0
  9
$PUCSORGTOP
 10
0.0
 20
0.0
 30
0.0
  9
$PUCSORGBOTTOM
 10
0.0
 20
0.0
 30
0.0
  9
$PUCSORGLEFT
 10
0.0
 20
0.0
 30
0.0
  9
$PUCSORGRIGHT
 10
0.0
 20
0.0
 30
0.0
  9
$PUCSORGFRONT
 10
0.0
 20
0.0
 30
0.0
  9
$PUCSORGBACK
 10
0.0
 20
0.0
 30
0.0
  9
$USERI1
 70
     0
  9
$USERI2
 70
     0
  9
$USERI3
 70
     0
  9
$USERI4
 70
     0
  9
$USERI5
 70
     0
  9
$USERR1
 40
0.0
  9
$USERR2
 40
0.0
  9
$USERR3
 40
0.0
  9
$USERR4
 40
0.0
  9
$USERR5
 40
0.0
  9
$WORLDVIEW
 70
     1
  9
$SHADEDGE
 70
     3
  9
$SHADEDIF
 70
    70
  9
$TILEMODE
 70
     1
  9
$MAXACTVP
 70
    64
  9
$PINSBASE
 10
0.0
 20
0.0
 30
0.0
  9
$PLIMCHECK
 70
     0
  9
$PEXTMIN
 10
1.000000000000000E+20
 20
1.000000000000000E+20
 30
1.000000000000000E+20
  9
$PEXTMAX
 10
-1.000000000000000E+20
 20
-1.000000000000000E+20
 30
-1.000000000000000E+20
  9
$PLIMMIN
 10
0.0
 20
0.0
  9
$PLIMMAX
 10
12.0
 20
9.0
  9
$UNITMODE
 70
     0
  9
$VISRETAIN
 70
     1
  9
$PLINEGEN
 70
     0
  9
$PSLTSCALE
 70
     1
  9
$TREEDEPTH
 70
  3020
  9
$CMLSTYLE
  2
Standard
  9
$CMLJUST
 70
     0
  9
$CMLSCALE
 40
1.0
  9
$PROXYGRAPHICS
 70
     1
  9
$MEASUREMENT
 70
     0
  9
$CELWEIGHT
370
    -1
  9
$ENDCAPS
280
     0
  9
$JOINSTYLE
280
     0
  9
$LWDISPLAY
290
     0
  9
$INSUNITS
 70
     5
  9
$HYPERLINKBASE
  1

  9
$STYLESHEET
  1

  9
$XEDIT
290
     1
  9
$CEPSNTYPE
380
     0
  9
$PSTYLEMODE
290
     1
  9
$FINGERPRINTGUID
  2
{C25883B2-9F66-408D-A024-026B88A3EEBC}
  9
$VERSIONGUID
  2
{C5C0E3D2-3350-4F42-BBD5-F158B98569D4}
  9
$EXTNAMES
290
     1
  9
$PSVPSCALE
 40
0.0
  9
$OLESTARTUP
290
     0
  0
ENDSEC
  0
SECTION
  2
CLASSES
  0
CLASS
  1
ACDBDICTIONARYWDFLT
  2
AcDbDictionaryWithDefault
  3
ObjectDBX Classes
 90
        0
280
     0
281
     0
  0
CLASS
  1
VISUALSTYLE
  2
AcDbVisualStyle
  3
ObjectDBX Classes
 90
     4095
280
     0
281
     0
  0
CLASS
  1
MATERIAL
  2
AcDbMaterial
  3
ObjectDBX Classes
 90
     1153
280
     0
281
     0
  0
CLASS
  1
IMAGEDEF
  2
AcDbRasterImageDef
  3
ISM
 90
        0
280
     0
281
     0
  0
CLASS
  1
IMAGE
  2
AcDbRasterImage
  3
ISM
 90
     2175
280
     0
281
     1
  0
CLASS
  1
IMAGEDEF_REACTOR
  2
AcDbRasterImageDefReactor
  3
ISM
 90
        1
280
     0
281
     0
  0
CLASS
  1
TABLESTYLE
  2
AcDbTableStyle
  3
ObjectDBX Classes
 90
     4095
280
     0
281
     0
  0
CLASS
  1
SCALE
  2
AcDbScale
  3
ObjectDBX Classes
 90
     1153
280
     0
281
     0
  0
CLASS
  1
MLEADERSTYLE
  2
AcDbMLeaderStyle
  3
ACDB_MLEADERSTYLE_CLASS
 90
     4095
280
     0
281
     0
  0
CLASS
  1
RASTERVARIABLES
  2
AcDbRasterVariables
  3
ISM
 90
        0
280
     0
281
     0
  0
CLASS
  1
EXACXREFPANELOBJECT
  2
ExAcXREFPanelObject
  3
EXAC_ESW
 90
     1025
280
     0
281
     0
  0
CLASS
  1
NPOCOLLECTION
  2
AcDbImpNonPersistentObjectsCollection
  3
ObjectDBX Classes
 90
     1153
280
     0
281
     0
  0
CLASS
  1
DICTIONARYVAR
  2
AcDbDictionaryVar
  3
ObjectDBX Classes
 90
        0
280
     0
281
     0
  0
CLASS
  1
CELLSTYLEMAP
  2
AcDbCellStyleMap
  3
ObjectDBX Classes
 90
     1152
280
     0
281
     0
  0
CLASS
  1
ACDBPLACEHOLDER
  2
AcDbPlaceHolder
  3
ObjectDBX Classes
 90
        0
280
     0
281
     0
  0
CLASS
  1
LAYOUT
  2
AcDbLayout
  3
ObjectDBX Classes
 90
        0
280
     0
281
     0
  0
ENDSEC
  0
SECTION
  2
TABLES
  0
TABLE
  2
VPORT
  5
8
330
0
100
AcDbSymbolTable
 70
     1
  0
VPORT
  5
29
330
8
100
AcDbSymbolTableRecord
100
AcDbViewportTableRecord
  2
*Active
 70
     0
 10
0.0
 20
0.0
 11
1.0
 21
1.0
 12
1.451456003418476
 22
0.6062934629462973
 13
0.0
 23
0.0
 14
0.5
 24
0.5
 15
0.5
 25
0.5
 16
0.0
 26
0.0
 36
1.0
 17
0.0
 27
0.0
 37
0.0
 40
33.98520055724656
 41
2.201197604790419
 42
50.0
 43
0.0
 44
0.0
 50
0.0
 51
0.0
 71
     0
 72
   100
 73
     1
 74
     3
 75
     0
 76
     0
 77
     0
 78
     0
281
     0
 65
     1
110
0.0
120
0.0
130
0.0
111
1.0
121
0.0
131
0.0
112
0.0
122
1.0
132
0.0
 79
     0
146
0.0
1001
ACAD_NAV_VCDISPLAY
1070
     3
  0
ENDTAB
  0
TABLE
  2
LTYPE
  5
5
330
0
100
AcDbSymbolTable
 70
     1
  0
LTYPE
  5
14
330
5
100
AcDbSymbolTableRecord
100
AcDbLinetypeTableRecord
  2
ByBlock
 70
     0
  3

 72
    65
 73
     0
 40
0.0
  0
LTYPE
  5
15
330
5
100
AcDbSymbolTableRecord
100
AcDbLinetypeTableRecord
  2
ByLayer
 70
     0
  3

 72
    65
 73
     0
 40
0.0
  0
LTYPE
  5
16
330
5
100
AcDbSymbolTableRecord
100
AcDbLinetypeTableRecord
  2
Continuous
 70
     0
  3
Solid line
 72
    65
 73
     0
 40
0.0
  0
ENDTAB
  0
TABLE
  2
LAYER
  5
2
330
0
100
AcDbSymbolTable
 70
     2
  0
LAYER
  5
10
330
2
100
AcDbSymbolTableRecord
100
AcDbLayerTableRecord
  2
0
 70
     0
 62
     7
  6
Continuous
370
    -3
390
F
  0
LAYER
  5
40
330
2
100
AcDbSymbolTableRecord
100
AcDbLayerTableRecord
  2
layer 1
 70
     0
 62
     7
  6
Continuous
370
    -3
390
F
  0
ENDTAB
  0
TABLE
  2
STYLE
  5
3
330
0
100
AcDbSymbolTable
 70
     1
  0
STYLE
  5
11
330
3
100
AcDbSymbolTableRecord
100
AcDbTextStyleTableRecord
  2
Standard
 70
     0
 40
0.0
 41
1.0
 50
0.0
 71
     0
 42
0.2
  3
txt
  4

  0
ENDTAB
  0
TABLE
  2
VIEW
  5
6
330
0
100
AcDbSymbolTable
 70
     0
  0
ENDTAB
  0
TABLE
  2
UCS
  5
7
330
0
100
AcDbSymbolTable
 70
     0
  0
ENDTAB
  0
TABLE
  2
APPID
  5
9
330
0
100
AcDbSymbolTable
 70
     4
  0
APPID
  5
12
330
9
100
AcDbSymbolTableRecord
100
AcDbRegAppTableRecord
  2
ACAD
 70
     0
  0
APPID
  5
3F
330
9
100
AcDbSymbolTableRecord
100
AcDbRegAppTableRecord
  2
ODA
 70
     0
  0
APPID
  5
AE
330
9
100
AcDbSymbolTableRecord
100
AcDbRegAppTableRecord
  2
ACAD_NAV_VCDISPLAY
 70
     0
  0
APPID
  5
1BD
330
9
100
AcDbSymbolTableRecord
100
AcDbRegAppTableRecord
  2
ACAD_MLEADERVER
 70
     0
  0
ENDTAB
  0
TABLE
  2
DIMSTYLE
  5
A
330
0
100
AcDbSymbolTable
 70
     1
100
AcDbDimStyleTable
 71
     0
  0
DIMSTYLE
105
27
330
A
100
AcDbSymbolTableRecord
100
AcDbDimStyleTableRecord
  2
Standard
 70
     0
340
11
  0
ENDTAB
  0
TABLE
  2
BLOCK_RECORD
  5
1
330
0
100
AcDbSymbolTable
 70
     3
  0
BLOCK_RECORD
  5
1F
330
1
100
AcDbSymbolTableRecord
100
AcDbBlockTableRecord
  2
*Model_Space
340
22
  0
BLOCK_RECORD
  5
1B
330
1
100
AcDbSymbolTableRecord
100
AcDbBlockTableRecord
  2
*Paper_Space
340
1E
  0
BLOCK_RECORD
  5
23
330
1
100
AcDbSymbolTableRecord
100
AcDbBlockTableRecord
  2
*Paper_Space0
340
26
  0
ENDTAB
  0
ENDSEC
  0
SECTION
  2
BLOCKS
  0
BLOCK
  5
20
330
1F
100
AcDbEntity
  8
0
100
AcDbBlockBegin
  2
*Model_Space
 70
     0
 10
0.0
 20
0.0
 30
0.0
  3
*Model_Space
  1

  0
ENDBLK
  5
21
330
1F
100
AcDbEntity
  8
0
100
AcDbBlockEnd
  0
BLOCK
  5
1C
330
1B
100
AcDbEntity
 67
     1
  8
0
100
AcDbBlockBegin
  2
*Paper_Space
 70
     0
 10
0.0
 20
0.0
 30
0.0
  3
*Paper_Space
  1

  0
ENDBLK
  5
1D
330
1B
100
AcDbEntity
 67
     1
  8
0
100
AcDbBlockEnd
  0
BLOCK
  5
24
330
23
100
AcDbEntity
 67
     1
  8
0
100
AcDbBlockBegin
  2
*Paper_Space0
 70
     0
 10
0.0
 20
0.0
 30
0.0
  3
*Paper_Space0
  1

  0
ENDBLK
  5
25
330
23
100
AcDbEntity
 67
     1
  8
0
100
AcDbBlockEnd
  0
ENDSEC
  0
SECTION
  2
ENTITIES
  0
SPLINE
  5
45
330
1F
100
AcDbEntity
  8
layer 1
 62
   250
370
    50
100
AcDbSpline
210
0.0
220
0.0
230
1.0
 70
    24
 71
     3
 72
     8
 73
     4
 74
     0
 42
0.0000000001
 43
0.0000000001
 40
0.0
 40
0.0
 40
0.0
 40
0.0
 40
1.0
 40
1.0
 40
1.0
 40
1.0
 10
0.55901
 20
1.9004
 30
0.0
 10
0.55901
 20
1.9004
 30
0.0
 10
0.55901
 20
-15.93902
 30
0.0
 10
0.55901
 20
-15.93902
 30
0.0
  0
SPLINE
  5
46
330
1F
100
AcDbEntity
  8
layer 1
 62
   250
370
    50
100
AcDbSpline
210
0.0
220
0.0
230
1.0
 70
    24
 71
     3
 72
     8
 73
     4
 74
     0
 42
0.0000000001
 43
0.0000000001
 40
0.0
 40
0.0
 40
0.0
 40
0.0
 40
1.0
 40
1.0
 40
1.0
 40
1.0
 10
0.5590600000000001
 20
13.76383
 30
0.0
 10
0.5590600000000001
 20
13.76383
 30
0.0
 10
0.5590600000000001
 20
4.51616
 30
0.0
 10
0.5590600000000001
 20
4.51616
 30
0.0
  0
SPLINE
  5
47
330
1F
100
AcDbEntity
  8
layer 1
 62
   250
370
    50
100
AcDbSpline
210
0.0
220
0.0
230
1.0
 70
    11
 71
     3
 72
    16
 73
    12
 74
     0
 42
0.0000000001
 43
0.0000000001
 40
0.0
 40
0.0
 40
0.0
 40
0.0
 40
0.25
 40
0.25
 40
0.25
 40
0.25
 40
0.5
 40
0.5
 40
0.5
 40
0.5
 40
1.0
 40
1.0
 40
1.0
 40
1.0
 10
0.32783
 20
-15.78964
 30
0.0
 10
0.32783
 20
-15.78964
 30
0.0
 10
0.80188
 20
-15.78964
 30
0.0
 10
0.80188
 20
-15.78964
 30
0.0
 10
0.80188
 20
-15.78964
 30
0.0
 10
0.80188
 20
-15.78964
 30
0.0
 10
0.5543100000000001
 20
-16.23617
 30
0.0
 10
0.5543100000000001
 20
-16.23617
 30
0.0
 10
0.5543100000000001
 20
-16.23617
 30
0.0
 10
0.5543100000000001
 20
-16.23617
 30
0.0
 10
0.32783
 20
-15.78964
 30
0.0
 10
0.32783
 20
-15.78964
 30
0.0
  0
SPLINE
  5
48
330
1F
100
AcDbEntity
  8
layer 1
 62
   250
370
    50
100
AcDbSpline
210
0.0
220
0.0
230
1.0
 70
    24
 71
     3
 72
     8
 73
     4
 74
     0
 42
0.0000000001
 43
0.0000000001
 40
0.0
 40
0.0
 40
0.0
 40
0.0
 40
1.0
 40
1.0
 40
1.0
 40
1.0
 10
-5.099999999999999
 20
-1.24411
 30
0.0
 10
-5.099999999999999
 20
-1.24411
 30
0.0
 10
25.80978
 20
-1.24411
 30
0.0
 10
25.80978
 20
-1.24411
 30
0.0
  0
SPLINE
  5
49
330
1F
100
AcDbEntity
  8
layer 1
 62
   250
370
    50
100
AcDbSpline
210
0.0
220
0.0
230
1.0
 70
    24
 71
     3
 72
     8
 73
     4
 74
     0
 42
0.0000000001
 43
0.0000000001
 40
0.0
 40
0.0
 40
0.0
 40
0.0
 40
1.0
 40
1.0
 40
1.0
 40
1.0
 10
-24.85642
 20
-1.24411
 30
0.0
 10
-24.85642
 20
-1.24411
 30
0.0
 10
-10.49066
 20
-1.24411
 30
0.0
 10
-10.49066
 20
-1.24411
 30
0.0
  0
SPLINE
  5
4A
330
1F
100
AcDbEntity
  8
layer 1
 62
   250
370
    50
100
AcDbSpline
210
0.0
220
0.0
230
1.0
 70
    11
 71
     3
 72
    16
 73
    12
 74
     0
 42
0.0000000001
 43
0.0000000001
 40
0.0
 40
0.0
 40
0.0
 40
0.0
 40
0.25
 40
0.25
 40
0.25
 40
0.25
 40
0.5
 40
0.5
 40
0.5
 40
0.5
 40
1.0
 40
1.0
 40
1.0
 40
1.0
 10
25.66918
 20
-1.416179999999999
 30
0.0
 10
25.66918
 20
-1.416179999999999
 30
0.0
 10
25.66918
 20
-1.075069999999999
 30
0.0
 10
25.66918
 20
-1.075069999999999
 30
0.0
 10
25.66918
 20
-1.075069999999999
 30
0.0
 10
25.66918
 20
-1.075069999999999
 30
0.0
 10
26.28797
 20
-1.253209999999999
 30
0.0
 10
26.28797
 20
-1.253209999999999
 30
0.0
 10
26.28797
 20
-1.253209999999999
 30
0.0
 10
26.28797
 20
-1.253209999999999
 30
0.0
 10
25.66918
 20
-1.416179999999999
 30
0.0
 10
25.66918
 20
-1.416179999999999
 30
0.0
  0
SPLINE
  5
4B
330
1F
100
AcDbEntity
  8
layer 1
 62
   250
370
    50
100
AcDbSpline
210
0.0
220
0.0
230
1.0
 70
    11
 71
     3
 72
    16
 73
    12
 74
     0
 42
0.0000000001
 43
0.0000000001
 40
0.0
 40
0.0
 40
0.0
 40
0.0
 40
0.25
 40
0.25
 40
0.25
 40
0.25
 40
0.5
 40
0.5
 40
0.5
 40
0.5
 40
1.0
 40
1.0
 40
1.0
 40
1.0
 10
-24.59323
 20
-1.416179999999999
 30
0.0
 10
-24.59323
 20
-1.416179999999999
 30
0.0
 10
-24.59323
 20
-1.075069999999999
 30
0.0
 10
-24.59323
 20
-1.075069999999999
 30
0.0
 10
-24.59323
 20
-1.075069999999999
 30
0.0
 10
-24.59323
 20
-1.075069999999999
 30
0.0
 10
-25.21202000000001
 20
-1.253209999999999
 30
0.0
 10
-25.21202000000001
 20
-1.253209999999999
 30
0.0
 10
-25.21202000000001
 20
-1.253209999999999
 30
0.0
 10
-25.21202000000001
 20
-1.253209999999999
 30
0.0
 10
-24.59323
 20
-1.416179999999999
 30
0.0
 10
-24.59323
 20
-1.416179999999999
 30
0.0
  0
SPLINE
  5
55
330
1F
100
AcDbEntity
  8
layer 1
 62
   250
100
AcDbSpline
210
0.0
220
0.0
230
1.0
 70
     9
 71
     3
 72
   124
 73
   120
 74
     0
 42
0.0000000001
 43
0.0000000001
 40
0.0
 40
0.0
 40
0.0
 40
0.0
 40
0.032258064516129
 40
0.032258064516129
 40
0.032258064516129
 40
0.032258064516129
 40
0.0645161290322581
 40
0.0645161290322581
 40
0.0645161290322581
 40
0.0645161290322581
 40
0.0967741935483871
 40
0.0967741935483871
 40
0.0967741935483871
 40
0.0967741935483871
 40
0.1290322580645161
 40
0.1290322580645161
 40
0.1290322580645161
 40
0.1290322580645161
 40
0.1612903225806452
 40
0.1612903225806452
 40
0.1612903225806452
 40
0.1612903225806452
 40
0.1935483870967742
 40
0.1935483870967742
 40
0.1935483870967742
 40
0.1935483870967742
 40
0.2258064516129032
 40
0.2258064516129032
 40
0.2258064516129032
 40
0.2258064516129032
 40
0.2580645161290323
 40
0.2580645161290323
 40
0.2580645161290323
 40
0.2580645161290323
 40
0.2903225806451613
 40
0.2903225806451613
 40
0.2903225806451613
 40
0.2903225806451613
 40
0.3225806451612903
 40
0.3225806451612903
 40
0.3225806451612903
 40
0.3225806451612903
 40
0.3548387096774194
 40
0.3548387096774194
 40
0.3548387096774194
 40
0.3548387096774194
 40
0.3870967741935484
 40
0.3870967741935484
 40
0.3870967741935484
 40
0.3870967741935484
 40
0.4193548387096774
 40
0.4193548387096774
 40
0.4193548387096774
 40
0.4193548387096774
 40
0.4516129032258064
 40
0.4516129032258064
 40
0.4516129032258064
 40
0.4516129032258064
 40
0.4838709677419355
 40
0.4838709677419355
 40
0.4838709677419355
 40
0.4838709677419355
 40
0.5161290322580645
 40
0.5161290322580645
 40
0.5161290322580645
 40
0.5161290322580645
 40
0.5483870967741935
 40
0.5483870967741935
 40
0.5483870967741935
 40
0.5483870967741935
 40
0.5806451612903226
 40
0.5806451612903226
 40
0.5806451612903226
 40
0.5806451612903226
 40
0.6129032258064516
 40
0.6129032258064516
 40
0.6129032258064516
 40
0.6129032258064516
 40
0.6451612903225806
 40
0.6451612903225806
 40
0.6451612903225806
 40
0.6451612903225806
 40
0.6774193548387096
 40
0.6774193548387096
 40
0.6774193548387096
 40
0.6774193548387096
 40
0.7096774193548388
 40
0.7096774193548388
 40
0.7096774193548388
 40
0.7096774193548388
 40
0.7419354838709678
 40
0.7419354838709678
 40
0.7419354838709678
 40
0.7419354838709678
 40
0.7741935483870968
 40
0.7741935483870968
 40
0.7741935483870968
 40
0.7741935483870968
 40
0.8064516129032258
 40
0.8064516129032258
 40
0.8064516129032258
 40
0.8064516129032258
 40
0.8387096774193548
 40
0.8387096774193548
 40
0.8387096774193548
 40
0.8387096774193548
 40
0.8709677419354838
 40
0.8709677419354838
 40
0.8709677419354838
 40
0.8709677419354838
 40
0.9032258064516128
 40
0.9032258064516128
 40
0.9032258064516128
 40
0.9032258064516128
 40
0.9354838709677419
 40
0.9354838709677419
 40
0.9354838709677419
 40
0.9354838709677419
 40
1.0
 40
1.0
 40
1.0
 40
1.0
 10
-0.82741
 20
3.17349
 30
0.0
 10
-0.82741
 20
3.17349
 30
0.0
 10
-0.75304
 20
3.18337
 30
0.0
 10
-0.75304
 20
3.18337
 30
0.0
 10
-0.75304
 20
3.18337
 30
0.0
 10
-0.74444
 20
3.141179999999999
 30
0.0
 10
-0.7299
 20
3.11084
 30
0.0
 10
-0.70944
 20
3.092209999999999
 30
0.0
 10
-0.70944
 20
3.092209999999999
 30
0.0
 10
-0.68884
 20
3.073579999999999
 30
0.0
 10
-0.6638600000000001
 20
3.06427
 30
0.0
 10
-0.6343700000000001
 20
3.06427
 30
0.0
 10
-0.6343700000000001
 20
3.06427
 30
0.0
 10
-0.59937
 20
3.06427
 30
0.0
 10
-0.56974
 20
3.076409999999999
 30
0.0
 10
-0.5456100000000001
 20
3.10068
 30
0.0
 10
-0.5456100000000001
 20
3.10068
 30
0.0
 10
-0.52162
 20
3.12495
 30
0.0
 10
-0.50949
 20
3.155009999999999
 30
0.0
 10
-0.50949
 20
3.19085
 30
0.0
 10
-0.50949
 20
3.19085
 30
0.0
 10
-0.50949
 20
3.225
 30
0.0
 10
-0.5206300000000001
 20
3.25322
 30
0.0
 10
-0.5429300000000001
 20
3.27537
 30
0.0
 10
-0.5429300000000001
 20
3.27537
 30
0.0
 10
-0.5653699999999999
 20
3.29753
 30
0.0
 10
-0.59373
 20
3.30868
 30
0.0
 10
-0.6281600000000001
 20
3.30868
 30
0.0
 10
-0.6281600000000001
 20
3.30868
 30
0.0
 10
-0.64227
 20
3.30868
 30
0.0
 10
-0.65977
 20
3.305849999999999
 30
0.0
 10
-0.68065
 20
3.300349999999999
 30
0.0
 10
-0.68065
 20
3.300349999999999
 30
0.0
 10
-0.68065
 20
3.300349999999999
 30
0.0
 10
-0.67233
 20
3.36568
 30
0.0
 10
-0.67233
 20
3.36568
 30
0.0
 10
-0.67233
 20
3.36568
 30
0.0
 10
-0.66739
 20
3.365119999999999
 30
0.0
 10
-0.66344
 20
3.36484
 30
0.0
 10
-0.66033
 20
3.36484
 30
0.0
 10
-0.66033
 20
3.36484
 30
0.0
 10
-0.62872
 20
3.36484
 30
0.0
 10
-0.6002200000000001
 20
3.373159999999999
 30
0.0
 10
-0.57482
 20
3.389669999999999
 30
0.0
 10
-0.57482
 20
3.389669999999999
 30
0.0
 10
-0.5494200000000001
 20
3.40618
 30
0.0
 10
-0.53672
 20
3.431719999999999
 30
0.0
 10
-0.53672
 20
3.466159999999999
 30
0.0
 10
-0.53672
 20
3.466159999999999
 30
0.0
 10
-0.53672
 20
3.49339
 30
0.0
 10
-0.5460300000000001
 20
3.516109999999999
 30
0.0
 10
-0.56452
 20
3.533889999999999
 30
0.0
 10
-0.56452
 20
3.533889999999999
 30
0.0
 10
-0.583
 20
3.551809999999999
 30
0.0
 10
-0.6068500000000001
 20
3.56084
 30
0.0
 10
-0.6360600000000001
 20
3.56084
 30
0.0
 10
-0.6360600000000001
 20
3.56084
 30
0.0
 10
-0.66499
 20
3.56084
 30
0.0
 10
-0.68912
 20
3.551669999999999
 30
0.0
 10
-0.70831
 20
3.533609999999999
 30
0.0
 10
-0.70831
 20
3.533609999999999
 30
0.0
 10
-0.72764
 20
3.5154
 30
0.0
 10
-0.7400600000000001
 20
3.48803
 30
0.0
 10
-0.74557
 20
3.451619999999999
 30
0.0
 10
-0.74557
 20
3.451619999999999
 30
0.0
 10
-0.74557
 20
3.451619999999999
 30
0.0
 10
-0.8199299999999999
 20
3.46489
 30
0.0
 10
-0.8199299999999999
 20
3.46489
 30
0.0
 10
-0.8199299999999999
 20
3.46489
 30
0.0
 10
-0.8108999999999999
 20
3.514839999999999
 30
0.0
 10
-0.7901600000000001
 20
3.5535
 30
0.0
 10
-0.75798
 20
3.58088
 30
0.0
 10
-0.75798
 20
3.58088
 30
0.0
 10
-0.7256700000000001
 20
3.60826
 30
0.0
 10
-0.68559
 20
3.62208
 30
0.0
 10
-0.63761
 20
3.62208
 30
0.0
 10
-0.63761
 20
3.62208
 30
0.0
 10
-0.60459
 20
3.62208
 30
0.0
 10
-0.5741100000000001
 20
3.614889999999999
 30
0.0
 10
-0.5463200000000001
 20
3.60078
 30
0.0
 10
-0.5463200000000001
 20
3.60078
 30
0.0
 10
-0.51852
 20
3.586519999999999
 30
0.0
 10
-0.4972100000000001
 20
3.56719
 30
0.0
 10
-0.48239
 20
3.54264
 30
0.0
 10
-0.48239
 20
3.54264
 30
0.0
 10
-0.46772
 20
3.518089999999999
 30
0.0
 10
-0.46024
 20
3.492119999999999
 30
0.0
 10
-0.46024
 20
3.464459999999999
 30
0.0
 10
-0.46024
 20
3.464459999999999
 30
0.0
 10
-0.46024
 20
3.438359999999999
 30
0.0
 10
-0.4672900000000001
 20
3.414509999999999
 30
0.0
 10
-0.4814
 20
3.392919999999999
 30
0.0
 10
-0.4814
 20
3.392919999999999
 30
0.0
 10
-0.49552
 20
3.371469999999999
 30
0.0
 10
-0.5162600000000001
 20
3.3544
 30
0.0
 10
-0.5437800000000001
 20
3.341699999999999
 30
0.0
 10
-0.5437800000000001
 20
3.341699999999999
 30
0.0
 10
-0.50793
 20
3.333509999999999
 30
0.0
 10
-0.4801300000000001
 20
3.3163
 30
0.0
 10
-0.46024
 20
3.290189999999999
 30
0.0
 10
-0.46024
 20
3.290189999999999
 30
0.0
 10
-0.4404800000000001
 20
3.264229999999999
 30
0.0
 10
-0.4306
 20
3.23163
 30
0.0
 10
-0.4306
 20
3.19254
 30
0.0
 10
-0.4306
 20
3.19254
 30
0.0
 10
-0.4306
 20
3.139619999999999
 30
0.0
 10
-0.4498
 20
3.094749999999999
 30
0.0
 10
-0.4884600000000001
 20
3.05792
 30
0.0
 10
-0.4884600000000001
 20
3.05792
 30
0.0
 10
-0.52698
 20
3.02109
 30
0.0
 10
-0.5758100000000001
 20
3.002749999999999
 30
0.0
 10
-0.63479
 20
3.002749999999999
 30
0.0
 10
-0.63479
 20
3.002749999999999
 30
0.0
 10
-0.6879900000000001
 20
3.002749999999999
 30
0.0
 10
-0.73216
 20
3.018549999999999
 30
0.0
 10
-0.7673
 20
3.0503
 30
0.0
 10
-0.7673
 20
3.0503
 30
0.0
 10
-0.80243
 20
3.081909999999999
 30
0.0
 10
-0.82247
 20
3.12297
 30
0.0
 10
-0.82741
 20
3.17349
 30
0.0
  0
SPLINE
  5
56
330
1F
100
AcDbEntity
  8
layer 1
 62
   250
100
AcDbSpline
210
0.0
220
0.0
230
1.0
 70
     9
 71
     3
 72
    52
 73
    48
 74
     0
 42
0.0000000001
 43
0.0000000001
 40
0.0
 40
0.0
 40
0.0
 40
0.0
 40
0.0769230769230769
 40
0.0769230769230769
 40
0.0769230769230769
 40
0.0769230769230769
 40
0.1538461538461539
 40
0.1538461538461539
 40
0.1538461538461539
 40
0.1538461538461539
 40
0.2307692307692308
 40
0.2307692307692308
 40
0.2307692307692308
 40
0.2307692307692308
 40
0.3076923076923077
 40
0.3076923076923077
 40
0.3076923076923077
 40
0.3076923076923077
 40
0.3846153846153846
 40
0.3846153846153846
 40
0.3846153846153846
 40
0.3846153846153846
 40
0.4615384615384616
 40
0.4615384615384616
 40
0.4615384615384616
 40
0.4615384615384616
 40
0.5384615384615385
 40
0.5384615384615385
 40
0.5384615384615385
 40
0.5384615384615385
 40
0.6153846153846155
 40
0.6153846153846155
 40
0.6153846153846155
 40
0.6153846153846155
 40
0.6923076923076924
 40
0.6923076923076924
 40
0.6923076923076924
 40
0.6923076923076924
 40
0.7692307692307693
 40
0.7692307692307693
 40
0.7692307692307693
 40
0.7692307692307693
 40
0.8461538461538461
 40
0.8461538461538461
 40
0.8461538461538461
 40
0.8461538461538461
 40
1.0
 40
1.0
 40
1.0
 40
1.0
 10
-0.30989
 20
3.31234
 30
0.0
 10
-0.30989
 20
3.38403
 30
0.0
 10
-0.30256
 20
3.44174
 30
0.0
 10
-0.28774
 20
3.485349999999999
 30
0.0
 10
-0.28774
 20
3.485349999999999
 30
0.0
 10
-0.27306
 20
3.52909
 30
0.0
 10
-0.25105
 20
3.562819999999999
 30
0.0
 10
-0.22198
 20
3.586519999999999
 30
0.0
 10
-0.22198
 20
3.586519999999999
 30
0.0
 10
-0.19291
 20
3.61023
 30
0.0
 10
-0.15636
 20
3.62208
 30
0.0
 10
-0.11234
 20
3.62208
 30
0.0
 10
-0.11234
 20
3.62208
 30
0.0
 10
-0.07974
 20
3.62208
 30
0.0
 10
-0.05124
 20
3.61545
 30
0.0
 10
-0.02668
 20
3.60233
 30
0.0
 10
-0.02668
 20
3.60233
 30
0.0
 10
-0.00213
 20
3.58935
 30
0.0
 10
0.01805
 20
3.57044
 30
0.0
 10
0.03414
 20
3.54574
 30
0.0
 10
0.03414
 20
3.54574
 30
0.0
 10
0.05008
 20
3.521049999999999
 30
0.0
 10
0.06264
 20
3.49099
 30
0.0
 10
0.07167
 20
3.455569999999999
 30
0.0
 10
0.07167
 20
3.455569999999999
 30
0.0
 10
0.08085
 20
3.42015
 30
0.0
 10
0.08536
 20
3.372459999999999
 30
0.0
 10
0.08536
 20
3.31234
 30
0.0
 10
0.08536
 20
3.31234
 30
0.0
 10
0.08536
 20
3.24122
 30
0.0
 10
0.07802
 20
3.18393
 30
0.0
 10
0.06349
 20
3.14019
 30
0.0
 10
0.06349
 20
3.14019
 30
0.0
 10
0.04881
 20
3.09644
 30
0.0
 10
0.02694
 20
3.06272
 30
0.0
 10
-0.00213
 20
3.03887
 30
0.0
 10
-0.00213
 20
3.03887
 30
0.0
 10
-0.0312
 20
3.01502
 30
0.0
 10
-0.06789
 20
3.003169999999999
 30
0.0
 10
-0.11234
 20
3.003169999999999
 30
0.0
 10
-0.11234
 20
3.003169999999999
 30
0.0
 10
-0.17076
 20
3.003169999999999
 30
0.0
 10
-0.21662
 20
3.024049999999999
 30
0.0
 10
-0.24992
 20
3.06596
 30
0.0
 10
-0.24992
 20
3.06596
 30
0.0
 10
-0.28986
 20
3.11634
 30
0.0
 10
-0.30989
 20
3.198609999999999
 30
0.0
 10
-0.30989
 20
3.31234
 30
0.0
  0
SPLINE
  5
57
330
1F
100
AcDbEntity
  8
layer 1
 62
   250
100
AcDbSpline
210
0.0
220
0.0
230
1.0
 70
     9
 71
     3
 72
    36
 73
    32
 74
     0
 42
0.0000000001
 43
0.0000000001
 40
0.0
 40
0.0
 40
0.0
 40
0.0
 40
0.1111111111111111
 40
0.1111111111111111
 40
0.1111111111111111
 40
0.1111111111111111
 40
0.2222222222222222
 40
0.2222222222222222
 40
0.2222222222222222
 40
0.2222222222222222
 40
0.3333333333333333
 40
0.3333333333333333
 40
0.3333333333333333
 40
0.3333333333333333
 40
0.4444444444444445
 40
0.4444444444444445
 40
0.4444444444444445
 40
0.4444444444444445
 40
0.5555555555555556
 40
0.5555555555555556
 40
0.5555555555555556
 40
0.5555555555555556
 40
0.6666666666666666
 40
0.6666666666666666
 40
0.6666666666666666
 40
0.6666666666666666
 40
0.7777777777777778
 40
0.7777777777777778
 40
0.7777777777777778
 40
0.7777777777777778
 40
1.0
 40
1.0
 40
1.0
 40
1.0
 10
-0.23341
 20
3.31234
 30
0.0
 10
-0.23341
 20
3.21286
 30
0.0
 10
-0.2217
 20
3.146679999999999
 30
0.0
 10
-0.19841
 20
3.113659999999999
 30
0.0
 10
-0.19841
 20
3.113659999999999
 30
0.0
 10
-0.17513
 20
3.080779999999999
 30
0.0
 10
-0.14649
 20
3.06427
 30
0.0
 10
-0.11234
 20
3.06427
 30
0.0
 10
-0.11234
 20
3.06427
 30
0.0
 10
-0.07805
 20
3.06427
 30
0.0
 10
-0.0494
 20
3.080919999999999
 30
0.0
 10
-0.02612
 20
3.113939999999999
 30
0.0
 10
-0.02612
 20
3.113939999999999
 30
0.0
 10
-0.00283
 20
3.146959999999999
 30
0.0
 10
0.00888
 20
3.21314
 30
0.0
 10
0.00888
 20
3.31234
 30
0.0
 10
0.00888
 20
3.31234
 30
0.0
 10
0.00888
 20
3.412109999999999
 30
0.0
 10
-0.00283
 20
3.47843
 30
0.0
 10
-0.02612
 20
3.511169999999999
 30
0.0
 10
-0.02612
 20
3.511169999999999
 30
0.0
 10
-0.0494
 20
3.544049999999999
 30
0.0
 10
-0.07833
 20
3.560419999999999
 30
0.0
 10
-0.11304
 20
3.560419999999999
 30
0.0
 10
-0.11304
 20
3.560419999999999
 30
0.0
 10
-0.14733
 20
3.560419999999999
 30
0.0
 10
-0.17457
 20
3.54588
 30
0.0
 10
-0.19503
 20
3.516959999999999
 30
0.0
 10
-0.19503
 20
3.516959999999999
 30
0.0
 10
-0.22057
 20
3.48013
 30
0.0
 10
-0.23341
 20
3.41183
 30
0.0
 10
-0.23341
 20
3.31234
 30
0.0
  0
SPLINE
  5
58
330
1F
100
AcDbEntity
  8
layer 1
 62
   250
100
AcDbSpline
210
0.0
220
0.0
230
1.0
 70
     9
 71
     3
 72
    52
 73
    48
 74
     0
 42
0.0000000001
 43
0.0000000001
 40
0.0
 40
0.0
 40
0.0
 40
0.0
 40
0.0769230769230769
 40
0.0769230769230769
 40
0.0769230769230769
 40
0.0769230769230769
 40
0.1538461538461539
 40
0.1538461538461539
 40
0.1538461538461539
 40
0.1538461538461539
 40
0.2307692307692308
 40
0.2307692307692308
 40
0.2307692307692308
 40
0.2307692307692308
 40
0.3076923076923077
 40
0.3076923076923077
 40
0.3076923076923077
 40
0.3076923076923077
 40
0.3846153846153846
 40
0.3846153846153846
 40
0.3846153846153846
 40
0.3846153846153846
 40
0.4615384615384616
 40
0.4615384615384616
 40
0.4615384615384616
 40
0.4615384615384616
 40
0.5384615384615385
 40
0.5384615384615385
 40
0.5384615384615385
 40
0.5384615384615385
 40
0.6153846153846155
 40
0.6153846153846155
 40
0.6153846153846155
 40
0.6153846153846155
 40
0.6923076923076924
 40
0.6923076923076924
 40
0.6923076923076924
 40
0.6923076923076924
 40
0.7692307692307693
 40
0.7692307692307693
 40
0.7692307692307693
 40
0.7692307692307693
 40
0.8461538461538461
 40
0.8461538461538461
 40
0.8461538461538461
 40
0.8461538461538461
 40
1.0
 40
1.0
 40
1.0
 40
1.0
 10
0.20805
 20
3.31234
 30
0.0
 10
0.20805
 20
3.38403
 30
0.0
 10
0.21538
 20
3.44174
 30
0.0
 10
0.2302
 20
3.485349999999999
 30
0.0
 10
0.2302
 20
3.485349999999999
 30
0.0
 10
0.24488
 20
3.52909
 30
0.0
 10
0.26689
 20
3.562819999999999
 30
0.0
 10
0.29596
 20
3.586519999999999
 30
0.0
 10
0.29596
 20
3.586519999999999
 30
0.0
 10
0.32503
 20
3.61023
 30
0.0
 10
0.36158
 20
3.62208
 30
0.0
 10
0.4056
 20
3.62208
 30
0.0
 10
0.4056
 20
3.62208
 30
0.0
 10
0.4382
 20
3.62208
 30
0.0
 10
0.4667
 20
3.61545
 30
0.0
 10
0.4912600000000001
 20
3.60233
 30
0.0
 10
0.4912600000000001
 20
3.60233
 30
0.0
 10
0.5158100000000001
 20
3.58935
 30
0.0
 10
0.53599
 20
3.57044
 30
0.0
 10
0.5520800000000001
 20
3.54574
 30
0.0
 10
0.5520800000000001
 20
3.54574
 30
0.0
 10
0.56802
 20
3.521049999999999
 30
0.0
 10
0.58058
 20
3.49099
 30
0.0
 10
0.5896100000000001
 20
3.455569999999999
 30
0.0
 10
0.5896100000000001
 20
3.455569999999999
 30
0.0
 10
0.59879
 20
3.42015
 30
0.0
 10
0.6033
 20
3.372459999999999
 30
0.0
 10
0.6033
 20
3.31234
 30
0.0
 10
0.6033
 20
3.31234
 30
0.0
 10
0.6033
 20
3.24122
 30
0.0
 10
0.59596
 20
3.18393
 30
0.0
 10
0.5814300000000001
 20
3.14019
 30
0.0
 10
0.5814300000000001
 20
3.14019
 30
0.0
 10
0.56675
 20
3.09644
 30
0.0
 10
0.5448800000000001
 20
3.06272
 30
0.0
 10
0.5158100000000001
 20
3.03887
 30
0.0
 10
0.5158100000000001
 20
3.03887
 30
0.0
 10
0.48674
 20
3.01502
 30
0.0
 10
0.45005
 20
3.003169999999999
 30
0.0
 10
0.4056
 20
3.003169999999999
 30
0.0
 10
0.4056
 20
3.003169999999999
 30
0.0
 10
0.34718
 20
3.003169999999999
 30
0.0
 10
0.30132
 20
3.024049999999999
 30
0.0
 10
0.26802
 20
3.06596
 30
0.0
 10
0.26802
 20
3.06596
 30
0.0
 10
0.22808
 20
3.11634
 30
0.0
 10
0.20805
 20
3.198609999999999
 30
0.0
 10
0.20805
 20
3.31234
 30
0.0
  0
SPLINE
  5
59
330
1F
100
AcDbEntity
  8
layer 1
 62
   250
100
AcDbSpline
210
0.0
220
0.0
230
1.0
 70
     9
 71
     3
 72
    36
 73
    32
 74
     0
 42
0.0000000001
 43
0.0000000001
 40
0.0
 40
0.0
 40
0.0
 40
0.0
 40
0.1111111111111111
 40
0.1111111111111111
 40
0.1111111111111111
 40
0.1111111111111111
 40
0.2222222222222222
 40
0.2222222222222222
 40
0.2222222222222222
 40
0.2222222222222222
 40
0.3333333333333333
 40
0.3333333333333333
 40
0.3333333333333333
 40
0.3333333333333333
 40
0.4444444444444445
 40
0.4444444444444445
 40
0.4444444444444445
 40
0.4444444444444445
 40
0.5555555555555556
 40
0.5555555555555556
 40
0.5555555555555556
 40
0.5555555555555556
 40
0.6666666666666666
 40
0.6666666666666666
 40
0.6666666666666666
 40
0.6666666666666666
 40
0.7777777777777778
 40
0.7777777777777778
 40
0.7777777777777778
 40
0.7777777777777778
 40
1.0
 40
1.0
 40
1.0
 40
1.0
 10
0.28453
 20
3.31234
 30
0.0
 10
0.28453
 20
3.21286
 30
0.0
 10
0.29624
 20
3.146679999999999
 30
0.0
 10
0.31953
 20
3.113659999999999
 30
0.0
 10
0.31953
 20
3.113659999999999
 30
0.0
 10
0.34281
 20
3.080779999999999
 30
0.0
 10
0.37145
 20
3.06427
 30
0.0
 10
0.4056
 20
3.06427
 30
0.0
 10
0.4056
 20
3.06427
 30
0.0
 10
0.43989
 20
3.06427
 30
0.0
 10
0.46854
 20
3.080919999999999
 30
0.0
 10
0.49182
 20
3.113939999999999
 30
0.0
 10
0.49182
 20
3.113939999999999
 30
0.0
 10
0.5151100000000001
 20
3.146959999999999
 30
0.0
 10
0.52682
 20
3.21314
 30
0.0
 10
0.52682
 20
3.31234
 30
0.0
 10
0.52682
 20
3.31234
 30
0.0
 10
0.52682
 20
3.412109999999999
 30
0.0
 10
0.5151100000000001
 20
3.47843
 30
0.0
 10
0.49182
 20
3.511169999999999
 30
0.0
 10
0.49182
 20
3.511169999999999
 30
0.0
 10
0.46854
 20
3.544049999999999
 30
0.0
 10
0.4396100000000001
 20
3.560419999999999
 30
0.0
 10
0.4049
 20
3.560419999999999
 30
0.0
 10
0.4049
 20
3.560419999999999
 30
0.0
 10
0.37061
 20
3.560419999999999
 30
0.0
 10
0.34337
 20
3.54588
 30
0.0
 10
0.32291
 20
3.516959999999999
 30
0.0
 10
0.32291
 20
3.516959999999999
 30
0.0
 10
0.29737
 20
3.48013
 30
0.0
 10
0.28453
 20
3.41183
 30
0.0
 10
0.28453
 20
3.31234
 30
0.0
  0
SPLINE
  5
5A
330
1F
100
AcDbEntity
  8
layer 1
 62
   250
100
AcDbSpline
210
0.0
220
0.0
230
1.0
 70
    11
 71
     3
 72
    64
 73
    60
 74
     0
 42
0.0000000001
 43
0.0000000001
 40
0.0
 40
0.0
 40
0.0
 40
0.0
 40
0.0625
 40
0.0625
 40
0.0625
 40
0.0625
 40
0.125
 40
0.125
 40
0.125
 40
0.125
 40
0.1875
 40
0.1875
 40
0.1875
 40
0.1875
 40
0.25
 40
0.25
 40
0.25
 40
0.25
 40
0.3125
 40
0.3125
 40
0.3125
 40
0.3125
 40
0.375
 40
0.375
 40
0.375
 40
0.375
 40
0.4375
 40
0.4375
 40
0.4375
 40
0.4375
 40
0.5
 40
0.5
 40
0.5
 40
0.5
 40
0.5625
 40
0.5625
 40
0.5625
 40
0.5625
 40
0.625
 40
0.625
 40
0.625
 40
0.625
 40
0.6875
 40
0.6875
 40
0.6875
 40
0.6875
 40
0.75
 40
0.75
 40
0.75
 40
0.75
 40
0.8125
 40
0.8125
 40
0.8125
 40
0.8125
 40
0.875
 40
0.875
 40
0.875
 40
0.875
 40
1.0
 40
1.0
 40
1.0
 40
1.0
 10
0.75364
 20
3.013469999999999
 30
0.0
 10
0.75364
 20
3.013469999999999
 30
0.0
 10
0.75364
 20
3.61954
 30
0.0
 10
0.75364
 20
3.61954
 30
0.0
 10
0.75364
 20
3.61954
 30
0.0
 10
0.75364
 20
3.61954
 30
0.0
 10
0.87444
 20
3.61954
 30
0.0
 10
0.87444
 20
3.61954
 30
0.0
 10
0.87444
 20
3.61954
 30
0.0
 10
0.87444
 20
3.61954
 30
0.0
 10
1.01781
 20
3.19042
 30
0.0
 10
1.01781
 20
3.19042
 30
0.0
 10
1.01781
 20
3.19042
 30
0.0
 10
1.03107
 20
3.15049
 30
0.0
 10
1.04081
 20
3.12057
 30
0.0
 10
1.046729999999999
 20
3.10068
 30
0.0
 10
1.046729999999999
 20
3.10068
 30
0.0
 10
1.053649999999999
 20
3.122689999999999
 30
0.0
 10
1.06437
 20
3.155149999999999
 30
0.0
 10
1.07905
 20
3.1979
 30
0.0
 10
1.07905
 20
3.1979
 30
0.0
 10
1.07905
 20
3.1979
 30
0.0
 10
1.22411
 20
3.61954
 30
0.0
 10
1.22411
 20
3.61954
 30
0.0
 10
1.22411
 20
3.61954
 30
0.0
 10
1.22411
 20
3.61954
 30
0.0
 10
1.33206
 20
3.61954
 30
0.0
 10
1.33206
 20
3.61954
 30
0.0
 10
1.33206
 20
3.61954
 30
0.0
 10
1.33206
 20
3.61954
 30
0.0
 10
1.33206
 20
3.013469999999999
 30
0.0
 10
1.33206
 20
3.013469999999999
 30
0.0
 10
1.33206
 20
3.013469999999999
 30
0.0
 10
1.33206
 20
3.013469999999999
 30
0.0
 10
1.254729999999999
 20
3.013469999999999
 30
0.0
 10
1.254729999999999
 20
3.013469999999999
 30
0.0
 10
1.254729999999999
 20
3.013469999999999
 30
0.0
 10
1.254729999999999
 20
3.013469999999999
 30
0.0
 10
1.254729999999999
 20
3.520769999999999
 30
0.0
 10
1.254729999999999
 20
3.520769999999999
 30
0.0
 10
1.254729999999999
 20
3.520769999999999
 30
0.0
 10
1.254729999999999
 20
3.520769999999999
 30
0.0
 10
1.07862
 20
3.013469999999999
 30
0.0
 10
1.07862
 20
3.013469999999999
 30
0.0
 10
1.07862
 20
3.013469999999999
 30
0.0
 10
1.07862
 20
3.013469999999999
 30
0.0
 10
1.006229999999999
 20
3.013469999999999
 30
0.0
 10
1.006229999999999
 20
3.013469999999999
 30
0.0
 10
1.006229999999999
 20
3.013469999999999
 30
0.0
 10
1.006229999999999
 20
3.013469999999999
 30
0.0
 10
0.8309700000000001
 20
3.529369999999999
 30
0.0
 10
0.8309700000000001
 20
3.529369999999999
 30
0.0
 10
0.8309700000000001
 20
3.529369999999999
 30
0.0
 10
0.8309700000000001
 20
3.529369999999999
 30
0.0
 10
0.8309700000000001
 20
3.013469999999999
 30
0.0
 10
0.8309700000000001
 20
3.013469999999999
 30
0.0
 10
0.8309700000000001
 20
3.013469999999999
 30
0.0
 10
0.8309700000000001
 20
3.013469999999999
 30
0.0
 10
0.75364
 20
3.013469999999999
 30
0.0
 10
0.75364
 20
3.013469999999999
 30
0.0
  0
SPLINE
  5
5B
330
1F
100
AcDbEntity
  8
layer 1
 62
   250
100
AcDbSpline
210
0.0
220
0.0
230
1.0
 70
    11
 71
     3
 72
    64
 73
    60
 74
     0
 42
0.0000000001
 43
0.0000000001
 40
0.0
 40
0.0
 40
0.0
 40
0.0
 40
0.0625
 40
0.0625
 40
0.0625
 40
0.0625
 40
0.125
 40
0.125
 40
0.125
 40
0.125
 40
0.1875
 40
0.1875
 40
0.1875
 40
0.1875
 40
0.25
 40
0.25
 40
0.25
 40
0.25
 40
0.3125
 40
0.3125
 40
0.3125
 40
0.3125
 40
0.375
 40
0.375
 40
0.375
 40
0.375
 40
0.4375
 40
0.4375
 40
0.4375
 40
0.4375
 40
0.5
 40
0.5
 40
0.5
 40
0.5
 40
0.5625
 40
0.5625
 40
0.5625
 40
0.5625
 40
0.625
 40
0.625
 40
0.625
 40
0.625
 40
0.6875
 40
0.6875
 40
0.6875
 40
0.6875
 40
0.75
 40
0.75
 40
0.75
 40
0.75
 40
0.8125
 40
0.8125
 40
0.8125
 40
0.8125
 40
0.875
 40
0.875
 40
0.875
 40
0.875
 40
1.0
 40
1.0
 40
1.0
 40
1.0
 10
1.50597
 20
3.013469999999999
 30
0.0
 10
1.50597
 20
3.013469999999999
 30
0.0
 10
1.50597
 20
3.61954
 30
0.0
 10
1.50597
 20
3.61954
 30
0.0
 10
1.50597
 20
3.61954
 30
0.0
 10
1.50597
 20
3.61954
 30
0.0
 10
1.62677
 20
3.61954
 30
0.0
 10
1.62677
 20
3.61954
 30
0.0
 10
1.62677
 20
3.61954
 30
0.0
 10
1.62677
 20
3.61954
 30
0.0
 10
1.77014
 20
3.19042
 30
0.0
 10
1.77014
 20
3.19042
 30
0.0
 10
1.77014
 20
3.19042
 30
0.0
 10
1.7834
 20
3.15049
 30
0.0
 10
1.79314
 20
3.12057
 30
0.0
 10
1.799059999999999
 20
3.10068
 30
0.0
 10
1.799059999999999
 20
3.10068
 30
0.0
 10
1.805979999999999
 20
3.122689999999999
 30
0.0
 10
1.816699999999999
 20
3.155149999999999
 30
0.0
 10
1.83138
 20
3.1979
 30
0.0
 10
1.83138
 20
3.1979
 30
0.0
 10
1.83138
 20
3.1979
 30
0.0
 10
1.97644
 20
3.61954
 30
0.0
 10
1.97644
 20
3.61954
 30
0.0
 10
1.97644
 20
3.61954
 30
0.0
 10
1.97644
 20
3.61954
 30
0.0
 10
2.084389999999999
 20
3.61954
 30
0.0
 10
2.084389999999999
 20
3.61954
 30
0.0
 10
2.084389999999999
 20
3.61954
 30
0.0
 10
2.084389999999999
 20
3.61954
 30
0.0
 10
2.084389999999999
 20
3.013469999999999
 30
0.0
 10
2.084389999999999
 20
3.013469999999999
 30
0.0
 10
2.084389999999999
 20
3.013469999999999
 30
0.0
 10
2.084389999999999
 20
3.013469999999999
 30
0.0
 10
2.00706
 20
3.013469999999999
 30
0.0
 10
2.00706
 20
3.013469999999999
 30
0.0
 10
2.00706
 20
3.013469999999999
 30
0.0
 10
2.00706
 20
3.013469999999999
 30
0.0
 10
2.00706
 20
3.520769999999999
 30
0.0
 10
2.00706
 20
3.520769999999999
 30
0.0
 10
2.00706
 20
3.520769999999999
 30
0.0
 10
2.00706
 20
3.520769999999999
 30
0.0
 10
1.830949999999999
 20
3.013469999999999
 30
0.0
 10
1.830949999999999
 20
3.013469999999999
 30
0.0
 10
1.830949999999999
 20
3.013469999999999
 30
0.0
 10
1.830949999999999
 20
3.013469999999999
 30
0.0
 10
1.758559999999999
 20
3.013469999999999
 30
0.0
 10
1.758559999999999
 20
3.013469999999999
 30
0.0
 10
1.758559999999999
 20
3.013469999999999
 30
0.0
 10
1.758559999999999
 20
3.013469999999999
 30
0.0
 10
1.583299999999999
 20
3.529369999999999
 30
0.0
 10
1.583299999999999
 20
3.529369999999999
 30
0.0
 10
1.583299999999999
 20
3.529369999999999
 30
0.0
 10
1.583299999999999
 20
3.529369999999999
 30
0.0
 10
1.583299999999999
 20
3.013469999999999
 30
0.0
 10
1.583299999999999
 20
3.013469999999999
 30
0.0
 10
1.583299999999999
 20
3.013469999999999
 30
0.0
 10
1.583299999999999
 20
3.013469999999999
 30
0.0
 10
1.50597
 20
3.013469999999999
 30
0.0
 10
1.50597
 20
3.013469999999999
 30
0.0
  0
SPLINE
  5
5C
330
1F
100
AcDbEntity
  8
layer 1
 62
   250
100
AcDbSpline
210
0.0
220
0.0
230
1.0
 70
     9
 71
     3
 72
    92
 73
    88
 74
     0
 42
0.0000000001
 43
0.0000000001
 40
0.0
 40
0.0
 40
0.0
 40
0.0
 40
0.0434782608695652
 40
0.0434782608695652
 40
0.0434782608695652
 40
0.0434782608695652
 40
0.0869565217391304
 40
0.0869565217391304
 40
0.0869565217391304
 40
0.0869565217391304
 40
0.1304347826086956
 40
0.1304347826086956
 40
0.1304347826086956
 40
0.1304347826086956
 40
0.1739130434782609
 40
0.1739130434782609
 40
0.1739130434782609
 40
0.1739130434782609
 40
0.2173913043478261
 40
0.2173913043478261
 40
0.2173913043478261
 40
0.2173913043478261
 40
0.2608695652173913
 40
0.2608695652173913
 40
0.2608695652173913
 40
0.2608695652173913
 40
0.3043478260869565
 40
0.3043478260869565
 40
0.3043478260869565
 40
0.3043478260869565
 40
0.3478260869565217
 40
0.3478260869565217
 40
0.3478260869565217
 40
0.3478260869565217
 40
0.391304347826087
 40
0.391304347826087
 40
0.391304347826087
 40
0.391304347826087
 40
0.4347826086956523
 40
0.4347826086956523
 40
0.4347826086956523
 40
0.4347826086956523
 40
0.4782608695652174
 40
0.4782608695652174
 40
0.4782608695652174
 40
0.4782608695652174
 40
0.5217391304347827
 40
0.5217391304347827
 40
0.5217391304347827
 40
0.5217391304347827
 40
0.5652173913043478
 40
0.5652173913043478
 40
0.5652173913043478
 40
0.5652173913043478
 40
0.6086956521739131
 40
0.6086956521739131
 40
0.6086956521739131
 40
0.6086956521739131
 40
0.6521739130434784
 40
0.6521739130434784
 40
0.6521739130434784
 40
0.6521739130434784
 40
0.6956521739130435
 40
0.6956521739130435
 40
0.6956521739130435
 40
0.6956521739130435
 40
0.7391304347826086
 40
0.7391304347826086
 40
0.7391304347826086
 40
0.7391304347826086
 40
0.7826086956521741
 40
0.7826086956521741
 40
0.7826086956521741
 40
0.7826086956521741
 40
0.826086956521739
 40
0.826086956521739
 40
0.826086956521739
 40
0.826086956521739
 40
0.8695652173913043
 40
0.8695652173913043
 40
0.8695652173913043
 40
0.8695652173913043
 40
0.9130434782608695
 40
0.9130434782608695
 40
0.9130434782608695
 40
0.9130434782608695
 40
1.0
 40
1.0
 40
1.0
 40
1.0
 10
-8.893599999999999
 20
-1.44427
 30
0.0
 10
-8.893599999999999
 20
-1.44427
 30
0.0
 10
-8.81543
 20
-1.43764
 30
0.0
 10
-8.81543
 20
-1.43764
 30
0.0
 10
-8.81543
 20
-1.43764
 30
0.0
 10
-8.809639999999999
 20
-1.47574
 30
0.0
 10
-8.796239999999999
 20
-1.50424
 30
0.0
 10
-8.775210000000001
 20
-1.523429999999999
 30
0.0
 10
-8.775210000000001
 20
-1.523429999999999
 30
0.0
 10
-8.754039999999999
 20
-1.54262
 30
0.0
 10
-8.728639999999998
 20
-1.55222
 30
0.0
 10
-8.698869999999999
 20
-1.55222
 30
0.0
 10
-8.698869999999999
 20
-1.55222
 30
0.0
 10
-8.66303
 20
-1.55222
 30
0.0
 10
-8.63269
 20
-1.538669999999999
 30
0.0
 10
-8.607989999999999
 20
-1.51172
 30
0.0
 10
-8.607989999999999
 20
-1.51172
 30
0.0
 10
-8.583160000000001
 20
-1.484629999999999
 30
0.0
 10
-8.570739999999998
 20
-1.44878
 30
0.0
 10
-8.570739999999998
 20
-1.40419
 30
0.0
 10
-8.570739999999998
 20
-1.40419
 30
0.0
 10
-8.570739999999998
 20
-1.36172
 30
0.0
 10
-8.582589999999999
 20
-1.328279999999999
 30
0.0
 10
-8.606439999999999
 20
-1.303719999999999
 30
0.0
 10
-8.606439999999999
 20
-1.303719999999999
 30
0.0
 10
-8.630289999999998
 20
-1.27917
 30
0.0
 10
-8.661469999999999
 20
-1.26689
 30
0.0
 10
-8.700139999999999
 20
-1.26689
 30
0.0
 10
-8.700139999999999
 20
-1.26689
 30
0.0
 10
-8.72413
 20
-1.26689
 30
0.0
 10
-8.74572
 20
-1.272399999999999
 30
0.0
 10
-8.76505
 20
-1.28326
 30
0.0
 10
-8.76505
 20
-1.28326
 30
0.0
 10
-8.78438
 20
-1.29413
 30
0.0
 10
-8.79948
 20
-1.30824
 30
0.0
 10
-8.810489999999999
 20
-1.32559
 30
0.0
 10
-8.810489999999999
 20
-1.32559
 30
0.0
 10
-8.810489999999999
 20
-1.32559
 30
0.0
 10
-8.880339999999998
 20
-1.316559999999999
 30
0.0
 10
-8.880339999999998
 20
-1.316559999999999
 30
0.0
 10
-8.880339999999998
 20
-1.316559999999999
 30
0.0
 10
-8.880339999999998
 20
-1.316559999999999
 30
0.0
 10
-8.821639999999998
 20
-1.00527
 30
0.0
 10
-8.821639999999998
 20
-1.00527
 30
0.0
 10
-8.821639999999998
 20
-1.00527
 30
0.0
 10
-8.821639999999998
 20
-1.00527
 30
0.0
 10
-8.52022
 20
-1.00527
 30
0.0
 10
-8.52022
 20
-1.00527
 30
0.0
 10
-8.52022
 20
-1.00527
 30
0.0
 10
-8.52022
 20
-1.00527
 30
0.0
 10
-8.52022
 20
-1.076389999999999
 30
0.0
 10
-8.52022
 20
-1.076389999999999
 30
0.0
 10
-8.52022
 20
-1.076389999999999
 30
0.0
 10
-8.52022
 20
-1.076389999999999
 30
0.0
 10
-8.762089999999998
 20
-1.076389999999999
 30
0.0
 10
-8.762089999999998
 20
-1.076389999999999
 30
0.0
 10
-8.762089999999998
 20
-1.076389999999999
 30
0.0
 10
-8.762089999999998
 20
-1.076389999999999
 30
0.0
 10
-8.794830000000001
 20
-1.239229999999999
 30
0.0
 10
-8.794830000000001
 20
-1.239229999999999
 30
0.0
 10
-8.794830000000001
 20
-1.239229999999999
 30
0.0
 10
-8.758419999999999
 20
-1.213829999999999
 30
0.0
 10
-8.72018
 20
-1.20113
 30
0.0
 10
-8.680239999999999
 20
-1.20113
 30
0.0
 10
-8.680239999999999
 20
-1.20113
 30
0.0
 10
-8.62733
 20
-1.20113
 30
0.0
 10
-8.582729999999999
 20
-1.219479999999999
 30
0.0
 10
-8.546330000000001
 20
-1.25617
 30
0.0
 10
-8.546330000000001
 20
-1.25617
 30
0.0
 10
-8.509919999999999
 20
-1.29286
 30
0.0
 10
-8.491719999999999
 20
-1.33999
 30
0.0
 10
-8.491719999999999
 20
-1.39756
 30
0.0
 10
-8.491719999999999
 20
-1.39756
 30
0.0
 10
-8.491719999999999
 20
-1.452449999999999
 30
0.0
 10
-8.507799999999999
 20
-1.49987
 30
0.0
 10
-8.539699999999999
 20
-1.5398
 30
0.0
 10
-8.539699999999999
 20
-1.5398
 30
0.0
 10
-8.57864
 20
-1.58877
 30
0.0
 10
-8.6317
 20
-1.61332
 30
0.0
 10
-8.698869999999999
 20
-1.61332
 30
0.0
 10
-8.698869999999999
 20
-1.61332
 30
0.0
 10
-8.754039999999999
 20
-1.61332
 30
0.0
 10
-8.79906
 20
-1.597939999999999
 30
0.0
 10
-8.833910000000001
 20
-1.567039999999999
 30
0.0
 10
-8.833910000000001
 20
-1.567039999999999
 30
0.0
 10
-8.868769999999999
 20
-1.536129999999999
 30
0.0
 10
-8.888659999999999
 20
-1.495209999999999
 30
0.0
 10
-8.893599999999999
 20
-1.44427
 30
0.0
  0
SPLINE
  5
5D
330
1F
100
AcDbEntity
  8
layer 1
 62
   250
100
AcDbSpline
210
0.0
220
0.0
230
1.0
 70
    11
 71
     3
 72
    40
 73
    36
 74
     0
 42
0.0000000001
 43
0.0000000001
 40
0.0
 40
0.0
 40
0.0
 40
0.0
 40
0.1
 40
0.1
 40
0.1
 40
0.1
 40
0.2
 40
0.2
 40
0.2
 40
0.2
 40
0.3
 40
0.3
 40
0.3
 40
0.3
 40
0.4
 40
0.4
 40
0.4
 40
0.4
 40
0.5
 40
0.5
 40
0.5
 40
0.5
 40
0.6
 40
0.6
 40
0.6
 40
0.6
 40
0.7
 40
0.7
 40
0.7
 40
0.7
 40
0.8
 40
0.8
 40
0.8
 40
0.8
 40
1.0
 40
1.0
 40
1.0
 40
1.0
 10
-8.095419999999998
 20
-1.60302
 30
0.0
 10
-8.095419999999998
 20
-1.60302
 30
0.0
 10
-8.169780000000001
 20
-1.60302
 30
0.0
 10
-8.169780000000001
 20
-1.60302
 30
0.0
 10
-8.169780000000001
 20
-1.60302
 30
0.0
 10
-8.169780000000001
 20
-1.60302
 30
0.0
 10
-8.169780000000001
 20
-1.128879999999999
 30
0.0
 10
-8.169780000000001
 20
-1.128879999999999
 30
0.0
 10
-8.169780000000001
 20
-1.128879999999999
 30
0.0
 10
-8.187699999999999
 20
-1.14596
 30
0.0
 10
-8.21113
 20
-1.16303
 30
0.0
 10
-8.240199999999999
 20
-1.180109999999999
 30
0.0
 10
-8.240199999999999
 20
-1.180109999999999
 30
0.0
 10
-8.26941
 20
-1.197179999999999
 30
0.0
 10
-8.29551
 20
-1.21002
 30
0.0
 10
-8.318649999999999
 20
-1.21849
 30
0.0
 10
-8.318649999999999
 20
-1.21849
 30
0.0
 10
-8.318649999999999
 20
-1.21849
 30
0.0
 10
-8.318649999999999
 20
-1.14666
 30
0.0
 10
-8.318649999999999
 20
-1.14666
 30
0.0
 10
-8.318649999999999
 20
-1.14666
 30
0.0
 10
-8.277029999999999
 20
-1.12705
 30
0.0
 10
-8.240619999999999
 20
-1.103339999999999
 30
0.0
 10
-8.209430000000001
 20
-1.075539999999999
 30
0.0
 10
-8.209430000000001
 20
-1.075539999999999
 30
0.0
 10
-8.17839
 20
-1.0476
 30
0.0
 10
-8.15623
 20
-1.02065
 30
0.0
 10
-8.14325
 20
-0.99441
 30
0.0
 10
-8.14325
 20
-0.99441
 30
0.0
 10
-8.14325
 20
-0.99441
 30
0.0
 10
-8.095419999999998
 20
-0.99441
 30
0.0
 10
-8.095419999999998
 20
-0.99441
 30
0.0
 10
-8.095419999999998
 20
-0.99441
 30
0.0
 10
-8.095419999999998
 20
-0.99441
 30
0.0
 10
-8.095419999999998
 20
-1.60302
 30
0.0
 10
-8.095419999999998
 20
-1.60302
 30
0.0
  0
SPLINE
  5
5E
330
1F
100
AcDbEntity
  8
layer 1
 62
   250
100
AcDbSpline
210
0.0
220
0.0
230
1.0
 70
     9
 71
     3
 72
    92
 73
    88
 74
     0
 42
0.0000000001
 43
0.0000000001
 40
0.0
 40
0.0
 40
0.0
 40
0.0
 40
0.0434782608695652
 40
0.0434782608695652
 40
0.0434782608695652
 40
0.0434782608695652
 40
0.0869565217391304
 40
0.0869565217391304
 40
0.0869565217391304
 40
0.0869565217391304
 40
0.1304347826086956
 40
0.1304347826086956
 40
0.1304347826086956
 40
0.1304347826086956
 40
0.1739130434782609
 40
0.1739130434782609
 40
0.1739130434782609
 40
0.1739130434782609
 40
0.2173913043478261
 40
0.2173913043478261
 40
0.2173913043478261
 40
0.2173913043478261
 40
0.2608695652173913
 40
0.2608695652173913
 40
0.2608695652173913
 40
0.2608695652173913
 40
0.3043478260869565
 40
0.3043478260869565
 40
0.3043478260869565
 40
0.3043478260869565
 40
0.3478260869565217
 40
0.3478260869565217
 40
0.3478260869565217
 40
0.3478260869565217
 40
0.391304347826087
 40
0.391304347826087
 40
0.391304347826087
 40
0.391304347826087
 40
0.4347826086956523
 40
0.4347826086956523
 40
0.4347826086956523
 40
0.4347826086956523
 40
0.4782608695652174
 40
0.4782608695652174
 40
0.4782608695652174
 40
0.4782608695652174
 40
0.5217391304347827
 40
0.5217391304347827
 40
0.5217391304347827
 40
0.5217391304347827
 40
0.5652173913043478
 40
0.5652173913043478
 40
0.5652173913043478
 40
0.5652173913043478
 40
0.6086956521739131
 40
0.6086956521739131
 40
0.6086956521739131
 40
0.6086956521739131
 40
0.6521739130434784
 40
0.6521739130434784
 40
0.6521739130434784
 40
0.6521739130434784
 40
0.6956521739130435
 40
0.6956521739130435
 40
0.6956521739130435
 40
0.6956521739130435
 40
0.7391304347826086
 40
0.7391304347826086
 40
0.7391304347826086
 40
0.7391304347826086
 40
0.7826086956521741
 40
0.7826086956521741
 40
0.7826086956521741
 40
0.7826086956521741
 40
0.826086956521739
 40
0.826086956521739
 40
0.826086956521739
 40
0.826086956521739
 40
0.8695652173913043
 40
0.8695652173913043
 40
0.8695652173913043
 40
0.8695652173913043
 40
0.9130434782608695
 40
0.9130434782608695
 40
0.9130434782608695
 40
0.9130434782608695
 40
1.0
 40
1.0
 40
1.0
 40
1.0
 10
-7.857719999999999
 20
-1.44427
 30
0.0
 10
-7.857719999999999
 20
-1.44427
 30
0.0
 10
-7.77955
 20
-1.43764
 30
0.0
 10
-7.77955
 20
-1.43764
 30
0.0
 10
-7.77955
 20
-1.43764
 30
0.0
 10
-7.77376
 20
-1.47574
 30
0.0
 10
-7.76036
 20
-1.50424
 30
0.0
 10
-7.73933
 20
-1.523429999999999
 30
0.0
 10
-7.73933
 20
-1.523429999999999
 30
0.0
 10
-7.718160000000001
 20
-1.54262
 30
0.0
 10
-7.69276
 20
-1.55222
 30
0.0
 10
-7.662989999999999
 20
-1.55222
 30
0.0
 10
-7.662989999999999
 20
-1.55222
 30
0.0
 10
-7.62715
 20
-1.55222
 30
0.0
 10
-7.59681
 20
-1.538669999999999
 30
0.0
 10
-7.57211
 20
-1.51172
 30
0.0
 10
-7.57211
 20
-1.51172
 30
0.0
 10
-7.54728
 20
-1.484629999999999
 30
0.0
 10
-7.534860000000001
 20
-1.44878
 30
0.0
 10
-7.534860000000001
 20
-1.40419
 30
0.0
 10
-7.534860000000001
 20
-1.40419
 30
0.0
 10
-7.534860000000001
 20
-1.36172
 30
0.0
 10
-7.54671
 20
-1.328279999999999
 30
0.0
 10
-7.57056
 20
-1.303719999999999
 30
0.0
 10
-7.57056
 20
-1.303719999999999
 30
0.0
 10
-7.59441
 20
-1.27917
 30
0.0
 10
-7.625589999999998
 20
-1.26689
 30
0.0
 10
-7.66426
 20
-1.26689
 30
0.0
 10
-7.66426
 20
-1.26689
 30
0.0
 10
-7.68825
 20
-1.26689
 30
0.0
 10
-7.709839999999999
 20
-1.272399999999999
 30
0.0
 10
-7.729169999999999
 20
-1.28326
 30
0.0
 10
-7.729169999999999
 20
-1.28326
 30
0.0
 10
-7.748499999999999
 20
-1.29413
 30
0.0
 10
-7.7636
 20
-1.30824
 30
0.0
 10
-7.77461
 20
-1.32559
 30
0.0
 10
-7.77461
 20
-1.32559
 30
0.0
 10
-7.77461
 20
-1.32559
 30
0.0
 10
-7.84446
 20
-1.316559999999999
 30
0.0
 10
-7.84446
 20
-1.316559999999999
 30
0.0
 10
-7.84446
 20
-1.316559999999999
 30
0.0
 10
-7.84446
 20
-1.316559999999999
 30
0.0
 10
-7.78576
 20
-1.00527
 30
0.0
 10
-7.78576
 20
-1.00527
 30
0.0
 10
-7.78576
 20
-1.00527
 30
0.0
 10
-7.78576
 20
-1.00527
 30
0.0
 10
-7.484339999999999
 20
-1.00527
 30
0.0
 10
-7.484339999999999
 20
-1.00527
 30
0.0
 10
-7.484339999999999
 20
-1.00527
 30
0.0
 10
-7.484339999999999
 20
-1.00527
 30
0.0
 10
-7.484339999999999
 20
-1.076389999999999
 30
0.0
 10
-7.484339999999999
 20
-1.076389999999999
 30
0.0
 10
-7.484339999999999
 20
-1.076389999999999
 30
0.0
 10
-7.484339999999999
 20
-1.076389999999999
 30
0.0
 10
-7.72621
 20
-1.076389999999999
 30
0.0
 10
-7.72621
 20
-1.076389999999999
 30
0.0
 10
-7.72621
 20
-1.076389999999999
 30
0.0
 10
-7.72621
 20
-1.076389999999999
 30
0.0
 10
-7.758949999999999
 20
-1.239229999999999
 30
0.0
 10
-7.758949999999999
 20
-1.239229999999999
 30
0.0
 10
-7.758949999999999
 20
-1.239229999999999
 30
0.0
 10
-7.722539999999999
 20
-1.213829999999999
 30
0.0
 10
-7.6843
 20
-1.20113
 30
0.0
 10
-7.64436
 20
-1.20113
 30
0.0
 10
-7.64436
 20
-1.20113
 30
0.0
 10
-7.59145
 20
-1.20113
 30
0.0
 10
-7.54685
 20
-1.219479999999999
 30
0.0
 10
-7.510449999999999
 20
-1.25617
 30
0.0
 10
-7.510449999999999
 20
-1.25617
 30
0.0
 10
-7.474039999999999
 20
-1.29286
 30
0.0
 10
-7.455839999999999
 20
-1.33999
 30
0.0
 10
-7.455839999999999
 20
-1.39756
 30
0.0
 10
-7.455839999999999
 20
-1.39756
 30
0.0
 10
-7.455839999999999
 20
-1.452449999999999
 30
0.0
 10
-7.471919999999999
 20
-1.49987
 30
0.0
 10
-7.503819999999999
 20
-1.5398
 30
0.0
 10
-7.503819999999999
 20
-1.5398
 30
0.0
 10
-7.54276
 20
-1.58877
 30
0.0
 10
-7.595819999999999
 20
-1.61332
 30
0.0
 10
-7.662989999999999
 20
-1.61332
 30
0.0
 10
-7.662989999999999
 20
-1.61332
 30
0.0
 10
-7.718160000000001
 20
-1.61332
 30
0.0
 10
-7.76318
 20
-1.597939999999999
 30
0.0
 10
-7.79803
 20
-1.567039999999999
 30
0.0
 10
-7.79803
 20
-1.567039999999999
 30
0.0
 10
-7.832889999999999
 20
-1.536129999999999
 30
0.0
 10
-7.85278
 20
-1.495209999999999
 30
0.0
 10
-7.857719999999999
 20
-1.44427
 30
0.0
  0
SPLINE
  5
5F
330
1F
100
AcDbEntity
  8
layer 1
 62
   250
100
AcDbSpline
210
0.0
220
0.0
230
1.0
 70
    11
 71
     3
 72
    64
 73
    60
 74
     0
 42
0.0000000001
 43
0.0000000001
 40
0.0
 40
0.0
 40
0.0
 40
0.0
 40
0.0625
 40
0.0625
 40
0.0625
 40
0.0625
 40
0.125
 40
0.125
 40
0.125
 40
0.125
 40
0.1875
 40
0.1875
 40
0.1875
 40
0.1875
 40
0.25
 40
0.25
 40
0.25
 40
0.25
 40
0.3125
 40
0.3125
 40
0.3125
 40
0.3125
 40
0.375
 40
0.375
 40
0.375
 40
0.375
 40
0.4375
 40
0.4375
 40
0.4375
 40
0.4375
 40
0.5
 40
0.5
 40
0.5
 40
0.5
 40
0.5625
 40
0.5625
 40
0.5625
 40
0.5625
 40
0.625
 40
0.625
 40
0.625
 40
0.625
 40
0.6875
 40
0.6875
 40
0.6875
 40
0.6875
 40
0.75
 40
0.75
 40
0.75
 40
0.75
 40
0.8125
 40
0.8125
 40
0.8125
 40
0.8125
 40
0.875
 40
0.875
 40
0.875
 40
0.875
 40
1.0
 40
1.0
 40
1.0
 40
1.0
 10
-7.31213
 20
-1.60302
 30
0.0
 10
-7.31213
 20
-1.60302
 30
0.0
 10
-7.31213
 20
-0.99695
 30
0.0
 10
-7.31213
 20
-0.99695
 30
0.0
 10
-7.31213
 20
-0.99695
 30
0.0
 10
-7.31213
 20
-0.99695
 30
0.0
 10
-7.19133
 20
-0.99695
 30
0.0
 10
-7.19133
 20
-0.99695
 30
0.0
 10
-7.19133
 20
-0.99695
 30
0.0
 10
-7.19133
 20
-0.99695
 30
0.0
 10
-7.04796
 20
-1.42607
 30
0.0
 10
-7.04796
 20
-1.42607
 30
0.0
 10
-7.04796
 20
-1.42607
 30
0.0
 10
-7.034699999999999
 20
-1.466
 30
0.0
 10
-7.02496
 20
-1.49592
 30
0.0
 10
-7.019039999999999
 20
-1.51581
 30
0.0
 10
-7.019039999999999
 20
-1.51581
 30
0.0
 10
-7.012119999999999
 20
-1.4938
 30
0.0
 10
-7.0014
 20
-1.461339999999999
 30
0.0
 10
-6.98672
 20
-1.41859
 30
0.0
 10
-6.98672
 20
-1.41859
 30
0.0
 10
-6.98672
 20
-1.41859
 30
0.0
 10
-6.84166
 20
-0.99695
 30
0.0
 10
-6.84166
 20
-0.99695
 30
0.0
 10
-6.84166
 20
-0.99695
 30
0.0
 10
-6.84166
 20
-0.99695
 30
0.0
 10
-6.73371
 20
-0.99695
 30
0.0
 10
-6.73371
 20
-0.99695
 30
0.0
 10
-6.73371
 20
-0.99695
 30
0.0
 10
-6.73371
 20
-0.99695
 30
0.0
 10
-6.73371
 20
-1.60302
 30
0.0
 10
-6.73371
 20
-1.60302
 30
0.0
 10
-6.73371
 20
-1.60302
 30
0.0
 10
-6.73371
 20
-1.60302
 30
0.0
 10
-6.811039999999999
 20
-1.60302
 30
0.0
 10
-6.811039999999999
 20
-1.60302
 30
0.0
 10
-6.811039999999999
 20
-1.60302
 30
0.0
 10
-6.811039999999999
 20
-1.60302
 30
0.0
 10
-6.811039999999999
 20
-1.09572
 30
0.0
 10
-6.811039999999999
 20
-1.09572
 30
0.0
 10
-6.811039999999999
 20
-1.09572
 30
0.0
 10
-6.811039999999999
 20
-1.09572
 30
0.0
 10
-6.987149999999999
 20
-1.60302
 30
0.0
 10
-6.987149999999999
 20
-1.60302
 30
0.0
 10
-6.987149999999999
 20
-1.60302
 30
0.0
 10
-6.987149999999999
 20
-1.60302
 30
0.0
 10
-7.059539999999999
 20
-1.60302
 30
0.0
 10
-7.059539999999999
 20
-1.60302
 30
0.0
 10
-7.059539999999999
 20
-1.60302
 30
0.0
 10
-7.059539999999999
 20
-1.60302
 30
0.0
 10
-7.234799999999999
 20
-1.08712
 30
0.0
 10
-7.234799999999999
 20
-1.08712
 30
0.0
 10
-7.234799999999999
 20
-1.08712
 30
0.0
 10
-7.234799999999999
 20
-1.08712
 30
0.0
 10
-7.234799999999999
 20
-1.60302
 30
0.0
 10
-7.234799999999999
 20
-1.60302
 30
0.0
 10
-7.234799999999999
 20
-1.60302
 30
0.0
 10
-7.234799999999999
 20
-1.60302
 30
0.0
 10
-7.31213
 20
-1.60302
 30
0.0
 10
-7.31213
 20
-1.60302
 30
0.0
  0
SPLINE
  5
60
330
1F
100
AcDbEntity
  8
layer 1
 62
   250
100
AcDbSpline
210
0.0
220
0.0
230
1.0
 70
    11
 71
     3
 72
    64
 73
    60
 74
     0
 42
0.0000000001
 43
0.0000000001
 40
0.0
 40
0.0
 40
0.0
 40
0.0
 40
0.0625
 40
0.0625
 40
0.0625
 40
0.0625
 40
0.125
 40
0.125
 40
0.125
 40
0.125
 40
0.1875
 40
0.1875
 40
0.1875
 40
0.1875
 40
0.25
 40
0.25
 40
0.25
 40
0.25
 40
0.3125
 40
0.3125
 40
0.3125
 40
0.3125
 40
0.375
 40
0.375
 40
0.375
 40
0.375
 40
0.4375
 40
0.4375
 40
0.4375
 40
0.4375
 40
0.5
 40
0.5
 40
0.5
 40
0.5
 40
0.5625
 40
0.5625
 40
0.5625
 40
0.5625
 40
0.625
 40
0.625
 40
0.625
 40
0.625
 40
0.6875
 40
0.6875
 40
0.6875
 40
0.6875
 40
0.75
 40
0.75
 40
0.75
 40
0.75
 40
0.8125
 40
0.8125
 40
0.8125
 40
0.8125
 40
0.875
 40
0.875
 40
0.875
 40
0.875
 40
1.0
 40
1.0
 40
1.0
 40
1.0
 10
-6.5598
 20
-1.60302
 30
0.0
 10
-6.5598
 20
-1.60302
 30
0.0
 10
-6.5598
 20
-0.99695
 30
0.0
 10
-6.5598
 20
-0.99695
 30
0.0
 10
-6.5598
 20
-0.99695
 30
0.0
 10
-6.5598
 20
-0.99695
 30
0.0
 10
-6.439
 20
-0.99695
 30
0.0
 10
-6.439
 20
-0.99695
 30
0.0
 10
-6.439
 20
-0.99695
 30
0.0
 10
-6.439
 20
-0.99695
 30
0.0
 10
-6.29563
 20
-1.42607
 30
0.0
 10
-6.29563
 20
-1.42607
 30
0.0
 10
-6.29563
 20
-1.42607
 30
0.0
 10
-6.282369999999999
 20
-1.466
 30
0.0
 10
-6.27263
 20
-1.49592
 30
0.0
 10
-6.266709999999999
 20
-1.51581
 30
0.0
 10
-6.266709999999999
 20
-1.51581
 30
0.0
 10
-6.259789999999999
 20
-1.4938
 30
0.0
 10
-6.249069999999999
 20
-1.461339999999999
 30
0.0
 10
-6.23439
 20
-1.41859
 30
0.0
 10
-6.23439
 20
-1.41859
 30
0.0
 10
-6.23439
 20
-1.41859
 30
0.0
 10
-6.08933
 20
-0.99695
 30
0.0
 10
-6.08933
 20
-0.99695
 30
0.0
 10
-6.08933
 20
-0.99695
 30
0.0
 10
-6.08933
 20
-0.99695
 30
0.0
 10
-5.98138
 20
-0.99695
 30
0.0
 10
-5.98138
 20
-0.99695
 30
0.0
 10
-5.98138
 20
-0.99695
 30
0.0
 10
-5.98138
 20
-0.99695
 30
0.0
 10
-5.98138
 20
-1.60302
 30
0.0
 10
-5.98138
 20
-1.60302
 30
0.0
 10
-5.98138
 20
-1.60302
 30
0.0
 10
-5.98138
 20
-1.60302
 30
0.0
 10
-6.058709999999999
 20
-1.60302
 30
0.0
 10
-6.058709999999999
 20
-1.60302
 30
0.0
 10
-6.058709999999999
 20
-1.60302
 30
0.0
 10
-6.058709999999999
 20
-1.60302
 30
0.0
 10
-6.058709999999999
 20
-1.09572
 30
0.0
 10
-6.058709999999999
 20
-1.09572
 30
0.0
 10
-6.058709999999999
 20
-1.09572
 30
0.0
 10
-6.058709999999999
 20
-1.09572
 30
0.0
 10
-6.23482
 20
-1.60302
 30
0.0
 10
-6.23482
 20
-1.60302
 30
0.0
 10
-6.23482
 20
-1.60302
 30
0.0
 10
-6.23482
 20
-1.60302
 30
0.0
 10
-6.307209999999999
 20
-1.60302
 30
0.0
 10
-6.307209999999999
 20
-1.60302
 30
0.0
 10
-6.307209999999999
 20
-1.60302
 30
0.0
 10
-6.307209999999999
 20
-1.60302
 30
0.0
 10
-6.482469999999999
 20
-1.08712
 30
0.0
 10
-6.482469999999999
 20
-1.08712
 30
0.0
 10
-6.482469999999999
 20
-1.08712
 30
0.0
 10
-6.482469999999999
 20
-1.08712
 30
0.0
 10
-6.482469999999999
 20
-1.60302
 30
0.0
 10
-6.482469999999999
 20
-1.60302
 30
0.0
 10
-6.482469999999999
 20
-1.60302
 30
0.0
 10
-6.482469999999999
 20
-1.60302
 30
0.0
 10
-6.5598
 20
-1.60302
 30
0.0
 10
-6.5598
 20
-1.60302
 30
0.0
  0
SPLINE
  5
61
330
1F
100
AcDbEntity
  8
layer 1
 62
   250
370
    50
100
AcDbSpline
210
0.0
220
0.0
230
1.0
 70
     9
 71
     3
 72
    36
 73
    32
 74
     0
 42
0.0000000001
 43
0.0000000001
 40
0.0
 40
0.0
 40
0.0
 40
0.0
 40
0.1111111111111111
 40
0.1111111111111111
 40
0.1111111111111111
 40
0.1111111111111111
 40
0.2222222222222222
 40
0.2222222222222222
 40
0.2222222222222222
 40
0.2222222222222222
 40
0.3333333333333333
 40
0.3333333333333333
 40
0.3333333333333333
 40
0.3333333333333333
 40
0.4444444444444445
 40
0.4444444444444445
 40
0.4444444444444445
 40
0.4444444444444445
 40
0.5555555555555556
 40
0.5555555555555556
 40
0.5555555555555556
 40
0.5555555555555556
 40
0.6666666666666666
 40
0.6666666666666666
 40
0.6666666666666666
 40
0.6666666666666666
 40
0.7777777777777778
 40
0.7777777777777778
 40
0.7777777777777778
 40
0.7777777777777778
 40
1.0
 40
1.0
 40
1.0
 40
1.0
 10
-22.06661
 20
13.75547
 30
0.0
 10
-22.06661
 20
13.75547
 30
0.0
 10
23.17561
 20
13.75547
 30
0.0
 10
23.17561
 20
13.75547
 30
0.0
 10
23.17561
 20
13.75547
 30
0.0
 10
24.89651
 20
13.75547
 30
0.0
 10
26.3045
 20
12.4666
 30
0.0
 10
26.3045
 20
10.8913
 30
0.0
 10
26.3045
 20
10.8913
 30
0.0
 10
26.3045
 20
10.8913
 30
0.0
 10
26.3045
 20
-13.38036
 30
0.0
 10
26.3045
 20
-13.38036
 30
0.0
 10
26.3045
 20
-13.38036
 30
0.0
 10
26.3045
 20
-14.95566
 30
0.0
 10
24.89651
 20
-16.24453
 30
0.0
 10
23.17561
 20
-16.24453
 30
0.0
 10
23.17561
 20
-16.24453
 30
0.0
 10
23.17561
 20
-16.24453
 30
0.0
 10
-22.06661
 20
-16.24453
 30
0.0
 10
-22.06661
 20
-16.24453
 30
0.0
 10
-22.06661
 20
-16.24453
 30
0.0
 10
-23.7875
 20
-16.24453
 30
0.0
 10
-25.1955
 20
-14.95566
 30
0.0
 10
-25.1955
 20
-13.38036
 30
0.0
 10
-25.1955
 20
-13.38036
 30
0.0
 10
-25.1955
 20
-13.38036
 30
0.0
 10
-25.1955
 20
10.8913
 30
0.0
 10
-25.1955
 20
10.8913
 30
0.0
 10
-25.1955
 20
10.8913
 30
0.0
 10
-25.1955
 20
12.4666
 30
0.0
 10
-23.7875
 20
13.75547
 30
0.0
 10
-22.06661
 20
13.75547
 30
0.0
  0
SPLINE
  5
62
330
1F
100
AcDbEntity
  8
layer 1
 62
   250
100
AcDbSpline
210
0.0
220
0.0
230
1.0
 70
     9
 71
     3
 72
   152
 73
   148
 74
     0
 42
0.0000000001
 43
0.0000000001
 40
0.0
 40
0.0
 40
0.0
 40
0.0
 40
0.0263157894736842
 40
0.0263157894736842
 40
0.0263157894736842
 40
0.0263157894736842
 40
0.0526315789473684
 40
0.0526315789473684
 40
0.0526315789473684
 40
0.0526315789473684
 40
0.0789473684210526
 40
0.0789473684210526
 40
0.0789473684210526
 40
0.0789473684210526
 40
0.1052631578947368
 40
0.1052631578947368
 40
0.1052631578947368
 40
0.1052631578947368
 40
0.131578947368421
 40
0.131578947368421
 40
0.131578947368421
 40
0.131578947368421
 40
0.1578947368421053
 40
0.1578947368421053
 40
0.1578947368421053
 40
0.1578947368421053
 40
0.1842105263157895
 40
0.1842105263157895
 40
0.1842105263157895
 40
0.1842105263157895
 40
0.2105263157894737
 40
0.2105263157894737
 40
0.2105263157894737
 40
0.2105263157894737
 40
0.2368421052631579
 40
0.2368421052631579
 40
0.2368421052631579
 40
0.2368421052631579
 40
0.2631578947368421
 40
0.2631578947368421
 40
0.2631578947368421
 40
0.2631578947368421
 40
0.2894736842105263
 40
0.2894736842105263
 40
0.2894736842105263
 40
0.2894736842105263
 40
0.3157894736842105
 40
0.3157894736842105
 40
0.3157894736842105
 40
0.3157894736842105
 40
0.3421052631578947
 40
0.3421052631578947
 40
0.3421052631578947
 40
0.3421052631578947
 40
0.3684210526315789
 40
0.3684210526315789
 40
0.3684210526315789
 40
0.3684210526315789
 40
0.3947368421052632
 40
0.3947368421052632
 40
0.3947368421052632
 40
0.3947368421052632
 40
0.4210526315789473
 40
0.4210526315789473
 40
0.4210526315789473
 40
0.4210526315789473
 40
0.4473684210526316
 40
0.4473684210526316
 40
0.4473684210526316
 40
0.4473684210526316
 40
0.4736842105263159
 40
0.4736842105263159
 40
0.4736842105263159
 40
0.4736842105263159
 40
0.5
 40
0.5
 40
0.5
 40
0.5
 40
0.5263157894736842
 40
0.5263157894736842
 40
0.5263157894736842
 40
0.5263157894736842
 40
0.5526315789473685
 40
0.5526315789473685
 40
0.5526315789473685
 40
0.5526315789473685
 40
0.5789473684210527
 40
0.5789473684210527
 40
0.5789473684210527
 40
0.5789473684210527
 40
0.6052631578947369
 40
0.6052631578947369
 40
0.6052631578947369
 40
0.6052631578947369
 40
0.6315789473684211
 40
0.6315789473684211
 40
0.6315789473684211
 40
0.6315789473684211
 40
0.6578947368421053
 40
0.6578947368421053
 40
0.6578947368421053
 40
0.6578947368421053
 40
0.6842105263157895
 40
0.6842105263157895
 40
0.6842105263157895
 40
0.6842105263157895
 40
0.7105263157894737
 40
0.7105263157894737
 40
0.7105263157894737
 40
0.7105263157894737
 40
0.7368421052631579
 40
0.7368421052631579
 40
0.7368421052631579
 40
0.7368421052631579
 40
0.7631578947368422
 40
0.7631578947368422
 40
0.7631578947368422
 40
0.7631578947368422
 40
0.7894736842105264
 40
0.7894736842105264
 40
0.7894736842105264
 40
0.7894736842105264
 40
0.8157894736842104
 40
0.8157894736842104
 40
0.8157894736842104
 40
0.8157894736842104
 40
0.8421052631578946
 40
0.8421052631578946
 40
0.8421052631578946
 40
0.8421052631578946
 40
0.8684210526315791
 40
0.8684210526315791
 40
0.8684210526315791
 40
0.8684210526315791
 40
0.8947368421052631
 40
0.8947368421052631
 40
0.8947368421052631
 40
0.8947368421052631
 40
0.9210526315789472
 40
0.9210526315789472
 40
0.9210526315789472
 40
0.9210526315789472
 40
0.9473684210526316
 40
0.9473684210526316
 40
0.9473684210526316
 40
0.9473684210526316
 40
1.0
 40
1.0
 40
1.0
 40
1.0
 10
26.52864
 20
-9.87376
 30
0.0
 10
26.55815
 20
-9.88536
 30
0.0
 10
26.57968
 20
-9.905749999999999
 30
0.0
 10
26.59323
 20
-9.93495
 30
0.0
 10
26.59323
 20
-9.93495
 30
0.0
 10
26.60679
 20
-9.964160000000001
 30
0.0
 10
26.61379
 20
-9.99866
 30
0.0
 10
26.61425
 20
-10.03846
 30
0.0
 10
26.61425
 20
-10.03846
 30
0.0
 10
26.61516
 20
-10.11807
 30
0.0
 10
26.58952
 20
-10.23084
 30
0.0
 10
26.53734
 20
-10.37677
 30
0.0
 10
26.53734
 20
-10.37677
 30
0.0
 10
26.48515
 20
-10.5227
 30
0.0
 10
26.43388
 20
-10.66314
 30
0.0
 10
26.38353
 20
-10.7981
 30
0.0
 10
26.38353
 20
-10.7981
 30
0.0
 10
26.42539000000001
 20
-10.86229
 30
0.0
 10
26.45094
 20
-10.9339
 30
0.0
 10
26.46016
 20
-11.01292
 30
0.0
 10
26.46016
 20
-11.01292
 30
0.0
 10
26.46939
 20
-11.09193
 30
0.0
 10
26.48428
 20
-11.13132
 30
0.0
 10
26.50484
 20
-11.13107
 30
0.0
 10
26.50484
 20
-11.13107
 30
0.0
 10
26.52345
 20
-11.13085
 30
0.0
 10
26.54347
 20
-11.12639
 30
0.0
 10
26.56491
 20
-11.11767
 30
0.0
 10
26.56491
 20
-11.11767
 30
0.0
 10
26.58635
 20
-11.10896
 30
0.0
 10
26.60099000000001
 20
-11.10456
 30
0.0
 10
26.60882
 20
-11.10447
 30
0.0
 10
26.60882
 20
-11.10447
 30
0.0
 10
26.65483
 20
-11.10392
 30
0.0
 10
26.69473
 20
-11.12485
 30
0.0
 10
26.72851
 20
-11.1675
 30
0.0
 10
26.72851
 20
-11.1675
 30
0.0
 10
26.76229000000001
 20
-11.21014
 30
0.0
 10
26.77957
 20
-11.26542
 30
0.0
 10
26.78035
 20
-11.33359
 30
0.0
 10
26.78035
 20
-11.33359
 30
0.0
 10
26.78079
 20
-11.3719
 30
0.0
 10
26.76307
 20
-11.4067
 30
0.0
 10
26.7272
 20
-11.43773
 30
0.0
 10
26.7272
 20
-11.43773
 30
0.0
 10
26.69132
 20
-11.46876
 30
0.0
 10
26.65136
 20
-11.48466
 30
0.0
 10
26.6073
 20
-11.48518
 30
0.0
 10
26.6073
 20
-11.48518
 30
0.0
 10
26.55541
 20
-11.48579
 30
0.0
 10
26.51083
 20
-11.46168
 30
0.0
 10
26.47355
 20
-11.41286
 30
0.0
 10
26.47355
 20
-11.41286
 30
0.0
 10
26.43628
 20
-11.36403
 30
0.0
 10
26.41718
 20
-11.29932
 30
0.0
 10
26.41625
 20
-11.21871
 30
0.0
 10
26.41625
 20
-11.21871
 30
0.0
 10
26.41615
 20
-11.20975
 30
0.0
 10
26.41605
 20
-11.2008
 30
0.0
 10
26.41595
 20
-11.19184
 30
0.0
 10
26.41595
 20
-11.19184
 30
0.0
 10
26.41777
 20
-11.17988
 30
0.0
 10
26.4191
 20
-11.16841
 30
0.0
 10
26.41996
 20
-11.15746
 30
0.0
 10
26.41996
 20
-11.15746
 30
0.0
 10
26.42081
 20
-11.1465
 30
0.0
 10
26.42119
 20
-11.13704
 30
0.0
 10
26.4211
 20
-11.12908
 30
0.0
 10
26.4211
 20
-11.12908
 30
0.0
 10
26.42061
 20
-11.08629
 30
0.0
 10
26.41061
 20
-11.04684
 30
0.0
 10
26.39111
 20
-11.01075
 30
0.0
 10
26.39111
 20
-11.01075
 30
0.0
 10
26.3716
 20
-10.97465
 30
0.0
 10
26.34166
 20
-10.94639
 30
0.0
 10
26.30128
 20
-10.92597
 30
0.0
 10
26.30128
 20
-10.92597
 30
0.0
 10
26.23598
 20
-10.95261
 30
0.0
 10
26.20237
 20
-11.01024
 30
0.0
 10
26.20044
 20
-11.09884
 30
0.0
 10
26.20044
 20
-11.09884
 30
0.0
 10
26.19852
 20
-11.18744
 30
0.0
 10
26.19693
 20
-11.26261
 30
0.0
 10
26.19568
 20
-11.32433
 30
0.0
 10
26.19568
 20
-11.32433
 30
0.0
 10
26.19625
 20
-11.37409
 30
0.0
 10
26.17861
 20
-11.4156
 30
0.0
 10
26.14276
 20
-11.44887
 30
0.0
 10
26.14276
 20
-11.44887
 30
0.0
 10
26.10691
 20
-11.48214
 30
0.0
 10
26.065
 20
-11.49905
 30
0.0
 10
26.01703
 20
-11.49962
 30
0.0
 10
26.01703
 20
-11.49962
 30
0.0
 10
25.96906
 20
-11.50019
 30
0.0
 10
25.92647
 20
-11.47904
 30
0.0
 10
25.88926
 20
-11.43619
 30
0.0
 10
25.88926
 20
-11.43619
 30
0.0
 10
25.85205
 20
-11.39333
 30
0.0
 10
25.8332
 20
-11.35051
 30
0.0
 10
25.83271
 20
-11.30772
 30
0.0
 10
25.83271
 20
-11.30772
 30
0.0
 10
25.83213
 20
-11.25697
 30
0.0
 10
25.84997
 20
-11.21172
 30
0.0
 10
25.88623
 20
-11.17198
 30
0.0
 10
25.88623
 20
-11.17198
 30
0.0
 10
25.9225
 20
-11.13224
 30
0.0
 10
25.96364
 20
-11.11209
 30
0.0
 10
26.00965
 20
-11.11155
 30
0.0
 10
26.00965
 20
-11.11155
 30
0.0
 10
26.03217
 20
-11.11128
 30
0.0
 10
26.05671
 20
-11.11697
 30
0.0
 10
26.08328
 20
-11.12859
 30
0.0
 10
26.08328
 20
-11.12859
 30
0.0
 10
26.12147
 20
-11.12814
 30
0.0
 10
26.14327
 20
-11.08708
 30
0.0
 10
26.1487
 20
-11.0054
 30
0.0
 10
26.1487
 20
-11.0054
 30
0.0
 10
26.15413
 20
-10.92372
 30
0.0
 10
26.17269
 20
-10.85533
 30
0.0
 10
26.20437
 20
-10.80021
 30
0.0
 10
26.20437
 20
-10.80021
 30
0.0
 10
26.19098
 20
-10.74265
 30
0.0
 10
26.1596
 20
-10.65295
 30
0.0
 10
26.11023
 20
-10.53111
 30
0.0
 10
26.11023
 20
-10.53111
 30
0.0
 10
26.06085
 20
-10.40928
 30
0.0
 10
26.02427
 20
-10.31441
 30
0.0
 10
26.00049
 20
-10.24652
 30
0.0
 10
26.00049
 20
-10.24652
 30
0.0
 10
25.9767
 20
-10.17862
 30
0.0
 10
25.96447
 20
-10.11532
 30
0.0
 10
25.9638
 20
-10.0566
 30
0.0
 10
25.9638
 20
-10.0566
 30
0.0
 10
25.96335
 20
-10.01779
 30
0.0
 10
25.96908
 20
-9.983639999999999
 30
0.0
 10
25.98098
 20
-9.954139999999998
 30
0.0
 10
25.98098
 20
-9.954139999999998
 30
0.0
 10
25.99289
 20
-9.92463
 30
0.0
 10
26.01292
 20
-9.89976
 30
0.0
 10
26.04108
 20
-9.87953
 30
0.0
 10
26.04108
 20
-9.87953
 30
0.0
 10
26.04108
 20
-9.87953
 30
0.0
 10
26.29689
 20
-10.54234
 30
0.0
 10
26.29689
 20
-10.54234
 30
0.0
 10
26.29689
 20
-10.54234
 30
0.0
 10
26.29689
 20
-10.54234
 30
0.0
 10
26.52864
 20
-9.87376
 30
0.0
 10
26.52864
 20
-9.87376
 30
0.0
  0
SPLINE
  5
63
330
1F
100
AcDbEntity
  8
layer 1
 62
   250
100
AcDbSpline
210
0.0
220
0.0
230
1.0
 70
     9
 71
     3
 72
    36
 73
    32
 74
     0
 42
0.0000000001
 43
0.0000000001
 40
0.0
 40
0.0
 40
0.0
 40
0.0
 40
0.1111111111111111
 40
0.1111111111111111
 40
0.1111111111111111
 40
0.1111111111111111
 40
0.2222222222222222
 40
0.2222222222222222
 40
0.2222222222222222
 40
0.2222222222222222
 40
0.3333333333333333
 40
0.3333333333333333
 40
0.3333333333333333
 40
0.3333333333333333
 40
0.4444444444444445
 40
0.4444444444444445
 40
0.4444444444444445
 40
0.4444444444444445
 40
0.5555555555555556
 40
0.5555555555555556
 40
0.5555555555555556
 40
0.5555555555555556
 40
0.6666666666666666
 40
0.6666666666666666
 40
0.6666666666666666
 40
0.6666666666666666
 40
0.7777777777777778
 40
0.7777777777777778
 40
0.7777777777777778
 40
0.7777777777777778
 40
1.0
 40
1.0
 40
1.0
 40
1.0
 10
26.01051
 20
-11.18619
 30
0.0
 10
25.9782
 20
-11.18657
 30
0.0
 10
25.95163
 20
-11.19659
 30
0.0
 10
25.9308
 20
-11.21624
 30
0.0
 10
25.9308
 20
-11.21624
 30
0.0
 10
25.90998
 20
-11.23589
 30
0.0
 10
25.89982
 20
-11.26861
 30
0.0
 10
25.90035
 20
-11.31439
 30
0.0
 10
25.90035
 20
-11.31439
 30
0.0
 10
25.90068
 20
-11.34324
 30
0.0
 10
25.91371
 20
-11.36947
 30
0.0
 10
25.93943
 20
-11.39305
 30
0.0
 10
25.93943
 20
-11.39305
 30
0.0
 10
25.96516
 20
-11.41663
 30
0.0
 10
25.9932
 20
-11.42824
 30
0.0
 10
26.02355
 20
-11.42788
 30
0.0
 10
26.02355
 20
-11.42788
 30
0.0
 10
26.04999
 20
-11.42757
 30
0.0
 10
26.0746
 20
-11.41832
 30
0.0
 10
26.09741
 20
-11.40014
 30
0.0
 10
26.09741
 20
-11.40014
 30
0.0
 10
26.12021
 20
-11.38195
 30
0.0
 10
26.13141
 20
-11.35544
 30
0.0
 10
26.13101
 20
-11.32062
 30
0.0
 10
26.13101
 20
-11.32062
 30
0.0
 10
26.13088
 20
-11.30867
 30
0.0
 10
26.12569
 20
-11.28311
 30
0.0
 10
26.11545
 20
-11.24391
 30
0.0
 10
26.11545
 20
-11.24391
 30
0.0
 10
26.10521
 20
-11.20472
 30
0.0
 10
26.07023
 20
-11.18548
 30
0.0
 10
26.01051
 20
-11.18619
 30
0.0
  0
SPLINE
  5
64
330
1F
100
AcDbEntity
  8
layer 1
 62
   250
100
AcDbSpline
210
0.0
220
0.0
230
1.0
 70
     9
 71
     3
 72
    36
 73
    32
 74
     0
 42
0.0000000001
 43
0.0000000001
 40
0.0
 40
0.0
 40
0.0
 40
0.0
 40
0.1111111111111111
 40
0.1111111111111111
 40
0.1111111111111111
 40
0.1111111111111111
 40
0.2222222222222222
 40
0.2222222222222222
 40
0.2222222222222222
 40
0.2222222222222222
 40
0.3333333333333333
 40
0.3333333333333333
 40
0.3333333333333333
 40
0.3333333333333333
 40
0.4444444444444445
 40
0.4444444444444445
 40
0.4444444444444445
 40
0.4444444444444445
 40
0.5555555555555556
 40
0.5555555555555556
 40
0.5555555555555556
 40
0.5555555555555556
 40
0.6666666666666666
 40
0.6666666666666666
 40
0.6666666666666666
 40
0.6666666666666666
 40
0.7777777777777778
 40
0.7777777777777778
 40
0.7777777777777778
 40
0.7777777777777778
 40
1.0
 40
1.0
 40
1.0
 40
1.0
 10
26.58618
 20
-11.17938
 30
0.0
 10
26.55881
 20
-11.18368
 30
0.0
 10
26.53592
 20
-11.19441
 30
0.0
 10
26.51752
 20
-11.21154
 30
0.0
 10
26.51752
 20
-11.21154
 30
0.0
 10
26.49911
 20
-11.22868
 30
0.0
 10
26.49006
 20
-11.25068
 30
0.0
 10
26.49036
 20
-11.27755
 30
0.0
 10
26.49036
 20
-11.27755
 30
0.0
 10
26.49089
 20
-11.32333
 30
0.0
 10
26.50353
 20
-11.35876
 30
0.0
 10
26.5283
 20
-11.38385
 30
0.0
 10
26.5283
 20
-11.38385
 30
0.0
 10
26.55307
 20
-11.40893
 30
0.0
 10
26.58013
 20
-11.4213
 30
0.0
 10
26.60951
 20
-11.42096
 30
0.0
 10
26.60951
 20
-11.42096
 30
0.0
 10
26.63692
 20
-11.42063
 30
0.0
 10
26.66177
 20
-11.40989
 30
0.0
 10
26.68404000000001
 20
-11.38872
 30
0.0
 10
26.68404000000001
 20
-11.38872
 30
0.0
 10
26.70632
 20
-11.36756
 30
0.0
 10
26.71727000000001
 20
-11.34056
 30
0.0
 10
26.7169
 20
-11.30772
 30
0.0
 10
26.7169
 20
-11.30772
 30
0.0
 10
26.7165
 20
-11.27289
 30
0.0
 10
26.70317
 20
-11.24169
 30
0.0
 10
26.6769
 20
-11.21414
 30
0.0
 10
26.6769
 20
-11.21414
 30
0.0
 10
26.65064
 20
-11.18658
 30
0.0
 10
26.6204
 20
-11.17499
 30
0.0
 10
26.58618
 20
-11.17938
 30
0.0
  0
SPLINE
  5
C0
330
1F
100
AcDbEntity
  8
layer 1
 62
   250
100
AcDbSpline
210
0.0
220
0.0
230
1.0
 70
    11
 71
     3
 72
    92
 73
    88
 74
     0
 42
0.0000000001
 43
0.0000000001
 40
0.0
 40
0.0
 40
0.0
 40
0.0
 40
0.0434782608695652
 40
0.0434782608695652
 40
0.0434782608695652
 40
0.0652173913043478
 40
0.0869565217391304
 40
0.0869565217391304
 40
0.0869565217391304
 40
0.108695652173913
 40
0.1304347826086956
 40
0.1304347826086956
 40
0.1304347826086956
 40
0.1521739130434782
 40
0.1739130434782609
 40
0.1739130434782609
 40
0.1739130434782609
 40
0.1956521739130435
 40
0.2173913043478261
 40
0.2173913043478261
 40
0.2173913043478261
 40
0.2391304347826087
 40
0.2608695652173913
 40
0.2608695652173913
 40
0.2608695652173913
 40
0.2826086956521739
 40
0.3043478260869565
 40
0.3043478260869565
 40
0.3043478260869565
 40
0.3260869565217391
 40
0.3478260869565217
 40
0.3478260869565217
 40
0.3478260869565217
 40
0.3695652173913043
 40
0.391304347826087
 40
0.391304347826087
 40
0.391304347826087
 40
0.4130434782608697
 40
0.4347826086956523
 40
0.4347826086956523
 40
0.4347826086956523
 40
0.4565217391304348
 40
0.4782608695652174
 40
0.4782608695652174
 40
0.4782608695652174
 40
0.5
 40
0.5217391304347827
 40
0.5217391304347827
 40
0.5217391304347827
 40
0.5434782608695653
 40
0.5652173913043478
 40
0.5652173913043478
 40
0.5652173913043478
 40
0.5869565217391304
 40
0.6086956521739131
 40
0.6086956521739131
 40
0.6086956521739131
 40
0.6304347826086957
 40
0.6521739130434784
 40
0.6521739130434784
 40
0.6521739130434784
 40
0.6739130434782609
 40
0.6956521739130435
 40
0.6956521739130435
 40
0.6956521739130435
 40
0.7173913043478261
 40
0.7391304347826086
 40
0.7391304347826086
 40
0.7391304347826086
 40
0.7608695652173914
 40
0.7826086956521741
 40
0.7826086956521741
 40
0.7826086956521741
 40
0.8043478260869566
 40
0.826086956521739
 40
0.826086956521739
 40
0.826086956521739
 40
0.8478260869565216
 40
0.8695652173913043
 40
0.8695652173913043
 40
0.8695652173913043
 40
0.8913043478260869
 40
0.9130434782608695
 40
0.9130434782608695
 40
0.9130434782608695
 40
0.9565217391304347
 40
1.0
 40
1.0
 40
1.0
 40
1.0
 10
18.94844
 20
17.17118999999971
 30
0.0
 10
18.94844
 20
17.17118999999971
 30
0.0
 10
18.94844
 20
17.1337199999997
 30
0.0
 10
18.94844
 20
17.1337199999997
 30
0.0
 10
18.94844
 20
17.1337199999997
 30
0.0
 10
18.94844
 20
17.1337199999997
 30
0.0
 10
18.73864
 20
17.1337199999997
 30
0.0
 10
18.73864
 20
17.1337199999997
 30
0.0
 10
18.73864
 20
17.1337199999997
 30
0.0
 10
18.73834
 20
17.1431099999997
 30
0.0
 10
18.73982
 20
17.1521199999997
 30
0.0
 10
18.74315
 20
17.1607699999997
 30
0.0
 10
18.74315
 20
17.1607699999997
 30
0.0
 10
18.74847
 20
17.1750999999997
 30
0.0
 10
18.75704
 20
17.1891499999997
 30
0.0
 10
18.76879
 20
17.20303999999971
 30
0.0
 10
18.76879
 20
17.20303999999971
 30
0.0
 10
18.78062
 20
17.2168599999997
 30
0.0
 10
18.79761
 20
17.2328899999997
 30
0.0
 10
18.81978
 20
17.25106999999971
 30
0.0
 10
18.81978
 20
17.25106999999971
 30
0.0
 10
18.85429
 20
17.27937999999971
 30
0.0
 10
18.87765
 20
17.3017699999997
 30
0.0
 10
18.88977
 20
17.3183199999997
 30
0.0
 10
18.88977
 20
17.3183199999997
 30
0.0
 10
18.90188
 20
17.3347999999997
 30
0.0
 10
18.90794
 20
17.3504699999997
 30
0.0
 10
18.90794
 20
17.3651699999997
 30
0.0
 10
18.90794
 20
17.3651699999997
 30
0.0
 10
18.90794
 20
17.3806199999997
 30
0.0
 10
18.9024
 20
17.3936299999997
 30
0.0
 10
18.89139
 20
17.4042699999997
 30
0.0
 10
18.89139
 20
17.4042699999997
 30
0.0
 10
18.88031
 20
17.4148399999997
 30
0.0
 10
18.8659
 20
17.4201599999997
 30
0.0
 10
18.84816
 20
17.4201599999997
 30
0.0
 10
18.84816
 20
17.4201599999997
 30
0.0
 10
18.82939
 20
17.4201599999997
 30
0.0
 10
18.81439
 20
17.4145399999997
 30
0.0
 10
18.80315
 20
17.4032299999997
 30
0.0
 10
18.80315
 20
17.4032299999997
 30
0.0
 10
18.79185
 20
17.3919999999997
 30
0.0
 10
18.78616
 20
17.3764099999997
 30
0.0
 10
18.78601
 20
17.3565299999997
 30
0.0
 10
18.78601
 20
17.3565299999997
 30
0.0
 10
18.78601
 20
17.3565299999997
 30
0.0
 10
18.74596
 20
17.3605899999997
 30
0.0
 10
18.74596
 20
17.3605899999997
 30
0.0
 10
18.74596
 20
17.3605899999997
 30
0.0
 10
18.74869
 20
17.3905199999997
 30
0.0
 10
18.75904
 20
17.4132799999997
 30
0.0
 10
18.77692
 20
17.4289499999997
 30
0.0
 10
18.77692
 20
17.4289499999997
 30
0.0
 10
18.7948
 20
17.4446199999997
 30
0.0
 10
18.8189
 20
17.4524499999997
 30
0.0
 10
18.84905
 20
17.4524499999997
 30
0.0
 10
18.84905
 20
17.4524499999997
 30
0.0
 10
18.87949
 20
17.4524499999997
 30
0.0
 10
18.90358
 20
17.4439499999997
 30
0.0
 10
18.92132
 20
17.4270999999997
 30
0.0
 10
18.92132
 20
17.4270999999997
 30
0.0
 10
18.93913
 20
17.4101799999997
 30
0.0
 10
18.948
 20
17.3892699999997
 30
0.0
 10
18.948
 20
17.3642899999997
 30
0.0
 10
18.948
 20
17.3642899999997
 30
0.0
 10
18.948
 20
17.35157999999971
 30
0.0
 10
18.94541
 20
17.33908999999971
 30
0.0
 10
18.94017
 20
17.32681999999971
 30
0.0
 10
18.94017
 20
17.32681999999971
 30
0.0
 10
18.93499
 20
17.3145499999997
 30
0.0
 10
18.92635
 20
17.3016199999997
 30
0.0
 10
18.9143
 20
17.2880999999997
 30
0.0
 10
18.9143
 20
17.2880999999997
 30
0.0
 10
18.90225
 20
17.2744999999997
 30
0.0
 10
18.88223
 20
17.2558799999997
 30
0.0
 10
18.85422
 20
17.2322299999997
 30
0.0
 10
18.85422
 20
17.2322299999997
 30
0.0
 10
18.83087
 20
17.2125699999997
 30
0.0
 10
18.81587
 20
17.19926999999971
 30
0.0
 10
18.80921
 20
17.1922499999997
 30
0.0
 10
18.80921
 20
17.1922499999997
 30
0.0
 10
18.80256
 20
17.18529999999971
 30
0.0
 10
18.79709
 20
17.1782799999997
 30
0.0
 10
18.79273
 20
17.17118999999971
 30
0.0
 10
18.79273
 20
17.17118999999971
 30
0.0
 10
18.79273
 20
17.17118999999971
 30
0.0
 10
18.94844
 20
17.17118999999971
 30
0.0
 10
18.94844
 20
17.17118999999971
 30
0.0
  0
SPLINE
  5
C1
330
1F
100
AcDbEntity
  8
layer 1
 62
   250
100
AcDbSpline
210
0.0
220
0.0
230
1.0
 70
     9
 71
     3
 72
    52
 73
    48
 74
     0
 42
0.0000000001
 43
0.0000000001
 40
0.0
 40
0.0
 40
0.0
 40
0.0
 40
0.0769230769230769
 40
0.0769230769230769
 40
0.0769230769230769
 40
0.1153846153846154
 40
0.1538461538461539
 40
0.1538461538461539
 40
0.1538461538461539
 40
0.1923076923076923
 40
0.2307692307692308
 40
0.2307692307692308
 40
0.2307692307692308
 40
0.2692307692307692
 40
0.3076923076923077
 40
0.3076923076923077
 40
0.3076923076923077
 40
0.3461538461538462
 40
0.3846153846153846
 40
0.3846153846153846
 40
0.3846153846153846
 40
0.4230769230769232
 40
0.4615384615384616
 40
0.4615384615384616
 40
0.4615384615384616
 40
0.5
 40
0.5384615384615385
 40
0.5384615384615385
 40
0.5384615384615385
 40
0.5769230769230769
 40
0.6153846153846155
 40
0.6153846153846155
 40
0.6153846153846155
 40
0.6538461538461539
 40
0.6923076923076924
 40
0.6923076923076924
 40
0.6923076923076924
 40
0.7307692307692309
 40
0.7692307692307693
 40
0.7692307692307693
 40
0.7692307692307693
 40
0.8076923076923076
 40
0.8461538461538461
 40
0.8461538461538461
 40
0.8461538461538461
 40
0.9230769230769231
 40
1.0
 40
1.0
 40
1.0
 40
1.0
 10
19.01483
 20
17.2902399999997
 30
0.0
 10
19.01483
 20
17.3277799999997
 30
0.0
 10
19.01867
 20
17.3580099999997
 30
0.0
 10
19.02643
 20
17.38083999999971
 30
0.0
 10
19.02643
 20
17.38083999999971
 30
0.0
 10
19.03412
 20
17.4037499999997
 30
0.0
 10
19.04565
 20
17.42140999999971
 30
0.0
 10
19.06087
 20
17.4338299999997
 30
0.0
 10
19.06087
 20
17.4338299999997
 30
0.0
 10
19.07609
 20
17.44623999999971
 30
0.0
 10
19.09523
 20
17.4524499999997
 30
0.0
 10
19.11829
 20
17.4524499999997
 30
0.0
 10
19.11829
 20
17.4524499999997
 30
0.0
 10
19.13536
 20
17.4524499999997
 30
0.0
 10
19.15029
 20
17.4489799999997
 30
0.0
 10
19.16315
 20
17.4420999999997
 30
0.0
 10
19.16315
 20
17.4420999999997
 30
0.0
 10
19.17601
 20
17.4353099999997
 30
0.0
 10
19.18657
 20
17.4253999999997
 30
0.0
 10
19.195
 20
17.41246999999971
 30
0.0
 10
19.195
 20
17.41246999999971
 30
0.0
 10
19.20335
 20
17.3995399999997
 30
0.0
 10
19.20993
 20
17.3837999999997
 30
0.0
 10
19.21466
 20
17.3652499999997
 30
0.0
 10
19.21466
 20
17.3652499999997
 30
0.0
 10
19.21946
 20
17.3466999999997
 30
0.0
 10
19.22183
 20
17.32171999999971
 30
0.0
 10
19.22183
 20
17.2902399999997
 30
0.0
 10
19.22183
 20
17.2902399999997
 30
0.0
 10
19.22183
 20
17.2529899999997
 30
0.0
 10
19.21798
 20
17.22298999999971
 30
0.0
 10
19.21037
 20
17.20007999999971
 30
0.0
 10
19.21037
 20
17.20007999999971
 30
0.0
 10
19.20268
 20
17.1771699999997
 30
0.0
 10
19.19123
 20
17.1595099999997
 30
0.0
 10
19.17601
 20
17.1470199999997
 30
0.0
 10
19.17601
 20
17.1470199999997
 30
0.0
 10
19.16078
 20
17.13452999999971
 30
0.0
 10
19.14157
 20
17.1283299999997
 30
0.0
 10
19.11829
 20
17.1283299999997
 30
0.0
 10
19.11829
 20
17.1283299999997
 30
0.0
 10
19.0877
 20
17.1283299999997
 30
0.0
 10
19.06368
 20
17.1392599999997
 30
0.0
 10
19.04624
 20
17.1612099999997
 30
0.0
 10
19.04624
 20
17.1612099999997
 30
0.0
 10
19.02532
 20
17.18758999999971
 30
0.0
 10
19.01483
 20
17.23067999999971
 30
0.0
 10
19.01483
 20
17.2902399999997
 30
0.0
  0
SPLINE
  5
C2
330
1F
100
AcDbEntity
  8
layer 1
 62
   250
100
AcDbSpline
210
0.0
220
0.0
230
1.0
 70
    11
 71
     3
 72
    36
 73
    32
 74
     0
 42
0.0000000001
 43
0.0000000001
 40
0.0
 40
0.0
 40
0.0
 40
0.0
 40
0.1111111111111111
 40
0.1111111111111111
 40
0.1111111111111111
 40
0.1666666666666666
 40
0.2222222222222222
 40
0.2222222222222222
 40
0.2222222222222222
 40
0.2777777777777778
 40
0.3333333333333333
 40
0.3333333333333333
 40
0.3333333333333333
 40
0.3888888888888888
 40
0.4444444444444445
 40
0.4444444444444445
 40
0.4444444444444445
 40
0.5
 40
0.5555555555555556
 40
0.5555555555555556
 40
0.5555555555555556
 40
0.6111111111111112
 40
0.6666666666666666
 40
0.6666666666666666
 40
0.6666666666666666
 40
0.7222222222222223
 40
0.7777777777777778
 40
0.7777777777777778
 40
0.7777777777777778
 40
0.8888888888888889
 40
1.0
 40
1.0
 40
1.0
 40
1.0
 10
19.05488
 20
17.2902399999997
 30
0.0
 10
19.05488
 20
17.2381399999997
 30
0.0
 10
19.06102
 20
17.20347999999971
 30
0.0
 10
19.07321
 20
17.18618999999971
 30
0.0
 10
19.07321
 20
17.18618999999971
 30
0.0
 10
19.08541
 20
17.16896999999971
 30
0.0
 10
19.10041
 20
17.16031999999971
 30
0.0
 10
19.11829
 20
17.16031999999971
 30
0.0
 10
19.11829
 20
17.16031999999971
 30
0.0
 10
19.13625
 20
17.16031999999971
 30
0.0
 10
19.15125
 20
17.16903999999971
 30
0.0
 10
19.16344
 20
17.1863399999997
 30
0.0
 10
19.16344
 20
17.1863399999997
 30
0.0
 10
19.17564
 20
17.2036299999997
 30
0.0
 10
19.18177
 20
17.23828999999971
 30
0.0
 10
19.18177
 20
17.2902399999997
 30
0.0
 10
19.18177
 20
17.2902399999997
 30
0.0
 10
19.18177
 20
17.34248999999971
 30
0.0
 10
19.17564
 20
17.3772199999997
 30
0.0
 10
19.16344
 20
17.39436999999971
 30
0.0
 10
19.16344
 20
17.39436999999971
 30
0.0
 10
19.15125
 20
17.4115799999997
 30
0.0
 10
19.1361
 20
17.4201599999997
 30
0.0
 10
19.11792
 20
17.4201599999997
 30
0.0
 10
19.11792
 20
17.4201599999997
 30
0.0
 10
19.09996
 20
17.4201599999997
 30
0.0
 10
19.0857
 20
17.41253999999971
 30
0.0
 10
19.07499
 20
17.3973999999997
 30
0.0
 10
19.07499
 20
17.3973999999997
 30
0.0
 10
19.06161
 20
17.3781099999997
 30
0.0
 10
19.05488
 20
17.34233999999971
 30
0.0
 10
19.05488
 20
17.2902399999997
 30
0.0
  0
SPLINE
  5
C3
330
1F
100
AcDbEntity
  8
layer 1
 62
   250
100
AcDbSpline
210
0.0
220
0.0
230
1.0
 70
     9
 71
     3
 72
    52
 73
    48
 74
     0
 42
0.0000000001
 43
0.0000000001
 40
0.0
 40
0.0
 40
0.0
 40
0.0
 40
0.0769230769230769
 40
0.0769230769230769
 40
0.0769230769230769
 40
0.1153846153846154
 40
0.1538461538461539
 40
0.1538461538461539
 40
0.1538461538461539
 40
0.1923076923076923
 40
0.2307692307692308
 40
0.2307692307692308
 40
0.2307692307692308
 40
0.2692307692307692
 40
0.3076923076923077
 40
0.3076923076923077
 40
0.3076923076923077
 40
0.3461538461538462
 40
0.3846153846153846
 40
0.3846153846153846
 40
0.3846153846153846
 40
0.4230769230769232
 40
0.4615384615384616
 40
0.4615384615384616
 40
0.4615384615384616
 40
0.5
 40
0.5384615384615385
 40
0.5384615384615385
 40
0.5384615384615385
 40
0.5769230769230769
 40
0.6153846153846155
 40
0.6153846153846155
 40
0.6153846153846155
 40
0.6538461538461539
 40
0.6923076923076924
 40
0.6923076923076924
 40
0.6923076923076924
 40
0.7307692307692309
 40
0.7692307692307693
 40
0.7692307692307693
 40
0.7692307692307693
 40
0.8076923076923076
 40
0.8461538461538461
 40
0.8461538461538461
 40
0.8461538461538461
 40
0.9230769230769231
 40
1.0
 40
1.0
 40
1.0
 40
1.0
 10
19.83357546715408
 20
17.2902399999997
 30
0.0
 10
19.83357546715408
 20
17.3277799999997
 30
0.0
 10
19.83741546715408
 20
17.3580099999997
 30
0.0
 10
19.84517546715408
 20
17.38083999999971
 30
0.0
 10
19.84517546715408
 20
17.38083999999971
 30
0.0
 10
19.85286546715408
 20
17.4037499999997
 30
0.0
 10
19.86439546715408
 20
17.42140999999971
 30
0.0
 10
19.87961546715408
 20
17.4338299999997
 30
0.0
 10
19.87961546715408
 20
17.4338299999997
 30
0.0
 10
19.89483546715408
 20
17.44623999999971
 30
0.0
 10
19.91397546715408
 20
17.4524499999997
 30
0.0
 10
19.93703546715408
 20
17.4524499999997
 30
0.0
 10
19.93703546715408
 20
17.4524499999997
 30
0.0
 10
19.95410546715408
 20
17.4524499999997
 30
0.0
 10
19.96903546715408
 20
17.4489799999997
 30
0.0
 10
19.98189546715408
 20
17.4420999999997
 30
0.0
 10
19.98189546715408
 20
17.4420999999997
 30
0.0
 10
19.99475546715408
 20
17.4353099999997
 30
0.0
 10
20.00531546715409
 20
17.4253999999997
 30
0.0
 10
20.01374546715409
 20
17.41246999999971
 30
0.0
 10
20.01374546715409
 20
17.41246999999971
 30
0.0
 10
20.02209546715409
 20
17.3995399999997
 30
0.0
 10
20.02867546715408
 20
17.3837999999997
 30
0.0
 10
20.03340546715408
 20
17.3652499999997
 30
0.0
 10
20.03340546715408
 20
17.3652499999997
 30
0.0
 10
20.03820546715408
 20
17.3466999999997
 30
0.0
 10
20.04057546715408
 20
17.32171999999971
 30
0.0
 10
20.04057546715408
 20
17.2902399999997
 30
0.0
 10
20.04057546715408
 20
17.2902399999997
 30
0.0
 10
20.04057546715408
 20
17.2529899999997
 30
0.0
 10
20.03672546715408
 20
17.22298999999971
 30
0.0
 10
20.02911546715409
 20
17.20007999999971
 30
0.0
 10
20.02911546715409
 20
17.20007999999971
 30
0.0
 10
20.02142546715408
 20
17.1771699999997
 30
0.0
 10
20.00997546715408
 20
17.1595099999997
 30
0.0
 10
19.99475546715408
 20
17.1470199999997
 30
0.0
 10
19.99475546715408
 20
17.1470199999997
 30
0.0
 10
19.97952546715408
 20
17.13452999999971
 30
0.0
 10
19.96031546715408
 20
17.1283299999997
 30
0.0
 10
19.93703546715408
 20
17.1283299999997
 30
0.0
 10
19.93703546715408
 20
17.1283299999997
 30
0.0
 10
19.90644546715408
 20
17.1283299999997
 30
0.0
 10
19.88242546715408
 20
17.1392599999997
 30
0.0
 10
19.86498546715408
 20
17.1612099999997
 30
0.0
 10
19.86498546715408
 20
17.1612099999997
 30
0.0
 10
19.84406546715408
 20
17.18758999999971
 30
0.0
 10
19.83357546715408
 20
17.23067999999971
 30
0.0
 10
19.83357546715408
 20
17.2902399999997
 30
0.0
  0
SPLINE
  5
C4
330
1F
100
AcDbEntity
  8
layer 1
 62
   250
100
AcDbSpline
210
0.0
220
0.0
230
1.0
 70
    11
 71
     3
 72
    36
 73
    32
 74
     0
 42
0.0000000001
 43
0.0000000001
 40
0.0
 40
0.0
 40
0.0
 40
0.0
 40
0.1111111111111111
 40
0.1111111111111111
 40
0.1111111111111111
 40
0.1666666666666666
 40
0.2222222222222222
 40
0.2222222222222222
 40
0.2222222222222222
 40
0.2777777777777778
 40
0.3333333333333333
 40
0.3333333333333333
 40
0.3333333333333333
 40
0.3888888888888888
 40
0.4444444444444445
 40
0.4444444444444445
 40
0.4444444444444445
 40
0.5
 40
0.5555555555555556
 40
0.5555555555555556
 40
0.5555555555555556
 40
0.6111111111111112
 40
0.6666666666666666
 40
0.6666666666666666
 40
0.6666666666666666
 40
0.7222222222222223
 40
0.7777777777777778
 40
0.7777777777777778
 40
0.7777777777777778
 40
0.8888888888888889
 40
1.0
 40
1.0
 40
1.0
 40
1.0
 10
19.87362546715408
 20
17.2902399999997
 30
0.0
 10
19.87362546715408
 20
17.2381399999997
 30
0.0
 10
19.87976546715408
 20
17.20347999999971
 30
0.0
 10
19.89195546715408
 20
17.18618999999971
 30
0.0
 10
19.89195546715408
 20
17.18618999999971
 30
0.0
 10
19.90415546715408
 20
17.16896999999971
 30
0.0
 10
19.91915546715408
 20
17.16031999999971
 30
0.0
 10
19.93703546715408
 20
17.16031999999971
 30
0.0
 10
19.93703546715408
 20
17.16031999999971
 30
0.0
 10
19.95499546715408
 20
17.16031999999971
 30
0.0
 10
19.96999546715408
 20
17.16903999999971
 30
0.0
 10
19.98218546715408
 20
17.1863399999997
 30
0.0
 10
19.98218546715408
 20
17.1863399999997
 30
0.0
 10
19.99438546715408
 20
17.2036299999997
 30
0.0
 10
20.00051546715408
 20
17.23828999999971
 30
0.0
 10
20.00051546715408
 20
17.2902399999997
 30
0.0
 10
20.00051546715408
 20
17.2902399999997
 30
0.0
 10
20.00051546715408
 20
17.34248999999971
 30
0.0
 10
19.99438546715408
 20
17.3772199999997
 30
0.0
 10
19.98218546715408
 20
17.39436999999971
 30
0.0
 10
19.98218546715408
 20
17.39436999999971
 30
0.0
 10
19.96999546715408
 20
17.4115799999997
 30
0.0
 10
19.95484546715408
 20
17.4201599999997
 30
0.0
 10
19.93666546715408
 20
17.4201599999997
 30
0.0
 10
19.93666546715408
 20
17.4201599999997
 30
0.0
 10
19.91870546715408
 20
17.4201599999997
 30
0.0
 10
19.90444546715408
 20
17.41253999999971
 30
0.0
 10
19.89373546715408
 20
17.3973999999997
 30
0.0
 10
19.89373546715408
 20
17.3973999999997
 30
0.0
 10
19.88035546715408
 20
17.3781099999997
 30
0.0
 10
19.87362546715408
 20
17.34233999999971
 30
0.0
 10
19.87362546715408
 20
17.2902399999997
 30
0.0
  0
SPLINE
  5
C5
330
1F
100
AcDbEntity
  8
layer 1
 62
   250
100
AcDbSpline
210
0.0
220
0.0
230
1.0
 70
     9
 71
     3
 72
   124
 73
   120
 74
     0
 42
0.0000000001
 43
0.0000000001
 40
0.0
 40
0.0
 40
0.0
 40
0.0
 40
0.032258064516129
 40
0.032258064516129
 40
0.032258064516129
 40
0.0483870967741936
 40
0.0645161290322581
 40
0.0645161290322581
 40
0.0645161290322581
 40
0.0806451612903226
 40
0.0967741935483871
 40
0.0967741935483871
 40
0.0967741935483871
 40
0.1129032258064516
 40
0.1290322580645161
 40
0.1290322580645161
 40
0.1290322580645161
 40
0.1451612903225806
 40
0.1612903225806452
 40
0.1612903225806452
 40
0.1612903225806452
 40
0.1774193548387097
 40
0.1935483870967742
 40
0.1935483870967742
 40
0.1935483870967742
 40
0.2096774193548387
 40
0.2258064516129032
 40
0.2258064516129032
 40
0.2258064516129032
 40
0.2419354838709677
 40
0.2580645161290323
 40
0.2580645161290323
 40
0.2580645161290323
 40
0.2741935483870968
 40
0.2903225806451613
 40
0.2903225806451613
 40
0.2903225806451613
 40
0.3064516129032258
 40
0.3225806451612903
 40
0.3225806451612903
 40
0.3225806451612903
 40
0.3387096774193549
 40
0.3548387096774194
 40
0.3548387096774194
 40
0.3548387096774194
 40
0.3709677419354839
 40
0.3870967741935484
 40
0.3870967741935484
 40
0.3870967741935484
 40
0.4032258064516129
 40
0.4193548387096774
 40
0.4193548387096774
 40
0.4193548387096774
 40
0.4354838709677419
 40
0.4516129032258064
 40
0.4516129032258064
 40
0.4516129032258064
 40
0.4677419354838709
 40
0.4838709677419355
 40
0.4838709677419355
 40
0.4838709677419355
 40
0.5
 40
0.5161290322580645
 40
0.5161290322580645
 40
0.5161290322580645
 40
0.532258064516129
 40
0.5483870967741935
 40
0.5483870967741935
 40
0.5483870967741935
 40
0.564516129032258
 40
0.5806451612903226
 40
0.5806451612903226
 40
0.5806451612903226
 40
0.5967741935483871
 40
0.6129032258064516
 40
0.6129032258064516
 40
0.6129032258064516
 40
0.6290322580645161
 40
0.6451612903225806
 40
0.6451612903225806
 40
0.6451612903225806
 40
0.6612903225806451
 40
0.6774193548387096
 40
0.6774193548387096
 40
0.6774193548387096
 40
0.6935483870967742
 40
0.7096774193548388
 40
0.7096774193548388
 40
0.7096774193548388
 40
0.7258064516129032
 40
0.7419354838709678
 40
0.7419354838709678
 40
0.7419354838709678
 40
0.7580645161290322
 40
0.7741935483870968
 40
0.7741935483870968
 40
0.7741935483870968
 40
0.7903225806451612
 40
0.8064516129032258
 40
0.8064516129032258
 40
0.8064516129032258
 40
0.8225806451612902
 40
0.8387096774193548
 40
0.8387096774193548
 40
0.8387096774193548
 40
0.8548387096774193
 40
0.8709677419354838
 40
0.8709677419354838
 40
0.8709677419354838
 40
0.8870967741935482
 40
0.9032258064516128
 40
0.9032258064516128
 40
0.9032258064516128
 40
0.9193548387096774
 40
0.9354838709677419
 40
0.9354838709677419
 40
0.9354838709677419
 40
0.9677419354838709
 40
1.0
 40
1.0
 40
1.0
 40
1.0
 10
19.28271389635461
 20
17.21979244420479
 30
0.0
 10
19.28271389635461
 20
17.21979244420479
 30
0.0
 10
19.32216314450823
 20
17.22503234671586
 30
0.0
 10
19.32216314450823
 20
17.22503234671586
 30
0.0
 10
19.32216314450823
 20
17.22503234671586
 30
0.0
 10
19.32672814007691
 20
17.20265261998027
 30
0.0
 10
19.334438014523
 20
17.1865579641457
 30
0.0
 10
19.34528808099272
 20
17.17667807640567
 30
0.0
 10
19.34528808099272
 20
17.17667807640567
 30
0.0
 10
19.35621782397647
 20
17.16679818866564
 30
0.0
 10
19.3694675595747
 20
17.16185824479563
 30
0.0
 10
19.3851075905939
 20
17.16185824479563
 30
0.0
 10
19.3851075905939
 20
17.16185824479563
 30
0.0
 10
19.40367221836347
 20
17.16185824479563
 30
0.0
 10
19.41939192589671
 20
17.16829798187096
 30
0.0
 10
19.43219172353334
 20
17.18116808231409
 30
0.0
 10
19.43219172353334
 20
17.18116808231409
 30
0.0
 10
19.44491184465594
 20
17.19404286961099
 30
0.0
 10
19.45135158173127
 20
17.20998754612502
 30
0.0
 10
19.45135158173127
 20
17.22899742500242
 30
0.0
 10
19.45135158173127
 20
17.22899742500242
 30
0.0
 10
19.45135158173127
 20
17.2471121148104
 30
0.0
 10
19.4454367722778
 20
17.26208192574097
 30
0.0
 10
19.43361184022463
 20
17.27383186813388
 30
0.0
 10
19.43361184022463
 20
17.27383186813388
 30
0.0
 10
19.42171191851118
 20
17.28558649738056
 30
0.0
 10
19.40666711792034
 20
17.29149661998027
 30
0.0
 10
19.38840244879184
 20
17.29149661998027
 30
0.0
 10
19.38840244879184
 20
17.29149661998027
 30
0.0
 10
19.38091754332655
 20
17.29149661998027
 30
0.0
 10
19.37163757286865
 20
17.29000151362871
 30
0.0
 10
19.36055785056436
 20
17.28708160373211
 30
0.0
 10
19.36055785056436
 20
17.28708160373211
 30
0.0
 10
19.36055785056436
 20
17.28708160373211
 30
0.0
 10
19.36497286681251
 20
17.32173620048248
 30
0.0
 10
19.36497286681251
 20
17.32173620048248
 30
0.0
 10
19.36497286681251
 20
17.32173620048248
 30
0.0
 10
19.36759281806805
 20
17.32143624184142
 30
0.0
 10
19.3696925285555
 20
17.32128626252088
 30
0.0
 10
19.37133761422758
 20
17.32128626252088
 30
0.0
 10
19.37133761422758
 20
17.32128626252088
 30
0.0
 10
19.38810249015077
 20
17.32128626252088
 30
0.0
 10
19.40322228040188
 20
17.32570596562281
 30
0.0
 10
19.4166969849809
 20
17.33446100845885
 30
0.0
 10
19.4166969849809
 20
17.33446100845885
 30
0.0
 10
19.43016700270616
 20
17.34322073814866
 30
0.0
 10
19.43690669842256
 20
17.35676574553418
 30
0.0
 10
19.43690669842256
 20
17.37503041466269
 30
0.0
 10
19.43690669842256
 20
17.37503041466269
 30
0.0
 10
19.43690669842256
 20
17.38947529797141
 30
0.0
 10
19.43196675455254
 20
17.40152519900538
 30
0.0
 10
19.42216185647278
 20
17.41095514878381
 30
0.0
 10
19.42216185647278
 20
17.41095514878381
 30
0.0
 10
19.41235227153925
 20
17.42046477507628
 30
0.0
 10
19.39970714007692
 20
17.42525473962576
 30
0.0
 10
19.38421240152448
 20
17.42525473962576
 30
0.0
 10
19.38421240152448
 20
17.42525473962576
 30
0.0
 10
19.36886764229257
 20
17.42525473962576
 30
0.0
 10
19.35606784465594
 20
17.42038978541601
 30
0.0
 10
19.34588799827485
 20
17.41080516946328
 30
0.0
 10
19.34588799827485
 20
17.41080516946328
 30
0.0
 10
19.33563316223349
 20
17.40115025070405
 30
0.0
 10
19.32904813269139
 20
17.38663037773507
 30
0.0
 10
19.32612822279479
 20
17.3673205402166
 30
0.0
 10
19.32612822279479
 20
17.3673205402166
 30
0.0
 10
19.32612822279479
 20
17.3673205402166
 30
0.0
 10
19.28668366149494
 20
17.37435550772029
 30
0.0
 10
19.28668366149494
 20
17.37435550772029
 30
0.0
 10
19.28668366149494
 20
17.37435550772029
 30
0.0
 10
19.29147362604442
 20
17.40085029206298
 30
0.0
 10
19.30247835868844
 20
17.4213599641457
 30
0.0
 10
19.31954319325269
 20
17.43587983711468
 30
0.0
 10
19.31954319325269
 20
17.43587983711468
 30
0.0
 10
19.33668301747721
 20
17.45040439693743
 30
0.0
 10
19.35793789930882
 20
17.45773932308219
 30
0.0
 10
19.38338751526156
 20
17.45773932308219
 30
0.0
 10
19.38338751526156
 20
17.45773932308219
 30
0.0
 10
19.4009022877874
 20
17.45773932308219
 30
0.0
 10
19.41707193328223
 20
17.45391953726239
 30
0.0
 10
19.43181677523201
 20
17.4464346317971
 30
0.0
 10
19.43181677523201
 20
17.4464346317971
 30
0.0
 10
19.44656161718179
 20
17.43887473667155
 30
0.0
 10
19.4578616216131
 20
17.42861990063019
 30
0.0
 10
19.46572147537972
 20
17.41559982086653
 30
0.0
 10
19.46572147537972
 20
17.41559982086653
 30
0.0
 10
19.47350633948608
 20
17.4025750542491
 30
0.0
 10
19.47747141777263
 20
17.38880039102901
 30
0.0
 10
19.47747141777263
 20
17.3741305387395
 30
0.0
 10
19.47747141777263
 20
17.3741305387395
 30
0.0
 10
19.47747141777263
 20
17.36028557271291
 30
0.0
 10
19.47373130846687
 20
17.34763575439681
 30
0.0
 10
19.46624640300158
 20
17.33618108379119
 30
0.0
 10
19.46624640300158
 20
17.33618108379119
 30
0.0
 10
19.4587614975363
 20
17.32480608969962
 30
0.0
 10
19.44775676489228
 20
17.31575108822251
 30
0.0
 10
19.43316190226303
 20
17.30901139250611
 30
0.0
 10
19.43316190226303
 20
17.30901139250611
 30
0.0
 10
19.4521764679942
 20
17.30467136591823
 30
0.0
 10
19.46692130994398
 20
17.29554137478086
 30
0.0
 10
19.47747141777263
 20
17.2816917219005
 30
0.0
 10
19.47747141777263
 20
17.2816917219005
 30
0.0
 10
19.48795122279479
 20
17.26792174553418
 30
0.0
 10
19.49319112530587
 20
17.25063194198913
 30
0.0
 10
19.49319112530587
 20
17.22989730092561
 30
0.0
 10
19.49319112530587
 20
17.22989730092561
 30
0.0
 10
19.49319112530587
 20
17.20182773371734
 30
0.0
 10
19.48301127892477
 20
17.17802789029046
 30
0.0
 10
19.46250160684206
 20
17.1584930837912
 30
0.0
 10
19.46250160684206
 20
17.1584930837912
 30
0.0
 10
19.44207161127337
 20
17.13895359043817
 30
0.0
 10
19.41617205735904
 20
17.12922368201867
 30
0.0
 10
19.38488262161311
 20
17.12922368201867
 30
0.0
 10
19.38488262161311
 20
17.12922368201867
 30
0.0
 10
19.35666776193807
 20
17.12922368201867
 30
0.0
 10
19.33323817995875
 20
17.13760846340715
 30
0.0
 10
19.31460324938267
 20
17.15444832899061
 30
0.0
 10
19.31460324938267
 20
17.15444832899061
 30
0.0
 10
19.29596363195284
 20
17.17121320491379
 30
0.0
 10
19.28533384761015
 20
17.19299770122104
 30
0.0
 10
19.28271389635461
 20
17.21979244420479
 30
0.0
  0
SPLINE
  5
C6
330
1F
100
AcDbEntity
  8
layer 1
 62
   250
100
AcDbSpline
210
0.0
220
0.0
230
1.0
 70
    11
 71
     3
 72
    48
 73
    44
 74
     0
 42
0.0000000001
 43
0.0000000001
 40
0.0
 40
0.0
 40
0.0
 40
0.0
 40
0.0833333333333333
 40
0.0833333333333333
 40
0.0833333333333333
 40
0.125
 40
0.1666666666666667
 40
0.1666666666666667
 40
0.1666666666666667
 40
0.2083333333333334
 40
0.25
 40
0.25
 40
0.25
 40
0.2916666666666666
 40
0.3333333333333333
 40
0.3333333333333333
 40
0.3333333333333333
 40
0.375
 40
0.4166666666666667
 40
0.4166666666666667
 40
0.4166666666666667
 40
0.4583333333333334
 40
0.5
 40
0.5
 40
0.5
 40
0.5416666666666668
 40
0.5833333333333334
 40
0.5833333333333334
 40
0.5833333333333334
 40
0.625
 40
0.6666666666666666
 40
0.6666666666666666
 40
0.6666666666666666
 40
0.7083333333333333
 40
0.75
 40
0.75
 40
0.75
 40
0.7916666666666668
 40
0.8333333333333333
 40
0.8333333333333333
 40
0.8333333333333333
 40
0.9166666666666667
 40
1.0
 40
1.0
 40
1.0
 40
1.0
 10
20.14024569240289
 20
17.41425000698174
 30
0.0
 10
20.14024569240289
 20
17.41425000698174
 30
0.0
 10
20.14024569240289
 20
17.45219946193004
 30
0.0
 10
20.14024569240289
 20
17.45219946193004
 30
0.0
 10
20.14024569240289
 20
17.45219946193004
 30
0.0
 10
20.14024569240289
 20
17.45219946193004
 30
0.0
 10
20.34832793907941
 20
17.45219946193004
 30
0.0
 10
20.34832793907941
 20
17.45219946193004
 30
0.0
 10
20.34832793907941
 20
17.45219946193004
 30
0.0
 10
20.34832793907941
 20
17.45219946193004
 30
0.0
 10
20.34832793907941
 20
17.42150994346623
 30
0.0
 10
20.34832793907941
 20
17.42150994346623
 30
0.0
 10
20.34832793907941
 20
17.42150994346623
 30
0.0
 10
20.32789325665696
 20
17.39973013401276
 30
0.0
 10
20.30760855355504
 20
17.3707606908813
 30
0.0
 10
20.28747382977365
 20
17.33468597743964
 30
0.0
 10
20.28747382977365
 20
17.33468597743964
 30
0.0
 10
20.26741878250629
 20
17.29860657714423
 30
0.0
 10
20.25184905429359
 20
17.26140701879858
 30
0.0
 10
20.24091931130984
 20
17.22331227138352
 30
0.0
 10
20.24091931130984
 20
17.22331227138352
 30
0.0
 10
20.23298446788295
 20
17.19636286222546
 30
0.0
 10
20.22796953435268
 20
17.16694816798618
 30
0.0
 10
20.22579952105873
 20
17.13491352249134
 30
0.0
 10
20.22579952105873
 20
17.13491352249134
 30
0.0
 10
20.22579952105873
 20
17.13491352249134
 30
0.0
 10
20.18523011485489
 20
17.13491352249134
 30
0.0
 10
20.18523011485489
 20
17.13491352249134
 30
0.0
 10
20.18523011485489
 20
17.13491352249134
 30
0.0
 10
20.18568005281649
 20
17.16021315912354
 30
0.0
 10
20.1906199966865
 20
17.19075269826683
 30
0.0
 10
20.2001249361252
 20
17.22660244272768
 30
0.0
 10
20.2001249361252
 20
17.22660244272768
 30
0.0
 10
20.20963456241767
 20
17.26238188438204
 30
0.0
 10
20.22325455946345
 20
17.29696149147214
 30
0.0
 10
20.2409943009701
 20
17.33019597153123
 30
0.0
 10
20.2409943009701
 20
17.33019597153123
 30
0.0
 10
20.25880903213701
 20
17.36342576473655
 30
0.0
 10
20.27766893169388
 20
17.39149533194481
 30
0.0
 10
20.29772866581501
 20
17.41425000698174
 30
0.0
 10
20.29772866581501
 20
17.41425000698174
 30
0.0
 10
20.29772866581501
 20
17.41425000698174
 30
0.0
 10
20.14024569240289
 20
17.41425000698174
 30
0.0
 10
20.14024569240289
 20
17.41425000698174
 30
0.0
  0
SPLINE
  5
D2
330
1F
100
AcDbEntity
  8
layer 1
 62
   250
100
AcDbSpline
210
0.0
220
0.0
230
1.0
 70
     9
 71
     3
 72
    92
 73
    88
 74
     0
 42
0.0000000001
 43
0.0000000001
 40
0.0
 40
0.0
 40
0.0
 40
0.0
 40
0.0434782608695652
 40
0.0434782608695652
 40
0.0434782608695652
 40
0.0652173913043478
 40
0.0869565217391304
 40
0.0869565217391304
 40
0.0869565217391304
 40
0.108695652173913
 40
0.1304347826086956
 40
0.1304347826086956
 40
0.1304347826086956
 40
0.1521739130434782
 40
0.1739130434782609
 40
0.1739130434782609
 40
0.1739130434782609
 40
0.1956521739130435
 40
0.2173913043478261
 40
0.2173913043478261
 40
0.2173913043478261
 40
0.2391304347826087
 40
0.2608695652173913
 40
0.2608695652173913
 40
0.2608695652173913
 40
0.2826086956521739
 40
0.3043478260869565
 40
0.3043478260869565
 40
0.3043478260869565
 40
0.3260869565217391
 40
0.3478260869565217
 40
0.3478260869565217
 40
0.3478260869565217
 40
0.3695652173913043
 40
0.391304347826087
 40
0.391304347826087
 40
0.391304347826087
 40
0.4130434782608697
 40
0.4347826086956523
 40
0.4347826086956523
 40
0.4347826086956523
 40
0.4565217391304348
 40
0.4782608695652174
 40
0.4782608695652174
 40
0.4782608695652174
 40
0.5
 40
0.5217391304347827
 40
0.5217391304347827
 40
0.5217391304347827
 40
0.5434782608695653
 40
0.5652173913043478
 40
0.5652173913043478
 40
0.5652173913043478
 40
0.5869565217391304
 40
0.6086956521739131
 40
0.6086956521739131
 40
0.6086956521739131
 40
0.6304347826086957
 40
0.6521739130434784
 40
0.6521739130434784
 40
0.6521739130434784
 40
0.6739130434782609
 40
0.6956521739130435
 40
0.6956521739130435
 40
0.6956521739130435
 40
0.7173913043478261
 40
0.7391304347826086
 40
0.7391304347826086
 40
0.7391304347826086
 40
0.7608695652173914
 40
0.7826086956521741
 40
0.7826086956521741
 40
0.7826086956521741
 40
0.8043478260869566
 40
0.826086956521739
 40
0.826086956521739
 40
0.826086956521739
 40
0.8478260869565216
 40
0.8695652173913043
 40
0.8695652173913043
 40
0.8695652173913043
 40
0.8913043478260869
 40
0.9130434782608695
 40
0.9130434782608695
 40
0.9130434782608695
 40
0.9565217391304347
 40
1.0
 40
1.0
 40
1.0
 40
1.0
 10
19.57474530287524
 20
17.21065987206017
 30
0.0
 10
19.57474530287524
 20
17.21065987206017
 30
0.0
 10
19.61115530287525
 20
17.21403687206017
 30
0.0
 10
19.61115530287525
 20
17.21403687206017
 30
0.0
 10
19.61115530287525
 20
17.21403687206017
 30
0.0
 10
19.61424630287524
 20
17.19694287206017
 30
0.0
 10
19.62014230287524
 20
17.18451287206017
 30
0.0
 10
19.62883230287524
 20
17.17675787206017
 30
0.0
 10
19.62883230287524
 20
17.17675787206017
 30
0.0
 10
19.63752230287524
 20
17.16906887206017
 30
0.0
 10
19.64865430287524
 20
17.16519687206017
 30
0.0
 10
19.66230530287524
 20
17.16519687206017
 30
0.0
 10
19.66230530287524
 20
17.16519687206017
 30
0.0
 10
19.67393230287524
 20
17.16519687206017
 30
0.0
 10
19.68414030287524
 20
17.16784787206017
 30
0.0
 10
19.69289630287525
 20
17.17323787206017
 30
0.0
 10
19.69289630287525
 20
17.17323787206017
 30
0.0
 10
19.70166330287525
 20
17.17855087206017
 30
0.0
 10
19.70884630287524
 20
17.18566787206017
 30
0.0
 10
19.71444530287524
 20
17.19456687206017
 30
0.0
 10
19.71444530287524
 20
17.19456687206017
 30
0.0
 10
19.72012130287524
 20
17.20347687206017
 30
0.0
 10
19.72479630287525
 20
17.21554387206017
 30
0.0
 10
19.72860230287524
 20
17.23062487206017
 30
0.0
 10
19.72860230287524
 20
17.23062487206017
 30
0.0
 10
19.73233130287524
 20
17.24578287206017
 30
0.0
 10
19.73427830287524
 20
17.26122687206017
 30
0.0
 10
19.73427830287524
 20
17.27695687206017
 30
0.0
 10
19.73427830287524
 20
17.27695687206017
 30
0.0
 10
19.73427830287524
 20
17.27860687206017
 30
0.0
 10
19.73420130287524
 20
17.28119187206017
 30
0.0
 10
19.73405830287525
 20
17.28450287206017
 30
0.0
 10
19.73405830287525
 20
17.28450287206017
 30
0.0
 10
19.72644630287524
 20
17.27250187206017
 30
0.0
 10
19.71609530287524
 20
17.26266787206017
 30
0.0
 10
19.70302730287524
 20
17.25519887206017
 30
0.0
 10
19.70302730287524
 20
17.25519887206017
 30
0.0
 10
19.68988230287525
 20
17.24765287206017
 30
0.0
 10
19.67565930287524
 20
17.24391287206017
 30
0.0
 10
19.66043530287524
 20
17.24391287206017
 30
0.0
 10
19.66043530287524
 20
17.24391287206017
 30
0.0
 10
19.63486030287524
 20
17.24391287206017
 30
0.0
 10
19.61324530287524
 20
17.25318587206017
 30
0.0
 10
19.59556830287525
 20
17.27170987206017
 30
0.0
 10
19.59556830287525
 20
17.27170987206017
 30
0.0
 10
19.57790230287524
 20
17.29024487206017
 30
0.0
 10
19.56906930287525
 20
17.31459887206017
 30
0.0
 10
19.56906930287525
 20
17.34490387206017
 30
0.0
 10
19.56906930287525
 20
17.34490387206017
 30
0.0
 10
19.56906930287525
 20
17.37622087206017
 30
0.0
 10
19.57826530287524
 20
17.40136687206017
 30
0.0
 10
19.59672330287524
 20
17.42047387206017
 30
0.0
 10
19.59672330287524
 20
17.42047387206017
 30
0.0
 10
19.61518130287524
 20
17.43958087206017
 30
0.0
 10
19.63831430287524
 20
17.44912887206017
 30
0.0
 10
19.66611130287524
 20
17.44912887206017
 30
0.0
 10
19.66611130287524
 20
17.44912887206017
 30
0.0
 10
19.68615330287525
 20
17.44912887206017
 30
0.0
 10
19.70446830287524
 20
17.44367287206017
 30
0.0
 10
19.72113330287524
 20
17.43289287206017
 30
0.0
 10
19.72113330287524
 20
17.43289287206017
 30
0.0
 10
19.73772130287525
 20
17.42212387206017
 30
0.0
 10
19.75036030287524
 20
17.40667987206017
 30
0.0
 10
19.75898430287524
 20
17.38671487206017
 30
0.0
 10
19.75898430287524
 20
17.38671487206017
 30
0.0
 10
19.76759730287524
 20
17.36673887206017
 30
0.0
 10
19.77190930287524
 20
17.33779787206017
 30
0.0
 10
19.77190930287524
 20
17.29986987206017
 30
0.0
 10
19.77190930287524
 20
17.29986987206017
 30
0.0
 10
19.77190930287524
 20
17.26051187206017
 30
0.0
 10
19.76767430287524
 20
17.22911787206017
 30
0.0
 10
19.75912730287524
 20
17.20570987206017
 30
0.0
 10
19.75912730287524
 20
17.20570987206017
 30
0.0
 10
19.75050330287524
 20
17.18235687206017
 30
0.0
 10
19.73779830287525
 20
17.16462487206017
 30
0.0
 10
19.72091330287524
 20
17.15240387206017
 30
0.0
 10
19.72091330287524
 20
17.15240387206017
 30
0.0
 10
19.70396230287525
 20
17.14019387206017
 30
0.0
 10
19.68420630287524
 20
17.13408887206017
 30
0.0
 10
19.66143630287524
 20
17.13408887206017
 30
0.0
 10
19.66143630287524
 20
17.13408887206017
 30
0.0
 10
19.63730230287524
 20
17.13408887206017
 30
0.0
 10
19.61762330287525
 20
17.14077687206017
 30
0.0
 10
19.60232230287524
 20
17.15420787206017
 30
0.0
 10
19.60232230287524
 20
17.15420787206017
 30
0.0
 10
19.58702130287525
 20
17.16756187206017
 30
0.0
 10
19.57783630287524
 20
17.18638287206017
 30
0.0
 10
19.57474530287524
 20
17.21065987206017
 30
0.0
  0
SPLINE
  5
D3
330
1F
100
AcDbEntity
  8
layer 1
 62
   250
100
AcDbSpline
210
0.0
220
0.0
230
1.0
 70
     9
 71
     3
 72
    36
 73
    32
 74
     0
 42
0.0000000001
 43
0.0000000001
 40
0.0
 40
0.0
 40
0.0
 40
0.0
 40
0.1111111111111111
 40
0.1111111111111111
 40
0.1111111111111111
 40
0.1666666666666666
 40
0.2222222222222222
 40
0.2222222222222222
 40
0.2222222222222222
 40
0.2777777777777778
 40
0.3333333333333333
 40
0.3333333333333333
 40
0.3333333333333333
 40
0.3888888888888888
 40
0.4444444444444445
 40
0.4444444444444445
 40
0.4444444444444445
 40
0.5
 40
0.5555555555555556
 40
0.5555555555555556
 40
0.5555555555555556
 40
0.6111111111111112
 40
0.6666666666666666
 40
0.6666666666666666
 40
0.6666666666666666
 40
0.7222222222222223
 40
0.7777777777777778
 40
0.7777777777777778
 40
0.7777777777777778
 40
0.8888888888888889
 40
1.0
 40
1.0
 40
1.0
 40
1.0
 10
19.72982330287524
 20
17.34685087206017
 30
0.0
 10
19.72982330287524
 20
17.36854287206017
 30
0.0
 10
19.72407030287524
 20
17.38584587206017
 30
0.0
 10
19.71250930287524
 20
17.39856187206017
 30
0.0
 10
19.71250930287524
 20
17.39856187206017
 30
0.0
 10
19.70087130287524
 20
17.41134387206017
 30
0.0
 10
19.68701130287524
 20
17.41774587206017
 30
0.0
 10
19.67070930287524
 20
17.41774587206017
 30
0.0
 10
19.67070930287524
 20
17.41774587206017
 30
0.0
 10
19.65390130287524
 20
17.41774587206017
 30
0.0
 10
19.63924930287524
 20
17.41084887206017
 30
0.0
 10
19.62674230287525
 20
17.39713187206017
 30
0.0
 10
19.62674230287525
 20
17.39713187206017
 30
0.0
 10
19.61424630287524
 20
17.38333787206017
 30
0.0
 10
19.60799830287524
 20
17.36551787206017
 30
0.0
 10
19.60799830287524
 20
17.34368287206017
 30
0.0
 10
19.60799830287524
 20
17.34368287206017
 30
0.0
 10
19.60799830287524
 20
17.32400387206017
 30
0.0
 10
19.61396030287524
 20
17.30806487206017
 30
0.0
 10
19.62580730287524
 20
17.29577787206017
 30
0.0
 10
19.62580730287524
 20
17.29577787206017
 30
0.0
 10
19.63766530287524
 20
17.28349087206017
 30
0.0
 10
19.65224030287524
 20
17.27738587206017
 30
0.0
 10
19.66963130287524
 20
17.27738587206017
 30
0.0
 10
19.66963130287524
 20
17.27738587206017
 30
0.0
 10
19.68723130287525
 20
17.27738587206017
 30
0.0
 10
19.70158630287524
 20
17.28349087206017
 30
0.0
 10
19.71287230287524
 20
17.29577787206017
 30
0.0
 10
19.71287230287524
 20
17.29577787206017
 30
0.0
 10
19.72421330287524
 20
17.30806487206017
 30
0.0
 10
19.72982330287524
 20
17.32508187206017
 30
0.0
 10
19.72982330287524
 20
17.34685087206017
 30
0.0
  0
ENDSEC
  0
SECTION
  2
OBJECTS
  0
DICTIONARY
  5
C
330
0
100
AcDbDictionary
281
     1
  3
ACAD_2007HEADERVARS_RT
350
17A
  3
ACAD_CIP_PREVIOUS_PRODUCT_INFO
350
AA
  3
ACAD_COLOR
350
93
  3
ACAD_GROUP
350
D
  3
ACAD_IMAGE_DICT
350
41
  3
ACAD_IMAGE_VARS
350
AB
  3
ACAD_LAYOUT
350
1A
  3
ACAD_MATERIAL
350
3B
  3
ACAD_MLEADERSTYLE
350
86
  3
ACAD_MLINESTYLE
350
17
  3
ACAD_PLOTSETTINGS
350
19
  3
ACAD_PLOTSTYLENAME
350
E
  3
ACAD_SCALELIST
350
95
  3
ACAD_TABLESTYLE
350
85
  3
ACAD_VISUALSTYLE
350
2A
  3
ACDB_RECOMPOSE_DATA
350
178
  3
AcDbVariableDictionary
350
D4
  3
AEC_PROPERTY_SET_DEFS
350
BE
  3
DWGPROPS
350
179
  0
DICTIONARY
  5
17A
102
{ACAD_REACTORS
330
C
102
}
330
C
100
AcDbDictionary
281
     1
  3
INTERFERECOLOR
350
17B
  0
XRECORD
  5
AA
102
{ACAD_REACTORS
330
C
102
}
330
C
100
AcDbXrecord
280
     1
300
STRDET
300
2012
300
REVSU_F_S
  0
DICTIONARY
  5
93
102
{ACAD_REACTORS
330
C
102
}
330
C
100
AcDbDictionary
281
     1
  0
DICTIONARY
  5
D
102
{ACAD_REACTORS
330
C
102
}
330
C
100
AcDbDictionary
281
     1
  0
DICTIONARY
  5
41
102
{ACAD_REACTORS
330
C
102
}
330
C
100
AcDbDictionary
281
     1
  3
Image #1
350
42
  0
RASTERVARIABLES
  5
AB
102
{ACAD_REACTORS
330
C
102
}
330
C
100
AcDbRasterVariables
 90
        0
 70
     1
 71
     1
 72
     2
  0
DICTIONARY
  5
1A
102
{ACAD_REACTORS
330
C
102
}
330
C
100
AcDbDictionary
281
     1
  3
Layout1
350
1E
  3
Layout2
350
26
  3
Model
350
22
  0
DICTIONARY
  5
3B
102
{ACAD_REACTORS
330
C
102
}
330
C
100
AcDbDictionary
281
     1
  3
ByBlock
350
3D
  3
ByLayer
350
3C
  3
Global
350
3E
  0
DICTIONARY
  5
86
102
{ACAD_REACTORS
330
C
102
}
330
C
100
AcDbDictionary
281
     1
  3
Standard
350
A7
  0
DICTIONARY
  5
17
102
{ACAD_REACTORS
330
C
102
}
330
C
100
AcDbDictionary
281
     1
  3
Standard
350
18
  0
DICTIONARY
  5
19
102
{ACAD_REACTORS
330
C
102
}
330
C
100
AcDbDictionary
281
     1
  0
ACDBDICTIONARYWDFLT
  5
E
102
{ACAD_REACTORS
330
C
102
}
330
C
100
AcDbDictionary
281
     1
  3
Normal
350
F
100
AcDbDictionaryWithDefault
340
F
  0
DICTIONARY
  5
95
102
{ACAD_REACTORS
330
C
102
}
330
C
100
AcDbDictionary
281
     1
  3
A0
350
96
  3
A1
350
97
  3
A2
350
98
  3
A3
350
99
  3
A4
350
9A
  3
A5
350
9B
  3
A6
350
9C
  3
A7
350
9D
  3
A8
350
9E
  3
A9
350
9F
  3
B0
350
A0
  3
B1
350
A1
  3
B2
350
A2
  3
B3
350
A3
  3
B4
350
A4
  3
B5
350
A5
  3
B6
350
A6
  0
DICTIONARY
  5
85
102
{ACAD_REACTORS
330
C
102
}
330
C
100
AcDbDictionary
281
     1
  3
Standard
350
94
  0
DICTIONARY
  5
2A
102
{ACAD_REACTORS
330
C
102
}
330
C
100
AcDbDictionary
281
     1
  3
2dWireframe
350
2F
  3
3D Hidden
350
31
  3
3dWireframe
350
30
  3
Basic
350
32
  3
Brighten
350
36
  3
ColorChange
350
3A
  3
Conceptual
350
34
  3
Dim
350
35
  3
EdgeColorOff
350
92
  3
Facepattern
350
39
  3
Flat
350
2B
  3
FlatWithEdges
350
2C
  3
Gouraud
350
2D
  3
GouraudWithEdges
350
2E
  3
Hidden
350
8A
  3
JitterOff
350
90
  3
Linepattern
350
38
  3
OverhangOff
350
91
  3
Realistic
350
33
  3
Shaded
350
8F
  3
Shaded with edges
350
8E
  3
Shades of Gray
350
8B
  3
Sketchy
350
8C
  3
Thicken
350
37
  3
Wireframe
350
89
  3
X-Ray
350
8D
  0
XRECORD
  5
178
102
{ACAD_REACTORS
330
C
102
}
330
C
100
AcDbXrecord
280
     1
 90
        1
330
94
  0
DICTIONARY
  5
D4
102
{ACAD_REACTORS
330
C
102
}
330
C
100
AcDbDictionary
281
     1
  3
CANNOSCALE
350
D8
  3
CMLEADERSTYLE
350
D6
  3
CTABLESTYLE
350
D5
  3
DGNFRAME
350
E2
  3
DIMASSOC
350
E0
  3
HIDETEXT
350
DE
  3
INDEXCTL
350
DD
  3
LAYEREVAL
350
DA
  3
LAYERNOTIFY
350
DB
  3
LIGHTINGUNITS
350
D9
  3
LOFTANG1
350
E3
  3
LOFTANG2
350
E4
  3
LONGITUDE
350
E5
  3
MSLTSCALE
350
D7
  3
SOLIDHIST
350
E1
  3
SORTENTS
350
DC
  3
XCLIPFRAME
350
DF
  0
DICTIONARY
  5
BE
102
{ACAD_REACTORS
330
C
102
}
330
C
100
AcDbDictionary
281
     1
  0
XRECORD
  5
179
102
{ACAD_REACTORS
330
C
102
}
330
C
100
AcDbXrecord
280
     1
  1
DWGPROPS COOKIE
  2

  3

  4

  6

  7

  8
mlis
  9

300
=
301
=
302
=
303
=
304
=
305
=
306
=
307
=
308
=
309
=
 40
0.0250334027777778
 41
2457474.222303773
 42
2457523.423457651
  1

 90
        0
  0
XRECORD
  5
17B
102
{ACAD_REACTORS
330
17A
102
}
330
17A
100
AcDbXrecord
280
     1
1004
1800000001000000000000C0000000000000000000000000
  0
IMAGEDEF
  5
42
102
{ACAD_REACTORS
330
41
330
44
102
}
330
41
100
AcDbRasterImageDef
 90
        0
  1
C:\Documents and Settings\Administrator\\U+684C\U+9762\\U+5F00\U+5B54\U+7EB8\\U+5F00\U+5B54\U+7EB82009_1_ACD_0.jpg
 10
938.0
 20
867.0
 11
0.0010660980810235
 21
0.0010660980810235
280
     1
281
     5
  0
LAYOUT
  5
1E
102
{ACAD_XDICTIONARY
360
17C
102
}
102
{ACAD_REACTORS
330
1A
102
}
330
1A
100
AcDbPlotSettings
  1

  2
none_device
  4

  6

 40
0.0
 41
0.0
 42
0.0
 43
0.0
 44
0.0
 45
0.0
 46
0.0
 47
0.0
 48
0.0
 49
0.0
140
0.0
141
0.0
142
1.0
143
1.0
 70
   688
 72
     0
 73
     0
 74
     5
  7

 75
    16
147
1.0
148
0.0
149
0.0
100
AcDbLayout
  1
Layout1
 70
     1
 71
     1
 10
0.0
 20
0.0
 11
12.0
 21
9.0
 12
0.0
 22
0.0
 32
0.0
 14
1.000000000000000E+20
 24
1.000000000000000E+20
 34
1.000000000000000E+20
 15
-1.000000000000000E+20
 25
-1.000000000000000E+20
 35
-1.000000000000000E+20
146
0.0
 13
0.0
 23
0.0
 33
0.0
 16
1.0
 26
0.0
 36
0.0
 17
0.0
 27
1.0
 37
0.0
 76
     0
330
1B
  0
LAYOUT
  5
26
102
{ACAD_XDICTIONARY
360
180
102
}
102
{ACAD_REACTORS
330
1A
102
}
330
1A
100
AcDbPlotSettings
  1

  2
none_device
  4

  6

 40
0.0
 41
0.0
 42
0.0
 43
0.0
 44
0.0
 45
0.0
 46
0.0
 47
0.0
 48
0.0
 49
0.0
140
0.0
141
0.0
142
1.0
143
1.0
 70
   688
 72
     0
 73
     0
 74
     5
  7

 75
    16
147
1.0
148
0.0
149
0.0
100
AcDbLayout
  1
Layout2
 70
     1
 71
     2
 10
0.0
 20
0.0
 11
0.0
 21
0.0
 12
0.0
 22
0.0
 32
0.0
 14
0.0
 24
0.0
 34
0.0
 15
0.0
 25
0.0
 35
0.0
146
0.0
 13
0.0
 23
0.0
 33
0.0
 16
1.0
 26
0.0
 36
0.0
 17
0.0
 27
1.0
 37
0.0
 76
     0
330
23
  0
LAYOUT
  5
22
102
{ACAD_XDICTIONARY
360
17E
102
}
102
{ACAD_REACTORS
330
1A
102
}
330
1A
100
AcDbPlotSettings
  1

  2
none_device
  4

  6

 40
0.0
 41
0.0
 42
0.0
 43
0.0
 44
0.0
 45
0.0
 46
0.0
 47
0.0
 48
0.0
 49
0.0
140
0.0
141
0.0
142
1.0
143
1.0
 70
  1712
 72
     0
 73
     0
 74
     0
  7

 75
     0
147
1.0
148
0.0
149
0.0
100
AcDbLayout
  1
Model
 70
     1
 71
     0
 10
0.0
 20
0.0
 11
12.0
 21
9.0
 12
0.0
 22
0.0
 32
0.0
 14
-25.30611
 24
-16.2895
 34
0.0
 15
28.11528
 25
14.01961
 35
0.0
146
0.0
 13
0.0
 23
0.0
 33
0.0
 16
1.0
 26
0.0
 36
0.0
 17
0.0
 27
1.0
 37
0.0
 76
     0
330
1F
331
29
  0
MATERIAL
  5
3D
102
{ACAD_XDICTIONARY
360
1A4
102
}
102
{ACAD_REACTORS
330
3B
102
}
330
3B
100
AcDbMaterial
  1
ByBlock
  0
MATERIAL
  5
3C
102
{ACAD_XDICTIONARY
360
1A2
102
}
102
{ACAD_REACTORS
330
3B
102
}
330
3B
100
AcDbMaterial
  1
ByLayer
  0
MATERIAL
  5
3E
102
{ACAD_XDICTIONARY
360
1A6
102
}
102
{ACAD_REACTORS
330
3B
102
}
330
3B
100
AcDbMaterial
  1
Global
  0
MLEADERSTYLE
  5
A7
102
{ACAD_REACTORS
330
86
102
}
330
86
100
AcDbMLeaderStyle
170
     2
171
     1
172
     0
 90
        2
 40
0.0
 41
0.0
173
     1
 91
-1056964608
340
14
 92
       -2
290
     1
 42
0.09
291
     1
 43
0.36
  3
Standard
 44
0.18
300

342
11
174
     1
178
     6
175
     1
176
     0
 93
-1056964608
 45
0.18
292
     0
297
     0
 46
0.18
 94
-1056964608
 47
1.0
 49
1.0
140
1.0
293
     1
141
0.0
294
     1
177
     0
142
1.0
295
     0
296
     0
143
0.125
1001
ACAD_MLEADERVER
1070
     2
  0
MLINESTYLE
  5
18
102
{ACAD_REACTORS
330
17
102
}
330
17
100
AcDbMlineStyle
  2
STANDARD
 70
     0
  3

 62
   256
 51
90.0
 52
90.0
 71
     2
 49
0.5
 62
   256
  6
BYLAYER
 49
-0.5
 62
   256
  6
BYLAYER
  0
ACDBPLACEHOLDER
  5
F
102
{ACAD_REACTORS
330
E
102
}
330
E
  0
SCALE
  5
96
102
{ACAD_REACTORS
330
95
102
}
330
95
100
AcDbScale
 70
     0
300
1:1
140
1.0
141
1.0
290
     1
  0
SCALE
  5
97
102
{ACAD_REACTORS
330
95
102
}
330
95
100
AcDbScale
 70
     0
300
1/128" = 1'-0"
140
0.0078125
141
12.0
290
     0
  0
SCALE
  5
98
102
{ACAD_REACTORS
330
95
102
}
330
95
100
AcDbScale
 70
     0
300
1/64" = 1'-0"
140
0.015625
141
12.0
290
     0
  0
SCALE
  5
99
102
{ACAD_REACTORS
330
95
102
}
330
95
100
AcDbScale
 70
     0
300
1/32" = 1'-0"
140
0.03125
141
12.0
290
     0
  0
SCALE
  5
9A
102
{ACAD_REACTORS
330
95
102
}
330
95
100
AcDbScale
 70
     0
300
1/16" = 1'-0"
140
0.0625
141
12.0
290
     0
  0
SCALE
  5
9B
102
{ACAD_REACTORS
330
95
102
}
330
95
100
AcDbScale
 70
     0
300
3/32" = 1'-0"
140
0.09375
141
12.0
290
     0
  0
SCALE
  5
9C
102
{ACAD_REACTORS
330
95
102
}
330
95
100
AcDbScale
 70
     0
300
1/8" = 1'-0"
140
0.125
141
12.0
290
     0
  0
SCALE
  5
9D
102
{ACAD_REACTORS
330
95
102
}
330
95
100
AcDbScale
 70
     0
300
3/16" = 1'-0"
140
0.1875
141
12.0
290
     0
  0
SCALE
  5
9E
102
{ACAD_REACTORS
330
95
102
}
330
95
100
AcDbScale
 70
     0
300
1/4" = 1'-0"
140
0.25
141
12.0
290
     0
  0
SCALE
  5
9F
102
{ACAD_REACTORS
330
95
102
}
330
95
100
AcDbScale
 70
     0
300
3/8" = 1'-0"
140
0.375
141
12.0
290
     0
  0
SCALE
  5
A0
102
{ACAD_REACTORS
330
95
102
}
330
95
100
AcDbScale
 70
     0
300
1/2" = 1'-0"
140
0.5
141
12.0
290
     0
  0
SCALE
  5
A1
102
{ACAD_REACTORS
330
95
102
}
330
95
100
AcDbScale
 70
     0
300
3/4" = 1'-0"
140
0.75
141
12.0
290
     0
  0
SCALE
  5
A2
102
{ACAD_REACTORS
330
95
102
}
330
95
100
AcDbScale
 70
     0
300
1" = 1'-0"
140
1.0
141
12.0
290
     0
  0
SCALE
  5
A3
102
{ACAD_REACTORS
330
95
102
}
330
95
100
AcDbScale
 70
     0
300
1-1/2" = 1'-0"
140
1.5
141
12.0
290
     0
  0
SCALE
  5
A4
102
{ACAD_REACTORS
330
95
102
}
330
95
100
AcDbScale
 70
     0
300
3" = 1'-0"
140
3.0
141
12.0
290
     0
  0
SCALE
  5
A5
102
{ACAD_REACTORS
330
95
102
}
330
95
100
AcDbScale
 70
     0
300
6" = 1'-0"
140
6.0
141
12.0
290
     0
  0
SCALE
  5
A6
102
{ACAD_REACTORS
330
95
102
}
330
95
100
AcDbScale
 70
     0
300
1'-0" = 1'-0"
140
12.0
141
12.0
290
     0
  0
TABLESTYLE
  5
94
102
{ACAD_XDICTIONARY
360
176
102
}
102
{ACAD_REACTORS
330
85
102
}
330
85
100
AcDbTableStyle
  3
Standard
 70
     0
 71
     0
 40
0.06
 41
0.06
280
     0
281
     0
  7
Standard
140
0.18
170
     2
 62
     0
 63
     7
283
     0
274
    -2
284
     1
 64
     0
275
    -2
285
     1
 65
     0
276
    -2
286
     1
 66
     0
277
    -2
287
     1
 67
     0
278
    -2
288
     1
 68
     0
279
    -2
289
     1
 69
     0
  7
Standard
140
0.25
170
     5
 62
     0
 63
     7
283
     0
274
    -2
284
     1
 64
     0
275
    -2
285
     1
 65
     0
276
    -2
286
     1
 66
     0
277
    -2
287
     1
 67
     0
278
    -2
288
     1
 68
     0
279
    -2
289
     1
 69
     0
  7
Standard
140
0.18
170
     5
 62
     0
 63
     7
283
     0
274
    -2
284
     1
 64
     0
275
    -2
285
     1
 65
     0
276
    -2
286
     1
 66
     0
277
    -2
287
     1
 67
     0
278
    -2
288
     1
 68
     0
279
    -2
289
     1
 69
     0
  0
VISUALSTYLE
  5
2F
102
{ACAD_XDICTIONARY
360
18A
102
}
102
{ACAD_REACTORS
330
2A
102
}
330
2A
100
AcDbVisualStyle
  2

 70
     4
 71
     0
 72
     2
 73
     0
 90
        0
 40
-0.6
 41
-30.0
 62
     5
 63
     7
 74
     1
 91
        4
 64
     7
 65
   257
 75
     1
175
     1
 42
1.0
 92
        0
 66
   257
 43
1.0
 76
     1
 77
     6
 78
     2
 67
     7
 79
     5
170
     0
171
     0
290
     0
174
     0
 93
        1
 44
0.0
173
     0
291
     0
 45
0.0
1001
ACAD
1000
AcDbSavedByObjectVersion
1070
     0
  0
VISUALSTYLE
  5
31
102
{ACAD_XDICTIONARY
360
18E
102
}
102
{ACAD_REACTORS
330
2A
102
}
330
2A
100
AcDbVisualStyle
  2

 70
     6
 71
     1
 72
     2
 73
     2
 90
        0
 40
-0.6
 41
-30.0
 62
     5
 63
     7
 74
     2
 91
        2
 64
     7
 65
   257
 75
     2
175
     1
 42
40.0
 92
        0
 66
   257
 43
1.0
 76
     1
 77
     6
 78
     2
 67
     7
 79
     3
170
     0
171
     0
290
     0
174
     0
 93
        1
 44
0.0
173
     0
291
     0
 45
0.0
1001
ACAD
1000
AcDbSavedByObjectVersion
1070
     0
  0
VISUALSTYLE
  5
30
102
{ACAD_XDICTIONARY
360
18C
102
}
102
{ACAD_REACTORS
330
2A
102
}
330
2A
100
AcDbVisualStyle
  2

 70
     5
 71
     0
 72
     2
 73
     0
 90
        0
 40
-0.6
 41
-30.0
 62
     5
 63
     7
 74
     1
 91
        4
 64
     7
 65
   257
 75
     1
175
     1
 42
1.0
 92
        0
 66
   257
 43
1.0
 76
     1
 77
     6
 78
     2
 67
     7
 79
     5
170
     0
171
     0
290
     0
174
     0
 93
        1
 44
0.0
173
     0
291
     0
 45
0.0
1001
ACAD
1000
AcDbSavedByObjectVersion
1070
     0
  0
VISUALSTYLE
  5
32
102
{ACAD_XDICTIONARY
360
190
102
}
102
{ACAD_REACTORS
330
2A
102
}
330
2A
100
AcDbVisualStyle
  2

 70
     7
 71
     1
 72
     0
 73
     1
 90
        0
 40
-0.6
 41
-30.0
 62
     5
 63
     7
 74
     0
 91
        4
 64
     7
 65
   257
 75
     1
175
     1
 42
1.0
 92
        8
 66
     7
 43
1.0
 76
     1
 77
     6
 78
     2
 67
     7
 79
     5
170
     0
171
     0
290
     0
174
     0
 93
        1
 44
0.0
173
     0
291
     1
 45
0.0
1001
ACAD
1000
AcDbSavedByObjectVersion
1070
     0
  0
VISUALSTYLE
  5
36
102
{ACAD_XDICTIONARY
360
198
102
}
102
{ACAD_REACTORS
330
2A
102
}
330
2A
100
AcDbVisualStyle
  2

 70
    12
 71
     2
 72
     2
 73
     0
 90
        0
 40
-0.6
 41
-30.0
 62
     5
 63
     7
 74
     1
 91
        4
 64
     7
 65
   257
 75
     1
175
     1
 42
1.0
 92
        8
 66
     7
 43
1.0
 76
     1
 77
     6
 78
     2
 67
     7
 79
     5
170
     0
171
     0
290
     0
174
     0
 93
        1
 44
50.0
173
     0
291
     1
 45
0.0
1001
ACAD
1000
AcDbSavedByObjectVersion
1070
     0
  0
VISUALSTYLE
  5
3A
102
{ACAD_XDICTIONARY
360
1A0
102
}
102
{ACAD_REACTORS
330
2A
102
}
330
2A
100
AcDbVisualStyle
  2

 70
    16
 71
     2
 72
     2
 73
     3
 90
        0
 40
-0.6
 41
-30.0
 62
     5
 63
     8
 74
     1
 91
        4
 64
     7
 65
   257
 75
     1
175
     1
 42
1.0
 92
        8
 66
     8
 43
1.0
 76
     1
 77
     6
 78
     2
 67
     7
 79
     5
170
     0
171
     0
290
     0
174
     0
 93
        1
 44
0.0
173
     0
291
     1
 45
0.0
1001
ACAD
1000
AcDbSavedByObjectVersion
1070
     0
  0
VISUALSTYLE
  5
34
102
{ACAD_XDICTIONARY
360
194
102
}
102
{ACAD_REACTORS
330
2A
102
}
330
2A
100
AcDbVisualStyle
  2

 70
     9
 71
     3
 72
     2
 73
     0
 90
        0
 40
-0.6
 41
-30.0
 62
     5
 63
     7
 74
     2
 91
        2
 64
     7
 65
   257
 75
     1
175
     1
 42
40.0
 92
        8
 66
     7
 43
1.0
 76
     1
 77
     6
 78
     2
 67
     7
 79
     3
170
     0
171
     0
290
     0
174
     0
 93
        1
 44
0.0
173
     0
291
     0
 45
0.0
1001
ACAD
1000
AcDbSavedByObjectVersion
1070
     0
  0
VISUALSTYLE
  5
35
102
{ACAD_XDICTIONARY
360
196
102
}
102
{ACAD_REACTORS
330
2A
102
}
330
2A
100
AcDbVisualStyle
  2

 70
    11
 71
     2
 72
     2
 73
     0
 90
        0
 40
-0.6
 41
-30.0
 62
     5
 63
     7
 74
     1
 91
        4
 64
     7
 65
   257
 75
     1
175
     1
 42
1.0
 92
        8
 66
     7
 43
1.0
 76
     1
 77
     6
 78
     2
 67
     7
 79
     5
170
     0
171
     0
290
     0
174
     0
 93
        1
 44
-50.0
173
     0
291
     1
 45
0.0
1001
ACAD
1000
AcDbSavedByObjectVersion
1070
     0
  0
VISUALSTYLE
  5
92
102
{ACAD_XDICTIONARY
360
1BA
102
}
102
{ACAD_REACTORS
330
2A
102
}
330
2A
100
AcDbVisualStyle
  2
EdgeColorOff
 70
    22
 71
     2
 72
     2
 73
     0
 90
        0
 40
-0.6
 41
-30.0
 62
     5
 63
     7
 74
     1
 91
        4
 64
     7
 65
   257
 75
     1
175
     1
 42
1.0
 92
        8
 66
     7
 43
1.0
 76
     1
 77
     6
 78
     2
 67
     7
 79
     5
170
     0
171
     0
290
     0
174
     0
 93
        1
 44
0.0
173
     0
291
     1
 45
0.0
1001
ACAD
1000
AcDbSavedByObjectVersion
1070
     0
  0
VISUALSTYLE
  5
39
102
{ACAD_XDICTIONARY
360
19E
102
}
102
{ACAD_REACTORS
330
2A
102
}
330
2A
100
AcDbVisualStyle
  2

 70
    15
 71
     2
 72
     2
 73
     0
 90
        0
 40
-0.6
 41
-30.0
 62
     5
 63
     7
 74
     1
 91
        4
 64
     7
 65
   257
 75
     1
175
     1
 42
1.0
 92
        8
 66
     7
 43
1.0
 76
     1
 77
     6
 78
     2
 67
     7
 79
     5
170
     0
171
     0
290
     0
174
     0
 93
        1
 44
0.0
173
     0
291
     1
 45
0.0
1001
ACAD
1000
AcDbSavedByObjectVersion
1070
     0
  0
VISUALSTYLE
  5
2B
102
{ACAD_XDICTIONARY
360
182
102
}
102
{ACAD_REACTORS
330
2A
102
}
330
2A
100
AcDbVisualStyle
  2

 70
     0
 71
     2
 72
     1
 73
     1
 90
        2
 40
-0.6
 41
30.0
 62
     5
 63
     7
 74
     0
 91
        4
 64
     7
 65
   257
 75
     1
175
     1
 42
1.0
 92
        8
 66
     7
 43
1.0
 76
     1
 77
     6
 78
     2
 67
     7
 79
     5
170
     0
171
     0
290
     0
174
     0
 93
       13
 44
0.0
173
     0
291
     1
 45
0.0
1001
ACAD
1000
AcDbSavedByObjectVersion
1070
     0
  0
VISUALSTYLE
  5
2C
102
{ACAD_XDICTIONARY
360
184
102
}
102
{ACAD_REACTORS
330
2A
102
}
330
2A
100
AcDbVisualStyle
  2

 70
     1
 71
     2
 72
     1
 73
     1
 90
        2
 40
-0.6
 41
30.0
 62
     5
 63
     7
 74
     1
 91
        4
 64
     7
 65
   257
 75
     1
175
     1
 42
1.0
 92
        0
 66
   257
 43
1.0
 76
     1
 77
     6
 78
     2
 67
     7
 79
     5
170
     0
171
     0
290
     0
174
     0
 93
       13
 44
0.0
173
     0
291
     1
 45
0.0
1001
ACAD
1000
AcDbSavedByObjectVersion
1070
     0
  0
VISUALSTYLE
  5
2D
102
{ACAD_XDICTIONARY
360
186
102
}
102
{ACAD_REACTORS
330
2A
102
}
330
2A
100
AcDbVisualStyle
  2

 70
     2
 71
     2
 72
     2
 73
     1
 90
        2
 40
-0.6
 41
30.0
 62
     5
 63
     7
 74
     0
 91
        4
 64
     7
 65
   257
 75
     1
175
     1
 42
1.0
 92
        0
 66
     7
 43
1.0
 76
     1
 77
     6
 78
     2
 67
     7
 79
     5
170
     0
171
     0
290
     0
174
     0
 93
       13
 44
0.0
173
     0
291
     1
 45
0.0
1001
ACAD
1000
AcDbSavedByObjectVersion
1070
     0
  0
VISUALSTYLE
  5
2E
102
{ACAD_XDICTIONARY
360
188
102
}
102
{ACAD_REACTORS
330
2A
102
}
330
2A
100
AcDbVisualStyle
  2

 70
     3
 71
     2
 72
     2
 73
     1
 90
        2
 40
-0.6
 41
30.0
 62
     5
 63
     7
 74
     1
 91
        4
 64
     7
 65
   257
 75
     1
175
     1
 42
1.0
 92
        0
 66
   257
 43
1.0
 76
     1
 77
     6
 78
     2
 67
     7
 79
     5
170
     0
171
     0
290
     0
174
     0
 93
       13
 44
0.0
173
     0
291
     1
 45
0.0
1001
ACAD
1000
AcDbSavedByObjectVersion
1070
     0
  0
VISUALSTYLE
  5
8A
102
{ACAD_XDICTIONARY
360
1AA
102
}
102
{ACAD_REACTORS
330
2A
102
}
330
2A
100
AcDbVisualStyle
  2
Hidden
 70
     6
 71
     1
 72
     2
 73
     2
 90
        0
 40
-0.6
 41
-30.0
 62
     5
 63
     7
 74
     2
 91
        2
 64
     7
 65
   257
 75
     2
175
     1
 42
40.0
 92
        0
 66
   257
 43
1.0
 76
     1
 77
     6
 78
     2
 67
     7
 79
     3
170
     0
171
     0
290
     0
174
     0
 93
        1
 44
0.0
173
     0
291
     0
 45
0.0
1001
ACAD
1000
AcDbSavedByObjectVersion
1070
     0
  0
VISUALSTYLE
  5
90
102
{ACAD_XDICTIONARY
360
1B6
102
}
102
{ACAD_REACTORS
330
2A
102
}
330
2A
100
AcDbVisualStyle
  2
JitterOff
 70
    20
 71
     2
 72
     2
 73
     0
 90
        0
 40
-0.6
 41
-30.0
 62
     5
 63
     7
 74
     1
 91
        4
 64
     7
 65
   257
 75
     1
175
     1
 42
1.0
 92
       10
 66
     7
 43
1.0
 76
     1
 77
     6
 78
     2
 67
     7
 79
     5
170
     0
171
     0
290
     0
174
     0
 93
        1
 44
0.0
173
     0
291
     1
 45
0.0
1001
ACAD
1000
AcDbSavedByObjectVersion
1070
     0
  0
VISUALSTYLE
  5
38
102
{ACAD_XDICTIONARY
360
19C
102
}
102
{ACAD_REACTORS
330
2A
102
}
330
2A
100
AcDbVisualStyle
  2

 70
    14
 71
     2
 72
     2
 73
     0
 90
        0
 40
-0.6
 41
-30.0
 62
     5
 63
     7
 74
     1
 91
        4
 64
     7
 65
   257
 75
     7
175
     7
 42
1.0
 92
        8
 66
     7
 43
1.0
 76
     1
 77
     6
 78
     2
 67
     7
 79
     5
170
     0
171
     0
290
     0
174
     0
 93
        1
 44
0.0
173
     0
291
     1
 45
0.0
1001
ACAD
1000
AcDbSavedByObjectVersion
1070
     0
  0
VISUALSTYLE
  5
91
102
{ACAD_XDICTIONARY
360
1B8
102
}
102
{ACAD_REACTORS
330
2A
102
}
330
2A
100
AcDbVisualStyle
  2
OverhangOff
 70
    21
 71
     2
 72
     2
 73
     0
 90
        0
 40
-0.6
 41
-30.0
 62
     5
 63
     7
 74
     1
 91
        4
 64
     7
 65
   257
 75
     1
175
     1
 42
1.0
 92
        9
 66
     7
 43
1.0
 76
     1
 77
     6
 78
     2
 67
     7
 79
     5
170
     0
171
     0
290
     0
174
     0
 93
        1
 44
0.0
173
     0
291
     1
 45
0.0
1001
ACAD
1000
AcDbSavedByObjectVersion
1070
     0
  0
VISUALSTYLE
  5
33
102
{ACAD_XDICTIONARY
360
192
102
}
102
{ACAD_REACTORS
330
2A
102
}
330
2A
100
AcDbVisualStyle
  2

 70
     8
 71
     2
 72
     2
 73
     0
 90
        0
 40
-0.6
 41
-30.0
 62
     5
 63
     7
 74
     1
 91
        0
 64
     7
 65
   257
 75
     1
175
     1
 42
1.0
 92
        8
 66
     8
 43
1.0
 76
     1
 77
     6
 78
     2
 67
     7
 79
     5
170
     0
171
     0
290
     0
174
     0
 93
       13
 44
0.0
173
     0
291
     0
 45
0.0
1001
ACAD
1000
AcDbSavedByObjectVersion
1070
     0
  0
VISUALSTYLE
  5
8F
102
{ACAD_XDICTIONARY
360
1B4
102
}
102
{ACAD_REACTORS
330
2A
102
}
330
2A
100
AcDbVisualStyle
  2
Shaded
 70
    27
 71
     2
 72
     2
 73
     1
 90
        2
 40
-0.6
 41
30.0
 62
     5
 63
     7
 74
     0
 91
        4
 64
     7
 65
   257
 75
     1
175
     1
 42
1.0
 92
        8
 66
   257
 43
1.0
 76
     1
 77
     6
 78
     2
 67
     8
 79
     3
170
     0
171
     0
290
     0
174
     0
 93
        5
 44
0.0
173
     0
291
     0
 45
0.0
1001
ACAD
1000
AcDbSavedByObjectVersion
1070
     0
  0
VISUALSTYLE
  5
8E
102
{ACAD_XDICTIONARY
360
1B2
102
}
102
{ACAD_REACTORS
330
2A
102
}
330
2A
100
AcDbVisualStyle
  2
Shaded with edges
 70
    26
 71
     2
 72
     2
 73
     1
 90
        2
 40
-0.6
 41
30.0
 62
     5
 63
     7
 74
     1
 91
       10
 64
     7
 65
   257
 75
     2
175
     1
 42
1.0
 92
        8
 66
   257
 43
1.0
 76
     1
 77
     6
 78
     2
 67
     7
 79
     3
170
     0
171
     0
290
     0
174
     0
 93
        5
 44
0.0
173
     0
291
     0
 45
0.0
1001
ACAD
1000
AcDbSavedByObjectVersion
1070
     0
  0
VISUALSTYLE
  5
8B
102
{ACAD_XDICTIONARY
360
1AC
102
}
102
{ACAD_REACTORS
330
2A
102
}
330
2A
100
AcDbVisualStyle
  2
Shades of Gray
 70
    23
 71
     2
 72
     2
 73
     3
 90
        0
 40
-0.6
 41
-30.0
 62
     5
 63
     7
 74
     2
 91
        2
 64
     7
 65
     7
 75
     1
175
     1
 42
40.0
 92
        8
 66
     7
 43
1.0
 76
     1
 77
     6
 78
     2
 67
     7
 79
     3
170
     0
171
     0
290
     0
174
     0
 93
        1
 44
0.0
173
     0
291
     0
 45
0.0
1001
ACAD
1000
AcDbSavedByObjectVersion
1070
     0
  0
VISUALSTYLE
  5
8C
102
{ACAD_XDICTIONARY
360
1AE
102
}
102
{ACAD_REACTORS
330
2A
102
}
330
2A
100
AcDbVisualStyle
  2
Sketchy
 70
    24
 71
     1
 72
     2
 73
     2
 90
        0
 40
-0.6
 41
-30.0
 62
     5
 63
     7
 74
     2
 91
        2
 64
     7
 65
     7
 75
     1
175
     1
 42
40.0
 92
       11
 66
     7
 43
1.0
 76
     1
 77
     6
 78
     2
 67
     7
 79
     6
170
     0
171
     0
290
     0
174
     0
 93
        1
 44
0.0
173
     0
291
     0
 45
0.0
1001
ACAD
1000
AcDbSavedByObjectVersion
1070
     0
  0
VISUALSTYLE
  5
37
102
{ACAD_XDICTIONARY
360
19A
102
}
102
{ACAD_REACTORS
330
2A
102
}
330
2A
100
AcDbVisualStyle
  2

 70
    13
 71
     2
 72
     2
 73
     0
 90
        0
 40
-0.6
 41
-30.0
 62
     5
 63
     7
 74
     1
 91
        4
 64
     7
 65
   257
 75
     1
175
     1
 42
1.0
 92
       12
 66
     7
 43
1.0
 76
     1
 77
     6
 78
     2
 67
     7
 79
     5
170
     0
171
     0
290
     0
174
     0
 93
        1
 44
0.0
173
     0
291
     1
 45
0.0
1001
ACAD
1000
AcDbSavedByObjectVersion
1070
     0
  0
VISUALSTYLE
  5
89
102
{ACAD_XDICTIONARY
360
1A8
102
}
102
{ACAD_REACTORS
330
2A
102
}
330
2A
100
AcDbVisualStyle
  2
Wireframe
 70
     5
 71
     0
 72
     2
 73
     0
 90
        0
 40
-0.6
 41
-30.0
 62
     5
 63
     7
 74
     1
 91
        4
 64
     7
 65
   257
 75
     1
175
     1
 42
1.0
 92
        0
 66
   257
 43
1.0
 76
     1
 77
     6
 78
     2
 67
     7
 79
     3
170
     0
171
     0
290
     0
174
     0
 93
        1
 44
0.0
173
     0
291
     0
 45
0.0
1001
ACAD
1000
AcDbSavedByObjectVersion
1070
     0
  0
VISUALSTYLE
  5
8D
102
{ACAD_XDICTIONARY
360
1B0
102
}
102
{ACAD_REACTORS
330
2A
102
}
330
2A
100
AcDbVisualStyle
  2
X-Ray
 70
    25
 71
     2
 72
     2
 73
     1
 90
        1
 40
0.5
 41
-30.0
 62
     5
 63
     7
 74
     1
 91
        0
 64
     7
 65
   257
 75
     1
175
     1
 42
1.0
 92
        8
 66
     7
 43
1.0
 76
     1
 77
     6
 78
     2
 67
     7
 79
     3
170
     0
171
     0
290
     0
174
     0
 93
       13
 44
0.0
173
     0
291
     0
 45
0.0
1001
ACAD
1000
AcDbSavedByObjectVersion
1070
     0
  0
DICTIONARYVAR
  5
D8
102
{ACAD_REACTORS
330
D4
102
}
330
D4
100
DictionaryVariables
280
     0
  1
1:1
  0
DICTIONARYVAR
  5
D6
102
{ACAD_REACTORS
330
D4
102
}
330
D4
100
DictionaryVariables
280
     0
  1
STANDARD
  0
DICTIONARYVAR
  5
D5
102
{ACAD_REACTORS
330
D4
102
}
330
D4
100
DictionaryVariables
280
     0
  1
STANDARD
  0
DICTIONARYVAR
  5
E2
102
{ACAD_REACTORS
330
D4
102
}
330
D4
100
DictionaryVariables
280
     0
  1
2
  0
DICTIONARYVAR
  5
E0
102
{ACAD_REACTORS
330
D4
102
}
330
D4
100
DictionaryVariables
280
     0
  1
2
  0
DICTIONARYVAR
  5
DE
102
{ACAD_REACTORS
330
D4
102
}
330
D4
100
DictionaryVariables
280
     0
  1
1
  0
DICTIONARYVAR
  5
DD
102
{ACAD_REACTORS
330
D4
102
}
330
D4
100
DictionaryVariables
280
     0
  1
0
  0
DICTIONARYVAR
  5
DA
102
{ACAD_REACTORS
330
D4
102
}
330
D4
100
DictionaryVariables
280
     0
  1
0
  0
DICTIONARYVAR
  5
DB
102
{ACAD_REACTORS
330
D4
102
}
330
D4
100
DictionaryVariables
280
     0
  1
0
  0
DICTIONARYVAR
  5
D9
102
{ACAD_REACTORS
330
D4
102
}
330
D4
100
DictionaryVariables
280
     0
  1
2
  0
DICTIONARYVAR
  5
E3
102
{ACAD_REACTORS
330
D4
102
}
330
D4
100
DictionaryVariables
280
     0
  1
1.570796
  0
DICTIONARYVAR
  5
E4
102
{ACAD_REACTORS
330
D4
102
}
330
D4
100
DictionaryVariables
280
     0
  1
1.570796
  0
DICTIONARYVAR
  5
E5
102
{ACAD_REACTORS
330
D4
102
}
330
D4
100
DictionaryVariables
280
     0
  1
-122.394000
  0
DICTIONARYVAR
  5
D7
102
{ACAD_REACTORS
330
D4
102
}
330
D4
100
DictionaryVariables
280
     0
  1
1
  0
DICTIONARYVAR
  5
E1
102
{ACAD_REACTORS
330
D4
102
}
330
D4
100
DictionaryVariables
280
     0
  1
1
  0
DICTIONARYVAR
  5
DC
102
{ACAD_REACTORS
330
D4
102
}
330
D4
100
DictionaryVariables
280
     0
  1
127
  0
DICTIONARYVAR
  5
DF
102
{ACAD_REACTORS
330
D4
102
}
330
D4
100
DictionaryVariables
280
     0
  1
0
  0
DICTIONARY
  5
17C
330
1E
100
AcDbDictionary
280
     1
281
     1
  3
ACAD_XREC_ROUNDTRIP
360
17D
  0
DICTIONARY
  5
180
330
26
100
AcDbDictionary
280
     1
281
     1
  3
ACAD_XREC_ROUNDTRIP
360
181
  0
DICTIONARY
  5
17E
330
22
100
AcDbDictionary
280
     1
281
     1
  3
ACAD_XREC_ROUNDTRIP
360
17F
  0
DICTIONARY
  5
1A4
330
3D
100
AcDbDictionary
280
     1
281
     1
  3
ACAD_XREC_ROUNDTRIP
360
1A5
  0
DICTIONARY
  5
1A2
330
3C
100
AcDbDictionary
280
     1
281
     1
  3
ACAD_XREC_ROUNDTRIP
360
1A3
  0
DICTIONARY
  5
1A6
330
3E
100
AcDbDictionary
280
     1
281
     1
  3
ACAD_XREC_ROUNDTRIP
360
1A7
  0
DICTIONARY
  5
176
330
94
100
AcDbDictionary
280
     1
281
     1
  3
ACAD_ROUNDTRIP_2008_TABLESTYLE_CELLSTYLEMAP
360
177
  3
ACAD_XREC_ROUNDTRIP
360
1BC
  0
DICTIONARY
  5
18A
330
2F
100
AcDbDictionary
280
     1
281
     1
  3
ACAD_XREC_ROUNDTRIP
360
18B
  0
DICTIONARY
  5
18E
330
31
100
AcDbDictionary
280
     1
281
     1
  3
ACAD_XREC_ROUNDTRIP
360
18F
  0
DICTIONARY
  5
18C
330
30
100
AcDbDictionary
280
     1
281
     1
  3
ACAD_XREC_ROUNDTRIP
360
18D
  0
DICTIONARY
  5
190
330
32
100
AcDbDictionary
280
     1
281
     1
  3
ACAD_XREC_ROUNDTRIP
360
191
  0
DICTIONARY
  5
198
330
36
100
AcDbDictionary
280
     1
281
     1
  3
ACAD_XREC_ROUNDTRIP
360
199
  0
DICTIONARY
  5
1A0
330
3A
100
AcDbDictionary
280
     1
281
     1
  3
ACAD_XREC_ROUNDTRIP
360
1A1
  0
DICTIONARY
  5
194
330
34
100
AcDbDictionary
280
     1
281
     1
  3
ACAD_XREC_ROUNDTRIP
360
195
  0
DICTIONARY
  5
196
330
35
100
AcDbDictionary
280
     1
281
     1
  3
ACAD_XREC_ROUNDTRIP
360
197
  0
DICTIONARY
  5
1BA
330
92
100
AcDbDictionary
280
     1
281
     1
  3
ACAD_XREC_ROUNDTRIP
360
1BB
  0
DICTIONARY
  5
19E
330
39
100
AcDbDictionary
280
     1
281
     1
  3
ACAD_XREC_ROUNDTRIP
360
19F
  0
DICTIONARY
  5
182
330
2B
100
AcDbDictionary
280
     1
281
     1
  3
ACAD_XREC_ROUNDTRIP
360
183
  0
DICTIONARY
  5
184
330
2C
100
AcDbDictionary
280
     1
281
     1
  3
ACAD_XREC_ROUNDTRIP
360
185
  0
DICTIONARY
  5
186
330
2D
100
AcDbDictionary
280
     1
281
     1
  3
ACAD_XREC_ROUNDTRIP
360
187
  0
DICTIONARY
  5
188
330
2E
100
AcDbDictionary
280
     1
281
     1
  3
ACAD_XREC_ROUNDTRIP
360
189
  0
DICTIONARY
  5
1AA
330
8A
100
AcDbDictionary
280
     1
281
     1
  3
ACAD_XREC_ROUNDTRIP
360
1AB
  0
DICTIONARY
  5
1B6
330
90
100
AcDbDictionary
280
     1
281
     1
  3
ACAD_XREC_ROUNDTRIP
360
1B7
  0
DICTIONARY
  5
19C
330
38
100
AcDbDictionary
280
     1
281
     1
  3
ACAD_XREC_ROUNDTRIP
360
19D
  0
DICTIONARY
  5
1B8
330
91
100
AcDbDictionary
280
     1
281
     1
  3
ACAD_XREC_ROUNDTRIP
360
1B9
  0
DICTIONARY
  5
192
330
33
100
AcDbDictionary
280
     1
281
     1
  3
ACAD_XREC_ROUNDTRIP
360
193
  0
DICTIONARY
  5
1B4
330
8F
100
AcDbDictionary
280
     1
281
     1
  3
ACAD_XREC_ROUNDTRIP
360
1B5
  0
DICTIONARY
  5
1B2
330
8E
100
AcDbDictionary
280
     1
281
     1
  3
ACAD_XREC_ROUNDTRIP
360
1B3
  0
DICTIONARY
  5
1AC
330
8B
100
AcDbDictionary
280
     1
281
     1
  3
ACAD_XREC_ROUNDTRIP
360
1AD
  0
DICTIONARY
  5
1AE
330
8C
100
AcDbDictionary
280
     1
281
     1
  3
ACAD_XREC_ROUNDTRIP
360
1AF
  0
DICTIONARY
  5
19A
330
37
100
AcDbDictionary
280
     1
281
     1
  3
ACAD_XREC_ROUNDTRIP
360
19B
  0
DICTIONARY
  5
1A8
330
89
100
AcDbDictionary
280
     1
281
     1
  3
ACAD_XREC_ROUNDTRIP
360
1A9
  0
DICTIONARY
  5
1B0
330
8D
100
AcDbDictionary
280
     1
281
     1
  3
ACAD_XREC_ROUNDTRIP
360
1B1
  0
XRECORD
  5
17D
102
{ACAD_REACTORS
330
17C
102
}
330
17C
100
AcDbXrecord
280
     1
102
SHADEPLOT
 70
     0
102
SHADEPLOTRESLEVEL
 70
     2
102
SHADEPLOTCUSTOMDPI
 70
   300
  0
XRECORD
  5
181
102
{ACAD_REACTORS
330
180
102
}
330
180
100
AcDbXrecord
280
     1
102
SHADEPLOT
 70
     0
102
SHADEPLOTRESLEVEL
 70
     2
102
SHADEPLOTCUSTOMDPI
 70
   300
  0
XRECORD
  5
17F
102
{ACAD_REACTORS
330
17E
102
}
330
17E
100
AcDbXrecord
280
     1
102
SHADEPLOT
 70
     0
102
SHADEPLOTRESLEVEL
 70
     2
102
SHADEPLOTCUSTOMDPI
 70
   300
  0
XRECORD
  5
1A5
102
{ACAD_REACTORS
330
1A4
102
}
330
1A4
100
AcDbXrecord
280
     1
102
MATERIAL
148
0.0
149
0.0
149
0.0
 93
        0
 94
      127
282
     0
 72
     1
 77
     1
171
     1
175
     1
179
     1
273
     0
  0
XRECORD
  5
1A3
102
{ACAD_REACTORS
330
1A2
102
}
330
1A2
100
AcDbXrecord
280
     1
102
MATERIAL
148
0.0
149
0.0
149
0.0
 93
        0
 94
      127
282
     0
 72
     1
 77
     1
171
     1
175
     1
179
     1
273
     0
  0
XRECORD
  5
1A7
102
{ACAD_REACTORS
330
1A6
102
}
330
1A6
100
AcDbXrecord
280
     1
102
MATERIAL
148
0.0
149
0.0
149
0.0
 93
        0
 94
      127
282
     0
 72
     1
 77
     1
171
     1
175
     1
179
     1
273
     0
  0
CELLSTYLEMAP
  5
177
102
{ACAD_REACTORS
330
176
102
}
330
176
100
AcDbCellStyleMap
 90
        3
300
CELLSTYLE
  1
TABLEFORMAT_BEGIN
 90
        5
170
     1
 91
        0
 92
    32768
 62
   257
 93
        1
300
CONTENTFORMAT
  1
CONTENTFORMAT_BEGIN
 90
        0
 91
        0
 92
      512
 93
        0
300

 40
0.0
140
1.0
 94
        5
 62
     0
340
11
144
0.25
309
CONTENTFORMAT_END
171
     0
 94
        0
309
TABLEFORMAT_END
  1
CELLSTYLE_BEGIN
 90
        1
 91
        1
300
_TITLE
309
CELLSTYLE_END
300
CELLSTYLE
  1
TABLEFORMAT_BEGIN
 90
        5
170
     1
 91
        0
 92
        0
 62
   257
 93
        1
300
CONTENTFORMAT
  1
CONTENTFORMAT_BEGIN
 90
        0
 91
        0
 92
      512
 93
        0
300

 40
0.0
140
1.0
 94
        5
 62
     0
340
11
144
0.18
309
CONTENTFORMAT_END
171
     0
 94
        0
309
TABLEFORMAT_END
  1
CELLSTYLE_BEGIN
 90
        2
 91
        1
300
_HEADER
309
CELLSTYLE_END
300
CELLSTYLE
  1
TABLEFORMAT_BEGIN
 90
        5
170
     1
 91
        0
 92
        0
 62
   257
 93
        1
300
CONTENTFORMAT
  1
CONTENTFORMAT_BEGIN
 90
        0
 91
        0
 92
      512
 93
        0
300

 40
0.0
140
1.0
 94
        2
 62
     0
340
11
144
0.18
309
CONTENTFORMAT_END
171
     0
 94
        0
309
TABLEFORMAT_END
  1
CELLSTYLE_BEGIN
 90
        3
 91
        2
300
_DATA
309
CELLSTYLE_END
  0
XRECORD
  5
1BC
102
{ACAD_REACTORS
330
176
102
}
330
176
100
AcDbXrecord
280
     1
102
ACAD_ROUNDTRIP_PRE2007_TABLESTYLE
 90
      512
 91
        0
  1

 92
      512
 93
        0
  2

 94
      512
 95
        0
  3

  0
XRECORD
  5
18B
102
{ACAD_REACTORS
330
18A
102
}
330
18A
100
AcDbXrecord
280
     1
102
RTVSPropertyOp0
 70
     1
102
RTVSPropertyOp1
 70
     1
102
RTVSPropertyOp2
 70
     1
102
RTVSPropertyOp3
 70
     1
102
RTVSPropertyOp4
 70
     1
102
RTVSPropertyOp5
 70
     1
102
RTVSPropertyOp6
 70
     1
102
RTVSPropertyOp7
 70
     1
102
RTVSPropertyOp8
 70
     1
102
RTVSPropertyOp9
 70
     1
102
RTVSPropertyOp10
 70
     1
102
RTVSPropertyOp11
 70
     1
102
RTVSPropertyOp12
 70
     1
102
RTVSPropertyOp13
 70
     1
102
RTVSPropertyOp14
 70
     1
102
RTVSPropertyOp15
 70
     1
102
RTVSPropertyOp16
 70
     1
102
RTVSPropertyOp17
 70
     1
102
RTVSPropertyOp18
 70
     1
102
RTVSPropertyOp19
 70
     1
102
RTVSPropertyOp20
 70
     1
102
RTVSPropertyOp21
 70
     1
102
RTVSPropertyOp22
 70
     1
102
RTVSPropertyOp23
 70
     1
102
RTVSPropertyOp24
 70
     1
102
RTVSPropertyOp25
 70
     1
102
RTVSPropertyOp26
 70
     1
102
RTVSPropertyOp27
 70
     1
102
RTVSPropertyOp28
 70
     1
102
RTVSPropertyOp29
 70
     1
102
RTVSPropertyOp30
 70
     1
102
RTVSPropertyOp31
 70
     1
102
RTVSPropertyOp32
 70
     1
  0
XRECORD
  5
18F
102
{ACAD_REACTORS
330
18E
102
}
330
18E
100
AcDbXrecord
280
     1
102
RTVSPropertyOp0
 70
     1
102
RTVSPropertyOp1
 70
     1
102
RTVSPropertyOp2
 70
     1
102
RTVSPropertyOp3
 70
     1
102
RTVSPropertyOp4
 70
     1
102
RTVSPropertyOp5
 70
     1
102
RTVSPropertyOp6
 70
     1
102
RTVSPropertyOp7
 70
     1
102
RTVSPropertyOp8
 70
     1
102
RTVSPropertyOp9
 70
     1
102
RTVSPropertyOp10
 70
     1
102
RTVSPropertyOp11
 70
     1
102
RTVSPropertyOp12
 70
     1
102
RTVSPropertyOp13
 70
     1
102
RTVSPropertyOp14
 70
     1
102
RTVSPropertyOp15
 70
     1
102
RTVSPropertyOp16
 70
     1
102
RTVSPropertyOp17
 70
     1
102
RTVSPropertyOp18
 70
     1
102
RTVSPropertyOp19
 70
     1
102
RTVSPropertyOp20
 70
     1
102
RTVSPropertyOp21
 70
     1
102
RTVSPropertyOp22
 70
     1
102
RTVSPropertyOp23
 70
     1
102
RTVSPropertyOp24
 70
     1
102
RTVSPropertyOp25
 70
     1
102
RTVSPropertyOp26
 70
     1
102
RTVSPropertyOp27
 70
     1
102
RTVSPropertyOp28
 70
     1
102
RTVSPropertyOp29
 70
     1
102
RTVSPropertyOp30
 70
     1
102
RTVSPropertyOp31
 70
     1
102
RTVSPropertyOp32
 70
     1
  0
XRECORD
  5
18D
102
{ACAD_REACTORS
330
18C
102
}
330
18C
100
AcDbXrecord
280
     1
102
RTVSPropertyOp0
 70
     1
102
RTVSPropertyOp1
 70
     1
102
RTVSPropertyOp2
 70
     1
102
RTVSPropertyOp3
 70
     1
102
RTVSPropertyOp4
 70
     1
102
RTVSPropertyOp5
 70
     1
102
RTVSPropertyOp6
 70
     1
102
RTVSPropertyOp7
 70
     1
102
RTVSPropertyOp8
 70
     1
102
RTVSPropertyOp9
 70
     1
102
RTVSPropertyOp10
 70
     1
102
RTVSPropertyOp11
 70
     1
102
RTVSPropertyOp12
 70
     1
102
RTVSPropertyOp13
 70
     1
102
RTVSPropertyOp14
 70
     1
102
RTVSPropertyOp15
 70
     1
102
RTVSPropertyOp16
 70
     1
102
RTVSPropertyOp17
 70
     1
102
RTVSPropertyOp18
 70
     1
102
RTVSPropertyOp19
 70
     1
102
RTVSPropertyOp20
 70
     1
102
RTVSPropertyOp21
 70
     1
102
RTVSPropertyOp22
 70
     1
102
RTVSPropertyOp23
 70
     1
102
RTVSPropertyOp24
 70
     1
102
RTVSPropertyOp25
 70
     1
102
RTVSPropertyOp26
 70
     1
102
RTVSPropertyOp27
 70
     1
102
RTVSPropertyOp28
 70
     1
102
RTVSPropertyOp29
 70
     1
102
RTVSPropertyOp30
 70
     1
102
RTVSPropertyOp31
 70
     1
102
RTVSPropertyOp32
 70
     1
  0
XRECORD
  5
191
102
{ACAD_REACTORS
330
190
102
}
330
190
100
AcDbXrecord
280
     1
102
RTVSPropertyOp0
 70
     1
102
RTVSPropertyOp1
 70
     1
102
RTVSPropertyOp2
 70
     1
102
RTVSPropertyOp3
 70
     1
102
RTVSPropertyOp4
 70
     1
102
RTVSPropertyOp5
 70
     1
102
RTVSPropertyOp6
 70
     1
102
RTVSPropertyOp7
 70
     1
102
RTVSPropertyOp8
 70
     1
102
RTVSPropertyOp9
 70
     1
102
RTVSPropertyOp10
 70
     1
102
RTVSPropertyOp11
 70
     1
102
RTVSPropertyOp12
 70
     1
102
RTVSPropertyOp13
 70
     1
102
RTVSPropertyOp14
 70
     1
102
RTVSPropertyOp15
 70
     1
102
RTVSPropertyOp16
 70
     1
102
RTVSPropertyOp17
 70
     1
102
RTVSPropertyOp18
 70
     1
102
RTVSPropertyOp19
 70
     1
102
RTVSPropertyOp20
 70
     1
102
RTVSPropertyOp21
 70
     1
102
RTVSPropertyOp22
 70
     1
102
RTVSPropertyOp23
 70
     1
102
RTVSPropertyOp24
 70
     1
102
RTVSPropertyOp25
 70
     1
102
RTVSPropertyOp26
 70
     1
102
RTVSPropertyOp27
 70
     1
102
RTVSPropertyOp28
 70
     1
102
RTVSPropertyOp29
 70
     1
102
RTVSPropertyOp30
 70
     1
102
RTVSPropertyOp31
 70
     1
102
RTVSPropertyOp32
 70
     1
  0
XRECORD
  5
199
102
{ACAD_REACTORS
330
198
102
}
330
198
100
AcDbXrecord
280
     1
102
RTVSPropertyOp0
 70
     1
102
RTVSPropertyOp1
 70
     1
102
RTVSPropertyOp2
 70
     1
102
RTVSPropertyOp3
 70
     1
102
RTVSPropertyOp4
 70
     1
102
RTVSPropertyOp5
 70
     1
102
RTVSPropertyOp6
 70
     1
102
RTVSPropertyOp7
 70
     1
102
RTVSPropertyOp8
 70
     1
102
RTVSPropertyOp9
 70
     1
102
RTVSPropertyOp10
 70
     1
102
RTVSPropertyOp11
 70
     1
102
RTVSPropertyOp12
 70
     1
102
RTVSPropertyOp13
 70
     1
102
RTVSPropertyOp14
 70
     1
102
RTVSPropertyOp15
 70
     1
102
RTVSPropertyOp16
 70
     1
102
RTVSPropertyOp17
 70
     1
102
RTVSPropertyOp18
 70
     1
102
RTVSPropertyOp19
 70
     1
102
RTVSPropertyOp20
 70
     1
102
RTVSPropertyOp21
 70
     1
102
RTVSPropertyOp22
 70
     1
102
RTVSPropertyOp23
 70
     1
102
RTVSPropertyOp24
 70
     1
102
RTVSPropertyOp25
 70
     1
102
RTVSPropertyOp26
 70
     1
102
RTVSPropertyOp27
 70
     1
102
RTVSPropertyOp28
 70
     1
102
RTVSPropertyOp29
 70
     1
102
RTVSPropertyOp30
 70
     1
102
RTVSPropertyOp31
 70
     1
102
RTVSPropertyOp32
 70
     1
  0
XRECORD
  5
1A1
102
{ACAD_REACTORS
330
1A0
102
}
330
1A0
100
AcDbXrecord
280
     1
102
RTVSPropertyOp0
 70
     1
102
RTVSPropertyOp1
 70
     1
102
RTVSPropertyOp2
 70
     1
102
RTVSPropertyOp3
 70
     1
102
RTVSPropertyOp4
 70
     1
102
RTVSPropertyOp5
 70
     1
102
RTVSPropertyOp6
 70
     1
102
RTVSPropertyOp7
 70
     1
102
RTVSPropertyOp8
 70
     1
102
RTVSPropertyOp9
 70
     1
102
RTVSPropertyOp10
 70
     1
102
RTVSPropertyOp11
 70
     1
102
RTVSPropertyOp12
 70
     1
102
RTVSPropertyOp13
 70
     1
102
RTVSPropertyOp14
 70
     1
102
RTVSPropertyOp15
 70
     1
102
RTVSPropertyOp16
 70
     1
102
RTVSPropertyOp17
 70
     1
102
RTVSPropertyOp18
 70
     1
102
RTVSPropertyOp19
 70
     1
102
RTVSPropertyOp20
 70
     1
102
RTVSPropertyOp21
 70
     1
102
RTVSPropertyOp22
 70
     1
102
RTVSPropertyOp23
 70
     1
102
RTVSPropertyOp24
 70
     1
102
RTVSPropertyOp25
 70
     1
102
RTVSPropertyOp26
 70
     1
102
RTVSPropertyOp27
 70
     1
102
RTVSPropertyOp28
 70
     1
102
RTVSPropertyOp29
 70
     1
102
RTVSPropertyOp30
 70
     1
102
RTVSPropertyOp31
 70
     1
102
RTVSPropertyOp32
 70
     1
  0
XRECORD
  5
195
102
{ACAD_REACTORS
330
194
102
}
330
194
100
AcDbXrecord
280
     1
102
RTVSPropertyOp0
 70
     1
102
RTVSPropertyOp1
 70
     1
102
RTVSPropertyOp2
 70
     1
102
RTVSPropertyOp3
 70
     1
102
RTVSPropertyOp4
 70
     1
102
RTVSPropertyOp5
 70
     1
102
RTVSPropertyOp6
 70
     1
102
RTVSPropertyOp7
 70
     1
102
RTVSPropertyOp8
 70
     1
102
RTVSPropertyOp9
 70
     1
102
RTVSPropertyOp10
 70
     1
102
RTVSPropertyOp11
 70
     1
102
RTVSPropertyOp12
 70
     1
102
RTVSPropertyOp13
 70
     1
102
RTVSPropertyOp14
 70
     1
102
RTVSPropertyOp15
 70
     1
102
RTVSPropertyOp16
 70
     1
102
RTVSPropertyOp17
 70
     1
102
RTVSPropertyOp18
 70
     1
102
RTVSPropertyOp19
 70
     1
102
RTVSPropertyOp20
 70
     1
102
RTVSPropertyOp21
 70
     1
102
RTVSPropertyOp22
 70
     1
102
RTVSPropertyOp23
 70
     1
102
RTVSPropertyOp24
 70
     1
102
RTVSPropertyOp25
 70
     1
102
RTVSPropertyOp26
 70
     1
102
RTVSPropertyOp27
 70
     1
102
RTVSPropertyOp28
 70
     1
102
RTVSPropertyOp29
 70
     1
102
RTVSPropertyOp30
 70
     1
102
RTVSPropertyOp31
 70
     1
102
RTVSPropertyOp32
 70
     1
  0
XRECORD
  5
197
102
{ACAD_REACTORS
330
196
102
}
330
196
100
AcDbXrecord
280
     1
102
RTVSPropertyOp0
 70
     1
102
RTVSPropertyOp1
 70
     1
102
RTVSPropertyOp2
 70
     1
102
RTVSPropertyOp3
 70
     1
102
RTVSPropertyOp4
 70
     1
102
RTVSPropertyOp5
 70
     1
102
RTVSPropertyOp6
 70
     1
102
RTVSPropertyOp7
 70
     1
102
RTVSPropertyOp8
 70
     1
102
RTVSPropertyOp9
 70
     1
102
RTVSPropertyOp10
 70
     1
102
RTVSPropertyOp11
 70
     1
102
RTVSPropertyOp12
 70
     1
102
RTVSPropertyOp13
 70
     1
102
RTVSPropertyOp14
 70
     1
102
RTVSPropertyOp15
 70
     1
102
RTVSPropertyOp16
 70
     1
102
RTVSPropertyOp17
 70
     1
102
RTVSPropertyOp18
 70
     1
102
RTVSPropertyOp19
 70
     1
102
RTVSPropertyOp20
 70
     1
102
RTVSPropertyOp21
 70
     1
102
RTVSPropertyOp22
 70
     1
102
RTVSPropertyOp23
 70
     1
102
RTVSPropertyOp24
 70
     1
102
RTVSPropertyOp25
 70
     1
102
RTVSPropertyOp26
 70
     1
102
RTVSPropertyOp27
 70
     1
102
RTVSPropertyOp28
 70
     1
102
RTVSPropertyOp29
 70
     1
102
RTVSPropertyOp30
 70
     1
102
RTVSPropertyOp31
 70
     1
102
RTVSPropertyOp32
 70
     1
  0
XRECORD
  5
1BB
102
{ACAD_REACTORS
330
1BA
102
}
330
1BA
100
AcDbXrecord
280
     1
102
RTVSPropertyOp0
 70
     0
102
RTVSPropertyOp1
 70
     0
102
RTVSPropertyOp2
 70
     0
102
RTVSPropertyOp3
 70
     0
102
RTVSPropertyOp4
 70
     0
102
RTVSPropertyOp5
 70
     0
102
RTVSPropertyOp6
 70
     0
102
RTVSPropertyOp7
 70
     0
102
RTVSPropertyOp8
 70
     0
102
RTVSPropertyOp9
 70
     0
102
RTVSPropertyOp10
 70
     0
102
RTVSPropertyOp11
 70
     0
102
RTVSPropertyOp12
 70
     0
102
RTVSPropertyOp13
 70
     0
102
RTVSPropertyOp14
 70
     2
102
RTVSPropertyOp15
 70
     0
102
RTVSPropertyOp16
 70
     0
102
RTVSPropertyOp17
 70
     0
102
RTVSPropertyOp18
 70
     0
102
RTVSPropertyOp19
 70
     0
102
RTVSPropertyOp20
 70
     0
102
RTVSPropertyOp21
 70
     0
102
RTVSPropertyOp22
 70
     0
102
RTVSPropertyOp23
 70
     0
102
RTVSPropertyOp24
 70
     0
102
RTVSPropertyOp25
 70
     0
102
RTVSPropertyOp26
 70
     0
102
RTVSPropertyOp27
 70
     0
102
RTVSPropertyOp28
 70
     0
102
RTVSPropertyOp29
 70
     0
102
RTVSPropertyOp30
 70
     0
102
RTVSPropertyOp31
 70
     0
102
RTVSPropertyOp32
 70
     0
  0
XRECORD
  5
19F
102
{ACAD_REACTORS
330
19E
102
}
330
19E
100
AcDbXrecord
280
     1
102
RTVSPropertyOp0
 70
     1
102
RTVSPropertyOp1
 70
     1
102
RTVSPropertyOp2
 70
     1
102
RTVSPropertyOp3
 70
     1
102
RTVSPropertyOp4
 70
     1
102
RTVSPropertyOp5
 70
     1
102
RTVSPropertyOp6
 70
     1
102
RTVSPropertyOp7
 70
     1
102
RTVSPropertyOp8
 70
     1
102
RTVSPropertyOp9
 70
     1
102
RTVSPropertyOp10
 70
     1
102
RTVSPropertyOp11
 70
     1
102
RTVSPropertyOp12
 70
     1
102
RTVSPropertyOp13
 70
     1
102
RTVSPropertyOp14
 70
     1
102
RTVSPropertyOp15
 70
     1
102
RTVSPropertyOp16
 70
     1
102
RTVSPropertyOp17
 70
     1
102
RTVSPropertyOp18
 70
     1
102
RTVSPropertyOp19
 70
     1
102
RTVSPropertyOp20
 70
     1
102
RTVSPropertyOp21
 70
     1
102
RTVSPropertyOp22
 70
     1
102
RTVSPropertyOp23
 70
     1
102
RTVSPropertyOp24
 70
     1
102
RTVSPropertyOp25
 70
     1
102
RTVSPropertyOp26
 70
     1
102
RTVSPropertyOp27
 70
     1
102
RTVSPropertyOp28
 70
     1
102
RTVSPropertyOp29
 70
     1
102
RTVSPropertyOp30
 70
     1
102
RTVSPropertyOp31
 70
     1
102
RTVSPropertyOp32
 70
     1
  0
XRECORD
  5
183
102
{ACAD_REACTORS
330
182
102
}
330
182
100
AcDbXrecord
280
     1
102
RTVSPropertyOp0
 70
     1
102
RTVSPropertyOp1
 70
     1
102
RTVSPropertyOp2
 70
     1
102
RTVSPropertyOp3
 70
     1
102
RTVSPropertyOp4
 70
     1
102
RTVSPropertyOp5
 70
     1
102
RTVSPropertyOp6
 70
     1
102
RTVSPropertyOp7
 70
     1
102
RTVSPropertyOp8
 70
     1
102
RTVSPropertyOp9
 70
     1
102
RTVSPropertyOp10
 70
     1
102
RTVSPropertyOp11
 70
     1
102
RTVSPropertyOp12
 70
     1
102
RTVSPropertyOp13
 70
     1
102
RTVSPropertyOp14
 70
     1
102
RTVSPropertyOp15
 70
     1
102
RTVSPropertyOp16
 70
     1
102
RTVSPropertyOp17
 70
     1
102
RTVSPropertyOp18
 70
     1
102
RTVSPropertyOp19
 70
     1
102
RTVSPropertyOp20
 70
     1
102
RTVSPropertyOp21
 70
     1
102
RTVSPropertyOp22
 70
     1
102
RTVSPropertyOp23
 70
     1
102
RTVSPropertyOp24
 70
     1
102
RTVSPropertyOp25
 70
     1
102
RTVSPropertyOp26
 70
     1
102
RTVSPropertyOp27
 70
     1
102
RTVSPropertyOp28
 70
     1
102
RTVSPropertyOp29
 70
     1
102
RTVSPropertyOp30
 70
     1
102
RTVSPropertyOp31
 70
     1
102
RTVSPropertyOp32
 70
     1
  0
XRECORD
  5
185
102
{ACAD_REACTORS
330
184
102
}
330
184
100
AcDbXrecord
280
     1
102
RTVSPropertyOp0
 70
     1
102
RTVSPropertyOp1
 70
     1
102
RTVSPropertyOp2
 70
     1
102
RTVSPropertyOp3
 70
     1
102
RTVSPropertyOp4
 70
     1
102
RTVSPropertyOp5
 70
     1
102
RTVSPropertyOp6
 70
     1
102
RTVSPropertyOp7
 70
     1
102
RTVSPropertyOp8
 70
     1
102
RTVSPropertyOp9
 70
     1
102
RTVSPropertyOp10
 70
     1
102
RTVSPropertyOp11
 70
     1
102
RTVSPropertyOp12
 70
     1
102
RTVSPropertyOp13
 70
     1
102
RTVSPropertyOp14
 70
     1
102
RTVSPropertyOp15
 70
     1
102
RTVSPropertyOp16
 70
     1
102
RTVSPropertyOp17
 70
     1
102
RTVSPropertyOp18
 70
     1
102
RTVSPropertyOp19
 70
     1
102
RTVSPropertyOp20
 70
     1
102
RTVSPropertyOp21
 70
     1
102
RTVSPropertyOp22
 70
     1
102
RTVSPropertyOp23
 70
     1
102
RTVSPropertyOp24
 70
     1
102
RTVSPropertyOp25
 70
     1
102
RTVSPropertyOp26
 70
     1
102
RTVSPropertyOp27
 70
     1
102
RTVSPropertyOp28
 70
     1
102
RTVSPropertyOp29
 70
     1
102
RTVSPropertyOp30
 70
     1
102
RTVSPropertyOp31
 70
     1
102
RTVSPropertyOp32
 70
     1
  0
XRECORD
  5
187
102
{ACAD_REACTORS
330
186
102
}
330
186
100
AcDbXrecord
280
     1
102
RTVSPropertyOp0
 70
     1
102
RTVSPropertyOp1
 70
     1
102
RTVSPropertyOp2
 70
     1
102
RTVSPropertyOp3
 70
     1
102
RTVSPropertyOp4
 70
     1
102
RTVSPropertyOp5
 70
     1
102
RTVSPropertyOp6
 70
     1
102
RTVSPropertyOp7
 70
     1
102
RTVSPropertyOp8
 70
     1
102
RTVSPropertyOp9
 70
     1
102
RTVSPropertyOp10
 70
     1
102
RTVSPropertyOp11
 70
     1
102
RTVSPropertyOp12
 70
     1
102
RTVSPropertyOp13
 70
     1
102
RTVSPropertyOp14
 70
     1
102
RTVSPropertyOp15
 70
     1
102
RTVSPropertyOp16
 70
     1
102
RTVSPropertyOp17
 70
     1
102
RTVSPropertyOp18
 70
     1
102
RTVSPropertyOp19
 70
     1
102
RTVSPropertyOp20
 70
     1
102
RTVSPropertyOp21
 70
     1
102
RTVSPropertyOp22
 70
     1
102
RTVSPropertyOp23
 70
     1
102
RTVSPropertyOp24
 70
     1
102
RTVSPropertyOp25
 70
     1
102
RTVSPropertyOp26
 70
     1
102
RTVSPropertyOp27
 70
     1
102
RTVSPropertyOp28
 70
     1
102
RTVSPropertyOp29
 70
     1
102
RTVSPropertyOp30
 70
     1
102
RTVSPropertyOp31
 70
     1
102
RTVSPropertyOp32
 70
     1
  0
XRECORD
  5
189
102
{ACAD_REACTORS
330
188
102
}
330
188
100
AcDbXrecord
280
     1
102
RTVSPropertyOp0
 70
     1
102
RTVSPropertyOp1
 70
     1
102
RTVSPropertyOp2
 70
     1
102
RTVSPropertyOp3
 70
     1
102
RTVSPropertyOp4
 70
     1
102
RTVSPropertyOp5
 70
     1
102
RTVSPropertyOp6
 70
     1
102
RTVSPropertyOp7
 70
     1
102
RTVSPropertyOp8
 70
     1
102
RTVSPropertyOp9
 70
     1
102
RTVSPropertyOp10
 70
     1
102
RTVSPropertyOp11
 70
     1
102
RTVSPropertyOp12
 70
     1
102
RTVSPropertyOp13
 70
     1
102
RTVSPropertyOp14
 70
     1
102
RTVSPropertyOp15
 70
     1
102
RTVSPropertyOp16
 70
     1
102
RTVSPropertyOp17
 70
     1
102
RTVSPropertyOp18
 70
     1
102
RTVSPropertyOp19
 70
     1
102
RTVSPropertyOp20
 70
     1
102
RTVSPropertyOp21
 70
     1
102
RTVSPropertyOp22
 70
     1
102
RTVSPropertyOp23
 70
     1
102
RTVSPropertyOp24
 70
     1
102
RTVSPropertyOp25
 70
     1
102
RTVSPropertyOp26
 70
     1
102
RTVSPropertyOp27
 70
     1
102
RTVSPropertyOp28
 70
     1
102
RTVSPropertyOp29
 70
     1
102
RTVSPropertyOp30
 70
     1
102
RTVSPropertyOp31
 70
     1
102
RTVSPropertyOp32
 70
     1
  0
XRECORD
  5
1AB
102
{ACAD_REACTORS
330
1AA
102
}
330
1AA
100
AcDbXrecord
280
     1
102
RTVSPropertyOp0
 70
     1
102
RTVSPropertyOp1
 70
     1
102
RTVSPropertyOp2
 70
     1
102
RTVSPropertyOp3
 70
     1
102
RTVSPropertyOp4
 70
     1
102
RTVSPropertyOp5
 70
     1
102
RTVSPropertyOp6
 70
     1
102
RTVSPropertyOp7
 70
     1
102
RTVSPropertyOp8
 70
     1
102
RTVSPropertyOp9
 70
     1
102
RTVSPropertyOp10
 70
     1
102
RTVSPropertyOp11
 70
     1
102
RTVSPropertyOp12
 70
     1
102
RTVSPropertyOp13
 70
     1
102
RTVSPropertyOp14
 70
     1
102
RTVSPropertyOp15
 70
     1
102
RTVSPropertyOp16
 70
     1
102
RTVSPropertyOp17
 70
     1
102
RTVSPropertyOp18
 70
     1
102
RTVSPropertyOp19
 70
     1
102
RTVSPropertyOp20
 70
     1
102
RTVSPropertyOp21
 70
     1
102
RTVSPropertyOp22
 70
     1
102
RTVSPropertyOp23
 70
     1
102
RTVSPropertyOp24
 70
     1
102
RTVSPropertyOp25
 70
     1
102
RTVSPropertyOp26
 70
     1
102
RTVSPropertyOp27
 70
     1
102
RTVSPropertyOp28
 70
     1
102
RTVSPropertyOp29
 70
     1
102
RTVSPropertyOp30
 70
     1
102
RTVSPropertyOp31
 70
     1
102
RTVSPropertyOp32
 70
     1
  0
XRECORD
  5
1B7
102
{ACAD_REACTORS
330
1B6
102
}
330
1B6
100
AcDbXrecord
280
     1
102
RTVSPropertyOp0
 70
     0
102
RTVSPropertyOp1
 70
     0
102
RTVSPropertyOp2
 70
     0
102
RTVSPropertyOp3
 70
     0
102
RTVSPropertyOp4
 70
     0
102
RTVSPropertyOp5
 70
     0
102
RTVSPropertyOp6
 70
     0
102
RTVSPropertyOp7
 70
     0
102
RTVSPropertyOp8
 70
     0
102
RTVSPropertyOp9
 70
     0
102
RTVSPropertyOp10
 70
     0
102
RTVSPropertyOp11
 70
     0
102
RTVSPropertyOp12
 70
     0
102
RTVSPropertyOp13
 70
     0
102
RTVSPropertyOp14
 70
     2
102
RTVSPropertyOp15
 70
     0
102
RTVSPropertyOp16
 70
     0
102
RTVSPropertyOp17
 70
     0
102
RTVSPropertyOp18
 70
     0
102
RTVSPropertyOp19
 70
     0
102
RTVSPropertyOp20
 70
     0
102
RTVSPropertyOp21
 70
     0
102
RTVSPropertyOp22
 70
     0
102
RTVSPropertyOp23
 70
     0
102
RTVSPropertyOp24
 70
     0
102
RTVSPropertyOp25
 70
     0
102
RTVSPropertyOp26
 70
     0
102
RTVSPropertyOp27
 70
     0
102
RTVSPropertyOp28
 70
     0
102
RTVSPropertyOp29
 70
     0
102
RTVSPropertyOp30
 70
     0
102
RTVSPropertyOp31
 70
     0
102
RTVSPropertyOp32
 70
     0
  0
XRECORD
  5
19D
102
{ACAD_REACTORS
330
19C
102
}
330
19C
100
AcDbXrecord
280
     1
102
RTVSPropertyOp0
 70
     1
102
RTVSPropertyOp1
 70
     1
102
RTVSPropertyOp2
 70
     1
102
RTVSPropertyOp3
 70
     1
102
RTVSPropertyOp4
 70
     1
102
RTVSPropertyOp5
 70
     1
102
RTVSPropertyOp6
 70
     1
102
RTVSPropertyOp7
 70
     1
102
RTVSPropertyOp8
 70
     1
102
RTVSPropertyOp9
 70
     1
102
RTVSPropertyOp10
 70
     1
102
RTVSPropertyOp11
 70
     1
102
RTVSPropertyOp12
 70
     1
102
RTVSPropertyOp13
 70
     1
102
RTVSPropertyOp14
 70
     1
102
RTVSPropertyOp15
 70
     1
102
RTVSPropertyOp16
 70
     1
102
RTVSPropertyOp17
 70
     1
102
RTVSPropertyOp18
 70
     1
102
RTVSPropertyOp19
 70
     1
102
RTVSPropertyOp20
 70
     1
102
RTVSPropertyOp21
 70
     1
102
RTVSPropertyOp22
 70
     1
102
RTVSPropertyOp23
 70
     1
102
RTVSPropertyOp24
 70
     1
102
RTVSPropertyOp25
 70
     1
102
RTVSPropertyOp26
 70
     1
102
RTVSPropertyOp27
 70
     1
102
RTVSPropertyOp28
 70
     1
102
RTVSPropertyOp29
 70
     1
102
RTVSPropertyOp30
 70
     1
102
RTVSPropertyOp31
 70
     1
102
RTVSPropertyOp32
 70
     1
  0
XRECORD
  5
1B9
102
{ACAD_REACTORS
330
1B8
102
}
330
1B8
100
AcDbXrecord
280
     1
102
RTVSPropertyOp0
 70
     0
102
RTVSPropertyOp1
 70
     0
102
RTVSPropertyOp2
 70
     0
102
RTVSPropertyOp3
 70
     0
102
RTVSPropertyOp4
 70
     0
102
RTVSPropertyOp5
 70
     0
102
RTVSPropertyOp6
 70
     0
102
RTVSPropertyOp7
 70
     0
102
RTVSPropertyOp8
 70
     0
102
RTVSPropertyOp9
 70
     0
102
RTVSPropertyOp10
 70
     0
102
RTVSPropertyOp11
 70
     0
102
RTVSPropertyOp12
 70
     0
102
RTVSPropertyOp13
 70
     0
102
RTVSPropertyOp14
 70
     2
102
RTVSPropertyOp15
 70
     0
102
RTVSPropertyOp16
 70
     0
102
RTVSPropertyOp17
 70
     0
102
RTVSPropertyOp18
 70
     0
102
RTVSPropertyOp19
 70
     0
102
RTVSPropertyOp20
 70
     0
102
RTVSPropertyOp21
 70
     0
102
RTVSPropertyOp22
 70
     0
102
RTVSPropertyOp23
 70
     0
102
RTVSPropertyOp24
 70
     0
102
RTVSPropertyOp25
 70
     0
102
RTVSPropertyOp26
 70
     0
102
RTVSPropertyOp27
 70
     0
102
RTVSPropertyOp28
 70
     0
102
RTVSPropertyOp29
 70
     0
102
RTVSPropertyOp30
 70
     0
102
RTVSPropertyOp31
 70
     0
102
RTVSPropertyOp32
 70
     0
  0
XRECORD
  5
193
102
{ACAD_REACTORS
330
192
102
}
330
192
100
AcDbXrecord
280
     1
102
RTVSPropertyOp0
 70
     1
102
RTVSPropertyOp1
 70
     1
102
RTVSPropertyOp2
 70
     1
102
RTVSPropertyOp3
 70
     1
102
RTVSPropertyOp4
 70
     1
102
RTVSPropertyOp5
 70
     1
102
RTVSPropertyOp6
 70
     1
102
RTVSPropertyOp7
 70
     1
102
RTVSPropertyOp8
 70
     1
102
RTVSPropertyOp9
 70
     1
102
RTVSPropertyOp10
 70
     1
102
RTVSPropertyOp11
 70
     1
102
RTVSPropertyOp12
 70
     1
102
RTVSPropertyOp13
 70
     1
102
RTVSPropertyOp14
 70
     1
102
RTVSPropertyOp15
 70
     1
102
RTVSPropertyOp16
 70
     1
102
RTVSPropertyOp17
 70
     1
102
RTVSPropertyOp18
 70
     1
102
RTVSPropertyOp19
 70
     1
102
RTVSPropertyOp20
 70
     1
102
RTVSPropertyOp21
 70
     1
102
RTVSPropertyOp22
 70
     1
102
RTVSPropertyOp23
 70
     1
102
RTVSPropertyOp24
 70
     1
102
RTVSPropertyOp25
 70
     1
102
RTVSPropertyOp26
 70
     1
102
RTVSPropertyOp27
 70
     1
102
RTVSPropertyOp28
 70
     1
102
RTVSPropertyOp29
 70
     1
102
RTVSPropertyOp30
 70
     1
102
RTVSPropertyOp31
 70
     1
102
RTVSPropertyOp32
 70
     1
  0
XRECORD
  5
1B5
102
{ACAD_REACTORS
330
1B4
102
}
330
1B4
100
AcDbXrecord
280
     1
102
RTVSPropertyOp0
 70
     1
102
RTVSPropertyOp1
 70
     1
102
RTVSPropertyOp2
 70
     1
102
RTVSPropertyOp3
 70
     1
102
RTVSPropertyOp4
 70
     1
102
RTVSPropertyOp5
 70
     1
102
RTVSPropertyOp6
 70
     1
102
RTVSPropertyOp7
 70
     1
102
RTVSPropertyOp8
 70
     1
102
RTVSPropertyOp9
 70
     1
102
RTVSPropertyOp10
 70
     1
102
RTVSPropertyOp11
 70
     1
102
RTVSPropertyOp12
 70
     1
102
RTVSPropertyOp13
 70
     1
102
RTVSPropertyOp14
 70
     1
102
RTVSPropertyOp15
 70
     1
102
RTVSPropertyOp16
 70
     1
102
RTVSPropertyOp17
 70
     1
102
RTVSPropertyOp18
 70
     1
102
RTVSPropertyOp19
 70
     1
102
RTVSPropertyOp20
 70
     1
102
RTVSPropertyOp21
 70
     1
102
RTVSPropertyOp22
 70
     1
102
RTVSPropertyOp23
 70
     1
102
RTVSPropertyOp24
 70
     1
102
RTVSPropertyOp25
 70
     1
102
RTVSPropertyOp26
 70
     1
102
RTVSPropertyOp27
 70
     1
102
RTVSPropertyOp28
 70
     1
102
RTVSPropertyOp29
 70
     1
102
RTVSPropertyOp30
 70
     1
102
RTVSPropertyOp31
 70
     1
102
RTVSPropertyOp32
 70
     1
  0
XRECORD
  5
1B3
102
{ACAD_REACTORS
330
1B2
102
}
330
1B2
100
AcDbXrecord
280
     1
102
RTVSPropertyOp0
 70
     1
102
RTVSPropertyOp1
 70
     1
102
RTVSPropertyOp2
 70
     1
102
RTVSPropertyOp3
 70
     1
102
RTVSPropertyOp4
 70
     1
102
RTVSPropertyOp5
 70
     1
102
RTVSPropertyOp6
 70
     1
102
RTVSPropertyOp7
 70
     1
102
RTVSPropertyOp8
 70
     1
102
RTVSPropertyOp9
 70
     1
102
RTVSPropertyOp10
 70
     1
102
RTVSPropertyOp11
 70
     1
102
RTVSPropertyOp12
 70
     1
102
RTVSPropertyOp13
 70
     1
102
RTVSPropertyOp14
 70
     1
102
RTVSPropertyOp15
 70
     1
102
RTVSPropertyOp16
 70
     1
102
RTVSPropertyOp17
 70
     1
102
RTVSPropertyOp18
 70
     1
102
RTVSPropertyOp19
 70
     1
102
RTVSPropertyOp20
 70
     1
102
RTVSPropertyOp21
 70
     1
102
RTVSPropertyOp22
 70
     1
102
RTVSPropertyOp23
 70
     1
102
RTVSPropertyOp24
 70
     1
102
RTVSPropertyOp25
 70
     1
102
RTVSPropertyOp26
 70
     1
102
RTVSPropertyOp27
 70
     1
102
RTVSPropertyOp28
 70
     1
102
RTVSPropertyOp29
 70
     1
102
RTVSPropertyOp30
 70
     1
102
RTVSPropertyOp31
 70
     1
102
RTVSPropertyOp32
 70
     1
  0
XRECORD
  5
1AD
102
{ACAD_REACTORS
330
1AC
102
}
330
1AC
100
AcDbXrecord
280
     1
102
RTVSPropertyOp0
 70
     1
102
RTVSPropertyOp1
 70
     1
102
RTVSPropertyOp2
 70
     1
102
RTVSPropertyOp3
 70
     1
102
RTVSPropertyOp4
 70
     1
102
RTVSPropertyOp5
 70
     1
102
RTVSPropertyOp6
 70
     1
102
RTVSPropertyOp7
 70
     1
102
RTVSPropertyOp8
 70
     1
102
RTVSPropertyOp9
 70
     1
102
RTVSPropertyOp10
 70
     1
102
RTVSPropertyOp11
 70
     1
102
RTVSPropertyOp12
 70
     1
102
RTVSPropertyOp13
 70
     1
102
RTVSPropertyOp14
 70
     1
102
RTVSPropertyOp15
 70
     1
102
RTVSPropertyOp16
 70
     1
102
RTVSPropertyOp17
 70
     1
102
RTVSPropertyOp18
 70
     1
102
RTVSPropertyOp19
 70
     1
102
RTVSPropertyOp20
 70
     1
102
RTVSPropertyOp21
 70
     1
102
RTVSPropertyOp22
 70
     1
102
RTVSPropertyOp23
 70
     1
102
RTVSPropertyOp24
 70
     1
102
RTVSPropertyOp25
 70
     1
102
RTVSPropertyOp26
 70
     1
102
RTVSPropertyOp27
 70
     1
102
RTVSPropertyOp28
 70
     1
102
RTVSPropertyOp29
 70
     1
102
RTVSPropertyOp30
 70
     1
102
RTVSPropertyOp31
 70
     1
102
RTVSPropertyOp32
 70
     1
  0
XRECORD
  5
1AF
102
{ACAD_REACTORS
330
1AE
102
}
330
1AE
100
AcDbXrecord
280
     1
102
RTVSPropertyOp0
 70
     1
102
RTVSPropertyOp1
 70
     1
102
RTVSPropertyOp2
 70
     1
102
RTVSPropertyOp3
 70
     1
102
RTVSPropertyOp4
 70
     1
102
RTVSPropertyOp5
 70
     1
102
RTVSPropertyOp6
 70
     1
102
RTVSPropertyOp7
 70
     1
102
RTVSPropertyOp8
 70
     1
102
RTVSPropertyOp9
 70
     1
102
RTVSPropertyOp10
 70
     1
102
RTVSPropertyOp11
 70
     1
102
RTVSPropertyOp12
 70
     1
102
RTVSPropertyOp13
 70
     1
102
RTVSPropertyOp14
 70
     1
102
RTVSPropertyOp15
 70
     1
102
RTVSPropertyOp16
 70
     1
102
RTVSPropertyOp17
 70
     1
102
RTVSPropertyOp18
 70
     1
102
RTVSPropertyOp19
 70
     1
102
RTVSPropertyOp20
 70
     1
102
RTVSPropertyOp21
 70
     1
102
RTVSPropertyOp22
 70
     1
102
RTVSPropertyOp23
 70
     1
102
RTVSPropertyOp24
 70
     1
102
RTVSPropertyOp25
 70
     1
102
RTVSPropertyOp26
 70
     1
102
RTVSPropertyOp27
 70
     1
102
RTVSPropertyOp28
 70
     1
102
RTVSPropertyOp29
 70
     1
102
RTVSPropertyOp30
 70
     1
102
RTVSPropertyOp31
 70
     1
102
RTVSPropertyOp32
 70
     1
  0
XRECORD
  5
19B
102
{ACAD_REACTORS
330
19A
102
}
330
19A
100
AcDbXrecord
280
     1
102
RTVSPropertyOp0
 70
     1
102
RTVSPropertyOp1
 70
     1
102
RTVSPropertyOp2
 70
     1
102
RTVSPropertyOp3
 70
     1
102
RTVSPropertyOp4
 70
     1
102
RTVSPropertyOp5
 70
     1
102
RTVSPropertyOp6
 70
     1
102
RTVSPropertyOp7
 70
     1
102
RTVSPropertyOp8
 70
     1
102
RTVSPropertyOp9
 70
     1
102
RTVSPropertyOp10
 70
     1
102
RTVSPropertyOp11
 70
     1
102
RTVSPropertyOp12
 70
     1
102
RTVSPropertyOp13
 70
     1
102
RTVSPropertyOp14
 70
     1
102
RTVSPropertyOp15
 70
     1
102
RTVSPropertyOp16
 70
     1
102
RTVSPropertyOp17
 70
     1
102
RTVSPropertyOp18
 70
     1
102
RTVSPropertyOp19
 70
     1
102
RTVSPropertyOp20
 70
     1
102
RTVSPropertyOp21
 70
     1
102
RTVSPropertyOp22
 70
     1
102
RTVSPropertyOp23
 70
     1
102
RTVSPropertyOp24
 70
     1
102
RTVSPropertyOp25
 70
     1
102
RTVSPropertyOp26
 70
     1
102
RTVSPropertyOp27
 70
     1
102
RTVSPropertyOp28
 70
     1
102
RTVSPropertyOp29
 70
     1
102
RTVSPropertyOp30
 70
     1
102
RTVSPropertyOp31
 70
     1
102
RTVSPropertyOp32
 70
     1
  0
XRECORD
  5
1A9
102
{ACAD_REACTORS
330
1A8
102
}
330
1A8
100
AcDbXrecord
280
     1
102
RTVSPropertyOp0
 70
     1
102
RTVSPropertyOp1
 70
     1
102
RTVSPropertyOp2
 70
     1
102
RTVSPropertyOp3
 70
     1
102
RTVSPropertyOp4
 70
     1
102
RTVSPropertyOp5
 70
     1
102
RTVSPropertyOp6
 70
     1
102
RTVSPropertyOp7
 70
     1
102
RTVSPropertyOp8
 70
     1
102
RTVSPropertyOp9
 70
     1
102
RTVSPropertyOp10
 70
     1
102
RTVSPropertyOp11
 70
     1
102
RTVSPropertyOp12
 70
     1
102
RTVSPropertyOp13
 70
     1
102
RTVSPropertyOp14
 70
     1
102
RTVSPropertyOp15
 70
     1
102
RTVSPropertyOp16
 70
     1
102
RTVSPropertyOp17
 70
     1
102
RTVSPropertyOp18
 70
     1
102
RTVSPropertyOp19
 70
     1
102
RTVSPropertyOp20
 70
     1
102
RTVSPropertyOp21
 70
     1
102
RTVSPropertyOp22
 70
     1
102
RTVSPropertyOp23
 70
     1
102
RTVSPropertyOp24
 70
     1
102
RTVSPropertyOp25
 70
     1
102
RTVSPropertyOp26
 70
     1
102
RTVSPropertyOp27
 70
     1
102
RTVSPropertyOp28
 70
     1
102
RTVSPropertyOp29
 70
     1
102
RTVSPropertyOp30
 70
     1
102
RTVSPropertyOp31
 70
     1
102
RTVSPropertyOp32
 70
     1
  0
XRECORD
  5
1B1
102
{ACAD_REACTORS
330
1B0
102
}
330
1B0
100
AcDbXrecord
280
     1
102
RTVSPropertyOp0
 70
     1
102
RTVSPropertyOp1
 70
     1
102
RTVSPropertyOp2
 70
     1
102
RTVSPropertyOp3
 70
     1
102
RTVSPropertyOp4
 70
     1
102
RTVSPropertyOp5
 70
     1
102
RTVSPropertyOp6
 70
     1
102
RTVSPropertyOp7
 70
     1
102
RTVSPropertyOp8
 70
     1
102
RTVSPropertyOp9
 70
     1
102
RTVSPropertyOp10
 70
     1
102
RTVSPropertyOp11
 70
     1
102
RTVSPropertyOp12
 70
     1
102
RTVSPropertyOp13
 70
     1
102
RTVSPropertyOp14
 70
     1
102
RTVSPropertyOp15
 70
     1
102
RTVSPropertyOp16
 70
     1
102
RTVSPropertyOp17
 70
     1
102
RTVSPropertyOp18
 70
     1
102
RTVSPropertyOp19
 70
     1
102
RTVSPropertyOp20
 70
     1
102
RTVSPropertyOp21
 70
     1
102
RTVSPropertyOp22
 70
     1
102
RTVSPropertyOp23
 70
     1
102
RTVSPropertyOp24
 70
     1
102
RTVSPropertyOp25
 70
     1
102
RTVSPropertyOp26
 70
     1
102
RTVSPropertyOp27
 70
     1
102
RTVSPropertyOp28
 70
     1
102
RTVSPropertyOp29
 70
     1
102
RTVSPropertyOp30
 70
     1
102
RTVSPropertyOp31
 70
     1
102
RTVSPropertyOp32
 70
     1
  0
ENDSEC
  0
EOF
