  0
SECTION
  2
HEADER
  9
$ACADVER
  1
AC1015
  9
$ACADMAINTVER
 70
    20
  9
$DWGCODEPAGE
  3
ANSI_1252
  9
$INSBASE
 10
0.0
 20
0.0
 30
0.0
  9
$EXTMIN
 10
-19.22516304321819
 20
-14.61081742060631
 30
-0.0000000349181948
  9
$EXTMAX
 10
20.97224341755141
 20
14.67017273469436
 30
0.0000000814935746
  9
$LIMMIN
 10
0.0
 20
0.0
  9
$LIMMAX
 10
12.0
 20
9.0
  9
$ORTHOMODE
 70
     0
  9
$REGENMODE
 70
     1
  9
$FILLMODE
 70
     1
  9
$QTEXTMODE
 70
     0
  9
$MIRRTEXT
 70
     1
  9
$LTSCALE
 40
1.0
  9
$ATTMODE
 70
     1
  9
$TEXTSIZE
 40
0.2
  9
$TRACEWID
 40
0.05
  9
$TEXTSTYLE
  7
Standard
  9
$CLAYER
  8
0
  9
$CELTYPE
  6
ByLayer
  9
$CECOLOR
 62
   256
  9
$CELTSCALE
 40
1.0
  9
$DISPSILH
 70
     0
  9
$DIMSCALE
 40
1.0
  9
$DIMASZ
 40
0.18
  9
$DIMEXO
 40
0.0625
  9
$DIMDLI
 40
0.38
  9
$DIMRND
 40
0.0
  9
$DIMDLE
 40
0.0
  9
$DIMEXE
 40
0.18
  9
$DIMTP
 40
0.0
  9
$DIMTM
 40
0.0
  9
$DIMTXT
 40
0.18
  9
$DIMCEN
 40
0.09
  9
$DIMTSZ
 40
0.0
  9
$DIMTOL
 70
     0
  9
$DIMLIM
 70
     0
  9
$DIMTIH
 70
     1
  9
$DIMTOH
 70
     1
  9
$DIMSE1
 70
     0
  9
$DIMSE2
 70
     0
  9
$DIMTAD
 70
     0
  9
$DIMZIN
 70
     0
  9
$DIMBLK
  1

  9
$DIMASO
 70
     1
  9
$DIMSHO
 70
     1
  9
$DIMPOST
  1

  9
$DIMAPOST
  1

  9
$DIMALT
 70
     0
  9
$DIMALTD
 70
     2
  9
$DIMALTF
 40
25.4
  9
$DIMLFAC
 40
1.0
  9
$DIMTOFL
 70
     0
  9
$DIMTVP
 40
0.0
  9
$DIMTIX
 70
     0
  9
$DIMSOXD
 70
     0
  9
$DIMSAH
 70
     0
  9
$DIMBLK1
  1

  9
$DIMBLK2
  1

  9
$DIMSTYLE
  2
Standard
  9
$DIMCLRD
 70
     0
  9
$DIMCLRE
 70
     0
  9
$DIMCLRT
 70
     0
  9
$DIMTFAC
 40
1.0
  9
$DIMGAP
 40
0.09
  9
$DIMJUST
 70
     0
  9
$DIMSD1
 70
     0
  9
$DIMSD2
 70
     0
  9
$DIMTOLJ
 70
     1
  9
$DIMTZIN
 70
     0
  9
$DIMALTZ
 70
     0
  9
$DIMALTTZ
 70
     0
  9
$DIMUPT
 70
     0
  9
$DIMDEC
 70
     4
  9
$DIMTDEC
 70
     4
  9
$DIMALTU
 70
     2
  9
$DIMALTTD
 70
     2
  9
$DIMTXSTY
  7
Standard
  9
$DIMAUNIT
 70
     0
  9
$DIMADEC
 70
     0
  9
$DIMALTRND
 40
0.0
  9
$DIMAZIN
 70
     0
  9
$DIMDSEP
 70
    46
  9
$DIMATFIT
 70
     3
  9
$DIMFRAC
 70
     0
  9
$DIMLDRBLK
  1

  9
$DIMLUNIT
 70
     2
  9
$DIMLWD
 70
    -2
  9
$DIMLWE
 70
    -2
  9
$DIMTMOVE
 70
     0
  9
$LUNITS
 70
     2
  9
$LUPREC
 70
     4
  9
$SKETCHINC
 40
0.1
  9
$FILLETRAD
 40
0.0
  9
$AUNITS
 70
     0
  9
$AUPREC
 70
     0
  9
$MENU
  1
.
  9
$ELEVATION
 40
0.0
  9
$PELEVATION
 40
0.0
  9
$THICKNESS
 40
0.0
  9
$LIMCHECK
 70
     0
  9
$CHAMFERA
 40
0.5
  9
$CHAMFERB
 40
0.5
  9
$CHAMFERC
 40
1.0
  9
$CHAMFERD
 40
0.0
  9
$SKPOLY
 70
     0
  9
$TDCREATE
 40
2457474.221457605
  9
$TDUCREATE
 40
2457474.388124271
  9
$TDUPDATE
 40
2457523.414007095
  9
$TDUUPDATE
 40
2457523.580673762
  9
$TDINDWG
 40
0.0156187847
  9
$TDUSRTIMER
 40
0.0156187500
  9
$USRTIMER
 70
     1
  9
$ANGBASE
 50
0.0
  9
$ANGDIR
 70
     0
  9
$PDMODE
 70
     0
  9
$PDSIZE
 40
0.0
  9
$PLINEWID
 40
0.0
  9
$SPLFRAME
 70
     0
  9
$SPLINETYPE
 70
     6
  9
$SPLINESEGS
 70
     8
  9
$HANDSEED
  5
13B
  9
$SURFTAB1
 70
     6
  9
$SURFTAB2
 70
     6
  9
$SURFTYPE
 70
     6
  9
$SURFU
 70
     6
  9
$SURFV
 70
     6
  9
$UCSBASE
  2

  9
$UCSNAME
  2

  9
$UCSORG
 10
0.0
 20
0.0
 30
0.0
  9
$UCSXDIR
 10
1.0
 20
0.0
 30
0.0
  9
$UCSYDIR
 10
0.0
 20
1.0
 30
0.0
  9
$UCSORTHOREF
  2

  9
$UCSORTHOVIEW
 70
     0
  9
$UCSORGTOP
 10
0.0
 20
0.0
 30
0.0
  9
$UCSORGBOTTOM
 10
0.0
 20
0.0
 30
0.0
  9
$UCSORGLEFT
 10
0.0
 20
0.0
 30
0.0
  9
$UCSORGRIGHT
 10
0.0
 20
0.0
 30
0.0
  9
$UCSORGFRONT
 10
0.0
 20
0.0
 30
0.0
  9
$UCSORGBACK
 10
0.0
 20
0.0
 30
0.0
  9
$PUCSBASE
  2

  9
$PUCSNAME
  2

  9
$PUCSORG
 10
0.0
 20
0.0
 30
0.0
  9
$PUCSXDIR
 10
1.0
 20
0.0
 30
0.0
  9
$PUCSYDIR
 10
0.0
 20
1.0
 30
0.0
  9
$PUCSORTHOREF
  2

  9
$PUCSORTHOVIEW
 70
     0
  9
$PUCSORGTOP
 10
0.0
 20
0.0
 30
0.0
  9
$PUCSORGBOTTOM
 10
0.0
 20
0.0
 30
0.0
  9
$PUCSORGLEFT
 10
0.0
 20
0.0
 30
0.0
  9
$PUCSORGRIGHT
 10
0.0
 20
0.0
 30
0.0
  9
$PUCSORGFRONT
 10
0.0
 20
0.0
 30
0.0
  9
$PUCSORGBACK
 10
0.0
 20
0.0
 30
0.0
  9
$USERI1
 70
     0
  9
$USERI2
 70
     0
  9
$USERI3
 70
     0
  9
$USERI4
 70
     0
  9
$USERI5
 70
     0
  9
$USERR1
 40
0.0
  9
$USERR2
 40
0.0
  9
$USERR3
 40
0.0
  9
$USERR4
 40
0.0
  9
$USERR5
 40
0.0
  9
$WORLDVIEW
 70
     1
  9
$SHADEDGE
 70
     3
  9
$SHADEDIF
 70
    70
  9
$TILEMODE
 70
     1
  9
$MAXACTVP
 70
    64
  9
$PINSBASE
 10
0.0
 20
0.0
 30
0.0
  9
$PLIMCHECK
 70
     0
  9
$PEXTMIN
 10
1.000000000000000E+20
 20
1.000000000000000E+20
 30
1.000000000000000E+20
  9
$PEXTMAX
 10
-1.000000000000000E+20
 20
-1.000000000000000E+20
 30
-1.000000000000000E+20
  9
$PLIMMIN
 10
0.0
 20
0.0
  9
$PLIMMAX
 10
12.0
 20
9.0
  9
$UNITMODE
 70
     0
  9
$VISRETAIN
 70
     1
  9
$PLINEGEN
 70
     0
  9
$PSLTSCALE
 70
     1
  9
$TREEDEPTH
 70
  3020
  9
$CMLSTYLE
  2
Standard
  9
$CMLJUST
 70
     0
  9
$CMLSCALE
 40
1.0
  9
$PROXYGRAPHICS
 70
     1
  9
$MEASUREMENT
 70
     0
  9
$CELWEIGHT
370
    -1
  9
$ENDCAPS
280
     0
  9
$JOINSTYLE
280
     0
  9
$LWDISPLAY
290
     0
  9
$INSUNITS
 70
     5
  9
$HYPERLINKBASE
  1

  9
$STYLESHEET
  1

  9
$XEDIT
290
     1
  9
$CEPSNTYPE
380
     0
  9
$PSTYLEMODE
290
     1
  9
$FINGERPRINTGUID
  2
{63517B6F-53C6-40A5-8180-195B489AE65E}
  9
$VERSIONGUID
  2
{A0CB2D24-51DF-406B-B269-12C93A20BE80}
  9
$EXTNAMES
290
     1
  9
$PSVPSCALE
 40
0.0
  9
$OLESTARTUP
290
     0
  0
ENDSEC
  0
SECTION
  2
CLASSES
  0
CLASS
  1
ACDBDICTIONARYWDFLT
  2
AcDbDictionaryWithDefault
  3
ObjectDBX Classes
 90
        0
280
     0
281
     0
  0
CLASS
  1
VISUALSTYLE
  2
AcDbVisualStyle
  3
ObjectDBX Classes
 90
     4095
280
     0
281
     0
  0
CLASS
  1
MATERIAL
  2
AcDbMaterial
  3
ObjectDBX Classes
 90
     1153
280
     0
281
     0
  0
CLASS
  1
IMAGEDEF
  2
AcDbRasterImageDef
  3
ISM
 90
        0
280
     0
281
     0
  0
CLASS
  1
IMAGE
  2
AcDbRasterImage
  3
ISM
 90
     2175
280
     0
281
     1
  0
CLASS
  1
IMAGEDEF_REACTOR
  2
AcDbRasterImageDefReactor
  3
ISM
 90
        1
280
     0
281
     0
  0
CLASS
  1
TABLESTYLE
  2
AcDbTableStyle
  3
ObjectDBX Classes
 90
     4095
280
     0
281
     0
  0
CLASS
  1
SCALE
  2
AcDbScale
  3
ObjectDBX Classes
 90
     1153
280
     0
281
     0
  0
CLASS
  1
MLEADERSTYLE
  2
AcDbMLeaderStyle
  3
ACDB_MLEADERSTYLE_CLASS
 90
     4095
280
     0
281
     0
  0
CLASS
  1
RASTERVARIABLES
  2
AcDbRasterVariables
  3
ISM
 90
        0
280
     0
281
     0
  0
CLASS
  1
EXACXREFPANELOBJECT
  2
ExAcXREFPanelObject
  3
EXAC_ESW
 90
     1025
280
     0
281
     0
  0
CLASS
  1
NPOCOLLECTION
  2
AcDbImpNonPersistentObjectsCollection
  3
ObjectDBX Classes
 90
     1153
280
     0
281
     0
  0
CLASS
  1
DICTIONARYVAR
  2
AcDbDictionaryVar
  3
ObjectDBX Classes
 90
        0
280
     0
281
     0
  0
CLASS
  1
CELLSTYLEMAP
  2
AcDbCellStyleMap
  3
ObjectDBX Classes
 90
     1152
280
     0
281
     0
  0
CLASS
  1
ACDBPLACEHOLDER
  2
AcDbPlaceHolder
  3
ObjectDBX Classes
 90
        0
280
     0
281
     0
  0
CLASS
  1
LAYOUT
  2
AcDbLayout
  3
ObjectDBX Classes
 90
        0
280
     0
281
     0
  0
ENDSEC
  0
SECTION
  2
TABLES
  0
TABLE
  2
VPORT
  5
8
330
0
100
AcDbSymbolTable
 70
     1
  0
VPORT
  5
29
330
8
100
AcDbSymbolTableRecord
100
AcDbViewportTableRecord
  2
*Active
 70
     0
 10
0.0
 20
0.0
 11
1.0
 21
1.0
 12
0.8735401871666095
 22
0.0296776570440258
 13
0.0
 23
0.0
 14
0.5
 24
0.5
 15
0.5
 25
0.5
 16
0.0
 26
0.0
 36
1.0
 17
0.0
 27
0.0
 37
0.0
 40
29.49114080234828
 41
2.201197604790419
 42
50.0
 43
0.0
 44
0.0
 50
0.0
 51
0.0
 71
     0
 72
   100
 73
     1
 74
     3
 75
     0
 76
     0
 77
     0
 78
     0
281
     0
 65
     1
110
0.0
120
0.0
130
0.0
111
1.0
121
0.0
131
0.0
112
0.0
122
1.0
132
0.0
 79
     0
146
0.0
1001
ACAD_NAV_VCDISPLAY
1070
     3
  0
ENDTAB
  0
TABLE
  2
LTYPE
  5
5
330
0
100
AcDbSymbolTable
 70
     1
  0
LTYPE
  5
14
330
5
100
AcDbSymbolTableRecord
100
AcDbLinetypeTableRecord
  2
ByBlock
 70
     0
  3

 72
    65
 73
     0
 40
0.0
  0
LTYPE
  5
15
330
5
100
AcDbSymbolTableRecord
100
AcDbLinetypeTableRecord
  2
ByLayer
 70
     0
  3

 72
    65
 73
     0
 40
0.0
  0
LTYPE
  5
16
330
5
100
AcDbSymbolTableRecord
100
AcDbLinetypeTableRecord
  2
Continuous
 70
     0
  3
Solid line
 72
    65
 73
     0
 40
0.0
  0
ENDTAB
  0
TABLE
  2
LAYER
  5
2
330
0
100
AcDbSymbolTable
 70
     2
  0
LAYER
  5
10
330
2
100
AcDbSymbolTableRecord
100
AcDbLayerTableRecord
  2
0
 70
     0
 62
     7
  6
Continuous
370
    -3
390
F
  0
LAYER
  5
40
330
2
100
AcDbSymbolTableRecord
100
AcDbLayerTableRecord
  2
layer 1
 70
     0
 62
     7
  6
Continuous
370
    -3
390
F
  0
ENDTAB
  0
TABLE
  2
STYLE
  5
3
330
0
100
AcDbSymbolTable
 70
     1
  0
STYLE
  5
11
330
3
100
AcDbSymbolTableRecord
100
AcDbTextStyleTableRecord
  2
Standard
 70
     0
 40
0.0
 41
1.0
 50
0.0
 71
     0
 42
0.2
  3
txt
  4

  0
ENDTAB
  0
TABLE
  2
VIEW
  5
6
330
0
100
AcDbSymbolTable
 70
     0
  0
ENDTAB
  0
TABLE
  2
UCS
  5
7
330
0
100
AcDbSymbolTable
 70
     0
  0
ENDTAB
  0
TABLE
  2
APPID
  5
9
330
0
100
AcDbSymbolTable
 70
     4
  0
APPID
  5
12
330
9
100
AcDbSymbolTableRecord
100
AcDbRegAppTableRecord
  2
ACAD
 70
     0
  0
APPID
  5
3F
330
9
100
AcDbSymbolTableRecord
100
AcDbRegAppTableRecord
  2
ODA
 70
     0
  0
APPID
  5
AC
330
9
100
AcDbSymbolTableRecord
100
AcDbRegAppTableRecord
  2
ACAD_NAV_VCDISPLAY
 70
     0
  0
APPID
  5
13A
330
9
100
AcDbSymbolTableRecord
100
AcDbRegAppTableRecord
  2
ACAD_MLEADERVER
 70
     0
  0
ENDTAB
  0
TABLE
  2
DIMSTYLE
  5
A
330
0
100
AcDbSymbolTable
 70
     1
100
AcDbDimStyleTable
 71
     0
  0
DIMSTYLE
105
27
330
A
100
AcDbSymbolTableRecord
100
AcDbDimStyleTableRecord
  2
Standard
 70
     0
340
11
  0
ENDTAB
  0
TABLE
  2
BLOCK_RECORD
  5
1
330
0
100
AcDbSymbolTable
 70
     3
  0
BLOCK_RECORD
  5
1F
330
1
100
AcDbSymbolTableRecord
100
AcDbBlockTableRecord
  2
*Model_Space
340
22
  0
BLOCK_RECORD
  5
1B
330
1
100
AcDbSymbolTableRecord
100
AcDbBlockTableRecord
  2
*Paper_Space
340
1E
  0
BLOCK_RECORD
  5
23
330
1
100
AcDbSymbolTableRecord
100
AcDbBlockTableRecord
  2
*Paper_Space0
340
26
  0
ENDTAB
  0
ENDSEC
  0
SECTION
  2
BLOCKS
  0
BLOCK
  5
20
330
1F
100
AcDbEntity
  8
0
100
AcDbBlockBegin
  2
*Model_Space
 70
     0
 10
0.0
 20
0.0
 30
0.0
  3
*Model_Space
  1

  0
ENDBLK
  5
21
330
1F
100
AcDbEntity
  8
0
100
AcDbBlockEnd
  0
BLOCK
  5
1C
330
1B
100
AcDbEntity
 67
     1
  8
0
100
AcDbBlockBegin
  2
*Paper_Space
 70
     0
 10
0.0
 20
0.0
 30
0.0
  3
*Paper_Space
  1

  0
ENDBLK
  5
1D
330
1B
100
AcDbEntity
 67
     1
  8
0
100
AcDbBlockEnd
  0
BLOCK
  5
24
330
23
100
AcDbEntity
 67
     1
  8
0
100
AcDbBlockBegin
  2
*Paper_Space0
 70
     0
 10
0.0
 20
0.0
 30
0.0
  3
*Paper_Space0
  1

  0
ENDBLK
  5
25
330
23
100
AcDbEntity
 67
     1
  8
0
100
AcDbBlockEnd
  0
ENDSEC
  0
SECTION
  2
ENTITIES
  0
SPLINE
  5
41
330
1F
100
AcDbEntity
  8
layer 1
 62
   250
370
    50
100
AcDbSpline
210
0.0
220
0.0
230
1.0
 70
    24
 71
     3
 72
   400
 73
   396
 74
     0
 42
0.0000000001
 43
0.0000000001
 40
0.0
 40
0.0
 40
0.0
 40
0.0
 40
0.01
 40
0.01
 40
0.01
 40
0.01
 40
0.02
 40
0.02
 40
0.02
 40
0.02
 40
0.03
 40
0.03
 40
0.03
 40
0.03
 40
0.04
 40
0.04
 40
0.04
 40
0.04
 40
0.05
 40
0.05
 40
0.05
 40
0.05
 40
0.06
 40
0.06
 40
0.06
 40
0.06
 40
0.07
 40
0.07
 40
0.07
 40
0.07
 40
0.08
 40
0.08
 40
0.08
 40
0.08
 40
0.09
 40
0.09
 40
0.09
 40
0.09
 40
0.1
 40
0.1
 40
0.1
 40
0.1
 40
0.11
 40
0.11
 40
0.11
 40
0.11
 40
0.12
 40
0.12
 40
0.12
 40
0.12
 40
0.13
 40
0.13
 40
0.13
 40
0.13
 40
0.14
 40
0.14
 40
0.14
 40
0.14
 40
0.15
 40
0.15
 40
0.15
 40
0.15
 40
0.16
 40
0.16
 40
0.16
 40
0.16
 40
0.17
 40
0.17
 40
0.17
 40
0.17
 40
0.18
 40
0.18
 40
0.18
 40
0.18
 40
0.19
 40
0.19
 40
0.19
 40
0.19
 40
0.2
 40
0.2
 40
0.2
 40
0.2
 40
0.21
 40
0.21
 40
0.21
 40
0.21
 40
0.22
 40
0.22
 40
0.22
 40
0.22
 40
0.23
 40
0.23
 40
0.23
 40
0.23
 40
0.24
 40
0.24
 40
0.24
 40
0.24
 40
0.25
 40
0.25
 40
0.25
 40
0.25
 40
0.26
 40
0.26
 40
0.26
 40
0.26
 40
0.27
 40
0.27
 40
0.27
 40
0.27
 40
0.28
 40
0.28
 40
0.28
 40
0.28
 40
0.29
 40
0.29
 40
0.29
 40
0.29
 40
0.3
 40
0.3
 40
0.3
 40
0.3
 40
0.31
 40
0.31
 40
0.31
 40
0.31
 40
0.32
 40
0.32
 40
0.32
 40
0.32
 40
0.33
 40
0.33
 40
0.33
 40
0.33
 40
0.34
 40
0.34
 40
0.34
 40
0.34
 40
0.35
 40
0.35
 40
0.35
 40
0.35
 40
0.36
 40
0.36
 40
0.36
 40
0.36
 40
0.37
 40
0.37
 40
0.37
 40
0.37
 40
0.38
 40
0.38
 40
0.38
 40
0.38
 40
0.39
 40
0.39
 40
0.39
 40
0.39
 40
0.4
 40
0.4
 40
0.4
 40
0.4
 40
0.41
 40
0.41
 40
0.41
 40
0.41
 40
0.4200000000000001
 40
0.4200000000000001
 40
0.4200000000000001
 40
0.4200000000000001
 40
0.43
 40
0.43
 40
0.43
 40
0.43
 40
0.4400000000000001
 40
0.4400000000000001
 40
0.4400000000000001
 40
0.4400000000000001
 40
0.45
 40
0.45
 40
0.45
 40
0.45
 40
0.4600000000000001
 40
0.4600000000000001
 40
0.4600000000000001
 40
0.4600000000000001
 40
0.47
 40
0.47
 40
0.47
 40
0.47
 40
0.48
 40
0.48
 40
0.48
 40
0.48
 40
0.4900000000000001
 40
0.4900000000000001
 40
0.4900000000000001
 40
0.4900000000000001
 40
0.5
 40
0.5
 40
0.5
 40
0.5
 40
0.51
 40
0.51
 40
0.51
 40
0.51
 40
0.5200000000000001
 40
0.5200000000000001
 40
0.5200000000000001
 40
0.5200000000000001
 40
0.5300000000000001
 40
0.5300000000000001
 40
0.5300000000000001
 40
0.5300000000000001
 40
0.5400000000000001
 40
0.5400000000000001
 40
0.5400000000000001
 40
0.5400000000000001
 40
0.55
 40
0.55
 40
0.55
 40
0.55
 40
0.5600000000000001
 40
0.5600000000000001
 40
0.5600000000000001
 40
0.5600000000000001
 40
0.57
 40
0.57
 40
0.57
 40
0.57
 40
0.58
 40
0.58
 40
0.58
 40
0.58
 40
0.59
 40
0.59
 40
0.59
 40
0.59
 40
0.6
 40
0.6
 40
0.6
 40
0.6
 40
0.61
 40
0.61
 40
0.61
 40
0.61
 40
0.6200000000000001
 40
0.6200000000000001
 40
0.6200000000000001
 40
0.6200000000000001
 40
0.63
 40
0.63
 40
0.63
 40
0.63
 40
0.6400000000000001
 40
0.6400000000000001
 40
0.6400000000000001
 40
0.6400000000000001
 40
0.65
 40
0.65
 40
0.65
 40
0.65
 40
0.6600000000000001
 40
0.6600000000000001
 40
0.6600000000000001
 40
0.6600000000000001
 40
0.6700000000000001
 40
0.6700000000000001
 40
0.6700000000000001
 40
0.6700000000000001
 40
0.6800000000000001
 40
0.6800000000000001
 40
0.6800000000000001
 40
0.6800000000000001
 40
0.69
 40
0.69
 40
0.69
 40
0.69
 40
0.7
 40
0.7
 40
0.7
 40
0.7
 40
0.71
 40
0.71
 40
0.71
 40
0.71
 40
0.72
 40
0.72
 40
0.72
 40
0.72
 40
0.73
 40
0.73
 40
0.73
 40
0.73
 40
0.7400000000000001
 40
0.7400000000000001
 40
0.7400000000000001
 40
0.7400000000000001
 40
0.75
 40
0.75
 40
0.75
 40
0.75
 40
0.76
 40
0.76
 40
0.76
 40
0.76
 40
0.7700000000000001
 40
0.7700000000000001
 40
0.7700000000000001
 40
0.7700000000000001
 40
0.7800000000000001
 40
0.7800000000000001
 40
0.7800000000000001
 40
0.7800000000000001
 40
0.7900000000000001
 40
0.7900000000000001
 40
0.7900000000000001
 40
0.7900000000000001
 40
0.8
 40
0.8
 40
0.8
 40
0.8
 40
0.8100000000000001
 40
0.8100000000000001
 40
0.8100000000000001
 40
0.8100000000000001
 40
0.8199999999999999
 40
0.8199999999999999
 40
0.8199999999999999
 40
0.8199999999999999
 40
0.8299999999999998
 40
0.8299999999999998
 40
0.8299999999999998
 40
0.8299999999999998
 40
0.84
 40
0.84
 40
0.84
 40
0.84
 40
0.85
 40
0.85
 40
0.85
 40
0.85
 40
0.8599999999999999
 40
0.8599999999999999
 40
0.8599999999999999
 40
0.8599999999999999
 40
0.8699999999999999
 40
0.8699999999999999
 40
0.8699999999999999
 40
0.8699999999999999
 40
0.88
 40
0.88
 40
0.88
 40
0.88
 40
0.89
 40
0.89
 40
0.89
 40
0.89
 40
0.9
 40
0.9
 40
0.9
 40
0.9
 40
0.9099999999999999
 40
0.9099999999999999
 40
0.9099999999999999
 40
0.9099999999999999
 40
0.9200000000000001
 40
0.9200000000000001
 40
0.9200000000000001
 40
0.9200000000000001
 40
0.93
 40
0.93
 40
0.93
 40
0.93
 40
0.9399999999999998
 40
0.9399999999999998
 40
0.9399999999999998
 40
0.9399999999999998
 40
0.95
 40
0.95
 40
0.95
 40
0.95
 40
0.9599999999999999
 40
0.9599999999999999
 40
0.9599999999999999
 40
0.9599999999999999
 40
0.9699999999999999
 40
0.9699999999999999
 40
0.9699999999999999
 40
0.9699999999999999
 40
0.98
 40
0.98
 40
0.98
 40
0.98
 40
1.0
 40
1.0
 40
1.0
 40
1.0
 10
-19.22271
 20
-0.9083999999999999
 30
0.0
 10
-19.22271
 20
-0.9083999999999999
 30
0.0
 10
-19.21067
 20
-0.9083999999999999
 30
0.0
 10
-19.21067
 20
-0.9083999999999999
 30
0.0
 10
-19.21067
 20
-0.9083999999999999
 30
0.0
 10
-19.21067
 20
-0.9083999999999999
 30
0.0
 10
-19.17487
 20
-0.9083999999999999
 30
0.0
 10
-19.17487
 20
-0.9083999999999999
 30
0.0
 10
-19.17487
 20
-0.9083999999999999
 30
0.0
 10
-19.17487
 20
-0.9083999999999999
 30
0.0
 10
-19.11582
 20
-0.9083999999999999
 30
0.0
 10
-19.11582
 20
-0.9083999999999999
 30
0.0
 10
-19.11582
 20
-0.9083999999999999
 30
0.0
 10
-19.11582
 20
-0.9083999999999999
 30
0.0
 10
-19.03399
 20
-0.9083999999999999
 30
0.0
 10
-19.03399
 20
-0.9083999999999999
 30
0.0
 10
-19.03399
 20
-0.9083999999999999
 30
0.0
 10
-19.03399
 20
-0.9083999999999999
 30
0.0
 10
-18.92989
 20
-0.9083999999999999
 30
0.0
 10
-18.92989
 20
-0.9083999999999999
 30
0.0
 10
-18.92989
 20
-0.9083999999999999
 30
0.0
 10
-18.92989
 20
-0.9083999999999999
 30
0.0
 10
-18.80397
 20
-0.9083999999999999
 30
0.0
 10
-18.80397
 20
-0.9083999999999999
 30
0.0
 10
-18.80397
 20
-0.9083999999999999
 30
0.0
 10
-18.80397
 20
-0.9083999999999999
 30
0.0
 10
-18.65676
 20
-0.9083999999999999
 30
0.0
 10
-18.65676
 20
-0.9083999999999999
 30
0.0
 10
-18.65676
 20
-0.9083999999999999
 30
0.0
 10
-18.65676
 20
-0.9083999999999999
 30
0.0
 10
-18.48874
 20
-0.9083999999999999
 30
0.0
 10
-18.48874
 20
-0.9083999999999999
 30
0.0
 10
-18.48874
 20
-0.9083999999999999
 30
0.0
 10
-18.48874
 20
-0.9083999999999999
 30
0.0
 10
-18.3004
 20
-0.9083999999999999
 30
0.0
 10
-18.3004
 20
-0.9083999999999999
 30
0.0
 10
-18.3004
 20
-0.9083999999999999
 30
0.0
 10
-18.3004
 20
-0.9083999999999999
 30
0.0
 10
-18.09222
 20
-0.9083999999999999
 30
0.0
 10
-18.09222
 20
-0.9083999999999999
 30
0.0
 10
-18.09222
 20
-0.9083999999999999
 30
0.0
 10
-18.09222
 20
-0.9083999999999999
 30
0.0
 10
-17.86468
 20
-0.9083999999999999
 30
0.0
 10
-17.86468
 20
-0.9083999999999999
 30
0.0
 10
-17.86468
 20
-0.9083999999999999
 30
0.0
 10
-17.86468
 20
-0.9083999999999999
 30
0.0
 10
-17.61829
 20
-0.9083999999999999
 30
0.0
 10
-17.61829
 20
-0.9083999999999999
 30
0.0
 10
-17.61829
 20
-0.9083999999999999
 30
0.0
 10
-17.61829
 20
-0.9083999999999999
 30
0.0
 10
-17.35355
 20
-0.9083999999999999
 30
0.0
 10
-17.35355
 20
-0.9083999999999999
 30
0.0
 10
-17.35355
 20
-0.9083999999999999
 30
0.0
 10
-17.35355
 20
-0.9083999999999999
 30
0.0
 10
-17.07092
 20
-0.9083999999999999
 30
0.0
 10
-17.07092
 20
-0.9083999999999999
 30
0.0
 10
-17.07092
 20
-0.9083999999999999
 30
0.0
 10
-17.07092
 20
-0.9083999999999999
 30
0.0
 10
-16.77091
 20
-0.9083999999999999
 30
0.0
 10
-16.77091
 20
-0.9083999999999999
 30
0.0
 10
-16.77091
 20
-0.9083999999999999
 30
0.0
 10
-16.77091
 20
-0.9083999999999999
 30
0.0
 10
-16.454
 20
-0.9083999999999999
 30
0.0
 10
-16.454
 20
-0.9083999999999999
 30
0.0
 10
-16.454
 20
-0.9083999999999999
 30
0.0
 10
-16.454
 20
-0.9083999999999999
 30
0.0
 10
-16.1207
 20
-0.9083999999999999
 30
0.0
 10
-16.1207
 20
-0.9083999999999999
 30
0.0
 10
-16.1207
 20
-0.9083999999999999
 30
0.0
 10
-16.1207
 20
-0.9083999999999999
 30
0.0
 10
-15.77146
 20
-0.9083999999999999
 30
0.0
 10
-15.77146
 20
-0.9083999999999999
 30
0.0
 10
-15.77146
 20
-0.9083999999999999
 30
0.0
 10
-15.77146
 20
-0.9083999999999999
 30
0.0
 10
-15.40681
 20
-0.9083999999999999
 30
0.0
 10
-15.40681
 20
-0.9083999999999999
 30
0.0
 10
-15.40681
 20
-0.9083999999999999
 30
0.0
 10
-15.40681
 20
-0.9083999999999999
 30
0.0
 10
-15.02722
 20
-0.9083999999999999
 30
0.0
 10
-15.02722
 20
-0.9083999999999999
 30
0.0
 10
-15.02722
 20
-0.9083999999999999
 30
0.0
 10
-15.02722
 20
-0.9083999999999999
 30
0.0
 10
-14.63317
 20
-0.9083999999999999
 30
0.0
 10
-14.63317
 20
-0.9083999999999999
 30
0.0
 10
-14.63317
 20
-0.9083999999999999
 30
0.0
 10
-14.63317
 20
-0.9083999999999999
 30
0.0
 10
-14.22517
 20
-0.9083999999999999
 30
0.0
 10
-14.22517
 20
-0.9083999999999999
 30
0.0
 10
-14.22517
 20
-0.9083999999999999
 30
0.0
 10
-14.22517
 20
-0.9083999999999999
 30
0.0
 10
-13.80371
 20
-0.9083999999999999
 30
0.0
 10
-13.80371
 20
-0.9083999999999999
 30
0.0
 10
-13.80371
 20
-0.9083999999999999
 30
0.0
 10
-13.80371
 20
-0.9083999999999999
 30
0.0
 10
-13.36927
 20
-0.9083999999999999
 30
0.0
 10
-13.36927
 20
-0.9083999999999999
 30
0.0
 10
-13.36927
 20
-0.9083999999999999
 30
0.0
 10
-13.36927
 20
-0.9083999999999999
 30
0.0
 10
-12.92234
 20
-0.9083999999999999
 30
0.0
 10
-12.92234
 20
-0.9083999999999999
 30
0.0
 10
-12.92234
 20
-0.9083999999999999
 30
0.0
 10
-12.92234
 20
-0.9083999999999999
 30
0.0
 10
-12.4634
 20
-0.9083999999999999
 30
0.0
 10
-12.4634
 20
-0.9083999999999999
 30
0.0
 10
-12.4634
 20
-0.9083999999999999
 30
0.0
 10
-12.4634
 20
-0.9083999999999999
 30
0.0
 10
-11.99295
 20
-0.9083999999999999
 30
0.0
 10
-11.99295
 20
-0.9083999999999999
 30
0.0
 10
-11.99295
 20
-0.9083999999999999
 30
0.0
 10
-11.99295
 20
-0.9083999999999999
 30
0.0
 10
-11.5115
 20
-0.9083999999999999
 30
0.0
 10
-11.5115
 20
-0.9083999999999999
 30
0.0
 10
-11.5115
 20
-0.9083999999999999
 30
0.0
 10
-11.5115
 20
-0.9083999999999999
 30
0.0
 10
-11.01949
 20
-0.9083999999999999
 30
0.0
 10
-11.01949
 20
-0.9083999999999999
 30
0.0
 10
-11.01949
 20
-0.9083999999999999
 30
0.0
 10
-11.01949
 20
-0.9083999999999999
 30
0.0
 10
-10.51747
 20
-0.9083999999999999
 30
0.0
 10
-10.51747
 20
-0.9083999999999999
 30
0.0
 10
-10.51747
 20
-0.9083999999999999
 30
0.0
 10
-10.51747
 20
-0.9083999999999999
 30
0.0
 10
-10.00589
 20
-0.9083999999999999
 30
0.0
 10
-10.00589
 20
-0.9083999999999999
 30
0.0
 10
-10.00589
 20
-0.9083999999999999
 30
0.0
 10
-10.00589
 20
-0.9083999999999999
 30
0.0
 10
-9.485239999999999
 20
-0.9083999999999999
 30
0.0
 10
-9.485239999999999
 20
-0.9083999999999999
 30
0.0
 10
-9.485239999999999
 20
-0.9083999999999999
 30
0.0
 10
-9.485239999999999
 20
-0.9083999999999999
 30
0.0
 10
-8.95603
 20
-0.9083999999999999
 30
0.0
 10
-8.95603
 20
-0.9083999999999999
 30
0.0
 10
-8.95603
 20
-0.9083999999999999
 30
0.0
 10
-8.95603
 20
-0.9083999999999999
 30
0.0
 10
-8.418749999999999
 20
-0.9083999999999999
 30
0.0
 10
-8.418749999999999
 20
-0.9083999999999999
 30
0.0
 10
-8.418749999999999
 20
-0.9083999999999999
 30
0.0
 10
-8.418749999999999
 20
-0.9083999999999999
 30
0.0
 10
-7.87386
 20
-0.9083999999999999
 30
0.0
 10
-7.87386
 20
-0.9083999999999999
 30
0.0
 10
-7.87386
 20
-0.9083999999999999
 30
0.0
 10
-7.87386
 20
-0.9083999999999999
 30
0.0
 10
-7.321869999999999
 20
-0.9083999999999999
 30
0.0
 10
-7.321869999999999
 20
-0.9083999999999999
 30
0.0
 10
-7.321869999999999
 20
-0.9083999999999999
 30
0.0
 10
-7.321869999999999
 20
-0.9083999999999999
 30
0.0
 10
-6.763279999999999
 20
-0.9083999999999999
 30
0.0
 10
-6.763279999999999
 20
-0.9083999999999999
 30
0.0
 10
-6.763279999999999
 20
-0.9083999999999999
 30
0.0
 10
-6.763279999999999
 20
-0.9083999999999999
 30
0.0
 10
-6.198559999999999
 20
-0.9083999999999999
 30
0.0
 10
-6.198559999999999
 20
-0.9083999999999999
 30
0.0
 10
-6.198559999999999
 20
-0.9083999999999999
 30
0.0
 10
-6.198559999999999
 20
-0.9083999999999999
 30
0.0
 10
-5.628219999999999
 20
-0.9083999999999999
 30
0.0
 10
-5.628219999999999
 20
-0.9083999999999999
 30
0.0
 10
-5.628219999999999
 20
-0.9083999999999999
 30
0.0
 10
-5.628219999999999
 20
-0.9083999999999999
 30
0.0
 10
-5.052719999999999
 20
-0.9083999999999999
 30
0.0
 10
-5.052719999999999
 20
-0.9083999999999999
 30
0.0
 10
-5.052719999999999
 20
-0.9083999999999999
 30
0.0
 10
-5.052719999999999
 20
-0.9083999999999999
 30
0.0
 10
-4.472569999999999
 20
-0.9083999999999999
 30
0.0
 10
-4.472569999999999
 20
-0.9083999999999999
 30
0.0
 10
-4.472569999999999
 20
-0.9083999999999999
 30
0.0
 10
-4.472569999999999
 20
-0.9083999999999999
 30
0.0
 10
-3.888269999999999
 20
-0.9083999999999999
 30
0.0
 10
-3.888269999999999
 20
-0.9083999999999999
 30
0.0
 10
-3.888269999999999
 20
-0.9083999999999999
 30
0.0
 10
-3.888269999999999
 20
-0.9083999999999999
 30
0.0
 10
-3.300289999999999
 20
-0.9083999999999999
 30
0.0
 10
-3.300289999999999
 20
-0.9083999999999999
 30
0.0
 10
-3.300289999999999
 20
-0.9083999999999999
 30
0.0
 10
-3.300289999999999
 20
-0.9083999999999999
 30
0.0
 10
-2.709119999999999
 20
-0.9083999999999999
 30
0.0
 10
-2.709119999999999
 20
-0.9083999999999999
 30
0.0
 10
-2.709119999999999
 20
-0.9083999999999999
 30
0.0
 10
-2.709119999999999
 20
-0.9083999999999999
 30
0.0
 10
-2.11527
 20
-0.9083999999999999
 30
0.0
 10
-2.11527
 20
-0.9083999999999999
 30
0.0
 10
-2.11527
 20
-0.9083999999999999
 30
0.0
 10
-2.11527
 20
-0.9083999999999999
 30
0.0
 10
-1.519209999999999
 20
-0.9083999999999999
 30
0.0
 10
-1.519209999999999
 20
-0.9083999999999999
 30
0.0
 10
-1.519209999999999
 20
-0.9083999999999999
 30
0.0
 10
-1.519209999999999
 20
-0.9083999999999999
 30
0.0
 10
-0.9214200000000001
 20
-0.9083999999999999
 30
0.0
 10
-0.9214200000000001
 20
-0.9083999999999999
 30
0.0
 10
-0.9214200000000001
 20
-0.9083999999999999
 30
0.0
 10
-0.9214200000000001
 20
-0.9083999999999999
 30
0.0
 10
-0.32243
 20
-0.9083999999999999
 30
0.0
 10
-0.32243
 20
-0.9083999999999999
 30
0.0
 10
-0.32243
 20
-0.9083999999999999
 30
0.0
 10
-0.32243
 20
-0.9083999999999999
 30
0.0
 10
0.27731
 20
-0.9083999999999999
 30
0.0
 10
0.27731
 20
-0.9083999999999999
 30
0.0
 10
0.27731
 20
-0.9083999999999999
 30
0.0
 10
0.27731
 20
-0.9083999999999999
 30
0.0
 10
0.87727
 20
-0.9083999999999999
 30
0.0
 10
0.87727
 20
-0.9083999999999999
 30
0.0
 10
0.87727
 20
-0.9083999999999999
 30
0.0
 10
0.87727
 20
-0.9083999999999999
 30
0.0
 10
1.477009999999999
 20
-0.9083999999999999
 30
0.0
 10
1.477009999999999
 20
-0.9083999999999999
 30
0.0
 10
1.477009999999999
 20
-0.9083999999999999
 30
0.0
 10
1.477009999999999
 20
-0.9083999999999999
 30
0.0
 10
2.076
 20
-0.9083999999999999
 30
0.0
 10
2.076
 20
-0.9083999999999999
 30
0.0
 10
2.076
 20
-0.9083999999999999
 30
0.0
 10
2.076
 20
-0.9083999999999999
 30
0.0
 10
2.67379
 20
-0.9083999999999999
 30
0.0
 10
2.67379
 20
-0.9083999999999999
 30
0.0
 10
2.67379
 20
-0.9083999999999999
 30
0.0
 10
2.67379
 20
-0.9083999999999999
 30
0.0
 10
3.269849999999999
 20
-0.9083999999999999
 30
0.0
 10
3.269849999999999
 20
-0.9083999999999999
 30
0.0
 10
3.269849999999999
 20
-0.9083999999999999
 30
0.0
 10
3.269849999999999
 20
-0.9083999999999999
 30
0.0
 10
3.8637
 20
-0.9083999999999999
 30
0.0
 10
3.8637
 20
-0.9083999999999999
 30
0.0
 10
3.8637
 20
-0.9083999999999999
 30
0.0
 10
3.8637
 20
-0.9083999999999999
 30
0.0
 10
4.454869999999999
 20
-0.9083999999999999
 30
0.0
 10
4.454869999999999
 20
-0.9083999999999999
 30
0.0
 10
4.454869999999999
 20
-0.9083999999999999
 30
0.0
 10
4.454869999999999
 20
-0.9083999999999999
 30
0.0
 10
5.042849999999999
 20
-0.9083999999999999
 30
0.0
 10
5.042849999999999
 20
-0.9083999999999999
 30
0.0
 10
5.042849999999999
 20
-0.9083999999999999
 30
0.0
 10
5.042849999999999
 20
-0.9083999999999999
 30
0.0
 10
5.62715
 20
-0.9083999999999999
 30
0.0
 10
5.62715
 20
-0.9083999999999999
 30
0.0
 10
5.62715
 20
-0.9083999999999999
 30
0.0
 10
5.62715
 20
-0.9083999999999999
 30
0.0
 10
6.2073
 20
-0.9083999999999999
 30
0.0
 10
6.2073
 20
-0.9083999999999999
 30
0.0
 10
6.2073
 20
-0.9083999999999999
 30
0.0
 10
6.2073
 20
-0.9083999999999999
 30
0.0
 10
6.782799999999999
 20
-0.9083999999999999
 30
0.0
 10
6.782799999999999
 20
-0.9083999999999999
 30
0.0
 10
6.782799999999999
 20
-0.9083999999999999
 30
0.0
 10
6.782799999999999
 20
-0.9083999999999999
 30
0.0
 10
7.353139999999999
 20
-0.9083999999999999
 30
0.0
 10
7.353139999999999
 20
-0.9083999999999999
 30
0.0
 10
7.353139999999999
 20
-0.9083999999999999
 30
0.0
 10
7.353139999999999
 20
-0.9083999999999999
 30
0.0
 10
7.917860000000001
 20
-0.9083999999999999
 30
0.0
 10
7.917860000000001
 20
-0.9083999999999999
 30
0.0
 10
7.917860000000001
 20
-0.9083999999999999
 30
0.0
 10
7.917860000000001
 20
-0.9083999999999999
 30
0.0
 10
8.476449999999999
 20
-0.9083999999999999
 30
0.0
 10
8.476449999999999
 20
-0.9083999999999999
 30
0.0
 10
8.476449999999999
 20
-0.9083999999999999
 30
0.0
 10
8.476449999999999
 20
-0.9083999999999999
 30
0.0
 10
9.028439999999999
 20
-0.9083999999999999
 30
0.0
 10
9.028439999999999
 20
-0.9083999999999999
 30
0.0
 10
9.028439999999999
 20
-0.9083999999999999
 30
0.0
 10
9.028439999999999
 20
-0.9083999999999999
 30
0.0
 10
9.573319999999998
 20
-0.9083999999999999
 30
0.0
 10
9.573319999999998
 20
-0.9083999999999999
 30
0.0
 10
9.573319999999998
 20
-0.9083999999999999
 30
0.0
 10
9.573319999999998
 20
-0.9083999999999999
 30
0.0
 10
10.11061
 20
-0.9083999999999999
 30
0.0
 10
10.11061
 20
-0.9083999999999999
 30
0.0
 10
10.11061
 20
-0.9083999999999999
 30
0.0
 10
10.11061
 20
-0.9083999999999999
 30
0.0
 10
10.63982
 20
-0.9083999999999999
 30
0.0
 10
10.63982
 20
-0.9083999999999999
 30
0.0
 10
10.63982
 20
-0.9083999999999999
 30
0.0
 10
10.63982
 20
-0.9083999999999999
 30
0.0
 10
11.16047
 20
-0.9083999999999999
 30
0.0
 10
11.16047
 20
-0.9083999999999999
 30
0.0
 10
11.16047
 20
-0.9083999999999999
 30
0.0
 10
11.16047
 20
-0.9083999999999999
 30
0.0
 10
11.67205
 20
-0.9083999999999999
 30
0.0
 10
11.67205
 20
-0.9083999999999999
 30
0.0
 10
11.67205
 20
-0.9083999999999999
 30
0.0
 10
11.67205
 20
-0.9083999999999999
 30
0.0
 10
12.17407
 20
-0.9083999999999999
 30
0.0
 10
12.17407
 20
-0.9083999999999999
 30
0.0
 10
12.17407
 20
-0.9083999999999999
 30
0.0
 10
12.17407
 20
-0.9083999999999999
 30
0.0
 10
12.66608
 20
-0.9083999999999999
 30
0.0
 10
12.66608
 20
-0.9083999999999999
 30
0.0
 10
12.66608
 20
-0.9083999999999999
 30
0.0
 10
12.66608
 20
-0.9083999999999999
 30
0.0
 10
13.14753
 20
-0.9083999999999999
 30
0.0
 10
13.14753
 20
-0.9083999999999999
 30
0.0
 10
13.14753
 20
-0.9083999999999999
 30
0.0
 10
13.14753
 20
-0.9083999999999999
 30
0.0
 10
13.61798
 20
-0.9083999999999999
 30
0.0
 10
13.61798
 20
-0.9083999999999999
 30
0.0
 10
13.61798
 20
-0.9083999999999999
 30
0.0
 10
13.61798
 20
-0.9083999999999999
 30
0.0
 10
14.07692
 20
-0.9083999999999999
 30
0.0
 10
14.07692
 20
-0.9083999999999999
 30
0.0
 10
14.07692
 20
-0.9083999999999999
 30
0.0
 10
14.07692
 20
-0.9083999999999999
 30
0.0
 10
14.52385
 20
-0.9083999999999999
 30
0.0
 10
14.52385
 20
-0.9083999999999999
 30
0.0
 10
14.52385
 20
-0.9083999999999999
 30
0.0
 10
14.52385
 20
-0.9083999999999999
 30
0.0
 10
14.95829
 20
-0.9083999999999999
 30
0.0
 10
14.95829
 20
-0.9083999999999999
 30
0.0
 10
14.95829
 20
-0.9083999999999999
 30
0.0
 10
14.95829
 20
-0.9083999999999999
 30
0.0
 10
15.37975
 20
-0.9083999999999999
 30
0.0
 10
15.37975
 20
-0.9083999999999999
 30
0.0
 10
15.37975
 20
-0.9083999999999999
 30
0.0
 10
15.37975
 20
-0.9083999999999999
 30
0.0
 10
15.78775
 20
-0.9083999999999999
 30
0.0
 10
15.78775
 20
-0.9083999999999999
 30
0.0
 10
15.78775
 20
-0.9083999999999999
 30
0.0
 10
15.78775
 20
-0.9083999999999999
 30
0.0
 10
16.1818
 20
-0.9083999999999999
 30
0.0
 10
16.1818
 20
-0.9083999999999999
 30
0.0
 10
16.1818
 20
-0.9083999999999999
 30
0.0
 10
16.1818
 20
-0.9083999999999999
 30
0.0
 10
16.56139
 20
-0.9083999999999999
 30
0.0
 10
16.56139
 20
-0.9083999999999999
 30
0.0
 10
16.56139
 20
-0.9083999999999999
 30
0.0
 10
16.56139
 20
-0.9083999999999999
 30
0.0
 10
16.92604
 20
-0.9083999999999999
 30
0.0
 10
16.92604
 20
-0.9083999999999999
 30
0.0
 10
16.92604
 20
-0.9083999999999999
 30
0.0
 10
16.92604
 20
-0.9083999999999999
 30
0.0
 10
17.27528
 20
-0.9083999999999999
 30
0.0
 10
17.27528
 20
-0.9083999999999999
 30
0.0
 10
17.27528
 20
-0.9083999999999999
 30
0.0
 10
17.27528
 20
-0.9083999999999999
 30
0.0
 10
17.60858
 20
-0.9083999999999999
 30
0.0
 10
17.60858
 20
-0.9083999999999999
 30
0.0
 10
17.60858
 20
-0.9083999999999999
 30
0.0
 10
17.60858
 20
-0.9083999999999999
 30
0.0
 10
17.92549
 20
-0.9083999999999999
 30
0.0
 10
17.92549
 20
-0.9083999999999999
 30
0.0
 10
17.92549
 20
-0.9083999999999999
 30
0.0
 10
17.92549
 20
-0.9083999999999999
 30
0.0
 10
18.2255
 20
-0.9083999999999999
 30
0.0
 10
18.2255
 20
-0.9083999999999999
 30
0.0
 10
18.2255
 20
-0.9083999999999999
 30
0.0
 10
18.2255
 20
-0.9083999999999999
 30
0.0
 10
18.50813
 20
-0.9083999999999999
 30
0.0
 10
18.50813
 20
-0.9083999999999999
 30
0.0
 10
18.50813
 20
-0.9083999999999999
 30
0.0
 10
18.50813
 20
-0.9083999999999999
 30
0.0
 10
18.77287
 20
-0.9083999999999999
 30
0.0
 10
18.77287
 20
-0.9083999999999999
 30
0.0
 10
18.77287
 20
-0.9083999999999999
 30
0.0
 10
18.77287
 20
-0.9083999999999999
 30
0.0
 10
19.01926
 20
-0.9083999999999999
 30
0.0
 10
19.01926
 20
-0.9083999999999999
 30
0.0
 10
19.01926
 20
-0.9083999999999999
 30
0.0
 10
19.01926
 20
-0.9083999999999999
 30
0.0
 10
19.2468
 20
-0.9083999999999999
 30
0.0
 10
19.2468
 20
-0.9083999999999999
 30
0.0
 10
19.2468
 20
-0.9083999999999999
 30
0.0
 10
19.2468
 20
-0.9083999999999999
 30
0.0
 10
19.45498
 20
-0.9083999999999999
 30
0.0
 10
19.45498
 20
-0.9083999999999999
 30
0.0
 10
19.45498
 20
-0.9083999999999999
 30
0.0
 10
19.45498
 20
-0.9083999999999999
 30
0.0
 10
19.64332
 20
-0.9083999999999999
 30
0.0
 10
19.64332
 20
-0.9083999999999999
 30
0.0
 10
19.64332
 20
-0.9083999999999999
 30
0.0
 10
19.64332
 20
-0.9083999999999999
 30
0.0
 10
19.81134
 20
-0.9083999999999999
 30
0.0
 10
19.81134
 20
-0.9083999999999999
 30
0.0
 10
19.81134
 20
-0.9083999999999999
 30
0.0
 10
19.81134
 20
-0.9083999999999999
 30
0.0
 10
19.95855
 20
-0.9083999999999999
 30
0.0
 10
19.95855
 20
-0.9083999999999999
 30
0.0
 10
19.95855
 20
-0.9083999999999999
 30
0.0
 10
19.95855
 20
-0.9083999999999999
 30
0.0
 10
20.08447
 20
-0.9083999999999999
 30
0.0
 10
20.08447
 20
-0.9083999999999999
 30
0.0
 10
20.08447
 20
-0.9083999999999999
 30
0.0
 10
20.08447
 20
-0.9083999999999999
 30
0.0
 10
20.18857
 20
-0.9083999999999999
 30
0.0
 10
20.18857
 20
-0.9083999999999999
 30
0.0
 10
20.18857
 20
-0.9083999999999999
 30
0.0
 10
20.18857
 20
-0.9083999999999999
 30
0.0
 10
20.2704
 20
-0.9083999999999999
 30
0.0
 10
20.2704
 20
-0.9083999999999999
 30
0.0
 10
20.2704
 20
-0.9083999999999999
 30
0.0
 10
20.2704
 20
-0.9083999999999999
 30
0.0
 10
20.32945
 20
-0.9083999999999999
 30
0.0
 10
20.32945
 20
-0.9083999999999999
 30
0.0
 10
20.32945
 20
-0.9083999999999999
 30
0.0
 10
20.32945
 20
-0.9083999999999999
 30
0.0
 10
20.36525
 20
-0.9083999999999999
 30
0.0
 10
20.36525
 20
-0.9083999999999999
 30
0.0
 10
20.36525
 20
-0.9083999999999999
 30
0.0
 10
20.36525
 20
-0.9083999999999999
 30
0.0
 10
20.37729
 20
-0.9083999999999999
 30
0.0
 10
20.37729
 20
-0.9083999999999999
 30
0.0
  0
SPLINE
  5
42
330
1F
100
AcDbEntity
  8
layer 1
 62
   250
370
    50
100
AcDbSpline
210
0.0
220
0.0
230
1.0
 70
    24
 71
     3
 72
   400
 73
   396
 74
     0
 42
0.0000000001
 43
0.0000000001
 40
0.0
 40
0.0
 40
0.0
 40
0.0
 40
0.01
 40
0.01
 40
0.01
 40
0.01
 40
0.02
 40
0.02
 40
0.02
 40
0.02
 40
0.03
 40
0.03
 40
0.03
 40
0.03
 40
0.04
 40
0.04
 40
0.04
 40
0.04
 40
0.05
 40
0.05
 40
0.05
 40
0.05
 40
0.06
 40
0.06
 40
0.06
 40
0.06
 40
0.07
 40
0.07
 40
0.07
 40
0.07
 40
0.08
 40
0.08
 40
0.08
 40
0.08
 40
0.09
 40
0.09
 40
0.09
 40
0.09
 40
0.1
 40
0.1
 40
0.1
 40
0.1
 40
0.11
 40
0.11
 40
0.11
 40
0.11
 40
0.12
 40
0.12
 40
0.12
 40
0.12
 40
0.13
 40
0.13
 40
0.13
 40
0.13
 40
0.14
 40
0.14
 40
0.14
 40
0.14
 40
0.15
 40
0.15
 40
0.15
 40
0.15
 40
0.16
 40
0.16
 40
0.16
 40
0.16
 40
0.17
 40
0.17
 40
0.17
 40
0.17
 40
0.18
 40
0.18
 40
0.18
 40
0.18
 40
0.19
 40
0.19
 40
0.19
 40
0.19
 40
0.2
 40
0.2
 40
0.2
 40
0.2
 40
0.21
 40
0.21
 40
0.21
 40
0.21
 40
0.22
 40
0.22
 40
0.22
 40
0.22
 40
0.23
 40
0.23
 40
0.23
 40
0.23
 40
0.24
 40
0.24
 40
0.24
 40
0.24
 40
0.25
 40
0.25
 40
0.25
 40
0.25
 40
0.26
 40
0.26
 40
0.26
 40
0.26
 40
0.27
 40
0.27
 40
0.27
 40
0.27
 40
0.28
 40
0.28
 40
0.28
 40
0.28
 40
0.29
 40
0.29
 40
0.29
 40
0.29
 40
0.3
 40
0.3
 40
0.3
 40
0.3
 40
0.31
 40
0.31
 40
0.31
 40
0.31
 40
0.32
 40
0.32
 40
0.32
 40
0.32
 40
0.33
 40
0.33
 40
0.33
 40
0.33
 40
0.34
 40
0.34
 40
0.34
 40
0.34
 40
0.35
 40
0.35
 40
0.35
 40
0.35
 40
0.36
 40
0.36
 40
0.36
 40
0.36
 40
0.37
 40
0.37
 40
0.37
 40
0.37
 40
0.38
 40
0.38
 40
0.38
 40
0.38
 40
0.39
 40
0.39
 40
0.39
 40
0.39
 40
0.4
 40
0.4
 40
0.4
 40
0.4
 40
0.41
 40
0.41
 40
0.41
 40
0.41
 40
0.4200000000000001
 40
0.4200000000000001
 40
0.4200000000000001
 40
0.4200000000000001
 40
0.43
 40
0.43
 40
0.43
 40
0.43
 40
0.4400000000000001
 40
0.4400000000000001
 40
0.4400000000000001
 40
0.4400000000000001
 40
0.45
 40
0.45
 40
0.45
 40
0.45
 40
0.4600000000000001
 40
0.4600000000000001
 40
0.4600000000000001
 40
0.4600000000000001
 40
0.47
 40
0.47
 40
0.47
 40
0.47
 40
0.48
 40
0.48
 40
0.48
 40
0.48
 40
0.4900000000000001
 40
0.4900000000000001
 40
0.4900000000000001
 40
0.4900000000000001
 40
0.5
 40
0.5
 40
0.5
 40
0.5
 40
0.51
 40
0.51
 40
0.51
 40
0.51
 40
0.5200000000000001
 40
0.5200000000000001
 40
0.5200000000000001
 40
0.5200000000000001
 40
0.5300000000000001
 40
0.5300000000000001
 40
0.5300000000000001
 40
0.5300000000000001
 40
0.5400000000000001
 40
0.5400000000000001
 40
0.5400000000000001
 40
0.5400000000000001
 40
0.55
 40
0.55
 40
0.55
 40
0.55
 40
0.5600000000000001
 40
0.5600000000000001
 40
0.5600000000000001
 40
0.5600000000000001
 40
0.57
 40
0.57
 40
0.57
 40
0.57
 40
0.58
 40
0.58
 40
0.58
 40
0.58
 40
0.59
 40
0.59
 40
0.59
 40
0.59
 40
0.6
 40
0.6
 40
0.6
 40
0.6
 40
0.61
 40
0.61
 40
0.61
 40
0.61
 40
0.6200000000000001
 40
0.6200000000000001
 40
0.6200000000000001
 40
0.6200000000000001
 40
0.63
 40
0.63
 40
0.63
 40
0.63
 40
0.6400000000000001
 40
0.6400000000000001
 40
0.6400000000000001
 40
0.6400000000000001
 40
0.65
 40
0.65
 40
0.65
 40
0.65
 40
0.6600000000000001
 40
0.6600000000000001
 40
0.6600000000000001
 40
0.6600000000000001
 40
0.6700000000000001
 40
0.6700000000000001
 40
0.6700000000000001
 40
0.6700000000000001
 40
0.6800000000000001
 40
0.6800000000000001
 40
0.6800000000000001
 40
0.6800000000000001
 40
0.69
 40
0.69
 40
0.69
 40
0.69
 40
0.7
 40
0.7
 40
0.7
 40
0.7
 40
0.71
 40
0.71
 40
0.71
 40
0.71
 40
0.72
 40
0.72
 40
0.72
 40
0.72
 40
0.73
 40
0.73
 40
0.73
 40
0.73
 40
0.7400000000000001
 40
0.7400000000000001
 40
0.7400000000000001
 40
0.7400000000000001
 40
0.75
 40
0.75
 40
0.75
 40
0.75
 40
0.76
 40
0.76
 40
0.76
 40
0.76
 40
0.7700000000000001
 40
0.7700000000000001
 40
0.7700000000000001
 40
0.7700000000000001
 40
0.7800000000000001
 40
0.7800000000000001
 40
0.7800000000000001
 40
0.7800000000000001
 40
0.7900000000000001
 40
0.7900000000000001
 40
0.7900000000000001
 40
0.7900000000000001
 40
0.8
 40
0.8
 40
0.8
 40
0.8
 40
0.8100000000000001
 40
0.8100000000000001
 40
0.8100000000000001
 40
0.8100000000000001
 40
0.8199999999999999
 40
0.8199999999999999
 40
0.8199999999999999
 40
0.8199999999999999
 40
0.8299999999999998
 40
0.8299999999999998
 40
0.8299999999999998
 40
0.8299999999999998
 40
0.84
 40
0.84
 40
0.84
 40
0.84
 40
0.85
 40
0.85
 40
0.85
 40
0.85
 40
0.8599999999999999
 40
0.8599999999999999
 40
0.8599999999999999
 40
0.8599999999999999
 40
0.8699999999999999
 40
0.8699999999999999
 40
0.8699999999999999
 40
0.8699999999999999
 40
0.88
 40
0.88
 40
0.88
 40
0.88
 40
0.89
 40
0.89
 40
0.89
 40
0.89
 40
0.9
 40
0.9
 40
0.9
 40
0.9
 40
0.9099999999999999
 40
0.9099999999999999
 40
0.9099999999999999
 40
0.9099999999999999
 40
0.9200000000000001
 40
0.9200000000000001
 40
0.9200000000000001
 40
0.9200000000000001
 40
0.93
 40
0.93
 40
0.93
 40
0.93
 40
0.9399999999999998
 40
0.9399999999999998
 40
0.9399999999999998
 40
0.9399999999999998
 40
0.95
 40
0.95
 40
0.95
 40
0.95
 40
0.9599999999999999
 40
0.9599999999999999
 40
0.9599999999999999
 40
0.9599999999999999
 40
0.9699999999999999
 40
0.9699999999999999
 40
0.9699999999999999
 40
0.9699999999999999
 40
0.98
 40
0.98
 40
0.98
 40
0.98
 40
1.0
 40
1.0
 40
1.0
 40
1.0
 10
0.57729
 20
12.7916
 30
0.0
 10
0.57729
 20
12.7916
 30
0.0
 10
0.57729
 20
12.78326
 30
0.0
 10
0.57729
 20
12.78326
 30
0.0
 10
0.57729
 20
12.78326
 30
0.0
 10
0.57729
 20
12.78326
 30
0.0
 10
0.57729
 20
12.7585
 30
0.0
 10
0.57729
 20
12.7585
 30
0.0
 10
0.57729
 20
12.7585
 30
0.0
 10
0.57729
 20
12.7585
 30
0.0
 10
0.57729
 20
12.71764
 30
0.0
 10
0.57729
 20
12.71764
 30
0.0
 10
0.57729
 20
12.71764
 30
0.0
 10
0.57729
 20
12.71764
 30
0.0
 10
0.57729
 20
12.66101
 30
0.0
 10
0.57729
 20
12.66101
 30
0.0
 10
0.57729
 20
12.66101
 30
0.0
 10
0.57729
 20
12.66101
 30
0.0
 10
0.57729
 20
12.58898
 30
0.0
 10
0.57729
 20
12.58898
 30
0.0
 10
0.57729
 20
12.58898
 30
0.0
 10
0.57729
 20
12.58898
 30
0.0
 10
0.57729
 20
12.50187
 30
0.0
 10
0.57729
 20
12.50187
 30
0.0
 10
0.57729
 20
12.50187
 30
0.0
 10
0.57729
 20
12.50187
 30
0.0
 10
0.57729
 20
12.4
 30
0.0
 10
0.57729
 20
12.4
 30
0.0
 10
0.57729
 20
12.4
 30
0.0
 10
0.57729
 20
12.4
 30
0.0
 10
0.57729
 20
12.28375
 30
0.0
 10
0.57729
 20
12.28375
 30
0.0
 10
0.57729
 20
12.28375
 30
0.0
 10
0.57729
 20
12.28375
 30
0.0
 10
0.57729
 20
12.15342
 30
0.0
 10
0.57729
 20
12.15342
 30
0.0
 10
0.57729
 20
12.15342
 30
0.0
 10
0.57729
 20
12.15342
 30
0.0
 10
0.57729
 20
12.00938
 30
0.0
 10
0.57729
 20
12.00938
 30
0.0
 10
0.57729
 20
12.00938
 30
0.0
 10
0.57729
 20
12.00938
 30
0.0
 10
0.57729
 20
11.85196
 30
0.0
 10
0.57729
 20
11.85196
 30
0.0
 10
0.57729
 20
11.85196
 30
0.0
 10
0.57729
 20
11.85196
 30
0.0
 10
0.57729
 20
11.68147
 30
0.0
 10
0.57729
 20
11.68147
 30
0.0
 10
0.57729
 20
11.68147
 30
0.0
 10
0.57729
 20
11.68147
 30
0.0
 10
0.57729
 20
11.49829
 30
0.0
 10
0.57729
 20
11.49829
 30
0.0
 10
0.57729
 20
11.49829
 30
0.0
 10
0.57729
 20
11.49829
 30
0.0
 10
0.57729
 20
11.30273
 30
0.0
 10
0.57729
 20
11.30273
 30
0.0
 10
0.57729
 20
11.30273
 30
0.0
 10
0.57729
 20
11.30273
 30
0.0
 10
0.57729
 20
11.09515
 30
0.0
 10
0.57729
 20
11.09515
 30
0.0
 10
0.57729
 20
11.09515
 30
0.0
 10
0.57729
 20
11.09515
 30
0.0
 10
0.57729
 20
10.87588
 30
0.0
 10
0.57729
 20
10.87588
 30
0.0
 10
0.57729
 20
10.87588
 30
0.0
 10
0.57729
 20
10.87588
 30
0.0
 10
0.57729
 20
10.64525
 30
0.0
 10
0.57729
 20
10.64525
 30
0.0
 10
0.57729
 20
10.64525
 30
0.0
 10
0.57729
 20
10.64525
 30
0.0
 10
0.57729
 20
10.40361
 30
0.0
 10
0.57729
 20
10.40361
 30
0.0
 10
0.57729
 20
10.40361
 30
0.0
 10
0.57729
 20
10.40361
 30
0.0
 10
0.57729
 20
10.1513
 30
0.0
 10
0.57729
 20
10.1513
 30
0.0
 10
0.57729
 20
10.1513
 30
0.0
 10
0.57729
 20
10.1513
 30
0.0
 10
0.57729
 20
9.88865
 30
0.0
 10
0.57729
 20
9.88865
 30
0.0
 10
0.57729
 20
9.88865
 30
0.0
 10
0.57729
 20
9.88865
 30
0.0
 10
0.57729
 20
9.615999999999999
 30
0.0
 10
0.57729
 20
9.615999999999999
 30
0.0
 10
0.57729
 20
9.615999999999999
 30
0.0
 10
0.57729
 20
9.615999999999999
 30
0.0
 10
0.57729
 20
9.3337
 30
0.0
 10
0.57729
 20
9.3337
 30
0.0
 10
0.57729
 20
9.3337
 30
0.0
 10
0.57729
 20
9.3337
 30
0.0
 10
0.57729
 20
9.042089999999999
 30
0.0
 10
0.57729
 20
9.042089999999999
 30
0.0
 10
0.57729
 20
9.042089999999999
 30
0.0
 10
0.57729
 20
9.042089999999999
 30
0.0
 10
0.57729
 20
8.741480000000001
 30
0.0
 10
0.57729
 20
8.741480000000001
 30
0.0
 10
0.57729
 20
8.741480000000001
 30
0.0
 10
0.57729
 20
8.741480000000001
 30
0.0
 10
0.57729
 20
8.432249999999999
 30
0.0
 10
0.57729
 20
8.432249999999999
 30
0.0
 10
0.57729
 20
8.432249999999999
 30
0.0
 10
0.57729
 20
8.432249999999999
 30
0.0
 10
0.57729
 20
8.114689999999999
 30
0.0
 10
0.57729
 20
8.114689999999999
 30
0.0
 10
0.57729
 20
8.114689999999999
 30
0.0
 10
0.57729
 20
8.114689999999999
 30
0.0
 10
0.57729
 20
7.789189999999999
 30
0.0
 10
0.57729
 20
7.789189999999999
 30
0.0
 10
0.57729
 20
7.789189999999999
 30
0.0
 10
0.57729
 20
7.789189999999999
 30
0.0
 10
0.57729
 20
7.45606
 30
0.0
 10
0.57729
 20
7.45606
 30
0.0
 10
0.57729
 20
7.45606
 30
0.0
 10
0.57729
 20
7.45606
 30
0.0
 10
0.57729
 20
7.115649999999999
 30
0.0
 10
0.57729
 20
7.115649999999999
 30
0.0
 10
0.57729
 20
7.115649999999999
 30
0.0
 10
0.57729
 20
7.115649999999999
 30
0.0
 10
0.57729
 20
6.768269999999999
 30
0.0
 10
0.57729
 20
6.768269999999999
 30
0.0
 10
0.57729
 20
6.768269999999999
 30
0.0
 10
0.57729
 20
6.768269999999999
 30
0.0
 10
0.57729
 20
6.414299999999999
 30
0.0
 10
0.57729
 20
6.414299999999999
 30
0.0
 10
0.57729
 20
6.414299999999999
 30
0.0
 10
0.57729
 20
6.414299999999999
 30
0.0
 10
0.57729
 20
6.054059999999999
 30
0.0
 10
0.57729
 20
6.054059999999999
 30
0.0
 10
0.57729
 20
6.054059999999999
 30
0.0
 10
0.57729
 20
6.054059999999999
 30
0.0
 10
0.57729
 20
5.68789
 30
0.0
 10
0.57729
 20
5.68789
 30
0.0
 10
0.57729
 20
5.68789
 30
0.0
 10
0.57729
 20
5.68789
 30
0.0
 10
0.57729
 20
5.316119999999999
 30
0.0
 10
0.57729
 20
5.316119999999999
 30
0.0
 10
0.57729
 20
5.316119999999999
 30
0.0
 10
0.57729
 20
5.316119999999999
 30
0.0
 10
0.57729
 20
4.939109999999999
 30
0.0
 10
0.57729
 20
4.939109999999999
 30
0.0
 10
0.57729
 20
4.939109999999999
 30
0.0
 10
0.57729
 20
4.939109999999999
 30
0.0
 10
0.57729
 20
4.55718
 30
0.0
 10
0.57729
 20
4.55718
 30
0.0
 10
0.57729
 20
4.55718
 30
0.0
 10
0.57729
 20
4.55718
 30
0.0
 10
0.57729
 20
4.17069
 30
0.0
 10
0.57729
 20
4.17069
 30
0.0
 10
0.57729
 20
4.17069
 30
0.0
 10
0.57729
 20
4.17069
 30
0.0
 10
0.57729
 20
3.779949999999999
 30
0.0
 10
0.57729
 20
3.779949999999999
 30
0.0
 10
0.57729
 20
3.779949999999999
 30
0.0
 10
0.57729
 20
3.779949999999999
 30
0.0
 10
0.57729
 20
3.385299999999999
 30
0.0
 10
0.57729
 20
3.385299999999999
 30
0.0
 10
0.57729
 20
3.385299999999999
 30
0.0
 10
0.57729
 20
3.385299999999999
 30
0.0
 10
0.57729
 20
2.987109999999999
 30
0.0
 10
0.57729
 20
2.987109999999999
 30
0.0
 10
0.57729
 20
2.987109999999999
 30
0.0
 10
0.57729
 20
2.987109999999999
 30
0.0
 10
0.57729
 20
2.58569
 30
0.0
 10
0.57729
 20
2.58569
 30
0.0
 10
0.57729
 20
2.58569
 30
0.0
 10
0.57729
 20
2.58569
 30
0.0
 10
0.57729
 20
2.1814
 30
0.0
 10
0.57729
 20
2.1814
 30
0.0
 10
0.57729
 20
2.1814
 30
0.0
 10
0.57729
 20
2.1814
 30
0.0
 10
0.57729
 20
1.774569999999999
 30
0.0
 10
0.57729
 20
1.774569999999999
 30
0.0
 10
0.57729
 20
1.774569999999999
 30
0.0
 10
0.57729
 20
1.774569999999999
 30
0.0
 10
0.57729
 20
1.365539999999999
 30
0.0
 10
0.57729
 20
1.365539999999999
 30
0.0
 10
0.57729
 20
1.365539999999999
 30
0.0
 10
0.57729
 20
1.365539999999999
 30
0.0
 10
0.57729
 20
0.9546399999999998
 30
0.0
 10
0.57729
 20
0.9546399999999998
 30
0.0
 10
0.57729
 20
0.9546399999999998
 30
0.0
 10
0.57729
 20
0.9546399999999998
 30
0.0
 10
0.57729
 20
0.5422000000000001
 30
0.0
 10
0.57729
 20
0.5422000000000001
 30
0.0
 10
0.57729
 20
0.5422000000000001
 30
0.0
 10
0.57729
 20
0.5422000000000001
 30
0.0
 10
0.57729
 20
0.12858
 30
0.0
 10
0.57729
 20
0.12858
 30
0.0
 10
0.57729
 20
0.12858
 30
0.0
 10
0.57729
 20
0.12858
 30
0.0
 10
0.57729
 20
-0.28587
 30
0.0
 10
0.57729
 20
-0.28587
 30
0.0
 10
0.57729
 20
-0.28587
 30
0.0
 10
0.57729
 20
-0.28587
 30
0.0
 10
0.57729
 20
-0.7008300000000001
 30
0.0
 10
0.57729
 20
-0.7008300000000001
 30
0.0
 10
0.57729
 20
-0.7008300000000001
 30
0.0
 10
0.57729
 20
-0.7008300000000001
 30
0.0
 10
0.57729
 20
-1.11597
 30
0.0
 10
0.57729
 20
-1.11597
 30
0.0
 10
0.57729
 20
-1.11597
 30
0.0
 10
0.57729
 20
-1.11597
 30
0.0
 10
0.57729
 20
-1.53092
 30
0.0
 10
0.57729
 20
-1.53092
 30
0.0
 10
0.57729
 20
-1.53092
 30
0.0
 10
0.57729
 20
-1.53092
 30
0.0
 10
0.57729
 20
-1.945379999999999
 30
0.0
 10
0.57729
 20
-1.945379999999999
 30
0.0
 10
0.57729
 20
-1.945379999999999
 30
0.0
 10
0.57729
 20
-1.945379999999999
 30
0.0
 10
0.57729
 20
-2.358999999999999
 30
0.0
 10
0.57729
 20
-2.358999999999999
 30
0.0
 10
0.57729
 20
-2.358999999999999
 30
0.0
 10
0.57729
 20
-2.358999999999999
 30
0.0
 10
0.57729
 20
-2.77143
 30
0.0
 10
0.57729
 20
-2.77143
 30
0.0
 10
0.57729
 20
-2.77143
 30
0.0
 10
0.57729
 20
-2.77143
 30
0.0
 10
0.57729
 20
-3.182329999999999
 30
0.0
 10
0.57729
 20
-3.182329999999999
 30
0.0
 10
0.57729
 20
-3.182329999999999
 30
0.0
 10
0.57729
 20
-3.182329999999999
 30
0.0
 10
0.57729
 20
-3.591359999999999
 30
0.0
 10
0.57729
 20
-3.591359999999999
 30
0.0
 10
0.57729
 20
-3.591359999999999
 30
0.0
 10
0.57729
 20
-3.591359999999999
 30
0.0
 10
0.57729
 20
-3.99819
 30
0.0
 10
0.57729
 20
-3.99819
 30
0.0
 10
0.57729
 20
-3.99819
 30
0.0
 10
0.57729
 20
-3.99819
 30
0.0
 10
0.57729
 20
-4.40249
 30
0.0
 10
0.57729
 20
-4.40249
 30
0.0
 10
0.57729
 20
-4.40249
 30
0.0
 10
0.57729
 20
-4.40249
 30
0.0
 10
0.57729
 20
-4.80391
 30
0.0
 10
0.57729
 20
-4.80391
 30
0.0
 10
0.57729
 20
-4.80391
 30
0.0
 10
0.57729
 20
-4.80391
 30
0.0
 10
0.57729
 20
-5.20209
 30
0.0
 10
0.57729
 20
-5.20209
 30
0.0
 10
0.57729
 20
-5.20209
 30
0.0
 10
0.57729
 20
-5.20209
 30
0.0
 10
0.57729
 20
-5.59674
 30
0.0
 10
0.57729
 20
-5.59674
 30
0.0
 10
0.57729
 20
-5.59674
 30
0.0
 10
0.57729
 20
-5.59674
 30
0.0
 10
0.57729
 20
-5.98748
 30
0.0
 10
0.57729
 20
-5.98748
 30
0.0
 10
0.57729
 20
-5.98748
 30
0.0
 10
0.57729
 20
-5.98748
 30
0.0
 10
0.57729
 20
-6.373969999999999
 30
0.0
 10
0.57729
 20
-6.373969999999999
 30
0.0
 10
0.57729
 20
-6.373969999999999
 30
0.0
 10
0.57729
 20
-6.373969999999999
 30
0.0
 10
0.57729
 20
-6.75591
 30
0.0
 10
0.57729
 20
-6.75591
 30
0.0
 10
0.57729
 20
-6.75591
 30
0.0
 10
0.57729
 20
-6.75591
 30
0.0
 10
0.57729
 20
-7.132919999999999
 30
0.0
 10
0.57729
 20
-7.132919999999999
 30
0.0
 10
0.57729
 20
-7.132919999999999
 30
0.0
 10
0.57729
 20
-7.132919999999999
 30
0.0
 10
0.57729
 20
-7.504689999999999
 30
0.0
 10
0.57729
 20
-7.504689999999999
 30
0.0
 10
0.57729
 20
-7.504689999999999
 30
0.0
 10
0.57729
 20
-7.504689999999999
 30
0.0
 10
0.57729
 20
-7.87086
 30
0.0
 10
0.57729
 20
-7.87086
 30
0.0
 10
0.57729
 20
-7.87086
 30
0.0
 10
0.57729
 20
-7.87086
 30
0.0
 10
0.57729
 20
-8.23109
 30
0.0
 10
0.57729
 20
-8.23109
 30
0.0
 10
0.57729
 20
-8.23109
 30
0.0
 10
0.57729
 20
-8.23109
 30
0.0
 10
0.57729
 20
-8.58506
 30
0.0
 10
0.57729
 20
-8.58506
 30
0.0
 10
0.57729
 20
-8.58506
 30
0.0
 10
0.57729
 20
-8.58506
 30
0.0
 10
0.57729
 20
-8.932439999999999
 30
0.0
 10
0.57729
 20
-8.932439999999999
 30
0.0
 10
0.57729
 20
-8.932439999999999
 30
0.0
 10
0.57729
 20
-8.932439999999999
 30
0.0
 10
0.57729
 20
-9.272860000000001
 30
0.0
 10
0.57729
 20
-9.272860000000001
 30
0.0
 10
0.57729
 20
-9.272860000000001
 30
0.0
 10
0.57729
 20
-9.272860000000001
 30
0.0
 10
0.57729
 20
-9.60599
 30
0.0
 10
0.57729
 20
-9.60599
 30
0.0
 10
0.57729
 20
-9.60599
 30
0.0
 10
0.57729
 20
-9.60599
 30
0.0
 10
0.57729
 20
-9.93149
 30
0.0
 10
0.57729
 20
-9.93149
 30
0.0
 10
0.57729
 20
-9.93149
 30
0.0
 10
0.57729
 20
-9.93149
 30
0.0
 10
0.57729
 20
-10.24904
 30
0.0
 10
0.57729
 20
-10.24904
 30
0.0
 10
0.57729
 20
-10.24904
 30
0.0
 10
0.57729
 20
-10.24904
 30
0.0
 10
0.57729
 20
-10.55828
 30
0.0
 10
0.57729
 20
-10.55828
 30
0.0
 10
0.57729
 20
-10.55828
 30
0.0
 10
0.57729
 20
-10.55828
 30
0.0
 10
0.57729
 20
-10.85889
 30
0.0
 10
0.57729
 20
-10.85889
 30
0.0
 10
0.57729
 20
-10.85889
 30
0.0
 10
0.57729
 20
-10.85889
 30
0.0
 10
0.57729
 20
-11.1505
 30
0.0
 10
0.57729
 20
-11.1505
 30
0.0
 10
0.57729
 20
-11.1505
 30
0.0
 10
0.57729
 20
-11.1505
 30
0.0
 10
0.57729
 20
-11.4328
 30
0.0
 10
0.57729
 20
-11.4328
 30
0.0
 10
0.57729
 20
-11.4328
 30
0.0
 10
0.57729
 20
-11.4328
 30
0.0
 10
0.57729
 20
-11.70544
 30
0.0
 10
0.57729
 20
-11.70544
 30
0.0
 10
0.57729
 20
-11.70544
 30
0.0
 10
0.57729
 20
-11.70544
 30
0.0
 10
0.57729
 20
-11.9681
 30
0.0
 10
0.57729
 20
-11.9681
 30
0.0
 10
0.57729
 20
-11.9681
 30
0.0
 10
0.57729
 20
-11.9681
 30
0.0
 10
0.57729
 20
-12.2204
 30
0.0
 10
0.57729
 20
-12.2204
 30
0.0
 10
0.57729
 20
-12.2204
 30
0.0
 10
0.57729
 20
-12.2204
 30
0.0
 10
0.57729
 20
-12.46204
 30
0.0
 10
0.57729
 20
-12.46204
 30
0.0
 10
0.57729
 20
-12.46204
 30
0.0
 10
0.57729
 20
-12.46204
 30
0.0
 10
0.57729
 20
-12.69268
 30
0.0
 10
0.57729
 20
-12.69268
 30
0.0
 10
0.57729
 20
-12.69268
 30
0.0
 10
0.57729
 20
-12.69268
 30
0.0
 10
0.57729
 20
-12.91194
 30
0.0
 10
0.57729
 20
-12.91194
 30
0.0
 10
0.57729
 20
-12.91194
 30
0.0
 10
0.57729
 20
-12.91194
 30
0.0
 10
0.57729
 20
-13.11953
 30
0.0
 10
0.57729
 20
-13.11953
 30
0.0
 10
0.57729
 20
-13.11953
 30
0.0
 10
0.57729
 20
-13.11953
 30
0.0
 10
0.57729
 20
-13.31509
 30
0.0
 10
0.57729
 20
-13.31509
 30
0.0
 10
0.57729
 20
-13.31509
 30
0.0
 10
0.57729
 20
-13.31509
 30
0.0
 10
0.57729
 20
-13.49826
 30
0.0
 10
0.57729
 20
-13.49826
 30
0.0
 10
0.57729
 20
-13.49826
 30
0.0
 10
0.57729
 20
-13.49826
 30
0.0
 10
0.57729
 20
-13.66875
 30
0.0
 10
0.57729
 20
-13.66875
 30
0.0
 10
0.57729
 20
-13.66875
 30
0.0
 10
0.57729
 20
-13.66875
 30
0.0
 10
0.57729
 20
-13.82617
 30
0.0
 10
0.57729
 20
-13.82617
 30
0.0
 10
0.57729
 20
-13.82617
 30
0.0
 10
0.57729
 20
-13.82617
 30
0.0
 10
0.57729
 20
-13.97022
 30
0.0
 10
0.57729
 20
-13.97022
 30
0.0
 10
0.57729
 20
-13.97022
 30
0.0
 10
0.57729
 20
-13.97022
 30
0.0
 10
0.57729
 20
-14.10054
 30
0.0
 10
0.57729
 20
-14.10054
 30
0.0
 10
0.57729
 20
-14.10054
 30
0.0
 10
0.57729
 20
-14.10054
 30
0.0
 10
0.57729
 20
-14.2168
 30
0.0
 10
0.57729
 20
-14.2168
 30
0.0
 10
0.57729
 20
-14.2168
 30
0.0
 10
0.57729
 20
-14.2168
 30
0.0
 10
0.57729
 20
-14.31866
 30
0.0
 10
0.57729
 20
-14.31866
 30
0.0
 10
0.57729
 20
-14.31866
 30
0.0
 10
0.57729
 20
-14.31866
 30
0.0
 10
0.57729
 20
-14.40577
 30
0.0
 10
0.57729
 20
-14.40577
 30
0.0
 10
0.57729
 20
-14.40577
 30
0.0
 10
0.57729
 20
-14.40577
 30
0.0
 10
0.57729
 20
-14.47781
 30
0.0
 10
0.57729
 20
-14.47781
 30
0.0
 10
0.57729
 20
-14.47781
 30
0.0
 10
0.57729
 20
-14.47781
 30
0.0
 10
0.57729
 20
-14.53444
 30
0.0
 10
0.57729
 20
-14.53444
 30
0.0
 10
0.57729
 20
-14.53444
 30
0.0
 10
0.57729
 20
-14.53444
 30
0.0
 10
0.57729
 20
-14.57529
 30
0.0
 10
0.57729
 20
-14.57529
 30
0.0
 10
0.57729
 20
-14.57529
 30
0.0
 10
0.57729
 20
-14.57529
 30
0.0
 10
0.57729
 20
-14.60006
 30
0.0
 10
0.57729
 20
-14.60006
 30
0.0
 10
0.57729
 20
-14.60006
 30
0.0
 10
0.57729
 20
-14.60006
 30
0.0
 10
0.57729
 20
-14.6084
 30
0.0
 10
0.57729
 20
-14.6084
 30
0.0
  0
SPLINE
  5
4E
330
1F
100
AcDbEntity
  8
layer 1
 62
   250
100
AcDbSpline
210
0.0
220
0.0
230
1.0
 70
     9
 71
     3
 72
   116
 73
   112
 74
     0
 42
0.0000000001
 43
0.0000000001
 40
0.0
 40
0.0
 40
0.0
 40
0.0
 40
0.0344827586206897
 40
0.0344827586206897
 40
0.0344827586206897
 40
0.0344827586206897
 40
0.0689655172413793
 40
0.0689655172413793
 40
0.0689655172413793
 40
0.0689655172413793
 40
0.103448275862069
 40
0.103448275862069
 40
0.103448275862069
 40
0.103448275862069
 40
0.1379310344827586
 40
0.1379310344827586
 40
0.1379310344827586
 40
0.1379310344827586
 40
0.1724137931034483
 40
0.1724137931034483
 40
0.1724137931034483
 40
0.1724137931034483
 40
0.2068965517241379
 40
0.2068965517241379
 40
0.2068965517241379
 40
0.2068965517241379
 40
0.2413793103448276
 40
0.2413793103448276
 40
0.2413793103448276
 40
0.2413793103448276
 40
0.2758620689655172
 40
0.2758620689655172
 40
0.2758620689655172
 40
0.2758620689655172
 40
0.3103448275862069
 40
0.3103448275862069
 40
0.3103448275862069
 40
0.3103448275862069
 40
0.3448275862068966
 40
0.3448275862068966
 40
0.3448275862068966
 40
0.3448275862068966
 40
0.3793103448275862
 40
0.3793103448275862
 40
0.3793103448275862
 40
0.3793103448275862
 40
0.4137931034482759
 40
0.4137931034482759
 40
0.4137931034482759
 40
0.4137931034482759
 40
0.4482758620689655
 40
0.4482758620689655
 40
0.4482758620689655
 40
0.4482758620689655
 40
0.4827586206896552
 40
0.4827586206896552
 40
0.4827586206896552
 40
0.4827586206896552
 40
0.5172413793103449
 40
0.5172413793103449
 40
0.5172413793103449
 40
0.5172413793103449
 40
0.5517241379310346
 40
0.5517241379310346
 40
0.5517241379310346
 40
0.5517241379310346
 40
0.5862068965517241
 40
0.5862068965517241
 40
0.5862068965517241
 40
0.5862068965517241
 40
0.6206896551724138
 40
0.6206896551724138
 40
0.6206896551724138
 40
0.6206896551724138
 40
0.6551724137931034
 40
0.6551724137931034
 40
0.6551724137931034
 40
0.6551724137931034
 40
0.6896551724137932
 40
0.6896551724137932
 40
0.6896551724137932
 40
0.6896551724137932
 40
0.7241379310344828
 40
0.7241379310344828
 40
0.7241379310344828
 40
0.7241379310344828
 40
0.7586206896551725
 40
0.7586206896551725
 40
0.7586206896551725
 40
0.7586206896551725
 40
0.7931034482758621
 40
0.7931034482758621
 40
0.7931034482758621
 40
0.7931034482758621
 40
0.8275862068965517
 40
0.8275862068965517
 40
0.8275862068965517
 40
0.8275862068965517
 40
0.8620689655172412
 40
0.8620689655172412
 40
0.8620689655172412
 40
0.8620689655172412
 40
0.8965517241379307
 40
0.8965517241379307
 40
0.8965517241379307
 40
0.8965517241379307
 40
0.9310344827586208
 40
0.9310344827586208
 40
0.9310344827586208
 40
0.9310344827586208
 40
1.0
 40
1.0
 40
1.0
 40
1.0
 10
6.04089
 20
-0.22792
 30
0.0
 10
6.04089
 20
-0.22792
 30
0.0
 10
6.250169999999999
 20
-0.20268
 30
0.0
 10
6.250169999999999
 20
-0.20268
 30
0.0
 10
6.250169999999999
 20
-0.20268
 30
0.0
 10
6.257
 20
-0.25605
 30
0.0
 10
6.27488
 20
-0.2968
 30
0.0
 10
6.30433
 20
-0.32493
 30
0.0
 10
6.30433
 20
-0.32493
 30
0.0
 10
6.333509999999999
 20
-0.35333
 30
0.0
 10
6.36901
 20
-0.3675199999999999
 30
0.0
 10
6.410549999999999
 20
-0.3675199999999999
 30
0.0
 10
6.410549999999999
 20
-0.3675199999999999
 30
0.0
 10
6.455239999999999
 20
-0.3675199999999999
 30
0.0
 10
6.49284
 20
-0.35044
 30
0.0
 10
6.52334
 20
-0.31652
 30
0.0
 10
6.52334
 20
-0.31652
 30
0.0
 10
6.553839999999999
 20
-0.2826
 30
0.0
 10
6.569089999999999
 20
-0.2371199999999999
 30
0.0
 10
6.569089999999999
 20
-0.17954
 30
0.0
 10
6.569089999999999
 20
-0.17954
 30
0.0
 10
6.569089999999999
 20
-0.12512
 30
0.0
 10
6.554619999999999
 20
-0.082
 30
0.0
 10
6.52518
 20
-0.05019
 30
0.0
 10
6.52518
 20
-0.05019
 30
0.0
 10
6.495989999999999
 20
-0.01811
 30
0.0
 10
6.460239999999999
 20
-0.00234
 30
0.0
 10
6.418169999999999
 20
-0.00234
 30
0.0
 10
6.418169999999999
 20
-0.00234
 30
0.0
 10
6.390569999999999
 20
-0.00234
 30
0.0
 10
6.35744
 20
-0.00759
 30
0.0
 10
6.318789999999999
 20
-0.01837
 30
0.0
 10
6.318789999999999
 20
-0.01837
 30
0.0
 10
6.318789999999999
 20
-0.01837
 30
0.0
 10
6.342719999999999
 20
0.15778
 30
0.0
 10
6.342719999999999
 20
0.15778
 30
0.0
 10
6.342719999999999
 20
0.15778
 30
0.0
 10
6.401349999999999
 20
0.15646
 30
0.0
 10
6.446039999999999
 20
0.16908
 30
0.0
 10
6.476799999999999
 20
0.1959
 30
0.0
 10
6.476799999999999
 20
0.1959
 30
0.0
 10
6.507559999999999
 20
0.22298
 30
0.0
 10
6.523069999999999
 20
0.25874
 30
0.0
 10
6.523069999999999
 20
0.30343
 30
0.0
 10
6.523069999999999
 20
0.30343
 30
0.0
 10
6.523069999999999
 20
0.3415599999999999
 30
0.0
 10
6.511769999999999
 20
0.37179
 30
0.0
 10
6.48916
 20
0.3944
 30
0.0
 10
6.48916
 20
0.3944
 30
0.0
 10
6.466549999999999
 20
0.4170100000000001
 30
0.0
 10
6.436309999999999
 20
0.42832
 30
0.0
 10
6.398979999999999
 20
0.42832
 30
0.0
 10
6.398979999999999
 20
0.42832
 30
0.0
 10
6.361909999999999
 20
0.42832
 30
0.0
 10
6.330359999999999
 20
0.41544
 30
0.0
 10
6.30433
 20
0.38967
 30
0.0
 10
6.30433
 20
0.38967
 30
0.0
 10
6.278039999999999
 20
0.36417
 30
0.0
 10
6.262
 20
0.32657
 30
0.0
 10
6.25648
 20
0.27741
 30
0.0
 10
6.25648
 20
0.27741
 30
0.0
 10
6.25648
 20
0.27741
 30
0.0
 10
6.05693
 20
0.31106
 30
0.0
 10
6.05693
 20
0.31106
 30
0.0
 10
6.05693
 20
0.31106
 30
0.0
 10
6.070859999999999
 20
0.37942
 30
0.0
 10
6.09163
 20
0.4341000000000001
 30
0.0
 10
6.119759999999999
 20
0.47485
 30
0.0
 10
6.119759999999999
 20
0.47485
 30
0.0
 10
6.14763
 20
0.5156100000000001
 30
0.0
 10
6.186809999999999
 20
0.5476800000000001
 30
0.0
 10
6.236759999999999
 20
0.5710800000000001
 30
0.0
 10
6.236759999999999
 20
0.5710800000000001
 30
0.0
 10
6.28698
 20
0.59448
 30
0.0
 10
6.34298
 20
0.6063100000000001
 30
0.0
 10
6.40503
 20
0.6063100000000001
 30
0.0
 10
6.40503
 20
0.6063100000000001
 30
0.0
 10
6.511509999999999
 20
0.6063100000000001
 30
0.0
 10
6.596689999999999
 20
0.5724000000000001
 30
0.0
 10
6.660839999999999
 20
0.5045600000000001
 30
0.0
 10
6.660839999999999
 20
0.5045600000000001
 30
0.0
 10
6.713689999999999
 20
0.44909
 30
0.0
 10
6.740239999999999
 20
0.38652
 30
0.0
 10
6.740239999999999
 20
0.31658
 30
0.0
 10
6.740239999999999
 20
0.31658
 30
0.0
 10
6.740239999999999
 20
0.21746
 30
0.0
 10
6.68608
 20
0.13832
 30
0.0
 10
6.57776
 20
0.07943
 30
0.0
 10
6.57776
 20
0.07943
 30
0.0
 10
6.642439999999999
 20
0.0655
 30
0.0
 10
6.693969999999999
 20
0.03447
 30
0.0
 10
6.73288
 20
-0.0139
 30
0.0
 10
6.73288
 20
-0.0139
 30
0.0
 10
6.77153
 20
-0.06202
 30
0.0
 10
6.790989999999999
 20
-0.12038
 30
0.0
 10
6.790989999999999
 20
-0.18874
 30
0.0
 10
6.790989999999999
 20
-0.18874
 30
0.0
 10
6.790989999999999
 20
-0.28786
 30
0.0
 10
6.754699999999999
 20
-0.37226
 30
0.0
 10
6.6824
 20
-0.44219
 30
0.0
 10
6.6824
 20
-0.44219
 30
0.0
 10
6.6101
 20
-0.51187
 30
0.0
 10
6.519919999999999
 20
-0.5468300000000001
 30
0.0
 10
6.412119999999999
 20
-0.5468300000000001
 30
0.0
 10
6.412119999999999
 20
-0.5468300000000001
 30
0.0
 10
6.309849999999999
 20
-0.5468300000000001
 30
0.0
 10
6.22519
 20
-0.51739
 30
0.0
 10
6.15789
 20
-0.4587600000000001
 30
0.0
 10
6.15789
 20
-0.4587600000000001
 30
0.0
 10
6.09058
 20
-0.39986
 30
0.0
 10
6.051669999999999
 20
-0.32309
 30
0.0
 10
6.04089
 20
-0.22792
 30
0.0
  0
SPLINE
  5
4F
330
1F
100
AcDbEntity
  8
layer 1
 62
   250
100
AcDbSpline
210
0.0
220
0.0
230
1.0
 70
     9
 71
     3
 72
    68
 73
    64
 74
     0
 42
0.0000000001
 43
0.0000000001
 40
0.0
 40
0.0
 40
0.0
 40
0.0
 40
0.0588235294117647
 40
0.0588235294117647
 40
0.0588235294117647
 40
0.0588235294117647
 40
0.1176470588235294
 40
0.1176470588235294
 40
0.1176470588235294
 40
0.1176470588235294
 40
0.1764705882352941
 40
0.1764705882352941
 40
0.1764705882352941
 40
0.1764705882352941
 40
0.2352941176470588
 40
0.2352941176470588
 40
0.2352941176470588
 40
0.2352941176470588
 40
0.2941176470588235
 40
0.2941176470588235
 40
0.2941176470588235
 40
0.2941176470588235
 40
0.3529411764705883
 40
0.3529411764705883
 40
0.3529411764705883
 40
0.3529411764705883
 40
0.4117647058823529
 40
0.4117647058823529
 40
0.4117647058823529
 40
0.4117647058823529
 40
0.4705882352941176
 40
0.4705882352941176
 40
0.4705882352941176
 40
0.4705882352941176
 40
0.5294117647058824
 40
0.5294117647058824
 40
0.5294117647058824
 40
0.5294117647058824
 40
0.5882352941176471
 40
0.5882352941176471
 40
0.5882352941176471
 40
0.5882352941176471
 40
0.6470588235294118
 40
0.6470588235294118
 40
0.6470588235294118
 40
0.6470588235294118
 40
0.7058823529411766
 40
0.7058823529411766
 40
0.7058823529411766
 40
0.7058823529411766
 40
0.7647058823529412
 40
0.7647058823529412
 40
0.7647058823529412
 40
0.7647058823529412
 40
0.8235294117647057
 40
0.8235294117647057
 40
0.8235294117647057
 40
0.8235294117647057
 40
0.8823529411764706
 40
0.8823529411764706
 40
0.8823529411764706
 40
0.8823529411764706
 40
1.0
 40
1.0
 40
1.0
 40
1.0
 10
7.017989999999999
 20
-0.26657
 30
0.0
 10
7.017989999999999
 20
-0.26657
 30
0.0
 10
7.227539999999999
 20
-0.24343
 30
0.0
 10
7.227539999999999
 20
-0.24343
 30
0.0
 10
7.227539999999999
 20
-0.24343
 30
0.0
 10
7.232789999999999
 20
-0.28602
 30
0.0
 10
7.246199999999999
 20
-0.3175699999999999
 30
0.0
 10
7.26776
 20
-0.33808
 30
0.0
 10
7.26776
 20
-0.33808
 30
0.0
 10
7.28932
 20
-0.35859
 30
0.0
 10
7.317719999999999
 20
-0.36884
 30
0.0
 10
7.35321
 20
-0.36884
 30
0.0
 10
7.35321
 20
-0.36884
 30
0.0
 10
7.39791
 20
-0.36884
 30
0.0
 10
7.43576
 20
-0.34833
 30
0.0
 10
7.46705
 20
-0.30732
 30
0.0
 10
7.46705
 20
-0.30732
 30
0.0
 10
7.498599999999999
 20
-0.2663
 30
0.0
 10
7.51858
 20
-0.18112
 30
0.0
 10
7.52726
 20
-0.0515
 30
0.0
 10
7.52726
 20
-0.0515
 30
0.0
 10
7.472839999999999
 20
-0.11486
 30
0.0
 10
7.404739999999999
 20
-0.14641
 30
0.0
 10
7.323239999999999
 20
-0.14641
 30
0.0
 10
7.323239999999999
 20
-0.14641
 30
0.0
 10
7.234369999999999
 20
-0.14641
 30
0.0
 10
7.1576
 20
-0.11197
 30
0.0
 10
7.093189999999998
 20
-0.04361
 30
0.0
 10
7.093189999999998
 20
-0.04361
 30
0.0
 10
7.028769999999999
 20
0.02501
 30
0.0
 10
6.99643
 20
0.11414
 30
0.0
 10
6.99643
 20
0.22403
 30
0.0
 10
6.99643
 20
0.22403
 30
0.0
 10
6.99643
 20
0.33866
 30
0.0
 10
7.03061
 20
0.43095
 30
0.0
 10
7.09871
 20
0.50115
 30
0.0
 10
7.09871
 20
0.50115
 30
0.0
 10
7.166539999999999
 20
0.5710800000000001
 30
0.0
 10
7.2533
 20
0.6063100000000001
 30
0.0
 10
7.358469999999999
 20
0.6063100000000001
 30
0.0
 10
7.358469999999999
 20
0.6063100000000001
 30
0.0
 10
7.473099999999999
 20
0.6063100000000001
 30
0.0
 10
7.56696
 20
0.5618800000000001
 30
0.0
 10
7.640579999999999
 20
0.4732800000000001
 30
0.0
 10
7.640579999999999
 20
0.4732800000000001
 30
0.0
 10
7.71393
 20
0.38468
 30
0.0
 10
7.750739999999999
 20
0.23902
 30
0.0
 10
7.750739999999999
 20
0.03631
 30
0.0
 10
7.750739999999999
 20
0.03631
 30
0.0
 10
7.750739999999999
 20
-0.17034
 30
0.0
 10
7.712349999999999
 20
-0.31915
 30
0.0
 10
7.635839999999999
 20
-0.41064
 30
0.0
 10
7.635839999999999
 20
-0.41064
 30
0.0
 10
7.55933
 20
-0.5018699999999999
 30
0.0
 10
7.459689999999999
 20
-0.5476200000000001
 30
0.0
 10
7.33691
 20
-0.5476200000000001
 30
0.0
 10
7.33691
 20
-0.5476200000000001
 30
0.0
 10
7.248569999999999
 20
-0.5476200000000001
 30
0.0
 10
7.177319999999999
 20
-0.5242200000000001
 30
0.0
 10
7.122899999999999
 20
-0.4771600000000001
 30
0.0
 10
7.122899999999999
 20
-0.4771600000000001
 30
0.0
 10
7.068469999999999
 20
-0.4301000000000001
 30
0.0
 10
7.0335
 20
-0.3599
 30
0.0
 10
7.017989999999999
 20
-0.26657
 30
0.0
  0
SPLINE
  5
50
330
1F
100
AcDbEntity
  8
layer 1
 62
   250
100
AcDbSpline
210
0.0
220
0.0
230
1.0
 70
     9
 71
     3
 72
    36
 73
    32
 74
     0
 42
0.0000000001
 43
0.0000000001
 40
0.0
 40
0.0
 40
0.0
 40
0.0
 40
0.1111111111111111
 40
0.1111111111111111
 40
0.1111111111111111
 40
0.1111111111111111
 40
0.2222222222222222
 40
0.2222222222222222
 40
0.2222222222222222
 40
0.2222222222222222
 40
0.3333333333333333
 40
0.3333333333333333
 40
0.3333333333333333
 40
0.3333333333333333
 40
0.4444444444444445
 40
0.4444444444444445
 40
0.4444444444444445
 40
0.4444444444444445
 40
0.5555555555555556
 40
0.5555555555555556
 40
0.5555555555555556
 40
0.5555555555555556
 40
0.6666666666666666
 40
0.6666666666666666
 40
0.6666666666666666
 40
0.6666666666666666
 40
0.7777777777777778
 40
0.7777777777777778
 40
0.7777777777777778
 40
0.7777777777777778
 40
1.0
 40
1.0
 40
1.0
 40
1.0
 10
7.50807
 20
0.20642
 30
0.0
 10
7.50807
 20
0.27635
 30
0.0
 10
7.49203
 20
0.3305099999999999
 30
0.0
 10
7.45995
 20
0.3689
 30
0.0
 10
7.45995
 20
0.3689
 30
0.0
 10
7.42788
 20
0.40755
 30
0.0
 10
7.390539999999999
 20
0.42674
 30
0.0
 10
7.34848
 20
0.42674
 30
0.0
 10
7.34848
 20
0.42674
 30
0.0
 10
7.30851
 20
0.42674
 30
0.0
 10
7.275119999999999
 20
0.4109700000000001
 30
0.0
 10
7.248829999999999
 20
0.37942
 30
0.0
 10
7.248829999999999
 20
0.37942
 30
0.0
 10
7.22228
 20
0.3478699999999999
 30
0.0
 10
7.20913
 20
0.29607
 30
0.0
 10
7.20913
 20
0.22403
 30
0.0
 10
7.20913
 20
0.22403
 30
0.0
 10
7.20913
 20
0.15121
 30
0.0
 10
7.223589999999999
 20
0.09757
 30
0.0
 10
7.25225
 20
0.06366
 30
0.0
 10
7.25225
 20
0.06366
 30
0.0
 10
7.28091
 20
0.02948
 30
0.0
 10
7.31693
 20
0.01239
 30
0.0
 10
7.36005
 20
0.01239
 30
0.0
 10
7.36005
 20
0.01239
 30
0.0
 10
7.401589999999999
 20
0.01239
 30
0.0
 10
7.436819999999999
 20
0.02869
 30
0.0
 10
7.46521
 20
0.06155
 30
0.0
 10
7.46521
 20
0.06155
 30
0.0
 10
7.493869999999999
 20
0.09442
 30
0.0
 10
7.50807
 20
0.14279
 30
0.0
 10
7.50807
 20
0.20642
 30
0.0
  0
SPLINE
  5
51
330
1F
100
AcDbEntity
  8
layer 1
 62
   250
100
AcDbSpline
210
0.0
220
0.0
230
1.0
 70
     9
 71
     3
 72
    68
 73
    64
 74
     0
 42
0.0000000001
 43
0.0000000001
 40
0.0
 40
0.0
 40
0.0
 40
0.0
 40
0.0588235294117647
 40
0.0588235294117647
 40
0.0588235294117647
 40
0.0588235294117647
 40
0.1176470588235294
 40
0.1176470588235294
 40
0.1176470588235294
 40
0.1176470588235294
 40
0.1764705882352941
 40
0.1764705882352941
 40
0.1764705882352941
 40
0.1764705882352941
 40
0.2352941176470588
 40
0.2352941176470588
 40
0.2352941176470588
 40
0.2352941176470588
 40
0.2941176470588235
 40
0.2941176470588235
 40
0.2941176470588235
 40
0.2941176470588235
 40
0.3529411764705883
 40
0.3529411764705883
 40
0.3529411764705883
 40
0.3529411764705883
 40
0.4117647058823529
 40
0.4117647058823529
 40
0.4117647058823529
 40
0.4117647058823529
 40
0.4705882352941176
 40
0.4705882352941176
 40
0.4705882352941176
 40
0.4705882352941176
 40
0.5294117647058824
 40
0.5294117647058824
 40
0.5294117647058824
 40
0.5294117647058824
 40
0.5882352941176471
 40
0.5882352941176471
 40
0.5882352941176471
 40
0.5882352941176471
 40
0.6470588235294118
 40
0.6470588235294118
 40
0.6470588235294118
 40
0.6470588235294118
 40
0.7058823529411766
 40
0.7058823529411766
 40
0.7058823529411766
 40
0.7058823529411766
 40
0.7647058823529412
 40
0.7647058823529412
 40
0.7647058823529412
 40
0.7647058823529412
 40
0.8235294117647057
 40
0.8235294117647057
 40
0.8235294117647057
 40
0.8235294117647057
 40
0.8823529411764706
 40
0.8823529411764706
 40
0.8823529411764706
 40
0.8823529411764706
 40
1.0
 40
1.0
 40
1.0
 40
1.0
 10
8.7118
 20
0.32499
 30
0.0
 10
8.7118
 20
0.32499
 30
0.0
 10
8.502259999999999
 20
0.30186
 30
0.0
 10
8.502259999999999
 20
0.30186
 30
0.0
 10
8.502259999999999
 20
0.30186
 30
0.0
 10
8.49726
 20
0.34497
 30
0.0
 10
8.483859999999999
 20
0.37679
 30
0.0
 10
8.4623
 20
0.39756
 30
0.0
 10
8.4623
 20
0.39756
 30
0.0
 10
8.440739999999999
 20
0.41807
 30
0.0
 10
8.41261
 20
0.42832
 30
0.0
 10
8.378160000000001
 20
0.42832
 30
0.0
 10
8.378160000000001
 20
0.42832
 30
0.0
 10
8.332679999999999
 20
0.42832
 30
0.0
 10
8.294030000000001
 20
0.40781
 30
0.0
 10
8.262219999999999
 20
0.36653
 30
0.0
 10
8.262219999999999
 20
0.36653
 30
0.0
 10
8.230669999999999
 20
0.32552
 30
0.0
 10
8.21095
 20
0.24007
 30
0.0
 10
8.202539999999999
 20
0.11019
 30
0.0
 10
8.202539999999999
 20
0.11019
 30
0.0
 10
8.2567
 20
0.17382
 30
0.0
 10
8.323479999999999
 20
0.20563
 30
0.0
 10
8.403669999999999
 20
0.20563
 30
0.0
 10
8.403669999999999
 20
0.20563
 30
0.0
 10
8.49411
 20
0.20563
 30
0.0
 10
8.57141
 20
0.17119
 30
0.0
 10
8.635819999999998
 20
0.1023
 30
0.0
 10
8.635819999999998
 20
0.1023
 30
0.0
 10
8.700239999999999
 20
0.03368
 30
0.0
 10
8.732569999999999
 20
-0.05518
 30
0.0
 10
8.732569999999999
 20
-0.16403
 30
0.0
 10
8.732569999999999
 20
-0.16403
 30
0.0
 10
8.732569999999999
 20
-0.27971
 30
0.0
 10
8.69866
 20
-0.37226
 30
0.0
 10
8.630829999999999
 20
-0.44219
 30
0.0
 10
8.630829999999999
 20
-0.44219
 30
0.0
 10
8.563260000000001
 20
-0.51187
 30
0.0
 10
8.47597
 20
-0.5468300000000001
 30
0.0
 10
8.369749999999999
 20
-0.5468300000000001
 30
0.0
 10
8.369749999999999
 20
-0.5468300000000001
 30
0.0
 10
8.25591
 20
-0.5468300000000001
 30
0.0
 10
8.16205
 20
-0.5026600000000001
 30
0.0
 10
8.088689999999999
 20
-0.41406
 30
0.0
 10
8.088689999999999
 20
-0.41406
 30
0.0
 10
8.01534
 20
-0.32546
 30
0.0
 10
7.97853
 20
-0.18033
 30
0.0
 10
7.97853
 20
0.02159
 30
0.0
 10
7.97853
 20
0.02159
 30
0.0
 10
7.97853
 20
0.2285
 30
0.0
 10
8.016659999999999
 20
0.37758
 30
0.0
 10
8.093160000000001
 20
0.46907
 30
0.0
 10
8.093160000000001
 20
0.46907
 30
0.0
 10
8.169669999999999
 20
0.5605700000000001
 30
0.0
 10
8.26905
 20
0.6063100000000001
 30
0.0
 10
8.39131
 20
0.6063100000000001
 30
0.0
 10
8.39131
 20
0.6063100000000001
 30
0.0
 10
8.477019999999999
 20
0.6063100000000001
 30
0.0
 10
8.548010000000001
 20
0.58212
 30
0.0
 10
8.604269999999999
 20
0.5342700000000001
 30
0.0
 10
8.604269999999999
 20
0.5342700000000001
 30
0.0
 10
8.660529999999999
 20
0.4861600000000001
 30
0.0
 10
8.696289999999999
 20
0.41649
 30
0.0
 10
8.7118
 20
0.32499
 30
0.0
  0
SPLINE
  5
52
330
1F
100
AcDbEntity
  8
layer 1
 62
   250
100
AcDbSpline
210
0.0
220
0.0
230
1.0
 70
     9
 71
     3
 72
    36
 73
    32
 74
     0
 42
0.0000000001
 43
0.0000000001
 40
0.0
 40
0.0
 40
0.0
 40
0.0
 40
0.1111111111111111
 40
0.1111111111111111
 40
0.1111111111111111
 40
0.1111111111111111
 40
0.2222222222222222
 40
0.2222222222222222
 40
0.2222222222222222
 40
0.2222222222222222
 40
0.3333333333333333
 40
0.3333333333333333
 40
0.3333333333333333
 40
0.3333333333333333
 40
0.4444444444444445
 40
0.4444444444444445
 40
0.4444444444444445
 40
0.4444444444444445
 40
0.5555555555555556
 40
0.5555555555555556
 40
0.5555555555555556
 40
0.5555555555555556
 40
0.6666666666666666
 40
0.6666666666666666
 40
0.6666666666666666
 40
0.6666666666666666
 40
0.7777777777777778
 40
0.7777777777777778
 40
0.7777777777777778
 40
0.7777777777777778
 40
1.0
 40
1.0
 40
1.0
 40
1.0
 10
8.221199999999999
 20
-0.1472
 30
0.0
 10
8.221199999999999
 20
-0.2174
 30
0.0
 10
8.237239999999999
 20
-0.27182
 30
0.0
 10
8.269579999999999
 20
-0.30995
 30
0.0
 10
8.269579999999999
 20
-0.30995
 30
0.0
 10
8.301919999999999
 20
-0.34833
 30
0.0
 10
8.338989999999999
 20
-0.3675199999999999
 30
0.0
 10
8.38053
 20
-0.3675199999999999
 30
0.0
 10
8.38053
 20
-0.3675199999999999
 30
0.0
 10
8.420760000000001
 20
-0.3675199999999999
 30
0.0
 10
8.453879999999999
 20
-0.35175
 30
0.0
 10
8.4807
 20
-0.32046
 30
0.0
 10
8.4807
 20
-0.32046
 30
0.0
 10
8.507519999999999
 20
-0.28918
 30
0.0
 10
8.520660000000001
 20
-0.23764
 30
0.0
 10
8.520660000000001
 20
-0.16639
 30
0.0
 10
8.520660000000001
 20
-0.16639
 30
0.0
 10
8.520660000000001
 20
-0.09304
 30
0.0
 10
8.50647
 20
-0.03914
 30
0.0
 10
8.47755
 20
-0.00496
 30
0.0
 10
8.47755
 20
-0.00496
 30
0.0
 10
8.448889999999998
 20
0.02921
 30
0.0
 10
8.412869999999999
 20
0.0463
 30
0.0
 10
8.369749999999999
 20
0.0463
 30
0.0
 10
8.369749999999999
 20
0.0463
 30
0.0
 10
8.32821
 20
0.0463
 30
0.0
 10
8.29298
 20
0.03
 30
0.0
 10
8.264319999999999
 20
-0.0026
 30
0.0
 10
8.264319999999999
 20
-0.0026
 30
0.0
 10
8.2354
 20
-0.0352
 30
0.0
 10
8.221199999999999
 20
-0.08358
 30
0.0
 10
8.221199999999999
 20
-0.1472
 30
0.0
  0
SPLINE
  5
53
330
1F
100
AcDbEntity
  8
layer 1
 62
   250
100
AcDbSpline
210
0.0
220
0.0
230
1.0
 70
    11
 71
     3
 72
    56
 73
    52
 74
     0
 42
0.0000000001
 43
0.0000000001
 40
0.0
 40
0.0
 40
0.0
 40
0.0
 40
0.0714285714285714
 40
0.0714285714285714
 40
0.0714285714285714
 40
0.0714285714285714
 40
0.1428571428571428
 40
0.1428571428571428
 40
0.1428571428571428
 40
0.1428571428571428
 40
0.2142857142857143
 40
0.2142857142857143
 40
0.2142857142857143
 40
0.2142857142857143
 40
0.2857142857142857
 40
0.2857142857142857
 40
0.2857142857142857
 40
0.2857142857142857
 40
0.3571428571428572
 40
0.3571428571428572
 40
0.3571428571428572
 40
0.3571428571428572
 40
0.4285714285714285
 40
0.4285714285714285
 40
0.4285714285714285
 40
0.4285714285714285
 40
0.5
 40
0.5
 40
0.5
 40
0.5
 40
0.5714285714285714
 40
0.5714285714285714
 40
0.5714285714285714
 40
0.5714285714285714
 40
0.6428571428571429
 40
0.6428571428571429
 40
0.6428571428571429
 40
0.6428571428571429
 40
0.7142857142857144
 40
0.7142857142857144
 40
0.7142857142857144
 40
0.7142857142857144
 40
0.7857142857142857
 40
0.7857142857142857
 40
0.7857142857142857
 40
0.7857142857142857
 40
0.8571428571428571
 40
0.8571428571428571
 40
0.8571428571428571
 40
0.8571428571428571
 40
1.0
 40
1.0
 40
1.0
 40
1.0
 10
8.988239999999999
 20
-0.52764
 30
0.0
 10
8.988239999999999
 20
-0.52764
 30
0.0
 10
8.988239999999999
 20
0.6015800000000001
 30
0.0
 10
8.988239999999999
 20
0.6015800000000001
 30
0.0
 10
8.988239999999999
 20
0.6015800000000001
 30
0.0
 10
8.988239999999999
 20
0.6015800000000001
 30
0.0
 10
9.329499999999999
 20
0.6015800000000001
 30
0.0
 10
9.329499999999999
 20
0.6015800000000001
 30
0.0
 10
9.329499999999999
 20
0.6015800000000001
 30
0.0
 10
9.329499999999999
 20
0.6015800000000001
 30
0.0
 10
9.534310000000001
 20
-0.16876
 30
0.0
 10
9.534310000000001
 20
-0.16876
 30
0.0
 10
9.534310000000001
 20
-0.16876
 30
0.0
 10
9.534310000000001
 20
-0.16876
 30
0.0
 10
9.73676
 20
0.6015800000000001
 30
0.0
 10
9.73676
 20
0.6015800000000001
 30
0.0
 10
9.73676
 20
0.6015800000000001
 30
0.0
 10
9.73676
 20
0.6015800000000001
 30
0.0
 10
10.07881
 20
0.6015800000000001
 30
0.0
 10
10.07881
 20
0.6015800000000001
 30
0.0
 10
10.07881
 20
0.6015800000000001
 30
0.0
 10
10.07881
 20
0.6015800000000001
 30
0.0
 10
10.07881
 20
-0.52764
 30
0.0
 10
10.07881
 20
-0.52764
 30
0.0
 10
10.07881
 20
-0.52764
 30
0.0
 10
10.07881
 20
-0.52764
 30
0.0
 10
9.86716
 20
-0.52764
 30
0.0
 10
9.86716
 20
-0.52764
 30
0.0
 10
9.86716
 20
-0.52764
 30
0.0
 10
9.86716
 20
-0.52764
 30
0.0
 10
9.86716
 20
0.36128
 30
0.0
 10
9.86716
 20
0.36128
 30
0.0
 10
9.86716
 20
0.36128
 30
0.0
 10
9.86716
 20
0.36128
 30
0.0
 10
9.642899999999999
 20
-0.52764
 30
0.0
 10
9.642899999999999
 20
-0.52764
 30
0.0
 10
9.642899999999999
 20
-0.52764
 30
0.0
 10
9.642899999999999
 20
-0.52764
 30
0.0
 10
9.42336
 20
-0.52764
 30
0.0
 10
9.42336
 20
-0.52764
 30
0.0
 10
9.42336
 20
-0.52764
 30
0.0
 10
9.42336
 20
-0.52764
 30
0.0
 10
9.199889999999999
 20
0.36128
 30
0.0
 10
9.199889999999999
 20
0.36128
 30
0.0
 10
9.199889999999999
 20
0.36128
 30
0.0
 10
9.199889999999999
 20
0.36128
 30
0.0
 10
9.199889999999999
 20
-0.52764
 30
0.0
 10
9.199889999999999
 20
-0.52764
 30
0.0
 10
9.199889999999999
 20
-0.52764
 30
0.0
 10
9.199889999999999
 20
-0.52764
 30
0.0
 10
8.988239999999999
 20
-0.52764
 30
0.0
 10
8.988239999999999
 20
-0.52764
 30
0.0
  0
SPLINE
  5
54
330
1F
100
AcDbEntity
  8
layer 1
 62
   250
100
AcDbSpline
210
0.0
220
0.0
230
1.0
 70
    11
 71
     3
 72
    56
 73
    52
 74
     0
 42
0.0000000001
 43
0.0000000001
 40
0.0
 40
0.0
 40
0.0
 40
0.0
 40
0.0714285714285714
 40
0.0714285714285714
 40
0.0714285714285714
 40
0.0714285714285714
 40
0.1428571428571428
 40
0.1428571428571428
 40
0.1428571428571428
 40
0.1428571428571428
 40
0.2142857142857143
 40
0.2142857142857143
 40
0.2142857142857143
 40
0.2142857142857143
 40
0.2857142857142857
 40
0.2857142857142857
 40
0.2857142857142857
 40
0.2857142857142857
 40
0.3571428571428572
 40
0.3571428571428572
 40
0.3571428571428572
 40
0.3571428571428572
 40
0.4285714285714285
 40
0.4285714285714285
 40
0.4285714285714285
 40
0.4285714285714285
 40
0.5
 40
0.5
 40
0.5
 40
0.5
 40
0.5714285714285714
 40
0.5714285714285714
 40
0.5714285714285714
 40
0.5714285714285714
 40
0.6428571428571429
 40
0.6428571428571429
 40
0.6428571428571429
 40
0.6428571428571429
 40
0.7142857142857144
 40
0.7142857142857144
 40
0.7142857142857144
 40
0.7142857142857144
 40
0.7857142857142857
 40
0.7857142857142857
 40
0.7857142857142857
 40
0.7857142857142857
 40
0.8571428571428571
 40
0.8571428571428571
 40
0.8571428571428571
 40
0.8571428571428571
 40
1.0
 40
1.0
 40
1.0
 40
1.0
 10
10.38995
 20
-0.52764
 30
0.0
 10
10.38995
 20
-0.52764
 30
0.0
 10
10.38995
 20
0.6015800000000001
 30
0.0
 10
10.38995
 20
0.6015800000000001
 30
0.0
 10
10.38995
 20
0.6015800000000001
 30
0.0
 10
10.38995
 20
0.6015800000000001
 30
0.0
 10
10.73121
 20
0.6015800000000001
 30
0.0
 10
10.73121
 20
0.6015800000000001
 30
0.0
 10
10.73121
 20
0.6015800000000001
 30
0.0
 10
10.73121
 20
0.6015800000000001
 30
0.0
 10
10.93602
 20
-0.16876
 30
0.0
 10
10.93602
 20
-0.16876
 30
0.0
 10
10.93602
 20
-0.16876
 30
0.0
 10
10.93602
 20
-0.16876
 30
0.0
 10
11.13847
 20
0.6015800000000001
 30
0.0
 10
11.13847
 20
0.6015800000000001
 30
0.0
 10
11.13847
 20
0.6015800000000001
 30
0.0
 10
11.13847
 20
0.6015800000000001
 30
0.0
 10
11.48052
 20
0.6015800000000001
 30
0.0
 10
11.48052
 20
0.6015800000000001
 30
0.0
 10
11.48052
 20
0.6015800000000001
 30
0.0
 10
11.48052
 20
0.6015800000000001
 30
0.0
 10
11.48052
 20
-0.52764
 30
0.0
 10
11.48052
 20
-0.52764
 30
0.0
 10
11.48052
 20
-0.52764
 30
0.0
 10
11.48052
 20
-0.52764
 30
0.0
 10
11.26887
 20
-0.52764
 30
0.0
 10
11.26887
 20
-0.52764
 30
0.0
 10
11.26887
 20
-0.52764
 30
0.0
 10
11.26887
 20
-0.52764
 30
0.0
 10
11.26887
 20
0.36128
 30
0.0
 10
11.26887
 20
0.36128
 30
0.0
 10
11.26887
 20
0.36128
 30
0.0
 10
11.26887
 20
0.36128
 30
0.0
 10
11.04461
 20
-0.52764
 30
0.0
 10
11.04461
 20
-0.52764
 30
0.0
 10
11.04461
 20
-0.52764
 30
0.0
 10
11.04461
 20
-0.52764
 30
0.0
 10
10.82507
 20
-0.52764
 30
0.0
 10
10.82507
 20
-0.52764
 30
0.0
 10
10.82507
 20
-0.52764
 30
0.0
 10
10.82507
 20
-0.52764
 30
0.0
 10
10.6016
 20
0.36128
 30
0.0
 10
10.6016
 20
0.36128
 30
0.0
 10
10.6016
 20
0.36128
 30
0.0
 10
10.6016
 20
0.36128
 30
0.0
 10
10.6016
 20
-0.52764
 30
0.0
 10
10.6016
 20
-0.52764
 30
0.0
 10
10.6016
 20
-0.52764
 30
0.0
 10
10.6016
 20
-0.52764
 30
0.0
 10
10.38995
 20
-0.52764
 30
0.0
 10
10.38995
 20
-0.52764
 30
0.0
  0
SPLINE
  5
55
330
1F
100
AcDbEntity
  8
layer 1
 62
   250
100
AcDbSpline
210
0.0
220
0.0
230
1.0
 70
    11
 71
     3
 72
    88
 73
    84
 74
     0
 42
0.0000000001
 43
0.0000000001
 40
0.0
 40
0.0
 40
0.0
 40
0.0
 40
0.0454545454545455
 40
0.0454545454545455
 40
0.0454545454545455
 40
0.0454545454545455
 40
0.0909090909090909
 40
0.0909090909090909
 40
0.0909090909090909
 40
0.0909090909090909
 40
0.1363636363636364
 40
0.1363636363636364
 40
0.1363636363636364
 40
0.1363636363636364
 40
0.1818181818181818
 40
0.1818181818181818
 40
0.1818181818181818
 40
0.1818181818181818
 40
0.2272727272727273
 40
0.2272727272727273
 40
0.2272727272727273
 40
0.2272727272727273
 40
0.2727272727272727
 40
0.2727272727272727
 40
0.2727272727272727
 40
0.2727272727272727
 40
0.3181818181818182
 40
0.3181818181818182
 40
0.3181818181818182
 40
0.3181818181818182
 40
0.3636363636363636
 40
0.3636363636363636
 40
0.3636363636363636
 40
0.3636363636363636
 40
0.4090909090909091
 40
0.4090909090909091
 40
0.4090909090909091
 40
0.4090909090909091
 40
0.4545454545454545
 40
0.4545454545454545
 40
0.4545454545454545
 40
0.4545454545454545
 40
0.5
 40
0.5
 40
0.5
 40
0.5
 40
0.5454545454545455
 40
0.5454545454545455
 40
0.5454545454545455
 40
0.5454545454545455
 40
0.590909090909091
 40
0.590909090909091
 40
0.590909090909091
 40
0.590909090909091
 40
0.6363636363636364
 40
0.6363636363636364
 40
0.6363636363636364
 40
0.6363636363636364
 40
0.6818181818181818
 40
0.6818181818181818
 40
0.6818181818181818
 40
0.6818181818181818
 40
0.7272727272727274
 40
0.7272727272727274
 40
0.7272727272727274
 40
0.7272727272727274
 40
0.7727272727272727
 40
0.7727272727272727
 40
0.7727272727272727
 40
0.7727272727272727
 40
0.8181818181818181
 40
0.8181818181818181
 40
0.8181818181818181
 40
0.8181818181818181
 40
0.8636363636363636
 40
0.8636363636363636
 40
0.8636363636363636
 40
0.8636363636363636
 40
0.9090909090909091
 40
0.9090909090909091
 40
0.9090909090909091
 40
0.9090909090909091
 40
1.0
 40
1.0
 40
1.0
 40
1.0
 10
1.79099
 20
-6.881099999999999
 30
0.0
 10
1.79099
 20
-6.881099999999999
 30
0.0
 10
1.79099
 20
-7.08223
 30
0.0
 10
1.79099
 20
-7.08223
 30
0.0
 10
1.79099
 20
-7.08223
 30
0.0
 10
1.79099
 20
-7.08223
 30
0.0
 10
1.03221
 20
-7.08223
 30
0.0
 10
1.03221
 20
-7.08223
 30
0.0
 10
1.03221
 20
-7.08223
 30
0.0
 10
1.040629999999999
 20
-7.006249999999999
 30
0.0
 10
1.06508
 20
-6.93421
 30
0.0
 10
1.10636
 20
-6.86611
 30
0.0
 10
1.10636
 20
-6.86611
 30
0.0
 10
1.14737
 20
-6.798019999999999
 30
0.0
 10
1.228609999999999
 20
-6.707839999999999
 30
0.0
 10
1.34955
 20
-6.59531
 30
0.0
 10
1.34955
 20
-6.59531
 30
0.0
 10
1.447359999999999
 20
-6.504609999999999
 30
0.0
 10
1.507039999999999
 20
-6.442819999999999
 30
0.0
 10
1.529119999999999
 20
-6.41048
 30
0.0
 10
1.529119999999999
 20
-6.41048
 30
0.0
 10
1.558829999999999
 20
-6.36579
 30
0.0
 10
1.573819999999999
 20
-6.321619999999999
 30
0.0
 10
1.573819999999999
 20
-6.277969999999999
 30
0.0
 10
1.573819999999999
 20
-6.277969999999999
 30
0.0
 10
1.573819999999999
 20
-6.229859999999999
 30
0.0
 10
1.560939999999999
 20
-6.19279
 30
0.0
 10
1.534909999999999
 20
-6.16676
 30
0.0
 10
1.534909999999999
 20
-6.16676
 30
0.0
 10
1.508879999999999
 20
-6.14073
 30
0.0
 10
1.473119999999999
 20
-6.127849999999999
 30
0.0
 10
1.427379999999999
 20
-6.127849999999999
 30
0.0
 10
1.427379999999999
 20
-6.127849999999999
 30
0.0
 10
1.382149999999999
 20
-6.127849999999999
 30
0.0
 10
1.3464
 20
-6.141519999999999
 30
0.0
 10
1.319579999999999
 20
-6.168599999999999
 30
0.0
 10
1.319579999999999
 20
-6.168599999999999
 30
0.0
 10
1.293029999999999
 20
-6.19594
 30
0.0
 10
1.27751
 20
-6.241159999999999
 30
0.0
 10
1.273309999999999
 20
-6.30426
 30
0.0
 10
1.273309999999999
 20
-6.30426
 30
0.0
 10
1.273309999999999
 20
-6.30426
 30
0.0
 10
1.057719999999999
 20
-6.282709999999999
 30
0.0
 10
1.057719999999999
 20
-6.282709999999999
 30
0.0
 10
1.057719999999999
 20
-6.282709999999999
 30
0.0
 10
1.070599999999999
 20
-6.163599999999999
 30
0.0
 10
1.110829999999999
 20
-6.078159999999999
 30
0.0
 10
1.17866
 20
-6.026099999999999
 30
0.0
 10
1.17866
 20
-6.026099999999999
 30
0.0
 10
1.246489999999999
 20
-5.97431
 30
0.0
 10
1.33115
 20
-5.94828
 30
0.0
 10
1.4329
 20
-5.94828
 30
0.0
 10
1.4329
 20
-5.94828
 30
0.0
 10
1.544369999999999
 20
-5.94828
 30
0.0
 10
1.63192
 20
-5.978509999999999
 30
0.0
 10
1.695549999999999
 20
-6.038459999999999
 30
0.0
 10
1.695549999999999
 20
-6.038459999999999
 30
0.0
 10
1.75917
 20
-6.098659999999999
 30
0.0
 10
1.79099
 20
-6.173329999999999
 30
0.0
 10
1.79099
 20
-6.262719999999999
 30
0.0
 10
1.79099
 20
-6.262719999999999
 30
0.0
 10
1.79099
 20
-6.313469999999999
 30
0.0
 10
1.78179
 20
-6.361839999999999
 30
0.0
 10
1.76364
 20
-6.407849999999999
 30
0.0
 10
1.76364
 20
-6.407849999999999
 30
0.0
 10
1.7455
 20
-6.453859999999999
 30
0.0
 10
1.716579999999999
 20
-6.50198
 30
0.0
 10
1.67714
 20
-6.55219
 30
0.0
 10
1.67714
 20
-6.55219
 30
0.0
 10
1.650849999999999
 20
-6.58558
 30
0.0
 10
1.603529999999999
 20
-6.6337
 30
0.0
 10
1.535429999999999
 20
-6.696269999999999
 30
0.0
 10
1.535429999999999
 20
-6.696269999999999
 30
0.0
 10
1.467079999999999
 20
-6.758839999999999
 30
0.0
 10
1.423689999999999
 20
-6.80065
 30
0.0
 10
1.40555
 20
-6.82116
 30
0.0
 10
1.40555
 20
-6.82116
 30
0.0
 10
1.38741
 20
-6.84166
 30
0.0
 10
1.372429999999999
 20
-6.861639999999999
 30
0.0
 10
1.36112
 20
-6.881099999999999
 30
0.0
 10
1.36112
 20
-6.881099999999999
 30
0.0
 10
1.36112
 20
-6.881099999999999
 30
0.0
 10
1.79099
 20
-6.881099999999999
 30
0.0
 10
1.79099
 20
-6.881099999999999
 30
0.0
  0
SPLINE
  5
56
330
1F
100
AcDbEntity
  8
layer 1
 62
   250
100
AcDbSpline
210
0.0
220
0.0
230
1.0
 70
    11
 71
     3
 72
    44
 73
    40
 74
     0
 42
0.0000000001
 43
0.0000000001
 40
0.0
 40
0.0
 40
0.0
 40
0.0
 40
0.0909090909090909
 40
0.0909090909090909
 40
0.0909090909090909
 40
0.0909090909090909
 40
0.1818181818181818
 40
0.1818181818181818
 40
0.1818181818181818
 40
0.1818181818181818
 40
0.2727272727272727
 40
0.2727272727272727
 40
0.2727272727272727
 40
0.2727272727272727
 40
0.3636363636363636
 40
0.3636363636363636
 40
0.3636363636363636
 40
0.3636363636363636
 40
0.4545454545454545
 40
0.4545454545454545
 40
0.4545454545454545
 40
0.4545454545454545
 40
0.5454545454545455
 40
0.5454545454545455
 40
0.5454545454545455
 40
0.5454545454545455
 40
0.6363636363636364
 40
0.6363636363636364
 40
0.6363636363636364
 40
0.6363636363636364
 40
0.7272727272727274
 40
0.7272727272727274
 40
0.7272727272727274
 40
0.7272727272727274
 40
0.8181818181818181
 40
0.8181818181818181
 40
0.8181818181818181
 40
0.8181818181818181
 40
1.0
 40
1.0
 40
1.0
 40
1.0
 10
2.02509
 20
-6.169389999999999
 30
0.0
 10
2.02509
 20
-6.169389999999999
 30
0.0
 10
2.02509
 20
-5.968519999999999
 30
0.0
 10
2.02509
 20
-5.968519999999999
 30
0.0
 10
2.02509
 20
-5.968519999999999
 30
0.0
 10
2.02509
 20
-5.968519999999999
 30
0.0
 10
2.7652
 20
-5.968519999999999
 30
0.0
 10
2.7652
 20
-5.968519999999999
 30
0.0
 10
2.7652
 20
-5.968519999999999
 30
0.0
 10
2.7652
 20
-5.968519999999999
 30
0.0
 10
2.7652
 20
-6.12548
 30
0.0
 10
2.7652
 20
-6.12548
 30
0.0
 10
2.7652
 20
-6.12548
 30
0.0
 10
2.7042
 20
-6.18569
 30
0.0
 10
2.642149999999999
 20
-6.27193
 30
0.0
 10
2.57879
 20
-6.38445
 30
0.0
 10
2.57879
 20
-6.38445
 30
0.0
 10
2.51569
 20
-6.496719999999999
 30
0.0
 10
2.467579999999999
 20
-6.616339999999999
 30
0.0
 10
2.43445
 20
-6.74281
 30
0.0
 10
2.43445
 20
-6.74281
 30
0.0
 10
2.40132
 20
-6.86953
 30
0.0
 10
2.385019999999999
 20
-6.982589999999999
 30
0.0
 10
2.385549999999999
 20
-7.08223
 30
0.0
 10
2.385549999999999
 20
-7.08223
 30
0.0
 10
2.385549999999999
 20
-7.08223
 30
0.0
 10
2.1768
 20
-7.08223
 30
0.0
 10
2.1768
 20
-7.08223
 30
0.0
 10
2.1768
 20
-7.08223
 30
0.0
 10
2.180479999999999
 20
-6.92606
 30
0.0
 10
2.212549999999999
 20
-6.766989999999999
 30
0.0
 10
2.27355
 20
-6.604779999999999
 30
0.0
 10
2.27355
 20
-6.604779999999999
 30
0.0
 10
2.33428
 20
-6.442289999999999
 30
0.0
 10
2.415519999999999
 20
-6.29743
 30
0.0
 10
2.517269999999999
 20
-6.169389999999999
 30
0.0
 10
2.517269999999999
 20
-6.169389999999999
 30
0.0
 10
2.517269999999999
 20
-6.169389999999999
 30
0.0
 10
2.02509
 20
-6.169389999999999
 30
0.0
 10
2.02509
 20
-6.169389999999999
 30
0.0
  0
SPLINE
  5
57
330
1F
100
AcDbEntity
  8
layer 1
 62
   250
100
AcDbSpline
210
0.0
220
0.0
230
1.0
 70
    11
 71
     3
 72
    48
 73
    44
 74
     0
 42
0.0000000001
 43
0.0000000001
 40
0.0
 40
0.0
 40
0.0
 40
0.0
 40
0.0833333333333333
 40
0.0833333333333333
 40
0.0833333333333333
 40
0.0833333333333333
 40
0.1666666666666667
 40
0.1666666666666667
 40
0.1666666666666667
 40
0.1666666666666667
 40
0.25
 40
0.25
 40
0.25
 40
0.25
 40
0.3333333333333333
 40
0.3333333333333333
 40
0.3333333333333333
 40
0.3333333333333333
 40
0.4166666666666667
 40
0.4166666666666667
 40
0.4166666666666667
 40
0.4166666666666667
 40
0.5
 40
0.5
 40
0.5
 40
0.5
 40
0.5833333333333334
 40
0.5833333333333334
 40
0.5833333333333334
 40
0.5833333333333334
 40
0.6666666666666666
 40
0.6666666666666666
 40
0.6666666666666666
 40
0.6666666666666666
 40
0.75
 40
0.75
 40
0.75
 40
0.75
 40
0.8333333333333333
 40
0.8333333333333333
 40
0.8333333333333333
 40
0.8333333333333333
 40
1.0
 40
1.0
 40
1.0
 40
1.0
 10
3.414449999999999
 20
-7.08223
 30
0.0
 10
3.414449999999999
 20
-7.08223
 30
0.0
 10
3.414449999999999
 20
-6.855069999999999
 30
0.0
 10
3.414449999999999
 20
-6.855069999999999
 30
0.0
 10
3.414449999999999
 20
-6.855069999999999
 30
0.0
 10
3.414449999999999
 20
-6.855069999999999
 30
0.0
 10
2.95224
 20
-6.855069999999999
 30
0.0
 10
2.95224
 20
-6.855069999999999
 30
0.0
 10
2.95224
 20
-6.855069999999999
 30
0.0
 10
2.95224
 20
-6.855069999999999
 30
0.0
 10
2.95224
 20
-6.66551
 30
0.0
 10
2.95224
 20
-6.66551
 30
0.0
 10
2.95224
 20
-6.66551
 30
0.0
 10
2.95224
 20
-6.66551
 30
0.0
 10
3.442319999999999
 20
-5.94828
 30
0.0
 10
3.442319999999999
 20
-5.94828
 30
0.0
 10
3.442319999999999
 20
-5.94828
 30
0.0
 10
3.442319999999999
 20
-5.94828
 30
0.0
 10
3.62399
 20
-5.94828
 30
0.0
 10
3.62399
 20
-5.94828
 30
0.0
 10
3.62399
 20
-5.94828
 30
0.0
 10
3.62399
 20
-5.94828
 30
0.0
 10
3.62399
 20
-6.664719999999999
 30
0.0
 10
3.62399
 20
-6.664719999999999
 30
0.0
 10
3.62399
 20
-6.664719999999999
 30
0.0
 10
3.62399
 20
-6.664719999999999
 30
0.0
 10
3.76413
 20
-6.664719999999999
 30
0.0
 10
3.76413
 20
-6.664719999999999
 30
0.0
 10
3.76413
 20
-6.664719999999999
 30
0.0
 10
3.76413
 20
-6.664719999999999
 30
0.0
 10
3.76413
 20
-6.855069999999999
 30
0.0
 10
3.76413
 20
-6.855069999999999
 30
0.0
 10
3.76413
 20
-6.855069999999999
 30
0.0
 10
3.76413
 20
-6.855069999999999
 30
0.0
 10
3.62399
 20
-6.855069999999999
 30
0.0
 10
3.62399
 20
-6.855069999999999
 30
0.0
 10
3.62399
 20
-6.855069999999999
 30
0.0
 10
3.62399
 20
-6.855069999999999
 30
0.0
 10
3.62399
 20
-7.08223
 30
0.0
 10
3.62399
 20
-7.08223
 30
0.0
 10
3.62399
 20
-7.08223
 30
0.0
 10
3.62399
 20
-7.08223
 30
0.0
 10
3.414449999999999
 20
-7.08223
 30
0.0
 10
3.414449999999999
 20
-7.08223
 30
0.0
  0
SPLINE
  5
58
330
1F
100
AcDbEntity
  8
layer 1
 62
   250
100
AcDbSpline
210
0.0
220
0.0
230
1.0
 70
    11
 71
     3
 72
    16
 73
    12
 74
     0
 42
0.0000000001
 43
0.0000000001
 40
0.0
 40
0.0
 40
0.0
 40
0.0
 40
0.25
 40
0.25
 40
0.25
 40
0.25
 40
0.5
 40
0.5
 40
0.5
 40
0.5
 40
1.0
 40
1.0
 40
1.0
 40
1.0
 10
3.414449999999999
 20
-6.664719999999999
 30
0.0
 10
3.414449999999999
 20
-6.664719999999999
 30
0.0
 10
3.414449999999999
 20
-6.27876
 30
0.0
 10
3.414449999999999
 20
-6.27876
 30
0.0
 10
3.414449999999999
 20
-6.27876
 30
0.0
 10
3.414449999999999
 20
-6.27876
 30
0.0
 10
3.154949999999999
 20
-6.664719999999999
 30
0.0
 10
3.154949999999999
 20
-6.664719999999999
 30
0.0
 10
3.154949999999999
 20
-6.664719999999999
 30
0.0
 10
3.154949999999999
 20
-6.664719999999999
 30
0.0
 10
3.414449999999999
 20
-6.664719999999999
 30
0.0
 10
3.414449999999999
 20
-6.664719999999999
 30
0.0
  0
SPLINE
  5
59
330
1F
100
AcDbEntity
  8
layer 1
 62
   250
100
AcDbSpline
210
0.0
220
0.0
230
1.0
 70
    11
 71
     3
 72
    56
 73
    52
 74
     0
 42
0.0000000001
 43
0.0000000001
 40
0.0
 40
0.0
 40
0.0
 40
0.0
 40
0.0714285714285714
 40
0.0714285714285714
 40
0.0714285714285714
 40
0.0714285714285714
 40
0.1428571428571428
 40
0.1428571428571428
 40
0.1428571428571428
 40
0.1428571428571428
 40
0.2142857142857143
 40
0.2142857142857143
 40
0.2142857142857143
 40
0.2142857142857143
 40
0.2857142857142857
 40
0.2857142857142857
 40
0.2857142857142857
 40
0.2857142857142857
 40
0.3571428571428572
 40
0.3571428571428572
 40
0.3571428571428572
 40
0.3571428571428572
 40
0.4285714285714285
 40
0.4285714285714285
 40
0.4285714285714285
 40
0.4285714285714285
 40
0.5
 40
0.5
 40
0.5
 40
0.5
 40
0.5714285714285714
 40
0.5714285714285714
 40
0.5714285714285714
 40
0.5714285714285714
 40
0.6428571428571429
 40
0.6428571428571429
 40
0.6428571428571429
 40
0.6428571428571429
 40
0.7142857142857144
 40
0.7142857142857144
 40
0.7142857142857144
 40
0.7142857142857144
 40
0.7857142857142857
 40
0.7857142857142857
 40
0.7857142857142857
 40
0.7857142857142857
 40
0.8571428571428571
 40
0.8571428571428571
 40
0.8571428571428571
 40
0.8571428571428571
 40
1.0
 40
1.0
 40
1.0
 40
1.0
 10
3.999809999999999
 20
-7.08223
 30
0.0
 10
3.999809999999999
 20
-7.08223
 30
0.0
 10
3.999809999999999
 20
-5.953009999999999
 30
0.0
 10
3.999809999999999
 20
-5.953009999999999
 30
0.0
 10
3.999809999999999
 20
-5.953009999999999
 30
0.0
 10
3.999809999999999
 20
-5.953009999999999
 30
0.0
 10
4.341069999999999
 20
-5.953009999999999
 30
0.0
 10
4.341069999999999
 20
-5.953009999999999
 30
0.0
 10
4.341069999999999
 20
-5.953009999999999
 30
0.0
 10
4.341069999999999
 20
-5.953009999999999
 30
0.0
 10
4.54588
 20
-6.723349999999999
 30
0.0
 10
4.54588
 20
-6.723349999999999
 30
0.0
 10
4.54588
 20
-6.723349999999999
 30
0.0
 10
4.54588
 20
-6.723349999999999
 30
0.0
 10
4.74833
 20
-5.953009999999999
 30
0.0
 10
4.74833
 20
-5.953009999999999
 30
0.0
 10
4.74833
 20
-5.953009999999999
 30
0.0
 10
4.74833
 20
-5.953009999999999
 30
0.0
 10
5.09038
 20
-5.953009999999999
 30
0.0
 10
5.09038
 20
-5.953009999999999
 30
0.0
 10
5.09038
 20
-5.953009999999999
 30
0.0
 10
5.09038
 20
-5.953009999999999
 30
0.0
 10
5.09038
 20
-7.08223
 30
0.0
 10
5.09038
 20
-7.08223
 30
0.0
 10
5.09038
 20
-7.08223
 30
0.0
 10
5.09038
 20
-7.08223
 30
0.0
 10
4.87873
 20
-7.08223
 30
0.0
 10
4.87873
 20
-7.08223
 30
0.0
 10
4.87873
 20
-7.08223
 30
0.0
 10
4.87873
 20
-7.08223
 30
0.0
 10
4.87873
 20
-6.193309999999999
 30
0.0
 10
4.87873
 20
-6.193309999999999
 30
0.0
 10
4.87873
 20
-6.193309999999999
 30
0.0
 10
4.87873
 20
-6.193309999999999
 30
0.0
 10
4.654469999999999
 20
-7.08223
 30
0.0
 10
4.654469999999999
 20
-7.08223
 30
0.0
 10
4.654469999999999
 20
-7.08223
 30
0.0
 10
4.654469999999999
 20
-7.08223
 30
0.0
 10
4.43493
 20
-7.08223
 30
0.0
 10
4.43493
 20
-7.08223
 30
0.0
 10
4.43493
 20
-7.08223
 30
0.0
 10
4.43493
 20
-7.08223
 30
0.0
 10
4.211459999999999
 20
-6.193309999999999
 30
0.0
 10
4.211459999999999
 20
-6.193309999999999
 30
0.0
 10
4.211459999999999
 20
-6.193309999999999
 30
0.0
 10
4.211459999999999
 20
-6.193309999999999
 30
0.0
 10
4.211459999999999
 20
-7.08223
 30
0.0
 10
4.211459999999999
 20
-7.08223
 30
0.0
 10
4.211459999999999
 20
-7.08223
 30
0.0
 10
4.211459999999999
 20
-7.08223
 30
0.0
 10
3.999809999999999
 20
-7.08223
 30
0.0
 10
3.999809999999999
 20
-7.08223
 30
0.0
  0
SPLINE
  5
5A
330
1F
100
AcDbEntity
  8
layer 1
 62
   250
100
AcDbSpline
210
0.0
220
0.0
230
1.0
 70
    11
 71
     3
 72
    56
 73
    52
 74
     0
 42
0.0000000001
 43
0.0000000001
 40
0.0
 40
0.0
 40
0.0
 40
0.0
 40
0.0714285714285714
 40
0.0714285714285714
 40
0.0714285714285714
 40
0.0714285714285714
 40
0.1428571428571428
 40
0.1428571428571428
 40
0.1428571428571428
 40
0.1428571428571428
 40
0.2142857142857143
 40
0.2142857142857143
 40
0.2142857142857143
 40
0.2142857142857143
 40
0.2857142857142857
 40
0.2857142857142857
 40
0.2857142857142857
 40
0.2857142857142857
 40
0.3571428571428572
 40
0.3571428571428572
 40
0.3571428571428572
 40
0.3571428571428572
 40
0.4285714285714285
 40
0.4285714285714285
 40
0.4285714285714285
 40
0.4285714285714285
 40
0.5
 40
0.5
 40
0.5
 40
0.5
 40
0.5714285714285714
 40
0.5714285714285714
 40
0.5714285714285714
 40
0.5714285714285714
 40
0.6428571428571429
 40
0.6428571428571429
 40
0.6428571428571429
 40
0.6428571428571429
 40
0.7142857142857144
 40
0.7142857142857144
 40
0.7142857142857144
 40
0.7142857142857144
 40
0.7857142857142857
 40
0.7857142857142857
 40
0.7857142857142857
 40
0.7857142857142857
 40
0.8571428571428571
 40
0.8571428571428571
 40
0.8571428571428571
 40
0.8571428571428571
 40
1.0
 40
1.0
 40
1.0
 40
1.0
 10
5.401519999999999
 20
-7.08223
 30
0.0
 10
5.401519999999999
 20
-7.08223
 30
0.0
 10
5.401519999999999
 20
-5.953009999999999
 30
0.0
 10
5.401519999999999
 20
-5.953009999999999
 30
0.0
 10
5.401519999999999
 20
-5.953009999999999
 30
0.0
 10
5.401519999999999
 20
-5.953009999999999
 30
0.0
 10
5.74278
 20
-5.953009999999999
 30
0.0
 10
5.74278
 20
-5.953009999999999
 30
0.0
 10
5.74278
 20
-5.953009999999999
 30
0.0
 10
5.74278
 20
-5.953009999999999
 30
0.0
 10
5.947589999999999
 20
-6.723349999999999
 30
0.0
 10
5.947589999999999
 20
-6.723349999999999
 30
0.0
 10
5.947589999999999
 20
-6.723349999999999
 30
0.0
 10
5.947589999999999
 20
-6.723349999999999
 30
0.0
 10
6.150039999999999
 20
-5.953009999999999
 30
0.0
 10
6.150039999999999
 20
-5.953009999999999
 30
0.0
 10
6.150039999999999
 20
-5.953009999999999
 30
0.0
 10
6.150039999999999
 20
-5.953009999999999
 30
0.0
 10
6.49209
 20
-5.953009999999999
 30
0.0
 10
6.49209
 20
-5.953009999999999
 30
0.0
 10
6.49209
 20
-5.953009999999999
 30
0.0
 10
6.49209
 20
-5.953009999999999
 30
0.0
 10
6.49209
 20
-7.08223
 30
0.0
 10
6.49209
 20
-7.08223
 30
0.0
 10
6.49209
 20
-7.08223
 30
0.0
 10
6.49209
 20
-7.08223
 30
0.0
 10
6.28044
 20
-7.08223
 30
0.0
 10
6.28044
 20
-7.08223
 30
0.0
 10
6.28044
 20
-7.08223
 30
0.0
 10
6.28044
 20
-7.08223
 30
0.0
 10
6.28044
 20
-6.193309999999999
 30
0.0
 10
6.28044
 20
-6.193309999999999
 30
0.0
 10
6.28044
 20
-6.193309999999999
 30
0.0
 10
6.28044
 20
-6.193309999999999
 30
0.0
 10
6.05618
 20
-7.08223
 30
0.0
 10
6.05618
 20
-7.08223
 30
0.0
 10
6.05618
 20
-7.08223
 30
0.0
 10
6.05618
 20
-7.08223
 30
0.0
 10
5.83664
 20
-7.08223
 30
0.0
 10
5.83664
 20
-7.08223
 30
0.0
 10
5.83664
 20
-7.08223
 30
0.0
 10
5.83664
 20
-7.08223
 30
0.0
 10
5.613169999999999
 20
-6.193309999999999
 30
0.0
 10
5.613169999999999
 20
-6.193309999999999
 30
0.0
 10
5.613169999999999
 20
-6.193309999999999
 30
0.0
 10
5.613169999999999
 20
-6.193309999999999
 30
0.0
 10
5.613169999999999
 20
-7.08223
 30
0.0
 10
5.613169999999999
 20
-7.08223
 30
0.0
 10
5.613169999999999
 20
-7.08223
 30
0.0
 10
5.613169999999999
 20
-7.08223
 30
0.0
 10
5.401519999999999
 20
-7.08223
 30
0.0
 10
5.401519999999999
 20
-7.08223
 30
0.0
  0
SPLINE
  5
5C
330
1F
100
AcDbEntity
  8
layer 1
 62
   250
100
AcDbSpline
210
0.0
220
0.0
230
1.0
 70
    11
 71
     3
 72
    28
 73
    24
 74
     0
 42
0.0000000001
 43
0.0000000001
 40
0.0
 40
0.0
 40
0.0
 40
0.0
 40
0.1428571428571428
 40
0.1428571428571428
 40
0.1428571428571428
 40
0.1428571428571428
 40
0.2857142857142857
 40
0.2857142857142857
 40
0.2857142857142857
 40
0.2857142857142857
 40
0.4285714285714285
 40
0.4285714285714285
 40
0.4285714285714285
 40
0.4285714285714285
 40
0.5714285714285714
 40
0.5714285714285714
 40
0.5714285714285714
 40
0.5714285714285714
 40
0.7142857142857144
 40
0.7142857142857144
 40
0.7142857142857144
 40
0.7142857142857144
 40
1.0
 40
1.0
 40
1.0
 40
1.0
 10
20.37729
 20
-0.9083999999999999
 30
0.0
 10
20.37729
 20
-0.9083999999999999
 30
0.0
 10
20.12493
 20
-0.8107499999999999
 30
0.0
 10
20.12493
 20
-0.8107499999999999
 30
0.0
 10
20.12493
 20
-0.8107499999999999
 30
0.0
 10
20.12493
 20
-0.8107499999999999
 30
0.0
 10
19.87258
 20
-0.7131
 30
0.0
 10
19.87258
 20
-0.7131
 30
0.0
 10
19.87258
 20
-0.7131
 30
0.0
 10
19.87258
 20
-0.7131
 30
0.0
 10
19.87258
 20
-0.9083999999999999
 30
0.0
 10
19.87258
 20
-0.9083999999999999
 30
0.0
 10
19.87258
 20
-0.9083999999999999
 30
0.0
 10
19.87258
 20
-0.9083999999999999
 30
0.0
 10
19.87258
 20
-1.103699999999999
 30
0.0
 10
19.87258
 20
-1.103699999999999
 30
0.0
 10
19.87258
 20
-1.103699999999999
 30
0.0
 10
19.87258
 20
-1.103699999999999
 30
0.0
 10
20.12493
 20
-1.00605
 30
0.0
 10
20.12493
 20
-1.00605
 30
0.0
 10
20.12493
 20
-1.00605
 30
0.0
 10
20.12493
 20
-1.00605
 30
0.0
 10
20.37729
 20
-0.9083999999999999
 30
0.0
 10
20.37729
 20
-0.9083999999999999
 30
0.0
  0
SPLINE
  5
5D
330
1F
100
AcDbEntity
  8
layer 1
 62
   250
100
AcDbSpline
210
0.0
220
0.0
230
1.0
 70
    11
 71
     3
 72
    28
 73
    24
 74
     0
 42
0.0000000001
 43
0.0000000001
 40
0.0
 40
0.0
 40
0.0
 40
0.0
 40
0.1428571428571428
 40
0.1428571428571428
 40
0.1428571428571428
 40
0.1428571428571428
 40
0.2857142857142857
 40
0.2857142857142857
 40
0.2857142857142857
 40
0.2857142857142857
 40
0.4285714285714285
 40
0.4285714285714285
 40
0.4285714285714285
 40
0.4285714285714285
 40
0.5714285714285714
 40
0.5714285714285714
 40
0.5714285714285714
 40
0.5714285714285714
 40
0.7142857142857144
 40
0.7142857142857144
 40
0.7142857142857144
 40
0.7142857142857144
 40
1.0
 40
1.0
 40
1.0
 40
1.0
 10
-19.22271
 20
-0.9083999999999999
 30
0.0
 10
-19.22271
 20
-0.9083999999999999
 30
0.0
 10
-18.97035
 20
-1.00605
 30
0.0
 10
-18.97035
 20
-1.00605
 30
0.0
 10
-18.97035
 20
-1.00605
 30
0.0
 10
-18.97035
 20
-1.00605
 30
0.0
 10
-18.718
 20
-1.103699999999999
 30
0.0
 10
-18.718
 20
-1.103699999999999
 30
0.0
 10
-18.718
 20
-1.103699999999999
 30
0.0
 10
-18.718
 20
-1.103699999999999
 30
0.0
 10
-18.718
 20
-0.9083999999999999
 30
0.0
 10
-18.718
 20
-0.9083999999999999
 30
0.0
 10
-18.718
 20
-0.9083999999999999
 30
0.0
 10
-18.718
 20
-0.9083999999999999
 30
0.0
 10
-18.718
 20
-0.7131
 30
0.0
 10
-18.718
 20
-0.7131
 30
0.0
 10
-18.718
 20
-0.7131
 30
0.0
 10
-18.718
 20
-0.7131
 30
0.0
 10
-18.97035
 20
-0.8107499999999999
 30
0.0
 10
-18.97035
 20
-0.8107499999999999
 30
0.0
 10
-18.97035
 20
-0.8107499999999999
 30
0.0
 10
-18.97035
 20
-0.8107499999999999
 30
0.0
 10
-19.22271
 20
-0.9083999999999999
 30
0.0
 10
-19.22271
 20
-0.9083999999999999
 30
0.0
  0
SPLINE
  5
5E
330
1F
100
AcDbEntity
  8
layer 1
 62
   250
100
AcDbSpline
210
0.0
220
0.0
230
1.0
 70
    11
 71
     3
 72
    28
 73
    24
 74
     0
 42
0.0000000001
 43
0.0000000001
 40
0.0
 40
0.0
 40
0.0
 40
0.0
 40
0.1428571428571428
 40
0.1428571428571428
 40
0.1428571428571428
 40
0.1428571428571428
 40
0.2857142857142857
 40
0.2857142857142857
 40
0.2857142857142857
 40
0.2857142857142857
 40
0.4285714285714285
 40
0.4285714285714285
 40
0.4285714285714285
 40
0.4285714285714285
 40
0.5714285714285714
 40
0.5714285714285714
 40
0.5714285714285714
 40
0.5714285714285714
 40
0.7142857142857144
 40
0.7142857142857144
 40
0.7142857142857144
 40
0.7142857142857144
 40
1.0
 40
1.0
 40
1.0
 40
1.0
 10
0.57729
 20
-14.6084
 30
0.0
 10
0.57729
 20
-14.6084
 30
0.0
 10
0.67494
 20
-14.35604
 30
0.0
 10
0.67494
 20
-14.35604
 30
0.0
 10
0.67494
 20
-14.35604
 30
0.0
 10
0.67494
 20
-14.35604
 30
0.0
 10
0.7725900000000001
 20
-14.10369
 30
0.0
 10
0.7725900000000001
 20
-14.10369
 30
0.0
 10
0.7725900000000001
 20
-14.10369
 30
0.0
 10
0.7725900000000001
 20
-14.10369
 30
0.0
 10
0.57729
 20
-14.10369
 30
0.0
 10
0.57729
 20
-14.10369
 30
0.0
 10
0.57729
 20
-14.10369
 30
0.0
 10
0.57729
 20
-14.10369
 30
0.0
 10
0.38199
 20
-14.10369
 30
0.0
 10
0.38199
 20
-14.10369
 30
0.0
 10
0.38199
 20
-14.10369
 30
0.0
 10
0.38199
 20
-14.10369
 30
0.0
 10
0.47964
 20
-14.35604
 30
0.0
 10
0.47964
 20
-14.35604
 30
0.0
 10
0.47964
 20
-14.35604
 30
0.0
 10
0.47964
 20
-14.35604
 30
0.0
 10
0.57729
 20
-14.6084
 30
0.0
 10
0.57729
 20
-14.6084
 30
0.0
  0
SPLINE
  5
5F
330
1F
100
AcDbEntity
  8
layer 1
 62
   250
370
    50
100
AcDbSpline
210
0.0
220
0.0
230
1.0
 70
     9
 71
     3
 72
    36
 73
    32
 74
     0
 42
0.0000000001
 43
0.0000000001
 40
0.0
 40
0.0
 40
0.0
 40
0.0
 40
0.1111111111111111
 40
0.1111111111111111
 40
0.1111111111111111
 40
0.1111111111111111
 40
0.2222222222222222
 40
0.2222222222222222
 40
0.2222222222222222
 40
0.2222222222222222
 40
0.3333333333333333
 40
0.3333333333333333
 40
0.3333333333333333
 40
0.3333333333333333
 40
0.4444444444444445
 40
0.4444444444444445
 40
0.4444444444444445
 40
0.4444444444444445
 40
0.5555555555555556
 40
0.5555555555555556
 40
0.5555555555555556
 40
0.5555555555555556
 40
0.6666666666666666
 40
0.6666666666666666
 40
0.6666666666666666
 40
0.6666666666666666
 40
0.7777777777777778
 40
0.7777777777777778
 40
0.7777777777777778
 40
0.7777777777777778
 40
1.0
 40
1.0
 40
1.0
 40
1.0
 10
-18.56138
 20
12.7916
 30
0.0
 10
-18.56138
 20
12.7916
 30
0.0
 10
19.71597
 20
12.7916
 30
0.0
 10
19.71597
 20
12.7916
 30
0.0
 10
19.71597
 20
12.7916
 30
0.0
 10
20.05938
 20
12.7916
 30
0.0
 10
20.34034
 20
12.51119
 30
0.0
 10
20.34034
 20
12.16846
 30
0.0
 10
20.34034
 20
12.16846
 30
0.0
 10
20.34034
 20
12.16846
 30
0.0
 10
20.34034
 20
-13.98526
 30
0.0
 10
20.34034
 20
-13.98526
 30
0.0
 10
20.34034
 20
-13.98526
 30
0.0
 10
20.34034
 20
-14.328
 30
0.0
 10
20.05938
 20
-14.6084
 30
0.0
 10
19.71597
 20
-14.6084
 30
0.0
 10
19.71597
 20
-14.6084
 30
0.0
 10
19.71597
 20
-14.6084
 30
0.0
 10
-18.56138
 20
-14.6084
 30
0.0
 10
-18.56138
 20
-14.6084
 30
0.0
 10
-18.56138
 20
-14.6084
 30
0.0
 10
-18.90479
 20
-14.6084
 30
0.0
 10
-19.18575
 20
-14.328
 30
0.0
 10
-19.18575
 20
-13.98526
 30
0.0
 10
-19.18575
 20
-13.98526
 30
0.0
 10
-19.18575
 20
-13.98526
 30
0.0
 10
-19.18575
 20
12.16846
 30
0.0
 10
-19.18575
 20
12.16846
 30
0.0
 10
-19.18575
 20
12.16846
 30
0.0
 10
-19.18575
 20
12.51119
 30
0.0
 10
-18.90479
 20
12.7916
 30
0.0
 10
-18.56138
 20
12.7916
 30
0.0
  0
SPLINE
  5
60
330
1F
100
AcDbEntity
  8
layer 1
 62
   250
100
AcDbSpline
210
0.0
220
0.0
230
1.0
 70
     9
 71
     3
 72
   152
 73
   148
 74
     0
 42
0.0000000001
 43
0.0000000001
 40
0.0
 40
0.0
 40
0.0
 40
0.0
 40
0.0263157894736842
 40
0.0263157894736842
 40
0.0263157894736842
 40
0.0263157894736842
 40
0.0526315789473684
 40
0.0526315789473684
 40
0.0526315789473684
 40
0.0526315789473684
 40
0.0789473684210526
 40
0.0789473684210526
 40
0.0789473684210526
 40
0.0789473684210526
 40
0.1052631578947368
 40
0.1052631578947368
 40
0.1052631578947368
 40
0.1052631578947368
 40
0.131578947368421
 40
0.131578947368421
 40
0.131578947368421
 40
0.131578947368421
 40
0.1578947368421053
 40
0.1578947368421053
 40
0.1578947368421053
 40
0.1578947368421053
 40
0.1842105263157895
 40
0.1842105263157895
 40
0.1842105263157895
 40
0.1842105263157895
 40
0.2105263157894737
 40
0.2105263157894737
 40
0.2105263157894737
 40
0.2105263157894737
 40
0.2368421052631579
 40
0.2368421052631579
 40
0.2368421052631579
 40
0.2368421052631579
 40
0.2631578947368421
 40
0.2631578947368421
 40
0.2631578947368421
 40
0.2631578947368421
 40
0.2894736842105263
 40
0.2894736842105263
 40
0.2894736842105263
 40
0.2894736842105263
 40
0.3157894736842105
 40
0.3157894736842105
 40
0.3157894736842105
 40
0.3157894736842105
 40
0.3421052631578947
 40
0.3421052631578947
 40
0.3421052631578947
 40
0.3421052631578947
 40
0.3684210526315789
 40
0.3684210526315789
 40
0.3684210526315789
 40
0.3684210526315789
 40
0.3947368421052632
 40
0.3947368421052632
 40
0.3947368421052632
 40
0.3947368421052632
 40
0.4210526315789473
 40
0.4210526315789473
 40
0.4210526315789473
 40
0.4210526315789473
 40
0.4473684210526316
 40
0.4473684210526316
 40
0.4473684210526316
 40
0.4473684210526316
 40
0.4736842105263159
 40
0.4736842105263159
 40
0.4736842105263159
 40
0.4736842105263159
 40
0.5
 40
0.5
 40
0.5
 40
0.5
 40
0.5263157894736842
 40
0.5263157894736842
 40
0.5263157894736842
 40
0.5263157894736842
 40
0.5526315789473685
 40
0.5526315789473685
 40
0.5526315789473685
 40
0.5526315789473685
 40
0.5789473684210527
 40
0.5789473684210527
 40
0.5789473684210527
 40
0.5789473684210527
 40
0.6052631578947369
 40
0.6052631578947369
 40
0.6052631578947369
 40
0.6052631578947369
 40
0.6315789473684211
 40
0.6315789473684211
 40
0.6315789473684211
 40
0.6315789473684211
 40
0.6578947368421053
 40
0.6578947368421053
 40
0.6578947368421053
 40
0.6578947368421053
 40
0.6842105263157895
 40
0.6842105263157895
 40
0.6842105263157895
 40
0.6842105263157895
 40
0.7105263157894737
 40
0.7105263157894737
 40
0.7105263157894737
 40
0.7105263157894737
 40
0.7368421052631579
 40
0.7368421052631579
 40
0.7368421052631579
 40
0.7368421052631579
 40
0.7631578947368422
 40
0.7631578947368422
 40
0.7631578947368422
 40
0.7631578947368422
 40
0.7894736842105264
 40
0.7894736842105264
 40
0.7894736842105264
 40
0.7894736842105264
 40
0.8157894736842104
 40
0.8157894736842104
 40
0.8157894736842104
 40
0.8157894736842104
 40
0.8421052631578946
 40
0.8421052631578946
 40
0.8421052631578946
 40
0.8421052631578946
 40
0.8684210526315791
 40
0.8684210526315791
 40
0.8684210526315791
 40
0.8684210526315791
 40
0.8947368421052631
 40
0.8947368421052631
 40
0.8947368421052631
 40
0.8947368421052631
 40
0.9210526315789472
 40
0.9210526315789472
 40
0.9210526315789472
 40
0.9210526315789472
 40
0.9473684210526316
 40
0.9473684210526316
 40
0.9473684210526316
 40
0.9473684210526316
 40
1.0
 40
1.0
 40
1.0
 40
1.0
 10
20.70951
 20
-6.044859999999999
 30
0.0
 10
20.74895
 20
-6.06045
 30
0.0
 10
20.77705
 20
-6.0876
 30
0.0
 10
20.79383
 20
-6.126299999999999
 30
0.0
 10
20.79383
 20
-6.126299999999999
 30
0.0
 10
20.8106
 20
-6.165
 30
0.0
 10
20.81818
 20
-6.21065
 30
0.0
 10
20.81657
 20
-6.26325
 30
0.0
 10
20.81657
 20
-6.26325
 30
0.0
 10
20.81334
 20
-6.36844
 30
0.0
 10
20.77218
 20
-6.51719
 30
0.0
 10
20.69309
 20
-6.70951
 30
0.0
 10
20.69309
 20
-6.70951
 30
0.0
 10
20.614
 20
-6.90183
 30
0.0
 10
20.53646
 20
-7.08692
 30
0.0
 10
20.46048
 20
-7.26476
 30
0.0
 10
20.46048
 20
-7.26476
 30
0.0
 10
20.51374
 20
-7.34996
 30
0.0
 10
20.54443
 20
-7.444799999999999
 30
0.0
 10
20.55253
 20
-7.54928
 30
0.0
 10
20.55253
 20
-7.54928
 30
0.0
 10
20.56063
 20
-7.653760000000001
 30
0.0
 10
20.57866
 20
-7.70593
 30
0.0
 10
20.6066
 20
-7.705799999999999
 30
0.0
 10
20.6066
 20
-7.705799999999999
 30
0.0
 10
20.63189
 20
-7.70568
 30
0.0
 10
20.65934
 20
-7.69996
 30
0.0
 10
20.68896
 20
-7.688649999999999
 30
0.0
 10
20.68896
 20
-7.688649999999999
 30
0.0
 10
20.71858
 20
-7.67733
 30
0.0
 10
20.73872
 20
-7.671649999999999
 30
0.0
 10
20.74936
 20
-7.671589999999999
 30
0.0
 10
20.74936
 20
-7.671589999999999
 30
0.0
 10
20.81191
 20
-7.671299999999999
 30
0.0
 10
20.86494
 20
-7.69931
 30
0.0
 10
20.90844
 20
-7.75596
 30
0.0
 10
20.90844
 20
-7.75596
 30
0.0
 10
20.95194
 20
-7.81261
 30
0.0
 10
20.97231
 20
-7.88581
 30
0.0
 10
20.96954
 20
-7.97588
 30
0.0
 10
20.96954
 20
-7.97588
 30
0.0
 10
20.96799
 20
-8.0265
 30
0.0
 10
20.94197
 20
-8.072309999999999
 30
0.0
 10
20.89148
 20
-8.11298
 30
0.0
 10
20.89148
 20
-8.11298
 30
0.0
 10
20.841
 20
-8.15365
 30
0.0
 10
20.78581
 20
-8.174289999999999
 30
0.0
 10
20.72593
 20
-8.174569999999999
 30
0.0
 10
20.72593
 20
-8.174569999999999
 30
0.0
 10
20.6554
 20
-8.17491
 30
0.0
 10
20.59618
 20
-8.142649999999999
 30
0.0
 10
20.54827
 20
-8.077810000000001
 30
0.0
 10
20.54827
 20
-8.077810000000001
 30
0.0
 10
20.50037
 20
-8.012960000000001
 30
0.0
 10
20.47805
 20
-7.92728
 30
0.0
 10
20.48132
 20
-7.82078
 30
0.0
 10
20.48132
 20
-7.82078
 30
0.0
 10
20.48168
 20
-7.808939999999999
 30
0.0
 10
20.48205
 20
-7.79711
 30
0.0
 10
20.48241
 20
-7.785269999999999
 30
0.0
 10
20.48241
 20
-7.785269999999999
 30
0.0
 10
20.48556
 20
-7.76948
 30
0.0
 10
20.48802
 20
-7.754349999999999
 30
0.0
 10
20.48979
 20
-7.73988
 30
0.0
 10
20.48979
 20
-7.73988
 30
0.0
 10
20.49157
 20
-7.72541
 30
0.0
 10
20.49262
 20
-7.712919999999999
 30
0.0
 10
20.49294
 20
-7.702399999999999
 30
0.0
 10
20.49294
 20
-7.702399999999999
 30
0.0
 10
20.49468
 20
-7.64586
 30
0.0
 10
20.48331
 20
-7.59365
 30
0.0
 10
20.45883
 20
-7.545789999999999
 30
0.0
 10
20.45883
 20
-7.545789999999999
 30
0.0
 10
20.43435
 20
-7.497919999999999
 30
0.0
 10
20.39526
 20
-7.46031
 30
0.0
 10
20.34155
 20
-7.432949999999999
 30
0.0
 10
20.34155
 20
-7.432949999999999
 30
0.0
 10
20.25133
 20
-7.46756
 30
0.0
 10
20.20243
 20
-7.5434
 30
0.0
 10
20.19485
 20
-7.660439999999999
 30
0.0
 10
20.19485
 20
-7.660439999999999
 30
0.0
 10
20.18726
 20
-7.77748
 30
0.0
 10
20.18088
 20
-7.876769999999999
 30
0.0
 10
20.17572
 20
-7.9583
 30
0.0
 10
20.17572
 20
-7.9583
 30
0.0
 10
20.1737
 20
-8.02405
 30
0.0
 10
20.1474
 20
-8.07873
 30
0.0
 10
20.09683
 20
-8.12236
 30
0.0
 10
20.09683
 20
-8.12236
 30
0.0
 10
20.04626
 20
-8.165980000000001
 30
0.0
 10
19.98837
 20
-8.18795
 30
0.0
 10
19.92316
 20
-8.188260000000001
 30
0.0
 10
19.92316
 20
-8.188260000000001
 30
0.0
 10
19.85795
 20
-8.188579999999999
 30
0.0
 10
19.80127
 20
-8.160249999999999
 30
0.0
 10
19.75313
 20
-8.103289999999999
 30
0.0
 10
19.75313
 20
-8.103289999999999
 30
0.0
 10
19.70498
 20
-8.046330000000001
 30
0.0
 10
19.68177
 20
-7.989589999999999
 30
0.0
 10
19.68351
 20
-7.933039999999999
 30
0.0
 10
19.68351
 20
-7.933039999999999
 30
0.0
 10
19.68557
 20
-7.865989999999999
 30
0.0
 10
19.71235
 20
-7.806369999999999
 30
0.0
 10
19.76385
 20
-7.754189999999999
 30
0.0
 10
19.76385
 20
-7.754189999999999
 30
0.0
 10
19.81535
 20
-7.70202
 30
0.0
 10
19.87237
 20
-7.67578
 30
0.0
 10
19.93492
 20
-7.67548
 30
0.0
 10
19.93492
 20
-7.67548
 30
0.0
 10
19.96553
 20
-7.675339999999999
 30
0.0
 10
19.99855
 20
-7.683069999999999
 30
0.0
 10
20.034
 20
-7.698669999999999
 30
0.0
 10
20.034
 20
-7.698669999999999
 30
0.0
 10
20.0859
 20
-7.69843
 30
0.0
 10
20.11783
 20
-7.644369999999999
 30
0.0
 10
20.12979
 20
-7.53651
 30
0.0
 10
20.12979
 20
-7.53651
 30
0.0
 10
20.14175
 20
-7.42865
 30
0.0
 10
20.17081
 20
-7.33846
 30
0.0
 10
20.21694
 20
-7.265929999999999
 30
0.0
 10
20.21694
 20
-7.265929999999999
 30
0.0
 10
20.20198
 20
-7.189739999999999
 30
0.0
 10
20.16439
 20
-7.070949999999999
 30
0.0
 10
20.10414
 20
-6.90953
 30
0.0
 10
20.10414
 20
-6.90953
 30
0.0
 10
20.0439
 20
-6.74811
 30
0.0
 10
19.99953
 20
-6.622439999999999
 30
0.0
 10
19.97102
 20
-6.532519999999999
 30
0.0
 10
19.97102
 20
-6.532519999999999
 30
0.0
 10
19.94251
 20
-6.442599999999999
 30
0.0
 10
19.92945
 20
-6.35885
 30
0.0
 10
19.93183
 20
-6.28127
 30
0.0
 10
19.93183
 20
-6.28127
 30
0.0
 10
19.93341
 20
-6.229989999999999
 30
0.0
 10
19.94311
 20
-6.184919999999999
 30
0.0
 10
19.96094
 20
-6.146049999999999
 30
0.0
 10
19.96094
 20
-6.146049999999999
 30
0.0
 10
19.97876
 20
-6.10718
 30
0.0
 10
20.00738
 20
-6.07451
 30
0.0
 10
20.04678
 20
-6.04803
 30
0.0
 10
20.04678
 20
-6.04803
 30
0.0
 10
20.04678
 20
-6.04803
 30
0.0
 10
20.35711
 20
-6.926069999999999
 30
0.0
 10
20.35711
 20
-6.926069999999999
 30
0.0
 10
20.35711
 20
-6.926069999999999
 30
0.0
 10
20.35711
 20
-6.926069999999999
 30
0.0
 10
20.70951
 20
-6.044859999999999
 30
0.0
 10
20.70951
 20
-6.044859999999999
 30
0.0
  0
SPLINE
  5
61
330
1F
100
AcDbEntity
  8
layer 1
 62
   250
100
AcDbSpline
210
0.0
220
0.0
230
1.0
 70
     9
 71
     3
 72
    36
 73
    32
 74
     0
 42
0.0000000001
 43
0.0000000001
 40
0.0
 40
0.0
 40
0.0
 40
0.0
 40
0.1111111111111111
 40
0.1111111111111111
 40
0.1111111111111111
 40
0.1111111111111111
 40
0.2222222222222222
 40
0.2222222222222222
 40
0.2222222222222222
 40
0.2222222222222222
 40
0.3333333333333333
 40
0.3333333333333333
 40
0.3333333333333333
 40
0.3333333333333333
 40
0.4444444444444445
 40
0.4444444444444445
 40
0.4444444444444445
 40
0.4444444444444445
 40
0.5555555555555556
 40
0.5555555555555556
 40
0.5555555555555556
 40
0.5555555555555556
 40
0.6666666666666666
 40
0.6666666666666666
 40
0.6666666666666666
 40
0.6666666666666666
 40
0.7777777777777778
 40
0.7777777777777778
 40
0.7777777777777778
 40
0.7777777777777778
 40
1.0
 40
1.0
 40
1.0
 40
1.0
 10
19.93189
 20
-7.774099999999999
 30
0.0
 10
19.88797
 20
-7.77431
 30
0.0
 10
19.85131
 20
-7.7873
 30
0.0
 10
19.82192
 20
-7.81308
 30
0.0
 10
19.82192
 20
-7.81308
 30
0.0
 10
19.79252
 20
-7.838849999999999
 30
0.0
 10
19.77688999999999
 20
-7.88198
 30
0.0
 10
19.77503
 20
-7.94247
 30
0.0
 10
19.77503
 20
-7.94247
 30
0.0
 10
19.77386
 20
-7.980599999999999
 30
0.0
 10
19.79009
 20
-8.015360000000001
 30
0.0
 10
19.82372
 20
-8.046749999999999
 30
0.0
 10
19.82372
 20
-8.046749999999999
 30
0.0
 10
19.85735
 20
-8.078139999999999
 30
0.0
 10
19.89479
 20
-8.093739999999998
 30
0.0
 10
19.93605
 20
-8.09355
 30
0.0
 10
19.93605
 20
-8.09355
 30
0.0
 10
19.97198
 20
-8.09337
 30
0.0
 10
20.00594
 20
-8.081380000000001
 30
0.0
 10
20.03795
 20
-8.05756
 30
0.0
 10
20.03795
 20
-8.05756
 30
0.0
 10
20.06995
 20
-8.033749999999999
 30
0.0
 10
20.08665
 20
-7.998829999999999
 30
0.0
 10
20.08807
 20
-7.95281
 30
0.0
 10
20.08807
 20
-7.95281
 30
0.0
 10
20.08855
 20
-7.93703
 30
0.0
 10
20.08294
 20
-7.9032
 30
0.0
 10
20.07123
 20
-7.851329999999999
 30
0.0
 10
20.07123
 20
-7.851329999999999
 30
0.0
 10
20.05951
 20
-7.79945
 30
0.0
 10
20.01307
 20
-7.77371
 30
0.0
 10
19.93189
 20
-7.774099999999999
 30
0.0
  0
SPLINE
  5
62
330
1F
100
AcDbEntity
  8
layer 1
 62
   250
100
AcDbSpline
210
0.0
220
0.0
230
1.0
 70
     9
 71
     3
 72
    36
 73
    32
 74
     0
 42
0.0000000001
 43
0.0000000001
 40
0.0
 40
0.0
 40
0.0
 40
0.0
 40
0.1111111111111111
 40
0.1111111111111111
 40
0.1111111111111111
 40
0.1111111111111111
 40
0.2222222222222222
 40
0.2222222222222222
 40
0.2222222222222222
 40
0.2222222222222222
 40
0.3333333333333333
 40
0.3333333333333333
 40
0.3333333333333333
 40
0.3333333333333333
 40
0.4444444444444445
 40
0.4444444444444445
 40
0.4444444444444445
 40
0.4444444444444445
 40
0.5555555555555556
 40
0.5555555555555556
 40
0.5555555555555556
 40
0.5555555555555556
 40
0.6666666666666666
 40
0.6666666666666666
 40
0.6666666666666666
 40
0.6666666666666666
 40
0.7777777777777778
 40
0.7777777777777778
 40
0.7777777777777778
 40
0.7777777777777778
 40
1.0
 40
1.0
 40
1.0
 40
1.0
 10
20.71439
 20
-7.77036
 30
0.0
 10
20.67697
 20
-7.7758
 30
0.0
 10
20.64527
 20
-7.78976
 30
0.0
 10
20.6193
 20
-7.81223
 30
0.0
 10
20.6193
 20
-7.81223
 30
0.0
 10
20.59333
 20
-7.834699999999999
 30
0.0
 10
20.5798
 20
-7.863689999999999
 30
0.0
 10
20.57871
 20
-7.899189999999999
 30
0.0
 10
20.57871
 20
-7.899189999999999
 30
0.0
 10
20.57685
 20
-7.95968
 30
0.0
 10
20.59204
 20
-8.0066
 30
0.0
 10
20.62428
 20
-8.03997
 30
0.0
 10
20.62428
 20
-8.03997
 30
0.0
 10
20.65652
 20
-8.073349999999999
 30
0.0
 10
20.6926
 20
-8.089939999999998
 30
0.0
 10
20.73253
 20
-8.089739999999999
 30
0.0
 10
20.73253
 20
-8.089739999999999
 30
0.0
 10
20.76979
 20
-8.08957
 30
0.0
 10
20.80415
 20
-8.075599999999999
 30
0.0
 10
20.8356
 20
-8.047839999999998
 30
0.0
 10
20.8356
 20
-8.047839999999998
 30
0.0
 10
20.86706
 20
-8.02008
 30
0.0
 10
20.88345
 20
-7.98451
 30
0.0
 10
20.88479
 20
-7.941119999999999
 30
0.0
 10
20.88479
 20
-7.941119999999999
 30
0.0
 10
20.8862
 20
-7.8951
 30
0.0
 10
20.86984
 20
-7.85376
 30
0.0
 10
20.8357
 20
-7.81711
 30
0.0
 10
20.8357
 20
-7.81711
 30
0.0
 10
20.80157
 20
-7.78046
 30
0.0
 10
20.76113
 20
-7.76488
 30
0.0
 10
20.71439
 20
-7.77036
 30
0.0
  0
SPLINE
  5
BE
330
1F
100
AcDbEntity
  8
layer 1
 62
   250
100
AcDbSpline
210
0.0
220
0.0
230
1.0
 70
    11
 71
     3
 72
    92
 73
    88
 74
     0
 42
0.0000000001
 43
0.0000000001
 40
0.0
 40
0.0
 40
0.0
 40
0.0
 40
0.0434782608695652
 40
0.0434782608695652
 40
0.0434782608695652
 40
0.0652173913043478
 40
0.0869565217391304
 40
0.0869565217391304
 40
0.0869565217391304
 40
0.108695652173913
 40
0.1304347826086956
 40
0.1304347826086956
 40
0.1304347826086956
 40
0.1521739130434782
 40
0.1739130434782609
 40
0.1739130434782609
 40
0.1739130434782609
 40
0.1956521739130435
 40
0.2173913043478261
 40
0.2173913043478261
 40
0.2173913043478261
 40
0.2391304347826087
 40
0.2608695652173913
 40
0.2608695652173913
 40
0.2608695652173913
 40
0.2826086956521739
 40
0.3043478260869565
 40
0.3043478260869565
 40
0.3043478260869565
 40
0.3260869565217391
 40
0.3478260869565217
 40
0.3478260869565217
 40
0.3478260869565217
 40
0.3695652173913043
 40
0.391304347826087
 40
0.391304347826087
 40
0.391304347826087
 40
0.4130434782608697
 40
0.4347826086956523
 40
0.4347826086956523
 40
0.4347826086956523
 40
0.4565217391304348
 40
0.4782608695652174
 40
0.4782608695652174
 40
0.4782608695652174
 40
0.5
 40
0.5217391304347827
 40
0.5217391304347827
 40
0.5217391304347827
 40
0.5434782608695653
 40
0.5652173913043478
 40
0.5652173913043478
 40
0.5652173913043478
 40
0.5869565217391304
 40
0.6086956521739131
 40
0.6086956521739131
 40
0.6086956521739131
 40
0.6304347826086957
 40
0.6521739130434784
 40
0.6521739130434784
 40
0.6521739130434784
 40
0.6739130434782609
 40
0.6956521739130435
 40
0.6956521739130435
 40
0.6956521739130435
 40
0.7173913043478261
 40
0.7391304347826086
 40
0.7391304347826086
 40
0.7391304347826086
 40
0.7608695652173914
 40
0.7826086956521741
 40
0.7826086956521741
 40
0.7826086956521741
 40
0.8043478260869566
 40
0.826086956521739
 40
0.826086956521739
 40
0.826086956521739
 40
0.8478260869565216
 40
0.8695652173913043
 40
0.8695652173913043
 40
0.8695652173913043
 40
0.8913043478260869
 40
0.9130434782608695
 40
0.9130434782608695
 40
0.9130434782608695
 40
0.9565217391304347
 40
1.0
 40
1.0
 40
1.0
 40
1.0
 10
18.96672
 20
14.38261769122094
 30
0.0
 10
18.96672
 20
14.38261769122094
 30
0.0
 10
18.96672
 20
14.34514769122094
 30
0.0
 10
18.96672
 20
14.34514769122094
 30
0.0
 10
18.96672
 20
14.34514769122094
 30
0.0
 10
18.96672
 20
14.34514769122094
 30
0.0
 10
18.75692
 20
14.34514769122094
 30
0.0
 10
18.75692
 20
14.34514769122094
 30
0.0
 10
18.75692
 20
14.34514769122094
 30
0.0
 10
18.75662
 20
14.35453769122094
 30
0.0
 10
18.7581
 20
14.36354769122094
 30
0.0
 10
18.76143
 20
14.37219769122094
 30
0.0
 10
18.76143
 20
14.37219769122094
 30
0.0
 10
18.76675
 20
14.38652769122094
 30
0.0
 10
18.77532
 20
14.40057769122094
 30
0.0
 10
18.78707
 20
14.41446769122094
 30
0.0
 10
18.78707
 20
14.41446769122094
 30
0.0
 10
18.7989
 20
14.42828769122094
 30
0.0
 10
18.81589
 20
14.44431769122094
 30
0.0
 10
18.83806
 20
14.46249769122094
 30
0.0
 10
18.83806
 20
14.46249769122094
 30
0.0
 10
18.87257
 20
14.49080769122095
 30
0.0
 10
18.89593
 20
14.51319769122094
 30
0.0
 10
18.90805
 20
14.52974769122094
 30
0.0
 10
18.90805
 20
14.52974769122094
 30
0.0
 10
18.92016
 20
14.54622769122094
 30
0.0
 10
18.92622
 20
14.56189769122094
 30
0.0
 10
18.92622
 20
14.57659769122094
 30
0.0
 10
18.92622
 20
14.57659769122094
 30
0.0
 10
18.92622
 20
14.59204769122094
 30
0.0
 10
18.92068
 20
14.60505769122094
 30
0.0
 10
18.90967
 20
14.61569769122094
 30
0.0
 10
18.90967
 20
14.61569769122094
 30
0.0
 10
18.89859
 20
14.62626769122094
 30
0.0
 10
18.88418
 20
14.63158769122094
 30
0.0
 10
18.86644
 20
14.63158769122094
 30
0.0
 10
18.86644
 20
14.63158769122094
 30
0.0
 10
18.84767
 20
14.63158769122094
 30
0.0
 10
18.83267
 20
14.62596769122094
 30
0.0
 10
18.82143
 20
14.61465769122094
 30
0.0
 10
18.82143
 20
14.61465769122094
 30
0.0
 10
18.81013
 20
14.60342769122094
 30
0.0
 10
18.80444
 20
14.58783769122094
 30
0.0
 10
18.80429
 20
14.56795769122094
 30
0.0
 10
18.80429
 20
14.56795769122094
 30
0.0
 10
18.80429
 20
14.56795769122094
 30
0.0
 10
18.76424
 20
14.57201769122094
 30
0.0
 10
18.76424
 20
14.57201769122094
 30
0.0
 10
18.76424
 20
14.57201769122094
 30
0.0
 10
18.76697
 20
14.60194769122094
 30
0.0
 10
18.77732
 20
14.62470769122094
 30
0.0
 10
18.7952
 20
14.64037769122094
 30
0.0
 10
18.7952
 20
14.64037769122094
 30
0.0
 10
18.81308
 20
14.65604769122094
 30
0.0
 10
18.83718
 20
14.66387769122094
 30
0.0
 10
18.86733
 20
14.66387769122094
 30
0.0
 10
18.86733
 20
14.66387769122094
 30
0.0
 10
18.89777
 20
14.66387769122094
 30
0.0
 10
18.92186
 20
14.65537769122094
 30
0.0
 10
18.9396
 20
14.63852769122094
 30
0.0
 10
18.9396
 20
14.63852769122094
 30
0.0
 10
18.95741
 20
14.62160769122094
 30
0.0
 10
18.96628
 20
14.60069769122094
 30
0.0
 10
18.96628
 20
14.57571769122094
 30
0.0
 10
18.96628
 20
14.57571769122094
 30
0.0
 10
18.96628
 20
14.56300769122094
 30
0.0
 10
18.96369
 20
14.55051769122094
 30
0.0
 10
18.95845
 20
14.53824769122094
 30
0.0
 10
18.95845
 20
14.53824769122094
 30
0.0
 10
18.95327
 20
14.52597769122094
 30
0.0
 10
18.94463
 20
14.51304769122094
 30
0.0
 10
18.93258
 20
14.49952769122094
 30
0.0
 10
18.93258
 20
14.49952769122094
 30
0.0
 10
18.92053
 20
14.48592769122094
 30
0.0
 10
18.90051
 20
14.46730769122094
 30
0.0
 10
18.8725
 20
14.44365769122094
 30
0.0
 10
18.8725
 20
14.44365769122094
 30
0.0
 10
18.84915
 20
14.42399769122094
 30
0.0
 10
18.83415
 20
14.41069769122094
 30
0.0
 10
18.82749
 20
14.40367769122094
 30
0.0
 10
18.82749
 20
14.40367769122094
 30
0.0
 10
18.82084
 20
14.39672769122094
 30
0.0
 10
18.81537
 20
14.38970769122094
 30
0.0
 10
18.81101
 20
14.38261769122094
 30
0.0
 10
18.81101
 20
14.38261769122094
 30
0.0
 10
18.81101
 20
14.38261769122094
 30
0.0
 10
18.96672
 20
14.38261769122094
 30
0.0
 10
18.96672
 20
14.38261769122094
 30
0.0
  0
SPLINE
  5
BF
330
1F
100
AcDbEntity
  8
layer 1
 62
   250
100
AcDbSpline
210
0.0
220
0.0
230
1.0
 70
     9
 71
     3
 72
    52
 73
    48
 74
     0
 42
0.0000000001
 43
0.0000000001
 40
0.0
 40
0.0
 40
0.0
 40
0.0
 40
0.0769230769230769
 40
0.0769230769230769
 40
0.0769230769230769
 40
0.1153846153846154
 40
0.1538461538461539
 40
0.1538461538461539
 40
0.1538461538461539
 40
0.1923076923076923
 40
0.2307692307692308
 40
0.2307692307692308
 40
0.2307692307692308
 40
0.2692307692307692
 40
0.3076923076923077
 40
0.3076923076923077
 40
0.3076923076923077
 40
0.3461538461538462
 40
0.3846153846153846
 40
0.3846153846153846
 40
0.3846153846153846
 40
0.4230769230769232
 40
0.4615384615384616
 40
0.4615384615384616
 40
0.4615384615384616
 40
0.5
 40
0.5384615384615385
 40
0.5384615384615385
 40
0.5384615384615385
 40
0.5769230769230769
 40
0.6153846153846155
 40
0.6153846153846155
 40
0.6153846153846155
 40
0.6538461538461539
 40
0.6923076923076924
 40
0.6923076923076924
 40
0.6923076923076924
 40
0.7307692307692309
 40
0.7692307692307693
 40
0.7692307692307693
 40
0.7692307692307693
 40
0.8076923076923076
 40
0.8461538461538461
 40
0.8461538461538461
 40
0.8461538461538461
 40
0.9230769230769231
 40
1.0
 40
1.0
 40
1.0
 40
1.0
 10
19.03311
 20
14.50166769122094
 30
0.0
 10
19.03311
 20
14.53920769122094
 30
0.0
 10
19.03695
 20
14.56943769122094
 30
0.0
 10
19.04471
 20
14.59226769122095
 30
0.0
 10
19.04471
 20
14.59226769122095
 30
0.0
 10
19.0524
 20
14.61517769122094
 30
0.0
 10
19.06393
 20
14.63283769122094
 30
0.0
 10
19.07915
 20
14.64525769122094
 30
0.0
 10
19.07915
 20
14.64525769122094
 30
0.0
 10
19.09437
 20
14.65766769122095
 30
0.0
 10
19.11351
 20
14.66387769122094
 30
0.0
 10
19.13657
 20
14.66387769122094
 30
0.0
 10
19.13657
 20
14.66387769122094
 30
0.0
 10
19.15364
 20
14.66387769122094
 30
0.0
 10
19.16857
 20
14.66040769122094
 30
0.0
 10
19.18143
 20
14.65352769122094
 30
0.0
 10
19.18143
 20
14.65352769122094
 30
0.0
 10
19.19429
 20
14.64673769122094
 30
0.0
 10
19.20485
 20
14.63682769122094
 30
0.0
 10
19.21328
 20
14.62389769122095
 30
0.0
 10
19.21328
 20
14.62389769122095
 30
0.0
 10
19.22163
 20
14.61096769122094
 30
0.0
 10
19.22821
 20
14.59522769122094
 30
0.0
 10
19.23294
 20
14.57667769122094
 30
0.0
 10
19.23294
 20
14.57667769122094
 30
0.0
 10
19.23774
 20
14.55812769122094
 30
0.0
 10
19.24011
 20
14.53314769122094
 30
0.0
 10
19.24011
 20
14.50166769122094
 30
0.0
 10
19.24011
 20
14.50166769122094
 30
0.0
 10
19.24011
 20
14.46441769122094
 30
0.0
 10
19.23626
 20
14.43441769122095
 30
0.0
 10
19.22865
 20
14.41150769122095
 30
0.0
 10
19.22865
 20
14.41150769122095
 30
0.0
 10
19.22096
 20
14.38859769122094
 30
0.0
 10
19.20951
 20
14.37093769122094
 30
0.0
 10
19.19429
 20
14.35844769122094
 30
0.0
 10
19.19429
 20
14.35844769122094
 30
0.0
 10
19.17906
 20
14.34595769122094
 30
0.0
 10
19.15985
 20
14.33975769122094
 30
0.0
 10
19.13657
 20
14.33975769122094
 30
0.0
 10
19.13657
 20
14.33975769122094
 30
0.0
 10
19.10598
 20
14.33975769122094
 30
0.0
 10
19.08196
 20
14.35068769122094
 30
0.0
 10
19.06452
 20
14.37263769122094
 30
0.0
 10
19.06452
 20
14.37263769122094
 30
0.0
 10
19.0436
 20
14.39901769122094
 30
0.0
 10
19.03311
 20
14.44210769122095
 30
0.0
 10
19.03311
 20
14.50166769122094
 30
0.0
  0
SPLINE
  5
C0
330
1F
100
AcDbEntity
  8
layer 1
 62
   250
100
AcDbSpline
210
0.0
220
0.0
230
1.0
 70
    11
 71
     3
 72
    36
 73
    32
 74
     0
 42
0.0000000001
 43
0.0000000001
 40
0.0
 40
0.0
 40
0.0
 40
0.0
 40
0.1111111111111111
 40
0.1111111111111111
 40
0.1111111111111111
 40
0.1666666666666666
 40
0.2222222222222222
 40
0.2222222222222222
 40
0.2222222222222222
 40
0.2777777777777778
 40
0.3333333333333333
 40
0.3333333333333333
 40
0.3333333333333333
 40
0.3888888888888888
 40
0.4444444444444445
 40
0.4444444444444445
 40
0.4444444444444445
 40
0.5
 40
0.5555555555555556
 40
0.5555555555555556
 40
0.5555555555555556
 40
0.6111111111111112
 40
0.6666666666666666
 40
0.6666666666666666
 40
0.6666666666666666
 40
0.7222222222222223
 40
0.7777777777777778
 40
0.7777777777777778
 40
0.7777777777777778
 40
0.8888888888888889
 40
1.0
 40
1.0
 40
1.0
 40
1.0
 10
19.07316
 20
14.50166769122094
 30
0.0
 10
19.07316
 20
14.44956769122094
 30
0.0
 10
19.0793
 20
14.41490769122095
 30
0.0
 10
19.09149
 20
14.39761769122094
 30
0.0
 10
19.09149
 20
14.39761769122094
 30
0.0
 10
19.10369
 20
14.38039769122094
 30
0.0
 10
19.11869
 20
14.37174769122094
 30
0.0
 10
19.13657
 20
14.37174769122094
 30
0.0
 10
19.13657
 20
14.37174769122094
 30
0.0
 10
19.15453
 20
14.37174769122094
 30
0.0
 10
19.16953
 20
14.38046769122095
 30
0.0
 10
19.18172
 20
14.39776769122094
 30
0.0
 10
19.18172
 20
14.39776769122094
 30
0.0
 10
19.19392
 20
14.41505769122094
 30
0.0
 10
19.20005
 20
14.44971769122094
 30
0.0
 10
19.20005
 20
14.50166769122094
 30
0.0
 10
19.20005
 20
14.50166769122094
 30
0.0
 10
19.20005
 20
14.55391769122094
 30
0.0
 10
19.19392
 20
14.58864769122094
 30
0.0
 10
19.18172
 20
14.60579769122094
 30
0.0
 10
19.18172
 20
14.60579769122094
 30
0.0
 10
19.16953
 20
14.62300769122094
 30
0.0
 10
19.15438
 20
14.63158769122094
 30
0.0
 10
19.1362
 20
14.63158769122094
 30
0.0
 10
19.1362
 20
14.63158769122094
 30
0.0
 10
19.11824
 20
14.63158769122094
 30
0.0
 10
19.10398
 20
14.62396769122095
 30
0.0
 10
19.09327
 20
14.60882769122094
 30
0.0
 10
19.09327
 20
14.60882769122094
 30
0.0
 10
19.07989
 20
14.58953769122094
 30
0.0
 10
19.07316
 20
14.55376769122095
 30
0.0
 10
19.07316
 20
14.50166769122094
 30
0.0
  0
SPLINE
  5
C1
330
1F
100
AcDbEntity
  8
layer 1
 62
   250
100
AcDbSpline
210
0.0
220
0.0
230
1.0
 70
     9
 71
     3
 72
    52
 73
    48
 74
     0
 42
0.0000000001
 43
0.0000000001
 40
0.0
 40
0.0
 40
0.0
 40
0.0
 40
0.0769230769230769
 40
0.0769230769230769
 40
0.0769230769230769
 40
0.1153846153846154
 40
0.1538461538461539
 40
0.1538461538461539
 40
0.1538461538461539
 40
0.1923076923076923
 40
0.2307692307692308
 40
0.2307692307692308
 40
0.2307692307692308
 40
0.2692307692307692
 40
0.3076923076923077
 40
0.3076923076923077
 40
0.3076923076923077
 40
0.3461538461538462
 40
0.3846153846153846
 40
0.3846153846153846
 40
0.3846153846153846
 40
0.4230769230769232
 40
0.4615384615384616
 40
0.4615384615384616
 40
0.4615384615384616
 40
0.5
 40
0.5384615384615385
 40
0.5384615384615385
 40
0.5384615384615385
 40
0.5769230769230769
 40
0.6153846153846155
 40
0.6153846153846155
 40
0.6153846153846155
 40
0.6538461538461539
 40
0.6923076923076924
 40
0.6923076923076924
 40
0.6923076923076924
 40
0.7307692307692309
 40
0.7692307692307693
 40
0.7692307692307693
 40
0.7692307692307693
 40
0.8076923076923076
 40
0.8461538461538461
 40
0.8461538461538461
 40
0.8461538461538461
 40
0.9230769230769231
 40
1.0
 40
1.0
 40
1.0
 40
1.0
 10
19.85185546715408
 20
14.50166769122094
 30
0.0
 10
19.85185546715408
 20
14.53920769122094
 30
0.0
 10
19.85569546715408
 20
14.56943769122094
 30
0.0
 10
19.86345546715408
 20
14.59226769122095
 30
0.0
 10
19.86345546715408
 20
14.59226769122095
 30
0.0
 10
19.87114546715408
 20
14.61517769122094
 30
0.0
 10
19.88267546715408
 20
14.63283769122094
 30
0.0
 10
19.89789546715408
 20
14.64525769122094
 30
0.0
 10
19.89789546715408
 20
14.64525769122094
 30
0.0
 10
19.91311546715408
 20
14.65766769122095
 30
0.0
 10
19.93225546715408
 20
14.66387769122094
 30
0.0
 10
19.95531546715408
 20
14.66387769122094
 30
0.0
 10
19.95531546715408
 20
14.66387769122094
 30
0.0
 10
19.97238546715408
 20
14.66387769122094
 30
0.0
 10
19.98731546715408
 20
14.66040769122094
 30
0.0
 10
20.00017546715408
 20
14.65352769122094
 30
0.0
 10
20.00017546715408
 20
14.65352769122094
 30
0.0
 10
20.01303546715408
 20
14.64673769122094
 30
0.0
 10
20.02359546715409
 20
14.63682769122094
 30
0.0
 10
20.03202546715408
 20
14.62389769122095
 30
0.0
 10
20.03202546715408
 20
14.62389769122095
 30
0.0
 10
20.04037546715409
 20
14.61096769122094
 30
0.0
 10
20.04695546715408
 20
14.59522769122094
 30
0.0
 10
20.05168546715408
 20
14.57667769122094
 30
0.0
 10
20.05168546715408
 20
14.57667769122094
 30
0.0
 10
20.05648546715408
 20
14.55812769122094
 30
0.0
 10
20.05885546715408
 20
14.53314769122094
 30
0.0
 10
20.05885546715408
 20
14.50166769122094
 30
0.0
 10
20.05885546715408
 20
14.50166769122094
 30
0.0
 10
20.05885546715408
 20
14.46441769122094
 30
0.0
 10
20.05500546715408
 20
14.43441769122095
 30
0.0
 10
20.04739546715409
 20
14.41150769122095
 30
0.0
 10
20.04739546715409
 20
14.41150769122095
 30
0.0
 10
20.03970546715408
 20
14.38859769122094
 30
0.0
 10
20.02825546715408
 20
14.37093769122094
 30
0.0
 10
20.01303546715408
 20
14.35844769122094
 30
0.0
 10
20.01303546715408
 20
14.35844769122094
 30
0.0
 10
19.99780546715408
 20
14.34595769122094
 30
0.0
 10
19.97859546715408
 20
14.33975769122094
 30
0.0
 10
19.95531546715408
 20
14.33975769122094
 30
0.0
 10
19.95531546715408
 20
14.33975769122094
 30
0.0
 10
19.92472546715408
 20
14.33975769122094
 30
0.0
 10
19.90070546715408
 20
14.35068769122094
 30
0.0
 10
19.88326546715408
 20
14.37263769122094
 30
0.0
 10
19.88326546715408
 20
14.37263769122094
 30
0.0
 10
19.86234546715408
 20
14.39901769122094
 30
0.0
 10
19.85185546715408
 20
14.44210769122095
 30
0.0
 10
19.85185546715408
 20
14.50166769122094
 30
0.0
  0
SPLINE
  5
C2
330
1F
100
AcDbEntity
  8
layer 1
 62
   250
100
AcDbSpline
210
0.0
220
0.0
230
1.0
 70
    11
 71
     3
 72
    36
 73
    32
 74
     0
 42
0.0000000001
 43
0.0000000001
 40
0.0
 40
0.0
 40
0.0
 40
0.0
 40
0.1111111111111111
 40
0.1111111111111111
 40
0.1111111111111111
 40
0.1666666666666666
 40
0.2222222222222222
 40
0.2222222222222222
 40
0.2222222222222222
 40
0.2777777777777778
 40
0.3333333333333333
 40
0.3333333333333333
 40
0.3333333333333333
 40
0.3888888888888888
 40
0.4444444444444445
 40
0.4444444444444445
 40
0.4444444444444445
 40
0.5
 40
0.5555555555555556
 40
0.5555555555555556
 40
0.5555555555555556
 40
0.6111111111111112
 40
0.6666666666666666
 40
0.6666666666666666
 40
0.6666666666666666
 40
0.7222222222222223
 40
0.7777777777777778
 40
0.7777777777777778
 40
0.7777777777777778
 40
0.8888888888888889
 40
1.0
 40
1.0
 40
1.0
 40
1.0
 10
19.89190546715408
 20
14.50166769122094
 30
0.0
 10
19.89190546715408
 20
14.44956769122094
 30
0.0
 10
19.89804546715408
 20
14.41490769122095
 30
0.0
 10
19.91023546715408
 20
14.39761769122094
 30
0.0
 10
19.91023546715408
 20
14.39761769122094
 30
0.0
 10
19.92243546715408
 20
14.38039769122094
 30
0.0
 10
19.93743546715408
 20
14.37174769122094
 30
0.0
 10
19.95531546715408
 20
14.37174769122094
 30
0.0
 10
19.95531546715408
 20
14.37174769122094
 30
0.0
 10
19.97327546715408
 20
14.37174769122094
 30
0.0
 10
19.98827546715408
 20
14.38046769122095
 30
0.0
 10
20.00046546715408
 20
14.39776769122094
 30
0.0
 10
20.00046546715408
 20
14.39776769122094
 30
0.0
 10
20.01266546715408
 20
14.41505769122094
 30
0.0
 10
20.01879546715409
 20
14.44971769122094
 30
0.0
 10
20.01879546715409
 20
14.50166769122094
 30
0.0
 10
20.01879546715409
 20
14.50166769122094
 30
0.0
 10
20.01879546715409
 20
14.55391769122094
 30
0.0
 10
20.01266546715408
 20
14.58864769122094
 30
0.0
 10
20.00046546715408
 20
14.60579769122094
 30
0.0
 10
20.00046546715408
 20
14.60579769122094
 30
0.0
 10
19.98827546715408
 20
14.62300769122094
 30
0.0
 10
19.97312546715408
 20
14.63158769122094
 30
0.0
 10
19.95494546715409
 20
14.63158769122094
 30
0.0
 10
19.95494546715409
 20
14.63158769122094
 30
0.0
 10
19.93698546715408
 20
14.63158769122094
 30
0.0
 10
19.92272546715408
 20
14.62396769122095
 30
0.0
 10
19.91201546715408
 20
14.60882769122094
 30
0.0
 10
19.91201546715408
 20
14.60882769122094
 30
0.0
 10
19.89863546715408
 20
14.58953769122094
 30
0.0
 10
19.89190546715408
 20
14.55376769122095
 30
0.0
 10
19.89190546715408
 20
14.50166769122094
 30
0.0
  0
SPLINE
  5
C3
330
1F
100
AcDbEntity
  8
layer 1
 62
   250
100
AcDbSpline
210
0.0
220
0.0
230
1.0
 70
     9
 71
     3
 72
   124
 73
   120
 74
     0
 42
0.0000000001
 43
0.0000000001
 40
0.0
 40
0.0
 40
0.0
 40
0.0
 40
0.032258064516129
 40
0.032258064516129
 40
0.032258064516129
 40
0.0483870967741936
 40
0.0645161290322581
 40
0.0645161290322581
 40
0.0645161290322581
 40
0.0806451612903226
 40
0.0967741935483871
 40
0.0967741935483871
 40
0.0967741935483871
 40
0.1129032258064516
 40
0.1290322580645161
 40
0.1290322580645161
 40
0.1290322580645161
 40
0.1451612903225806
 40
0.1612903225806452
 40
0.1612903225806452
 40
0.1612903225806452
 40
0.1774193548387097
 40
0.1935483870967742
 40
0.1935483870967742
 40
0.1935483870967742
 40
0.2096774193548387
 40
0.2258064516129032
 40
0.2258064516129032
 40
0.2258064516129032
 40
0.2419354838709677
 40
0.2580645161290323
 40
0.2580645161290323
 40
0.2580645161290323
 40
0.2741935483870968
 40
0.2903225806451613
 40
0.2903225806451613
 40
0.2903225806451613
 40
0.3064516129032258
 40
0.3225806451612903
 40
0.3225806451612903
 40
0.3225806451612903
 40
0.3387096774193549
 40
0.3548387096774194
 40
0.3548387096774194
 40
0.3548387096774194
 40
0.3709677419354839
 40
0.3870967741935484
 40
0.3870967741935484
 40
0.3870967741935484
 40
0.4032258064516129
 40
0.4193548387096774
 40
0.4193548387096774
 40
0.4193548387096774
 40
0.4354838709677419
 40
0.4516129032258064
 40
0.4516129032258064
 40
0.4516129032258064
 40
0.4677419354838709
 40
0.4838709677419355
 40
0.4838709677419355
 40
0.4838709677419355
 40
0.5
 40
0.5161290322580645
 40
0.5161290322580645
 40
0.5161290322580645
 40
0.532258064516129
 40
0.5483870967741935
 40
0.5483870967741935
 40
0.5483870967741935
 40
0.564516129032258
 40
0.5806451612903226
 40
0.5806451612903226
 40
0.5806451612903226
 40
0.5967741935483871
 40
0.6129032258064516
 40
0.6129032258064516
 40
0.6129032258064516
 40
0.6290322580645161
 40
0.6451612903225806
 40
0.6451612903225806
 40
0.6451612903225806
 40
0.6612903225806451
 40
0.6774193548387096
 40
0.6774193548387096
 40
0.6774193548387096
 40
0.6935483870967742
 40
0.7096774193548388
 40
0.7096774193548388
 40
0.7096774193548388
 40
0.7258064516129032
 40
0.7419354838709678
 40
0.7419354838709678
 40
0.7419354838709678
 40
0.7580645161290322
 40
0.7741935483870968
 40
0.7741935483870968
 40
0.7741935483870968
 40
0.7903225806451612
 40
0.8064516129032258
 40
0.8064516129032258
 40
0.8064516129032258
 40
0.8225806451612902
 40
0.8387096774193548
 40
0.8387096774193548
 40
0.8387096774193548
 40
0.8548387096774193
 40
0.8709677419354838
 40
0.8709677419354838
 40
0.8709677419354838
 40
0.8870967741935482
 40
0.9032258064516128
 40
0.9032258064516128
 40
0.9032258064516128
 40
0.9193548387096774
 40
0.9354838709677419
 40
0.9354838709677419
 40
0.9354838709677419
 40
0.9677419354838709
 40
1.0
 40
1.0
 40
1.0
 40
1.0
 10
19.30099389635461
 20
14.43122013542603
 30
0.0
 10
19.30099389635461
 20
14.43122013542603
 30
0.0
 10
19.34044314450823
 20
14.4364600379371
 30
0.0
 10
19.34044314450823
 20
14.4364600379371
 30
0.0
 10
19.34044314450823
 20
14.4364600379371
 30
0.0
 10
19.34500814007692
 20
14.41408031120151
 30
0.0
 10
19.352718014523
 20
14.39798565536694
 30
0.0
 10
19.36356808099272
 20
14.38810576762691
 30
0.0
 10
19.36356808099272
 20
14.38810576762691
 30
0.0
 10
19.37449782397647
 20
14.37822587988688
 30
0.0
 10
19.3877475595747
 20
14.37328593601687
 30
0.0
 10
19.4033875905939
 20
14.37328593601687
 30
0.0
 10
19.4033875905939
 20
14.37328593601687
 30
0.0
 10
19.42195221836347
 20
14.37328593601687
 30
0.0
 10
19.43767192589671
 20
14.3797256730922
 30
0.0
 10
19.45047172353334
 20
14.39259577353533
 30
0.0
 10
19.45047172353334
 20
14.39259577353533
 30
0.0
 10
19.46319184465594
 20
14.40547056083223
 30
0.0
 10
19.46963158173127
 20
14.42141523734626
 30
0.0
 10
19.46963158173127
 20
14.44042511622366
 30
0.0
 10
19.46963158173127
 20
14.44042511622366
 30
0.0
 10
19.46963158173127
 20
14.45853980603164
 30
0.0
 10
19.4637167722778
 20
14.47350961696221
 30
0.0
 10
19.45189184022463
 20
14.48525955935512
 30
0.0
 10
19.45189184022463
 20
14.48525955935512
 30
0.0
 10
19.43999191851118
 20
14.4970141886018
 30
0.0
 10
19.42494711792034
 20
14.50292431120151
 30
0.0
 10
19.40668244879184
 20
14.50292431120151
 30
0.0
 10
19.40668244879184
 20
14.50292431120151
 30
0.0
 10
19.39919754332655
 20
14.50292431120151
 30
0.0
 10
19.38991757286865
 20
14.50142920484995
 30
0.0
 10
19.37883785056436
 20
14.49850929495335
 30
0.0
 10
19.37883785056436
 20
14.49850929495335
 30
0.0
 10
19.37883785056436
 20
14.49850929495335
 30
0.0
 10
19.38325286681251
 20
14.53316389170372
 30
0.0
 10
19.38325286681251
 20
14.53316389170372
 30
0.0
 10
19.38325286681251
 20
14.53316389170372
 30
0.0
 10
19.38587281806805
 20
14.53286393306266
 30
0.0
 10
19.3879725285555
 20
14.53271395374212
 30
0.0
 10
19.38961761422758
 20
14.53271395374212
 30
0.0
 10
19.38961761422758
 20
14.53271395374212
 30
0.0
 10
19.40638249015077
 20
14.53271395374212
 30
0.0
 10
19.42150228040188
 20
14.53713365684405
 30
0.0
 10
19.4349769849809
 20
14.54588869968009
 30
0.0
 10
19.4349769849809
 20
14.54588869968009
 30
0.0
 10
19.44844700270617
 20
14.5546484293699
 30
0.0
 10
19.45518669842256
 20
14.56819343675542
 30
0.0
 10
19.45518669842256
 20
14.58645810588393
 30
0.0
 10
19.45518669842256
 20
14.58645810588393
 30
0.0
 10
19.45518669842256
 20
14.60090298919265
 30
0.0
 10
19.45024675455255
 20
14.61295289022661
 30
0.0
 10
19.44044185647278
 20
14.62238284000505
 30
0.0
 10
19.44044185647278
 20
14.62238284000505
 30
0.0
 10
19.43063227153925
 20
14.63189246629752
 30
0.0
 10
19.41798714007692
 20
14.636682430847
 30
0.0
 10
19.40249240152448
 20
14.636682430847
 30
0.0
 10
19.40249240152448
 20
14.636682430847
 30
0.0
 10
19.38714764229257
 20
14.636682430847
 30
0.0
 10
19.37434784465594
 20
14.63181747663725
 30
0.0
 10
19.36416799827485
 20
14.62223286068452
 30
0.0
 10
19.36416799827485
 20
14.62223286068452
 30
0.0
 10
19.35391316223349
 20
14.61257794192529
 30
0.0
 10
19.34732813269139
 20
14.5980580689563
 30
0.0
 10
19.34440822279479
 20
14.57874823143784
 30
0.0
 10
19.34440822279479
 20
14.57874823143784
 30
0.0
 10
19.34440822279479
 20
14.57874823143784
 30
0.0
 10
19.30496366149494
 20
14.58578319894153
 30
0.0
 10
19.30496366149494
 20
14.58578319894153
 30
0.0
 10
19.30496366149494
 20
14.58578319894153
 30
0.0
 10
19.30975362604442
 20
14.61227798328422
 30
0.0
 10
19.32075835868844
 20
14.63278765536694
 30
0.0
 10
19.33782319325269
 20
14.64730752833592
 30
0.0
 10
19.33782319325269
 20
14.64730752833592
 30
0.0
 10
19.35496301747721
 20
14.66183208815867
 30
0.0
 10
19.37621789930882
 20
14.66916701430342
 30
0.0
 10
19.40166751526156
 20
14.66916701430342
 30
0.0
 10
19.40166751526156
 20
14.66916701430342
 30
0.0
 10
19.4191822877874
 20
14.66916701430342
 30
0.0
 10
19.43535193328224
 20
14.66534722848363
 30
0.0
 10
19.45009677523201
 20
14.65786232301834
 30
0.0
 10
19.45009677523201
 20
14.65786232301834
 30
0.0
 10
19.46484161718179
 20
14.65030242789279
 30
0.0
 10
19.4761416216131
 20
14.64004759185143
 30
0.0
 10
19.48400147537972
 20
14.62702751208777
 30
0.0
 10
19.48400147537972
 20
14.62702751208777
 30
0.0
 10
19.49178633948608
 20
14.61400274547034
 30
0.0
 10
19.49575141777263
 20
14.60022808225025
 30
0.0
 10
19.49575141777263
 20
14.58555822996074
 30
0.0
 10
19.49575141777263
 20
14.58555822996074
 30
0.0
 10
19.49575141777263
 20
14.57171326393415
 30
0.0
 10
19.49201130846687
 20
14.55906344561805
 30
0.0
 10
19.48452640300158
 20
14.54760877501243
 30
0.0
 10
19.48452640300158
 20
14.54760877501243
 30
0.0
 10
19.47704149753629
 20
14.53623378092085
 30
0.0
 10
19.46603676489228
 20
14.52717877944375
 30
0.0
 10
19.45144190226303
 20
14.52043908372735
 30
0.0
 10
19.45144190226303
 20
14.52043908372735
 30
0.0
 10
19.4704564679942
 20
14.51609905713947
 30
0.0
 10
19.48520130994397
 20
14.5069690660021
 30
0.0
 10
19.49575141777263
 20
14.49311941312174
 30
0.0
 10
19.49575141777263
 20
14.49311941312174
 30
0.0
 10
19.50623122279479
 20
14.47934943675542
 30
0.0
 10
19.51147112530587
 20
14.46205963321037
 30
0.0
 10
19.51147112530587
 20
14.44132499214685
 30
0.0
 10
19.51147112530587
 20
14.44132499214685
 30
0.0
 10
19.51147112530587
 20
14.41325542493858
 30
0.0
 10
19.50129127892478
 20
14.3894555815117
 30
0.0
 10
19.48078160684206
 20
14.36992077501244
 30
0.0
 10
19.48078160684206
 20
14.36992077501244
 30
0.0
 10
19.46035161127337
 20
14.35038128165941
 30
0.0
 10
19.43445205735904
 20
14.34065137323991
 30
0.0
 10
19.40316262161311
 20
14.34065137323991
 30
0.0
 10
19.40316262161311
 20
14.34065137323991
 30
0.0
 10
19.37494776193807
 20
14.34065137323991
 30
0.0
 10
19.35151817995875
 20
14.34903615462839
 30
0.0
 10
19.33288324938268
 20
14.36587602021185
 30
0.0
 10
19.33288324938268
 20
14.36587602021185
 30
0.0
 10
19.31424363195284
 20
14.38264089613503
 30
0.0
 10
19.30361384761015
 20
14.40442539244228
 30
0.0
 10
19.30099389635461
 20
14.43122013542603
 30
0.0
  0
SPLINE
  5
DE
330
1F
100
AcDbEntity
  8
layer 1
 62
   250
100
AcDbSpline
210
0.0
220
0.0
230
1.0
 70
     9
 71
     3
 72
    92
 73
    88
 74
     0
 42
0.0000000001
 43
0.0000000001
 40
0.0
 40
0.0
 40
0.0
 40
0.0
 40
0.0434782608695652
 40
0.0434782608695652
 40
0.0434782608695652
 40
0.0652173913043478
 40
0.0869565217391304
 40
0.0869565217391304
 40
0.0869565217391304
 40
0.108695652173913
 40
0.1304347826086956
 40
0.1304347826086956
 40
0.1304347826086956
 40
0.1521739130434782
 40
0.1739130434782609
 40
0.1739130434782609
 40
0.1739130434782609
 40
0.1956521739130435
 40
0.2173913043478261
 40
0.2173913043478261
 40
0.2173913043478261
 40
0.2391304347826087
 40
0.2608695652173913
 40
0.2608695652173913
 40
0.2608695652173913
 40
0.2826086956521739
 40
0.3043478260869565
 40
0.3043478260869565
 40
0.3043478260869565
 40
0.3260869565217391
 40
0.3478260869565217
 40
0.3478260869565217
 40
0.3478260869565217
 40
0.3695652173913043
 40
0.391304347826087
 40
0.391304347826087
 40
0.391304347826087
 40
0.4130434782608697
 40
0.4347826086956523
 40
0.4347826086956523
 40
0.4347826086956523
 40
0.4565217391304348
 40
0.4782608695652174
 40
0.4782608695652174
 40
0.4782608695652174
 40
0.5
 40
0.5217391304347827
 40
0.5217391304347827
 40
0.5217391304347827
 40
0.5434782608695653
 40
0.5652173913043478
 40
0.5652173913043478
 40
0.5652173913043478
 40
0.5869565217391304
 40
0.6086956521739131
 40
0.6086956521739131
 40
0.6086956521739131
 40
0.6304347826086957
 40
0.6521739130434784
 40
0.6521739130434784
 40
0.6521739130434784
 40
0.6739130434782609
 40
0.6956521739130435
 40
0.6956521739130435
 40
0.6956521739130435
 40
0.7173913043478261
 40
0.7391304347826086
 40
0.7391304347826086
 40
0.7391304347826086
 40
0.7608695652173914
 40
0.7826086956521741
 40
0.7826086956521741
 40
0.7826086956521741
 40
0.8043478260869566
 40
0.826086956521739
 40
0.826086956521739
 40
0.826086956521739
 40
0.8478260869565216
 40
0.8695652173913043
 40
0.8695652173913043
 40
0.8695652173913043
 40
0.8913043478260869
 40
0.9130434782608695
 40
0.9130434782608695
 40
0.9130434782608695
 40
0.9565217391304347
 40
1.0
 40
1.0
 40
1.0
 40
1.0
 10
19.57916085748797
 20
14.41905859858756
 30
0.0
 10
19.57916085748797
 20
14.41905859858756
 30
0.0
 10
19.61576518540525
 20
14.42243547672642
 30
0.0
 10
19.61576518540525
 20
14.42243547672642
 30
0.0
 10
19.61576518540525
 20
14.42243547672642
 30
0.0
 10
19.61887397550865
 20
14.40534486446644
 30
0.0
 10
19.62479253444513
 20
14.39292517067029
 30
0.0
 10
19.63353117329299
 20
14.38517123979879
 30
0.0
 10
19.63353117329299
 20
14.38517123979879
 30
0.0
 10
19.64226465660171
 20
14.37748948647531
 30
0.0
 10
19.65345733208177
 20
14.37361252103956
 30
0.0
 10
19.66717622174203
 20
14.37361252103956
 30
0.0
 10
19.66717622174203
 20
14.37361252103956
 30
0.0
 10
19.67887414005813
 20
14.37361252103956
 30
0.0
 10
19.68912850741411
 20
14.37626762369835
 30
0.0
 10
19.69793932380998
 20
14.38165000656393
 30
0.0
 10
19.69793932380998
 20
14.38165000656393
 30
0.0
 10
19.7067449846667
 20
14.38696536742066
 30
0.0
 10
19.71396273946729
 20
14.39407485589924
 30
0.0
 10
19.7195977437509
 20
14.40297847199968
 30
0.0
 10
19.7195977437509
 20
14.40297847199968
 30
0.0
 10
19.72529977004336
 20
14.41188208810012
 30
0.0
 10
19.72999131066374
 20
14.42394089415625
 30
0.0
 10
19.73381672070806
 20
14.43902084615034
 30
0.0
 10
19.73381672070806
 20
14.43902084615034
 30
0.0
 10
19.73756995320437
 20
14.45417297569244
 30
0.0
 10
19.73952390253967
 20
14.46960865988742
 30
0.0
 10
19.73952390253967
 20
14.48533305427442
 30
0.0
 10
19.73952390253967
 20
14.48533305427442
 30
0.0
 10
19.73952390253967
 20
14.48698282680026
 30
0.0
 10
19.73945172499167
 20
14.48956575191105
 30
0.0
 10
19.73930736989565
 20
14.4928704525019
 30
0.0
 10
19.73930736989565
 20
14.4928704525019
 30
0.0
 10
19.73165139426788
 20
14.48087866845463
 30
0.0
 10
19.72125782735503
 20
14.47104189976925
 30
0.0
 10
19.70811635807881
 20
14.46357667908978
 30
0.0
 10
19.70811635807881
 20
14.46357667908978
 30
0.0
 10
19.69490271125459
 20
14.45603928086231
 30
0.0
 10
19.68060640121027
 20
14.45230151498343
 30
0.0
 10
19.66529960549388
 20
14.45230151498343
 30
0.0
 10
19.66529960549388
 20
14.45230151498343
 30
0.0
 10
19.63959408732549
 20
14.45230151498343
 30
0.0
 10
19.61786348983656
 20
14.4615660188239
 30
0.0
 10
19.60010265748797
 20
14.4800898709657
 30
0.0
 10
19.60010265748797
 20
14.4800898709657
 30
0.0
 10
19.58233666960023
 20
14.49861372310751
 30
0.0
 10
19.5734588311955
 20
14.52295302340293
 30
0.0
 10
19.5734588311955
 20
14.55325728248713
 30
0.0
 10
19.5734588311955
 20
14.55325728248713
 30
0.0
 10
19.5734588311955
 20
14.58456171616511
 30
0.0
 10
19.58269755734026
 20
14.60968981394946
 30
0.0
 10
19.60125749825606
 20
14.62879108647531
 30
0.0
 10
19.60125749825606
 20
14.62879108647531
 30
0.0
 10
19.61981228363272
 20
14.64788720346201
 30
0.0
 10
19.64305860962977
 20
14.65743526195537
 30
0.0
 10
19.67100163178634
 20
14.65743526195537
 30
0.0
 10
19.67100163178634
 20
14.65743526195537
 30
0.0
 10
19.69114947875828
 20
14.65743526195537
 30
0.0
 10
19.70955990903893
 20
14.65198070154178
 30
0.0
 10
19.72631025571544
 20
14.64121078027147
 30
0.0
 10
19.72631025571544
 20
14.64121078027147
 30
0.0
 10
19.74298842484395
 20
14.63044085900116
 30
0.0
 10
19.75569682883213
 20
14.61500517480618
 30
0.0
 10
19.76435813459285
 20
14.5950429272434
 30
0.0
 10
19.76435813459285
 20
14.5950429272434
 30
0.0
 10
19.77302975143184
 20
14.57508067968062
 30
0.0
 10
19.7773604043122
 20
14.54614779400854
 30
0.0
 10
19.7773604043122
 20
14.50823395914886
 30
0.0
 10
19.7773604043122
 20
14.50823395914886
 30
0.0
 10
19.7773604043122
 20
14.4688920399465
 30
0.0
 10
19.7730967734407
 20
14.43751542872051
 30
0.0
 10
19.764507645228
 20
14.41410412547087
 30
0.0
 10
19.764507645228
 20
14.41410412547087
 30
0.0
 10
19.75584118392815
 20
14.3907701553084
 30
0.0
 10
19.74306060239196
 20
14.37303510065551
 30
0.0
 10
19.72609372307143
 20
14.36083193950337
 30
0.0
 10
19.72609372307143
 20
14.36083193950337
 30
0.0
 10
19.70905466620289
 20
14.34862362281209
 30
0.0
 10
19.68919552942297
 20
14.34251946446644
 30
0.0
 10
19.66631009116596
 20
14.34251946446644
 30
0.0
 10
19.66631009116596
 20
14.34251946446644
 30
0.0
 10
19.64204812395769
 20
14.34251946446644
 30
0.0
 10
19.62226632026492
 20
14.34920104319614
 30
0.0
 10
19.60688734700052
 20
14.36262606712524
 30
0.0
 10
19.60688734700052
 20
14.36262606712524
 30
0.0
 10
19.59150321819698
 20
14.37597891350632
 30
0.0
 10
19.58226449205222
 20
14.39479147584015
 30
0.0
 10
19.57916085748797
 20
14.41905859858756
 30
0.0
  0
SPLINE
  5
DF
330
1F
100
AcDbEntity
  8
layer 1
 62
   250
100
AcDbSpline
210
0.0
220
0.0
230
1.0
 70
     9
 71
     3
 72
    36
 73
    32
 74
     0
 42
0.0000000001
 43
0.0000000001
 40
0.0
 40
0.0
 40
0.0
 40
0.0
 40
0.1111111111111111
 40
0.1111111111111111
 40
0.1111111111111111
 40
0.1666666666666666
 40
0.2222222222222222
 40
0.2222222222222222
 40
0.2222222222222222
 40
0.2777777777777778
 40
0.3333333333333333
 40
0.3333333333333333
 40
0.3333333333333333
 40
0.3888888888888888
 40
0.4444444444444445
 40
0.4444444444444445
 40
0.4444444444444445
 40
0.5
 40
0.5555555555555556
 40
0.5555555555555556
 40
0.5555555555555556
 40
0.6111111111111112
 40
0.6666666666666666
 40
0.6666666666666666
 40
0.6666666666666666
 40
0.7222222222222223
 40
0.7777777777777778
 40
0.7777777777777778
 40
0.7777777777777778
 40
0.8888888888888889
 40
1.0
 40
1.0
 40
1.0
 40
1.0
 10
19.7350488945633
 20
14.55519576520499
 30
0.0
 10
19.7350488945633
 20
14.57687996284163
 30
0.0
 10
19.72926953518369
 20
14.59418195220648
 30
0.0
 10
19.71764894995474
 20
14.60689035619465
 30
0.0
 10
19.71764894995474
 20
14.60689035619465
 30
0.0
 10
19.70595103163863
 20
14.61967093773085
 30
0.0
 10
19.69201560933435
 20
14.62605865072937
 30
0.0
 10
19.67562099485872
 20
14.62605865072937
 30
0.0
 10
19.67562099485872
 20
14.62605865072937
 30
0.0
 10
19.6587262930862
 20
14.62605865072937
 30
0.0
 10
19.64399691775385
 20
14.6191656948948
 30
0.0
 10
19.63143286886167
 20
14.60545196077369
 30
0.0
 10
19.63143286886167
 20
14.60545196077369
 30
0.0
 10
19.61887397550865
 20
14.59166604910456
 30
0.0
 10
19.61258937329299
 20
14.5738639724428
 30
0.0
 10
19.61258937329299
 20
14.55203541971017
 30
0.0
 10
19.61258937329299
 20
14.55203541971017
 30
0.0
 10
19.61258937329299
 20
14.53236188233941
 30
0.0
 10
19.61858526531663
 20
14.51642095530839
 30
0.0
 10
19.6304945607376
 20
14.50414561660825
 30
0.0
 10
19.6304945607376
 20
14.50414561660825
 30
0.0
 10
19.64240901169772
 20
14.49186512236896
 30
0.0
 10
19.65706620948206
 20
14.48576096402331
 30
0.0
 10
19.67453833163863
 20
14.48576096402331
 30
0.0
 10
19.67453833163863
 20
14.48576096402331
 30
0.0
 10
19.69222698643923
 20
14.48576096402331
 30
0.0
 10
19.70667280711869
 20
14.49186512236896
 30
0.0
 10
19.71800468215562
 20
14.50414561660825
 30
0.0
 10
19.71800468215562
 20
14.50414561660825
 30
0.0
 10
19.72941904581884
 20
14.51642095530839
 30
0.0
 10
19.7350488945633
 20
14.53343939002036
 30
0.0
 10
19.7350488945633
 20
14.55519576520499
 30
0.0
  0
SPLINE
  5
E0
330
1F
100
AcDbEntity
  8
layer 1
 62
   250
100
AcDbSpline
210
0.0
220
0.0
230
1.0
 70
    11
 71
     3
 72
    92
 73
    88
 74
     0
 42
0.0000000001
 43
0.0000000001
 40
0.0
 40
0.0
 40
0.0
 40
0.0
 40
0.0434782608695652
 40
0.0434782608695652
 40
0.0434782608695652
 40
0.0652173913043478
 40
0.0869565217391304
 40
0.0869565217391304
 40
0.0869565217391304
 40
0.108695652173913
 40
0.1304347826086956
 40
0.1304347826086956
 40
0.1304347826086956
 40
0.1521739130434782
 40
0.1739130434782609
 40
0.1739130434782609
 40
0.1739130434782609
 40
0.1956521739130435
 40
0.2173913043478261
 40
0.2173913043478261
 40
0.2173913043478261
 40
0.2391304347826087
 40
0.2608695652173913
 40
0.2608695652173913
 40
0.2608695652173913
 40
0.2826086956521739
 40
0.3043478260869565
 40
0.3043478260869565
 40
0.3043478260869565
 40
0.3260869565217391
 40
0.3478260869565217
 40
0.3478260869565217
 40
0.3478260869565217
 40
0.3695652173913043
 40
0.391304347826087
 40
0.391304347826087
 40
0.391304347826087
 40
0.4130434782608697
 40
0.4347826086956523
 40
0.4347826086956523
 40
0.4347826086956523
 40
0.4565217391304348
 40
0.4782608695652174
 40
0.4782608695652174
 40
0.4782608695652174
 40
0.5
 40
0.5217391304347827
 40
0.5217391304347827
 40
0.5217391304347827
 40
0.5434782608695653
 40
0.5652173913043478
 40
0.5652173913043478
 40
0.5652173913043478
 40
0.5869565217391304
 40
0.6086956521739131
 40
0.6086956521739131
 40
0.6086956521739131
 40
0.6304347826086957
 40
0.6521739130434784
 40
0.6521739130434784
 40
0.6521739130434784
 40
0.6739130434782609
 40
0.6956521739130435
 40
0.6956521739130435
 40
0.6956521739130435
 40
0.7173913043478261
 40
0.7391304347826086
 40
0.7391304347826086
 40
0.7391304347826086
 40
0.7608695652173914
 40
0.7826086956521741
 40
0.7826086956521741
 40
0.7826086956521741
 40
0.8043478260869566
 40
0.826086956521739
 40
0.826086956521739
 40
0.826086956521739
 40
0.8478260869565216
 40
0.8695652173913043
 40
0.8695652173913043
 40
0.8695652173913043
 40
0.8913043478260869
 40
0.9130434782608695
 40
0.9130434782608695
 40
0.9130434782608695
 40
0.9565217391304347
 40
1.0
 40
1.0
 40
1.0
 40
1.0
 10
20.35063264973669
 20
14.38261769122094
 30
0.0
 10
20.35063264973669
 20
14.38261769122094
 30
0.0
 10
20.35063264973669
 20
14.34514769122094
 30
0.0
 10
20.35063264973669
 20
14.34514769122094
 30
0.0
 10
20.35063264973669
 20
14.34514769122094
 30
0.0
 10
20.35063264973669
 20
14.34514769122094
 30
0.0
 10
20.14083264973669
 20
14.34514769122094
 30
0.0
 10
20.14083264973669
 20
14.34514769122094
 30
0.0
 10
20.14083264973669
 20
14.34514769122094
 30
0.0
 10
20.14053264973669
 20
14.35453769122094
 30
0.0
 10
20.14201264973669
 20
14.36354769122094
 30
0.0
 10
20.14534264973669
 20
14.37219769122094
 30
0.0
 10
20.14534264973669
 20
14.37219769122094
 30
0.0
 10
20.15066264973669
 20
14.38652769122094
 30
0.0
 10
20.15923264973669
 20
14.40057769122094
 30
0.0
 10
20.17098264973669
 20
14.41446769122094
 30
0.0
 10
20.17098264973669
 20
14.41446769122094
 30
0.0
 10
20.18281264973669
 20
14.42828769122094
 30
0.0
 10
20.19980264973669
 20
14.44431769122094
 30
0.0
 10
20.22197264973669
 20
14.46249769122094
 30
0.0
 10
20.22197264973669
 20
14.46249769122094
 30
0.0
 10
20.25648264973669
 20
14.49080769122095
 30
0.0
 10
20.27984264973669
 20
14.51319769122094
 30
0.0
 10
20.29196264973669
 20
14.52974769122094
 30
0.0
 10
20.29196264973669
 20
14.52974769122094
 30
0.0
 10
20.30407264973669
 20
14.54622769122094
 30
0.0
 10
20.31013264973669
 20
14.56189769122094
 30
0.0
 10
20.31013264973669
 20
14.57659769122094
 30
0.0
 10
20.31013264973669
 20
14.57659769122094
 30
0.0
 10
20.31013264973669
 20
14.59204769122094
 30
0.0
 10
20.30459264973669
 20
14.60505769122094
 30
0.0
 10
20.29358264973669
 20
14.61569769122094
 30
0.0
 10
20.29358264973669
 20
14.61569769122094
 30
0.0
 10
20.28250264973669
 20
14.62626769122094
 30
0.0
 10
20.26809264973669
 20
14.63158769122094
 30
0.0
 10
20.25035264973669
 20
14.63158769122094
 30
0.0
 10
20.25035264973669
 20
14.63158769122094
 30
0.0
 10
20.23158264973669
 20
14.63158769122094
 30
0.0
 10
20.21658264973669
 20
14.62596769122094
 30
0.0
 10
20.20534264973669
 20
14.61465769122094
 30
0.0
 10
20.20534264973669
 20
14.61465769122094
 30
0.0
 10
20.19404264973669
 20
14.60342769122094
 30
0.0
 10
20.18835264973669
 20
14.58783769122094
 30
0.0
 10
20.18820264973669
 20
14.56795769122094
 30
0.0
 10
20.18820264973669
 20
14.56795769122094
 30
0.0
 10
20.18820264973669
 20
14.56795769122094
 30
0.0
 10
20.14815264973669
 20
14.57201769122094
 30
0.0
 10
20.14815264973669
 20
14.57201769122094
 30
0.0
 10
20.14815264973669
 20
14.57201769122094
 30
0.0
 10
20.15088264973669
 20
14.60194769122094
 30
0.0
 10
20.16123264973669
 20
14.62470769122094
 30
0.0
 10
20.17911264973669
 20
14.64037769122094
 30
0.0
 10
20.17911264973669
 20
14.64037769122094
 30
0.0
 10
20.19699264973669
 20
14.65604769122094
 30
0.0
 10
20.22109264973669
 20
14.66387769122094
 30
0.0
 10
20.25124264973669
 20
14.66387769122094
 30
0.0
 10
20.25124264973669
 20
14.66387769122094
 30
0.0
 10
20.28168264973669
 20
14.66387769122094
 30
0.0
 10
20.30577264973669
 20
14.65537769122094
 30
0.0
 10
20.32351264973669
 20
14.63852769122094
 30
0.0
 10
20.32351264973669
 20
14.63852769122094
 30
0.0
 10
20.34132264973669
 20
14.62160769122094
 30
0.0
 10
20.35019264973669
 20
14.60069769122094
 30
0.0
 10
20.35019264973669
 20
14.57571769122094
 30
0.0
 10
20.35019264973669
 20
14.57571769122094
 30
0.0
 10
20.35019264973669
 20
14.56300769122094
 30
0.0
 10
20.34760264973669
 20
14.55051769122094
 30
0.0
 10
20.34236264973669
 20
14.53824769122094
 30
0.0
 10
20.34236264973669
 20
14.53824769122094
 30
0.0
 10
20.33718264973669
 20
14.52597769122094
 30
0.0
 10
20.32854264973669
 20
14.51304769122094
 30
0.0
 10
20.31649264973669
 20
14.49952769122094
 30
0.0
 10
20.31649264973669
 20
14.49952769122094
 30
0.0
 10
20.30444264973669
 20
14.48592769122094
 30
0.0
 10
20.28442264973669
 20
14.46730769122094
 30
0.0
 10
20.25641264973669
 20
14.44365769122094
 30
0.0
 10
20.25641264973669
 20
14.44365769122094
 30
0.0
 10
20.23306264973669
 20
14.42399769122094
 30
0.0
 10
20.21806264973669
 20
14.41069769122094
 30
0.0
 10
20.21140264973669
 20
14.40367769122094
 30
0.0
 10
20.21140264973669
 20
14.40367769122094
 30
0.0
 10
20.20475264973669
 20
14.39672769122094
 30
0.0
 10
20.19928264973669
 20
14.38970769122094
 30
0.0
 10
20.19492264973669
 20
14.38261769122094
 30
0.0
 10
20.19492264973669
 20
14.38261769122094
 30
0.0
 10
20.19492264973669
 20
14.38261769122094
 30
0.0
 10
20.35063264973669
 20
14.38261769122094
 30
0.0
 10
20.35063264973669
 20
14.38261769122094
 30
0.0
  0
ENDSEC
  0
SECTION
  2
OBJECTS
  0
DICTIONARY
  5
C
330
0
100
AcDbDictionary
281
     1
  3
ACAD_2007HEADERVARS_RT
350
F7
  3
ACAD_CIP_PREVIOUS_PRODUCT_INFO
350
A8
  3
ACAD_COLOR
350
91
  3
ACAD_GROUP
350
D
  3
ACAD_IMAGE_DICT
350
49
  3
ACAD_IMAGE_VARS
350
A9
  3
ACAD_LAYOUT
350
1A
  3
ACAD_MATERIAL
350
3B
  3
ACAD_MLEADERSTYLE
350
84
  3
ACAD_MLINESTYLE
350
17
  3
ACAD_PLOTSETTINGS
350
19
  3
ACAD_PLOTSTYLENAME
350
E
  3
ACAD_SCALELIST
350
93
  3
ACAD_TABLESTYLE
350
83
  3
ACAD_VISUALSTYLE
350
2A
  3
ACDB_RECOMPOSE_DATA
350
F5
  3
AcDbVariableDictionary
350
E1
  3
AEC_PROPERTY_SET_DEFS
350
BC
  3
DWGPROPS
350
F6
  0
DICTIONARY
  5
F7
102
{ACAD_REACTORS
330
C
102
}
330
C
100
AcDbDictionary
281
     1
  3
INTERFERECOLOR
350
F8
  0
XRECORD
  5
A8
102
{ACAD_REACTORS
330
C
102
}
330
C
100
AcDbXrecord
280
     1
300
STRDET
300
2012
300
REVSU_F_S
  0
DICTIONARY
  5
91
102
{ACAD_REACTORS
330
C
102
}
330
C
100
AcDbDictionary
281
     1
  0
DICTIONARY
  5
D
102
{ACAD_REACTORS
330
C
102
}
330
C
100
AcDbDictionary
281
     1
  0
DICTIONARY
  5
49
102
{ACAD_REACTORS
330
C
102
}
330
C
100
AcDbDictionary
281
     1
  3
Image #1
350
4A
  0
RASTERVARIABLES
  5
A9
102
{ACAD_REACTORS
330
C
102
}
330
C
100
AcDbRasterVariables
 90
        0
 70
     1
 71
     1
 72
     2
  0
DICTIONARY
  5
1A
102
{ACAD_REACTORS
330
C
102
}
330
C
100
AcDbDictionary
281
     1
  3
Layout1
350
1E
  3
Layout2
350
26
  3
Model
350
22
  0
DICTIONARY
  5
3B
102
{ACAD_REACTORS
330
C
102
}
330
C
100
AcDbDictionary
281
     1
  3
ByBlock
350
3D
  3
ByLayer
350
3C
  3
Global
350
3E
  0
DICTIONARY
  5
84
102
{ACAD_REACTORS
330
C
102
}
330
C
100
AcDbDictionary
281
     1
  3
Standard
350
A5
  0
DICTIONARY
  5
17
102
{ACAD_REACTORS
330
C
102
}
330
C
100
AcDbDictionary
281
     1
  3
Standard
350
18
  0
DICTIONARY
  5
19
102
{ACAD_REACTORS
330
C
102
}
330
C
100
AcDbDictionary
281
     1
  0
ACDBDICTIONARYWDFLT
  5
E
102
{ACAD_REACTORS
330
C
102
}
330
C
100
AcDbDictionary
281
     1
  3
Normal
350
F
100
AcDbDictionaryWithDefault
340
F
  0
DICTIONARY
  5
93
102
{ACAD_REACTORS
330
C
102
}
330
C
100
AcDbDictionary
281
     1
  3
A0
350
94
  3
A1
350
95
  3
A2
350
96
  3
A3
350
97
  3
A4
350
98
  3
A5
350
99
  3
A6
350
9A
  3
A7
350
9B
  3
A8
350
9C
  3
A9
350
9D
  3
B0
350
9E
  3
B1
350
9F
  3
B2
350
A0
  3
B3
350
A1
  3
B4
350
A2
  3
B5
350
A3
  3
B6
350
A4
  0
DICTIONARY
  5
83
102
{ACAD_REACTORS
330
C
102
}
330
C
100
AcDbDictionary
281
     1
  3
Standard
350
92
  0
DICTIONARY
  5
2A
102
{ACAD_REACTORS
330
C
102
}
330
C
100
AcDbDictionary
281
     1
  3
2dWireframe
350
2F
  3
3D Hidden
350
31
  3
3dWireframe
350
30
  3
Basic
350
32
  3
Brighten
350
36
  3
ColorChange
350
3A
  3
Conceptual
350
34
  3
Dim
350
35
  3
EdgeColorOff
350
90
  3
Facepattern
350
39
  3
Flat
350
2B
  3
FlatWithEdges
350
2C
  3
Gouraud
350
2D
  3
GouraudWithEdges
350
2E
  3
Hidden
350
88
  3
JitterOff
350
8E
  3
Linepattern
350
38
  3
OverhangOff
350
8F
  3
Realistic
350
33
  3
Shaded
350
8D
  3
Shaded with edges
350
8C
  3
Shades of Gray
350
89
  3
Sketchy
350
8A
  3
Thicken
350
37
  3
Wireframe
350
87
  3
X-Ray
350
8B
  0
XRECORD
  5
F5
102
{ACAD_REACTORS
330
C
102
}
330
C
100
AcDbXrecord
280
     1
 90
        1
330
92
  0
DICTIONARY
  5
E1
102
{ACAD_REACTORS
330
C
102
}
330
C
100
AcDbDictionary
281
     1
  3
CANNOSCALE
350
E5
  3
CMLEADERSTYLE
350
E3
  3
CTABLESTYLE
350
E2
  3
DGNFRAME
350
EF
  3
DIMASSOC
350
ED
  3
HIDETEXT
350
EB
  3
INDEXCTL
350
EA
  3
LAYEREVAL
350
E7
  3
LAYERNOTIFY
350
E8
  3
LIGHTINGUNITS
350
E6
  3
LOFTANG1
350
F0
  3
LOFTANG2
350
F1
  3
LONGITUDE
350
F2
  3
MSLTSCALE
350
E4
  3
SOLIDHIST
350
EE
  3
SORTENTS
350
E9
  3
XCLIPFRAME
350
EC
  0
DICTIONARY
  5
BC
102
{ACAD_REACTORS
330
C
102
}
330
C
100
AcDbDictionary
281
     1
  0
XRECORD
  5
F6
102
{ACAD_REACTORS
330
C
102
}
330
C
100
AcDbXrecord
280
     1
  1
DWGPROPS COOKIE
  2

  3

  4

  6

  7

  8
mlis
  9

300
=
301
=
302
=
303
=
304
=
305
=
306
=
307
=
308
=
309
=
 40
0.0156187152777778
 41
2457474.221457605
 42
2457523.414007095
  1

 90
        0
  0
XRECORD
  5
F8
102
{ACAD_REACTORS
330
F7
102
}
330
F7
100
AcDbXrecord
280
     1
1004
1800000001000000000000C0000000000000000000000000
  0
IMAGEDEF
  5
4A
102
{ACAD_REACTORS
330
49
330
4C
102
}
330
49
100
AcDbRasterImageDef
 90
        0
  1
C:\Documents and Settings\Administrator\\U+684C\U+9762\\U+5F00\U+5B54\U+7EB8\\U+5F00\U+5B54\U+7EB82001_1_ACD_0.jpg
 10
871.0
 20
835.0
 11
0.0011481056257176
 21
0.0011481056257176
280
     1
281
     5
  0
LAYOUT
  5
1E
102
{ACAD_XDICTIONARY
360
F9
102
}
102
{ACAD_REACTORS
330
1A
102
}
330
1A
100
AcDbPlotSettings
  1

  2
none_device
  4

  6

 40
0.0
 41
0.0
 42
0.0
 43
0.0
 44
0.0
 45
0.0
 46
0.0
 47
0.0
 48
0.0
 49
0.0
140
0.0
141
0.0
142
1.0
143
1.0
 70
   688
 72
     0
 73
     0
 74
     5
  7

 75
    16
147
1.0
148
0.0
149
0.0
100
AcDbLayout
  1
Layout1
 70
     1
 71
     1
 10
0.0
 20
0.0
 11
12.0
 21
9.0
 12
0.0
 22
0.0
 32
0.0
 14
1.000000000000000E+20
 24
1.000000000000000E+20
 34
1.000000000000000E+20
 15
-1.000000000000000E+20
 25
-1.000000000000000E+20
 35
-1.000000000000000E+20
146
0.0
 13
0.0
 23
0.0
 33
0.0
 16
1.0
 26
0.0
 36
0.0
 17
0.0
 27
1.0
 37
0.0
 76
     0
330
1B
  0
LAYOUT
  5
26
102
{ACAD_XDICTIONARY
360
FD
102
}
102
{ACAD_REACTORS
330
1A
102
}
330
1A
100
AcDbPlotSettings
  1

  2
none_device
  4

  6

 40
0.0
 41
0.0
 42
0.0
 43
0.0
 44
0.0
 45
0.0
 46
0.0
 47
0.0
 48
0.0
 49
0.0
140
0.0
141
0.0
142
1.0
143
1.0
 70
   688
 72
     0
 73
     0
 74
     5
  7

 75
    16
147
1.0
148
0.0
149
0.0
100
AcDbLayout
  1
Layout2
 70
     1
 71
     2
 10
0.0
 20
0.0
 11
0.0
 21
0.0
 12
0.0
 22
0.0
 32
0.0
 14
0.0
 24
0.0
 34
0.0
 15
0.0
 25
0.0
 35
0.0
146
0.0
 13
0.0
 23
0.0
 33
0.0
 16
1.0
 26
0.0
 36
0.0
 17
0.0
 27
1.0
 37
0.0
 76
     0
330
23
  0
LAYOUT
  5
22
102
{ACAD_XDICTIONARY
360
FB
102
}
102
{ACAD_REACTORS
330
1A
102
}
330
1A
100
AcDbPlotSettings
  1

  2
none_device
  4

  6

 40
0.0
 41
0.0
 42
0.0
 43
0.0
 44
0.0
 45
0.0
 46
0.0
 47
0.0
 48
0.0
 49
0.0
140
0.0
141
0.0
142
1.0
143
1.0
 70
  1712
 72
     0
 73
     0
 74
     0
  7

 75
     0
147
1.0
148
0.0
149
0.0
100
AcDbLayout
  1
Model
 70
     1
 71
     0
 10
0.0
 20
0.0
 11
12.0
 21
9.0
 12
0.0
 22
0.0
 32
0.0
 14
-19.22271
 24
-14.6334
 34
0.0
 15
20.96979
 25
14.51321
 35
0.0
146
0.0
 13
0.0
 23
0.0
 33
0.0
 16
1.0
 26
0.0
 36
0.0
 17
0.0
 27
1.0
 37
0.0
 76
     0
330
1F
331
29
  0
MATERIAL
  5
3D
102
{ACAD_XDICTIONARY
360
121
102
}
102
{ACAD_REACTORS
330
3B
102
}
330
3B
100
AcDbMaterial
  1
ByBlock
  0
MATERIAL
  5
3C
102
{ACAD_XDICTIONARY
360
11F
102
}
102
{ACAD_REACTORS
330
3B
102
}
330
3B
100
AcDbMaterial
  1
ByLayer
  0
MATERIAL
  5
3E
102
{ACAD_XDICTIONARY
360
123
102
}
102
{ACAD_REACTORS
330
3B
102
}
330
3B
100
AcDbMaterial
  1
Global
  0
MLEADERSTYLE
  5
A5
102
{ACAD_REACTORS
330
84
102
}
330
84
100
AcDbMLeaderStyle
170
     2
171
     1
172
     0
 90
        2
 40
0.0
 41
0.0
173
     1
 91
-1056964608
340
14
 92
       -2
290
     1
 42
0.09
291
     1
 43
0.36
  3
Standard
 44
0.18
300

342
11
174
     1
178
     6
175
     1
176
     0
 93
-1056964608
 45
0.18
292
     0
297
     0
 46
0.18
 94
-1056964608
 47
1.0
 49
1.0
140
1.0
293
     1
141
0.0
294
     1
177
     0
142
1.0
295
     0
296
     0
143
0.125
1001
ACAD_MLEADERVER
1070
     2
  0
MLINESTYLE
  5
18
102
{ACAD_REACTORS
330
17
102
}
330
17
100
AcDbMlineStyle
  2
STANDARD
 70
     0
  3

 62
   256
 51
90.0
 52
90.0
 71
     2
 49
0.5
 62
   256
  6
BYLAYER
 49
-0.5
 62
   256
  6
BYLAYER
  0
ACDBPLACEHOLDER
  5
F
102
{ACAD_REACTORS
330
E
102
}
330
E
  0
SCALE
  5
94
102
{ACAD_REACTORS
330
93
102
}
330
93
100
AcDbScale
 70
     0
300
1:1
140
1.0
141
1.0
290
     1
  0
SCALE
  5
95
102
{ACAD_REACTORS
330
93
102
}
330
93
100
AcDbScale
 70
     0
300
1/128" = 1'-0"
140
0.0078125
141
12.0
290
     0
  0
SCALE
  5
96
102
{ACAD_REACTORS
330
93
102
}
330
93
100
AcDbScale
 70
     0
300
1/64" = 1'-0"
140
0.015625
141
12.0
290
     0
  0
SCALE
  5
97
102
{ACAD_REACTORS
330
93
102
}
330
93
100
AcDbScale
 70
     0
300
1/32" = 1'-0"
140
0.03125
141
12.0
290
     0
  0
SCALE
  5
98
102
{ACAD_REACTORS
330
93
102
}
330
93
100
AcDbScale
 70
     0
300
1/16" = 1'-0"
140
0.0625
141
12.0
290
     0
  0
SCALE
  5
99
102
{ACAD_REACTORS
330
93
102
}
330
93
100
AcDbScale
 70
     0
300
3/32" = 1'-0"
140
0.09375
141
12.0
290
     0
  0
SCALE
  5
9A
102
{ACAD_REACTORS
330
93
102
}
330
93
100
AcDbScale
 70
     0
300
1/8" = 1'-0"
140
0.125
141
12.0
290
     0
  0
SCALE
  5
9B
102
{ACAD_REACTORS
330
93
102
}
330
93
100
AcDbScale
 70
     0
300
3/16" = 1'-0"
140
0.1875
141
12.0
290
     0
  0
SCALE
  5
9C
102
{ACAD_REACTORS
330
93
102
}
330
93
100
AcDbScale
 70
     0
300
1/4" = 1'-0"
140
0.25
141
12.0
290
     0
  0
SCALE
  5
9D
102
{ACAD_REACTORS
330
93
102
}
330
93
100
AcDbScale
 70
     0
300
3/8" = 1'-0"
140
0.375
141
12.0
290
     0
  0
SCALE
  5
9E
102
{ACAD_REACTORS
330
93
102
}
330
93
100
AcDbScale
 70
     0
300
1/2" = 1'-0"
140
0.5
141
12.0
290
     0
  0
SCALE
  5
9F
102
{ACAD_REACTORS
330
93
102
}
330
93
100
AcDbScale
 70
     0
300
3/4" = 1'-0"
140
0.75
141
12.0
290
     0
  0
SCALE
  5
A0
102
{ACAD_REACTORS
330
93
102
}
330
93
100
AcDbScale
 70
     0
300
1" = 1'-0"
140
1.0
141
12.0
290
     0
  0
SCALE
  5
A1
102
{ACAD_REACTORS
330
93
102
}
330
93
100
AcDbScale
 70
     0
300
1-1/2" = 1'-0"
140
1.5
141
12.0
290
     0
  0
SCALE
  5
A2
102
{ACAD_REACTORS
330
93
102
}
330
93
100
AcDbScale
 70
     0
300
3" = 1'-0"
140
3.0
141
12.0
290
     0
  0
SCALE
  5
A3
102
{ACAD_REACTORS
330
93
102
}
330
93
100
AcDbScale
 70
     0
300
6" = 1'-0"
140
6.0
141
12.0
290
     0
  0
SCALE
  5
A4
102
{ACAD_REACTORS
330
93
102
}
330
93
100
AcDbScale
 70
     0
300
1'-0" = 1'-0"
140
12.0
141
12.0
290
     0
  0
TABLESTYLE
  5
92
102
{ACAD_XDICTIONARY
360
F3
102
}
102
{ACAD_REACTORS
330
83
102
}
330
83
100
AcDbTableStyle
  3
Standard
 70
     0
 71
     0
 40
0.06
 41
0.06
280
     0
281
     0
  7
Standard
140
0.18
170
     2
 62
     0
 63
     7
283
     0
274
    -2
284
     1
 64
     0
275
    -2
285
     1
 65
     0
276
    -2
286
     1
 66
     0
277
    -2
287
     1
 67
     0
278
    -2
288
     1
 68
     0
279
    -2
289
     1
 69
     0
  7
Standard
140
0.25
170
     5
 62
     0
 63
     7
283
     0
274
    -2
284
     1
 64
     0
275
    -2
285
     1
 65
     0
276
    -2
286
     1
 66
     0
277
    -2
287
     1
 67
     0
278
    -2
288
     1
 68
     0
279
    -2
289
     1
 69
     0
  7
Standard
140
0.18
170
     5
 62
     0
 63
     7
283
     0
274
    -2
284
     1
 64
     0
275
    -2
285
     1
 65
     0
276
    -2
286
     1
 66
     0
277
    -2
287
     1
 67
     0
278
    -2
288
     1
 68
     0
279
    -2
289
     1
 69
     0
  0
VISUALSTYLE
  5
2F
102
{ACAD_XDICTIONARY
360
107
102
}
102
{ACAD_REACTORS
330
2A
102
}
330
2A
100
AcDbVisualStyle
  2

 70
     4
 71
     0
 72
     2
 73
     0
 90
        0
 40
-0.6
 41
-30.0
 62
     5
 63
     7
 74
     1
 91
        4
 64
     7
 65
   257
 75
     1
175
     1
 42
1.0
 92
        0
 66
   257
 43
1.0
 76
     1
 77
     6
 78
     2
 67
     7
 79
     5
170
     0
171
     0
290
     0
174
     0
 93
        1
 44
0.0
173
     0
291
     0
 45
0.0
1001
ACAD
1000
AcDbSavedByObjectVersion
1070
     0
  0
VISUALSTYLE
  5
31
102
{ACAD_XDICTIONARY
360
10B
102
}
102
{ACAD_REACTORS
330
2A
102
}
330
2A
100
AcDbVisualStyle
  2

 70
     6
 71
     1
 72
     2
 73
     2
 90
        0
 40
-0.6
 41
-30.0
 62
     5
 63
     7
 74
     2
 91
        2
 64
     7
 65
   257
 75
     2
175
     1
 42
40.0
 92
        0
 66
   257
 43
1.0
 76
     1
 77
     6
 78
     2
 67
     7
 79
     3
170
     0
171
     0
290
     0
174
     0
 93
        1
 44
0.0
173
     0
291
     0
 45
0.0
1001
ACAD
1000
AcDbSavedByObjectVersion
1070
     0
  0
VISUALSTYLE
  5
30
102
{ACAD_XDICTIONARY
360
109
102
}
102
{ACAD_REACTORS
330
2A
102
}
330
2A
100
AcDbVisualStyle
  2

 70
     5
 71
     0
 72
     2
 73
     0
 90
        0
 40
-0.6
 41
-30.0
 62
     5
 63
     7
 74
     1
 91
        4
 64
     7
 65
   257
 75
     1
175
     1
 42
1.0
 92
        0
 66
   257
 43
1.0
 76
     1
 77
     6
 78
     2
 67
     7
 79
     5
170
     0
171
     0
290
     0
174
     0
 93
        1
 44
0.0
173
     0
291
     0
 45
0.0
1001
ACAD
1000
AcDbSavedByObjectVersion
1070
     0
  0
VISUALSTYLE
  5
32
102
{ACAD_XDICTIONARY
360
10D
102
}
102
{ACAD_REACTORS
330
2A
102
}
330
2A
100
AcDbVisualStyle
  2

 70
     7
 71
     1
 72
     0
 73
     1
 90
        0
 40
-0.6
 41
-30.0
 62
     5
 63
     7
 74
     0
 91
        4
 64
     7
 65
   257
 75
     1
175
     1
 42
1.0
 92
        8
 66
     7
 43
1.0
 76
     1
 77
     6
 78
     2
 67
     7
 79
     5
170
     0
171
     0
290
     0
174
     0
 93
        1
 44
0.0
173
     0
291
     1
 45
0.0
1001
ACAD
1000
AcDbSavedByObjectVersion
1070
     0
  0
VISUALSTYLE
  5
36
102
{ACAD_XDICTIONARY
360
115
102
}
102
{ACAD_REACTORS
330
2A
102
}
330
2A
100
AcDbVisualStyle
  2

 70
    12
 71
     2
 72
     2
 73
     0
 90
        0
 40
-0.6
 41
-30.0
 62
     5
 63
     7
 74
     1
 91
        4
 64
     7
 65
   257
 75
     1
175
     1
 42
1.0
 92
        8
 66
     7
 43
1.0
 76
     1
 77
     6
 78
     2
 67
     7
 79
     5
170
     0
171
     0
290
     0
174
     0
 93
        1
 44
50.0
173
     0
291
     1
 45
0.0
1001
ACAD
1000
AcDbSavedByObjectVersion
1070
     0
  0
VISUALSTYLE
  5
3A
102
{ACAD_XDICTIONARY
360
11D
102
}
102
{ACAD_REACTORS
330
2A
102
}
330
2A
100
AcDbVisualStyle
  2

 70
    16
 71
     2
 72
     2
 73
     3
 90
        0
 40
-0.6
 41
-30.0
 62
     5
 63
     8
 74
     1
 91
        4
 64
     7
 65
   257
 75
     1
175
     1
 42
1.0
 92
        8
 66
     8
 43
1.0
 76
     1
 77
     6
 78
     2
 67
     7
 79
     5
170
     0
171
     0
290
     0
174
     0
 93
        1
 44
0.0
173
     0
291
     1
 45
0.0
1001
ACAD
1000
AcDbSavedByObjectVersion
1070
     0
  0
VISUALSTYLE
  5
34
102
{ACAD_XDICTIONARY
360
111
102
}
102
{ACAD_REACTORS
330
2A
102
}
330
2A
100
AcDbVisualStyle
  2

 70
     9
 71
     3
 72
     2
 73
     0
 90
        0
 40
-0.6
 41
-30.0
 62
     5
 63
     7
 74
     2
 91
        2
 64
     7
 65
   257
 75
     1
175
     1
 42
40.0
 92
        8
 66
     7
 43
1.0
 76
     1
 77
     6
 78
     2
 67
     7
 79
     3
170
     0
171
     0
290
     0
174
     0
 93
        1
 44
0.0
173
     0
291
     0
 45
0.0
1001
ACAD
1000
AcDbSavedByObjectVersion
1070
     0
  0
VISUALSTYLE
  5
35
102
{ACAD_XDICTIONARY
360
113
102
}
102
{ACAD_REACTORS
330
2A
102
}
330
2A
100
AcDbVisualStyle
  2

 70
    11
 71
     2
 72
     2
 73
     0
 90
        0
 40
-0.6
 41
-30.0
 62
     5
 63
     7
 74
     1
 91
        4
 64
     7
 65
   257
 75
     1
175
     1
 42
1.0
 92
        8
 66
     7
 43
1.0
 76
     1
 77
     6
 78
     2
 67
     7
 79
     5
170
     0
171
     0
290
     0
174
     0
 93
        1
 44
-50.0
173
     0
291
     1
 45
0.0
1001
ACAD
1000
AcDbSavedByObjectVersion
1070
     0
  0
VISUALSTYLE
  5
90
102
{ACAD_XDICTIONARY
360
137
102
}
102
{ACAD_REACTORS
330
2A
102
}
330
2A
100
AcDbVisualStyle
  2
EdgeColorOff
 70
    22
 71
     2
 72
     2
 73
     0
 90
        0
 40
-0.6
 41
-30.0
 62
     5
 63
     7
 74
     1
 91
        4
 64
     7
 65
   257
 75
     1
175
     1
 42
1.0
 92
        8
 66
     7
 43
1.0
 76
     1
 77
     6
 78
     2
 67
     7
 79
     5
170
     0
171
     0
290
     0
174
     0
 93
        1
 44
0.0
173
     0
291
     1
 45
0.0
1001
ACAD
1000
AcDbSavedByObjectVersion
1070
     0
  0
VISUALSTYLE
  5
39
102
{ACAD_XDICTIONARY
360
11B
102
}
102
{ACAD_REACTORS
330
2A
102
}
330
2A
100
AcDbVisualStyle
  2

 70
    15
 71
     2
 72
     2
 73
     0
 90
        0
 40
-0.6
 41
-30.0
 62
     5
 63
     7
 74
     1
 91
        4
 64
     7
 65
   257
 75
     1
175
     1
 42
1.0
 92
        8
 66
     7
 43
1.0
 76
     1
 77
     6
 78
     2
 67
     7
 79
     5
170
     0
171
     0
290
     0
174
     0
 93
        1
 44
0.0
173
     0
291
     1
 45
0.0
1001
ACAD
1000
AcDbSavedByObjectVersion
1070
     0
  0
VISUALSTYLE
  5
2B
102
{ACAD_XDICTIONARY
360
FF
102
}
102
{ACAD_REACTORS
330
2A
102
}
330
2A
100
AcDbVisualStyle
  2

 70
     0
 71
     2
 72
     1
 73
     1
 90
        2
 40
-0.6
 41
30.0
 62
     5
 63
     7
 74
     0
 91
        4
 64
     7
 65
   257
 75
     1
175
     1
 42
1.0
 92
        8
 66
     7
 43
1.0
 76
     1
 77
     6
 78
     2
 67
     7
 79
     5
170
     0
171
     0
290
     0
174
     0
 93
       13
 44
0.0
173
     0
291
     1
 45
0.0
1001
ACAD
1000
AcDbSavedByObjectVersion
1070
     0
  0
VISUALSTYLE
  5
2C
102
{ACAD_XDICTIONARY
360
101
102
}
102
{ACAD_REACTORS
330
2A
102
}
330
2A
100
AcDbVisualStyle
  2

 70
     1
 71
     2
 72
     1
 73
     1
 90
        2
 40
-0.6
 41
30.0
 62
     5
 63
     7
 74
     1
 91
        4
 64
     7
 65
   257
 75
     1
175
     1
 42
1.0
 92
        0
 66
   257
 43
1.0
 76
     1
 77
     6
 78
     2
 67
     7
 79
     5
170
     0
171
     0
290
     0
174
     0
 93
       13
 44
0.0
173
     0
291
     1
 45
0.0
1001
ACAD
1000
AcDbSavedByObjectVersion
1070
     0
  0
VISUALSTYLE
  5
2D
102
{ACAD_XDICTIONARY
360
103
102
}
102
{ACAD_REACTORS
330
2A
102
}
330
2A
100
AcDbVisualStyle
  2

 70
     2
 71
     2
 72
     2
 73
     1
 90
        2
 40
-0.6
 41
30.0
 62
     5
 63
     7
 74
     0
 91
        4
 64
     7
 65
   257
 75
     1
175
     1
 42
1.0
 92
        0
 66
     7
 43
1.0
 76
     1
 77
     6
 78
     2
 67
     7
 79
     5
170
     0
171
     0
290
     0
174
     0
 93
       13
 44
0.0
173
     0
291
     1
 45
0.0
1001
ACAD
1000
AcDbSavedByObjectVersion
1070
     0
  0
VISUALSTYLE
  5
2E
102
{ACAD_XDICTIONARY
360
105
102
}
102
{ACAD_REACTORS
330
2A
102
}
330
2A
100
AcDbVisualStyle
  2

 70
     3
 71
     2
 72
     2
 73
     1
 90
        2
 40
-0.6
 41
30.0
 62
     5
 63
     7
 74
     1
 91
        4
 64
     7
 65
   257
 75
     1
175
     1
 42
1.0
 92
        0
 66
   257
 43
1.0
 76
     1
 77
     6
 78
     2
 67
     7
 79
     5
170
     0
171
     0
290
     0
174
     0
 93
       13
 44
0.0
173
     0
291
     1
 45
0.0
1001
ACAD
1000
AcDbSavedByObjectVersion
1070
     0
  0
VISUALSTYLE
  5
88
102
{ACAD_XDICTIONARY
360
127
102
}
102
{ACAD_REACTORS
330
2A
102
}
330
2A
100
AcDbVisualStyle
  2
Hidden
 70
     6
 71
     1
 72
     2
 73
     2
 90
        0
 40
-0.6
 41
-30.0
 62
     5
 63
     7
 74
     2
 91
        2
 64
     7
 65
   257
 75
     2
175
     1
 42
40.0
 92
        0
 66
   257
 43
1.0
 76
     1
 77
     6
 78
     2
 67
     7
 79
     3
170
     0
171
     0
290
     0
174
     0
 93
        1
 44
0.0
173
     0
291
     0
 45
0.0
1001
ACAD
1000
AcDbSavedByObjectVersion
1070
     0
  0
VISUALSTYLE
  5
8E
102
{ACAD_XDICTIONARY
360
133
102
}
102
{ACAD_REACTORS
330
2A
102
}
330
2A
100
AcDbVisualStyle
  2
JitterOff
 70
    20
 71
     2
 72
     2
 73
     0
 90
        0
 40
-0.6
 41
-30.0
 62
     5
 63
     7
 74
     1
 91
        4
 64
     7
 65
   257
 75
     1
175
     1
 42
1.0
 92
       10
 66
     7
 43
1.0
 76
     1
 77
     6
 78
     2
 67
     7
 79
     5
170
     0
171
     0
290
     0
174
     0
 93
        1
 44
0.0
173
     0
291
     1
 45
0.0
1001
ACAD
1000
AcDbSavedByObjectVersion
1070
     0
  0
VISUALSTYLE
  5
38
102
{ACAD_XDICTIONARY
360
119
102
}
102
{ACAD_REACTORS
330
2A
102
}
330
2A
100
AcDbVisualStyle
  2

 70
    14
 71
     2
 72
     2
 73
     0
 90
        0
 40
-0.6
 41
-30.0
 62
     5
 63
     7
 74
     1
 91
        4
 64
     7
 65
   257
 75
     7
175
     7
 42
1.0
 92
        8
 66
     7
 43
1.0
 76
     1
 77
     6
 78
     2
 67
     7
 79
     5
170
     0
171
     0
290
     0
174
     0
 93
        1
 44
0.0
173
     0
291
     1
 45
0.0
1001
ACAD
1000
AcDbSavedByObjectVersion
1070
     0
  0
VISUALSTYLE
  5
8F
102
{ACAD_XDICTIONARY
360
135
102
}
102
{ACAD_REACTORS
330
2A
102
}
330
2A
100
AcDbVisualStyle
  2
OverhangOff
 70
    21
 71
     2
 72
     2
 73
     0
 90
        0
 40
-0.6
 41
-30.0
 62
     5
 63
     7
 74
     1
 91
        4
 64
     7
 65
   257
 75
     1
175
     1
 42
1.0
 92
        9
 66
     7
 43
1.0
 76
     1
 77
     6
 78
     2
 67
     7
 79
     5
170
     0
171
     0
290
     0
174
     0
 93
        1
 44
0.0
173
     0
291
     1
 45
0.0
1001
ACAD
1000
AcDbSavedByObjectVersion
1070
     0
  0
VISUALSTYLE
  5
33
102
{ACAD_XDICTIONARY
360
10F
102
}
102
{ACAD_REACTORS
330
2A
102
}
330
2A
100
AcDbVisualStyle
  2

 70
     8
 71
     2
 72
     2
 73
     0
 90
        0
 40
-0.6
 41
-30.0
 62
     5
 63
     7
 74
     1
 91
        0
 64
     7
 65
   257
 75
     1
175
     1
 42
1.0
 92
        8
 66
     8
 43
1.0
 76
     1
 77
     6
 78
     2
 67
     7
 79
     5
170
     0
171
     0
290
     0
174
     0
 93
       13
 44
0.0
173
     0
291
     0
 45
0.0
1001
ACAD
1000
AcDbSavedByObjectVersion
1070
     0
  0
VISUALSTYLE
  5
8D
102
{ACAD_XDICTIONARY
360
131
102
}
102
{ACAD_REACTORS
330
2A
102
}
330
2A
100
AcDbVisualStyle
  2
Shaded
 70
    27
 71
     2
 72
     2
 73
     1
 90
        2
 40
-0.6
 41
30.0
 62
     5
 63
     7
 74
     0
 91
        4
 64
     7
 65
   257
 75
     1
175
     1
 42
1.0
 92
        8
 66
   257
 43
1.0
 76
     1
 77
     6
 78
     2
 67
     8
 79
     3
170
     0
171
     0
290
     0
174
     0
 93
        5
 44
0.0
173
     0
291
     0
 45
0.0
1001
ACAD
1000
AcDbSavedByObjectVersion
1070
     0
  0
VISUALSTYLE
  5
8C
102
{ACAD_XDICTIONARY
360
12F
102
}
102
{ACAD_REACTORS
330
2A
102
}
330
2A
100
AcDbVisualStyle
  2
Shaded with edges
 70
    26
 71
     2
 72
     2
 73
     1
 90
        2
 40
-0.6
 41
30.0
 62
     5
 63
     7
 74
     1
 91
       10
 64
     7
 65
   257
 75
     2
175
     1
 42
1.0
 92
        8
 66
   257
 43
1.0
 76
     1
 77
     6
 78
     2
 67
     7
 79
     3
170
     0
171
     0
290
     0
174
     0
 93
        5
 44
0.0
173
     0
291
     0
 45
0.0
1001
ACAD
1000
AcDbSavedByObjectVersion
1070
     0
  0
VISUALSTYLE
  5
89
102
{ACAD_XDICTIONARY
360
129
102
}
102
{ACAD_REACTORS
330
2A
102
}
330
2A
100
AcDbVisualStyle
  2
Shades of Gray
 70
    23
 71
     2
 72
     2
 73
     3
 90
        0
 40
-0.6
 41
-30.0
 62
     5
 63
     7
 74
     2
 91
        2
 64
     7
 65
     7
 75
     1
175
     1
 42
40.0
 92
        8
 66
     7
 43
1.0
 76
     1
 77
     6
 78
     2
 67
     7
 79
     3
170
     0
171
     0
290
     0
174
     0
 93
        1
 44
0.0
173
     0
291
     0
 45
0.0
1001
ACAD
1000
AcDbSavedByObjectVersion
1070
     0
  0
VISUALSTYLE
  5
8A
102
{ACAD_XDICTIONARY
360
12B
102
}
102
{ACAD_REACTORS
330
2A
102
}
330
2A
100
AcDbVisualStyle
  2
Sketchy
 70
    24
 71
     1
 72
     2
 73
     2
 90
        0
 40
-0.6
 41
-30.0
 62
     5
 63
     7
 74
     2
 91
        2
 64
     7
 65
     7
 75
     1
175
     1
 42
40.0
 92
       11
 66
     7
 43
1.0
 76
     1
 77
     6
 78
     2
 67
     7
 79
     6
170
     0
171
     0
290
     0
174
     0
 93
        1
 44
0.0
173
     0
291
     0
 45
0.0
1001
ACAD
1000
AcDbSavedByObjectVersion
1070
     0
  0
VISUALSTYLE
  5
37
102
{ACAD_XDICTIONARY
360
117
102
}
102
{ACAD_REACTORS
330
2A
102
}
330
2A
100
AcDbVisualStyle
  2

 70
    13
 71
     2
 72
     2
 73
     0
 90
        0
 40
-0.6
 41
-30.0
 62
     5
 63
     7
 74
     1
 91
        4
 64
     7
 65
   257
 75
     1
175
     1
 42
1.0
 92
       12
 66
     7
 43
1.0
 76
     1
 77
     6
 78
     2
 67
     7
 79
     5
170
     0
171
     0
290
     0
174
     0
 93
        1
 44
0.0
173
     0
291
     1
 45
0.0
1001
ACAD
1000
AcDbSavedByObjectVersion
1070
     0
  0
VISUALSTYLE
  5
87
102
{ACAD_XDICTIONARY
360
125
102
}
102
{ACAD_REACTORS
330
2A
102
}
330
2A
100
AcDbVisualStyle
  2
Wireframe
 70
     5
 71
     0
 72
     2
 73
     0
 90
        0
 40
-0.6
 41
-30.0
 62
     5
 63
     7
 74
     1
 91
        4
 64
     7
 65
   257
 75
     1
175
     1
 42
1.0
 92
        0
 66
   257
 43
1.0
 76
     1
 77
     6
 78
     2
 67
     7
 79
     3
170
     0
171
     0
290
     0
174
     0
 93
        1
 44
0.0
173
     0
291
     0
 45
0.0
1001
ACAD
1000
AcDbSavedByObjectVersion
1070
     0
  0
VISUALSTYLE
  5
8B
102
{ACAD_XDICTIONARY
360
12D
102
}
102
{ACAD_REACTORS
330
2A
102
}
330
2A
100
AcDbVisualStyle
  2
X-Ray
 70
    25
 71
     2
 72
     2
 73
     1
 90
        1
 40
0.5
 41
-30.0
 62
     5
 63
     7
 74
     1
 91
        0
 64
     7
 65
   257
 75
     1
175
     1
 42
1.0
 92
        8
 66
     7
 43
1.0
 76
     1
 77
     6
 78
     2
 67
     7
 79
     3
170
     0
171
     0
290
     0
174
     0
 93
       13
 44
0.0
173
     0
291
     0
 45
0.0
1001
ACAD
1000
AcDbSavedByObjectVersion
1070
     0
  0
DICTIONARYVAR
  5
E5
102
{ACAD_REACTORS
330
E1
102
}
330
E1
100
DictionaryVariables
280
     0
  1
1:1
  0
DICTIONARYVAR
  5
E3
102
{ACAD_REACTORS
330
E1
102
}
330
E1
100
DictionaryVariables
280
     0
  1
STANDARD
  0
DICTIONARYVAR
  5
E2
102
{ACAD_REACTORS
330
E1
102
}
330
E1
100
DictionaryVariables
280
     0
  1
STANDARD
  0
DICTIONARYVAR
  5
EF
102
{ACAD_REACTORS
330
E1
102
}
330
E1
100
DictionaryVariables
280
     0
  1
2
  0
DICTIONARYVAR
  5
ED
102
{ACAD_REACTORS
330
E1
102
}
330
E1
100
DictionaryVariables
280
     0
  1
2
  0
DICTIONARYVAR
  5
EB
102
{ACAD_REACTORS
330
E1
102
}
330
E1
100
DictionaryVariables
280
     0
  1
1
  0
DICTIONARYVAR
  5
EA
102
{ACAD_REACTORS
330
E1
102
}
330
E1
100
DictionaryVariables
280
     0
  1
0
  0
DICTIONARYVAR
  5
E7
102
{ACAD_REACTORS
330
E1
102
}
330
E1
100
DictionaryVariables
280
     0
  1
0
  0
DICTIONARYVAR
  5
E8
102
{ACAD_REACTORS
330
E1
102
}
330
E1
100
DictionaryVariables
280
     0
  1
0
  0
DICTIONARYVAR
  5
E6
102
{ACAD_REACTORS
330
E1
102
}
330
E1
100
DictionaryVariables
280
     0
  1
2
  0
DICTIONARYVAR
  5
F0
102
{ACAD_REACTORS
330
E1
102
}
330
E1
100
DictionaryVariables
280
     0
  1
1.570796
  0
DICTIONARYVAR
  5
F1
102
{ACAD_REACTORS
330
E1
102
}
330
E1
100
DictionaryVariables
280
     0
  1
1.570796
  0
DICTIONARYVAR
  5
F2
102
{ACAD_REACTORS
330
E1
102
}
330
E1
100
DictionaryVariables
280
     0
  1
-122.394000
  0
DICTIONARYVAR
  5
E4
102
{ACAD_REACTORS
330
E1
102
}
330
E1
100
DictionaryVariables
280
     0
  1
1
  0
DICTIONARYVAR
  5
EE
102
{ACAD_REACTORS
330
E1
102
}
330
E1
100
DictionaryVariables
280
     0
  1
1
  0
DICTIONARYVAR
  5
E9
102
{ACAD_REACTORS
330
E1
102
}
330
E1
100
DictionaryVariables
280
     0
  1
127
  0
DICTIONARYVAR
  5
EC
102
{ACAD_REACTORS
330
E1
102
}
330
E1
100
DictionaryVariables
280
     0
  1
0
  0
DICTIONARY
  5
F9
330
1E
100
AcDbDictionary
280
     1
281
     1
  3
ACAD_XREC_ROUNDTRIP
360
FA
  0
DICTIONARY
  5
FD
330
26
100
AcDbDictionary
280
     1
281
     1
  3
ACAD_XREC_ROUNDTRIP
360
FE
  0
DICTIONARY
  5
FB
330
22
100
AcDbDictionary
280
     1
281
     1
  3
ACAD_XREC_ROUNDTRIP
360
FC
  0
DICTIONARY
  5
121
330
3D
100
AcDbDictionary
280
     1
281
     1
  3
ACAD_XREC_ROUNDTRIP
360
122
  0
DICTIONARY
  5
11F
330
3C
100
AcDbDictionary
280
     1
281
     1
  3
ACAD_XREC_ROUNDTRIP
360
120
  0
DICTIONARY
  5
123
330
3E
100
AcDbDictionary
280
     1
281
     1
  3
ACAD_XREC_ROUNDTRIP
360
124
  0
DICTIONARY
  5
F3
330
92
100
AcDbDictionary
280
     1
281
     1
  3
ACAD_ROUNDTRIP_2008_TABLESTYLE_CELLSTYLEMAP
360
F4
  3
ACAD_XREC_ROUNDTRIP
360
139
  0
DICTIONARY
  5
107
330
2F
100
AcDbDictionary
280
     1
281
     1
  3
ACAD_XREC_ROUNDTRIP
360
108
  0
DICTIONARY
  5
10B
330
31
100
AcDbDictionary
280
     1
281
     1
  3
ACAD_XREC_ROUNDTRIP
360
10C
  0
DICTIONARY
  5
109
330
30
100
AcDbDictionary
280
     1
281
     1
  3
ACAD_XREC_ROUNDTRIP
360
10A
  0
DICTIONARY
  5
10D
330
32
100
AcDbDictionary
280
     1
281
     1
  3
ACAD_XREC_ROUNDTRIP
360
10E
  0
DICTIONARY
  5
115
330
36
100
AcDbDictionary
280
     1
281
     1
  3
ACAD_XREC_ROUNDTRIP
360
116
  0
DICTIONARY
  5
11D
330
3A
100
AcDbDictionary
280
     1
281
     1
  3
ACAD_XREC_ROUNDTRIP
360
11E
  0
DICTIONARY
  5
111
330
34
100
AcDbDictionary
280
     1
281
     1
  3
ACAD_XREC_ROUNDTRIP
360
112
  0
DICTIONARY
  5
113
330
35
100
AcDbDictionary
280
     1
281
     1
  3
ACAD_XREC_ROUNDTRIP
360
114
  0
DICTIONARY
  5
137
330
90
100
AcDbDictionary
280
     1
281
     1
  3
ACAD_XREC_ROUNDTRIP
360
138
  0
DICTIONARY
  5
11B
330
39
100
AcDbDictionary
280
     1
281
     1
  3
ACAD_XREC_ROUNDTRIP
360
11C
  0
DICTIONARY
  5
FF
330
2B
100
AcDbDictionary
280
     1
281
     1
  3
ACAD_XREC_ROUNDTRIP
360
100
  0
DICTIONARY
  5
101
330
2C
100
AcDbDictionary
280
     1
281
     1
  3
ACAD_XREC_ROUNDTRIP
360
102
  0
DICTIONARY
  5
103
330
2D
100
AcDbDictionary
280
     1
281
     1
  3
ACAD_XREC_ROUNDTRIP
360
104
  0
DICTIONARY
  5
105
330
2E
100
AcDbDictionary
280
     1
281
     1
  3
ACAD_XREC_ROUNDTRIP
360
106
  0
DICTIONARY
  5
127
330
88
100
AcDbDictionary
280
     1
281
     1
  3
ACAD_XREC_ROUNDTRIP
360
128
  0
DICTIONARY
  5
133
330
8E
100
AcDbDictionary
280
     1
281
     1
  3
ACAD_XREC_ROUNDTRIP
360
134
  0
DICTIONARY
  5
119
330
38
100
AcDbDictionary
280
     1
281
     1
  3
ACAD_XREC_ROUNDTRIP
360
11A
  0
DICTIONARY
  5
135
330
8F
100
AcDbDictionary
280
     1
281
     1
  3
ACAD_XREC_ROUNDTRIP
360
136
  0
DICTIONARY
  5
10F
330
33
100
AcDbDictionary
280
     1
281
     1
  3
ACAD_XREC_ROUNDTRIP
360
110
  0
DICTIONARY
  5
131
330
8D
100
AcDbDictionary
280
     1
281
     1
  3
ACAD_XREC_ROUNDTRIP
360
132
  0
DICTIONARY
  5
12F
330
8C
100
AcDbDictionary
280
     1
281
     1
  3
ACAD_XREC_ROUNDTRIP
360
130
  0
DICTIONARY
  5
129
330
89
100
AcDbDictionary
280
     1
281
     1
  3
ACAD_XREC_ROUNDTRIP
360
12A
  0
DICTIONARY
  5
12B
330
8A
100
AcDbDictionary
280
     1
281
     1
  3
ACAD_XREC_ROUNDTRIP
360
12C
  0
DICTIONARY
  5
117
330
37
100
AcDbDictionary
280
     1
281
     1
  3
ACAD_XREC_ROUNDTRIP
360
118
  0
DICTIONARY
  5
125
330
87
100
AcDbDictionary
280
     1
281
     1
  3
ACAD_XREC_ROUNDTRIP
360
126
  0
DICTIONARY
  5
12D
330
8B
100
AcDbDictionary
280
     1
281
     1
  3
ACAD_XREC_ROUNDTRIP
360
12E
  0
XRECORD
  5
FA
102
{ACAD_REACTORS
330
F9
102
}
330
F9
100
AcDbXrecord
280
     1
102
SHADEPLOT
 70
     0
102
SHADEPLOTRESLEVEL
 70
     2
102
SHADEPLOTCUSTOMDPI
 70
   300
  0
XRECORD
  5
FE
102
{ACAD_REACTORS
330
FD
102
}
330
FD
100
AcDbXrecord
280
     1
102
SHADEPLOT
 70
     0
102
SHADEPLOTRESLEVEL
 70
     2
102
SHADEPLOTCUSTOMDPI
 70
   300
  0
XRECORD
  5
FC
102
{ACAD_REACTORS
330
FB
102
}
330
FB
100
AcDbXrecord
280
     1
102
SHADEPLOT
 70
     0
102
SHADEPLOTRESLEVEL
 70
     2
102
SHADEPLOTCUSTOMDPI
 70
   300
  0
XRECORD
  5
122
102
{ACAD_REACTORS
330
121
102
}
330
121
100
AcDbXrecord
280
     1
102
MATERIAL
148
0.0
149
0.0
149
0.0
 93
        0
 94
      127
282
     0
 72
     1
 77
     1
171
     1
175
     1
179
     1
273
     0
  0
XRECORD
  5
120
102
{ACAD_REACTORS
330
11F
102
}
330
11F
100
AcDbXrecord
280
     1
102
MATERIAL
148
0.0
149
0.0
149
0.0
 93
        0
 94
      127
282
     0
 72
     1
 77
     1
171
     1
175
     1
179
     1
273
     0
  0
XRECORD
  5
124
102
{ACAD_REACTORS
330
123
102
}
330
123
100
AcDbXrecord
280
     1
102
MATERIAL
148
0.0
149
0.0
149
0.0
 93
        0
 94
      127
282
     0
 72
     1
 77
     1
171
     1
175
     1
179
     1
273
     0
  0
CELLSTYLEMAP
  5
F4
102
{ACAD_REACTORS
330
F3
102
}
330
F3
100
AcDbCellStyleMap
 90
        3
300
CELLSTYLE
  1
TABLEFORMAT_BEGIN
 90
        5
170
     1
 91
        0
 92
    32768
 62
   257
 93
        1
300
CONTENTFORMAT
  1
CONTENTFORMAT_BEGIN
 90
        0
 91
        0
 92
      512
 93
        0
300

 40
0.0
140
1.0
 94
        5
 62
     0
340
11
144
0.25
309
CONTENTFORMAT_END
171
     0
 94
        0
309
TABLEFORMAT_END
  1
CELLSTYLE_BEGIN
 90
        1
 91
        1
300
_TITLE
309
CELLSTYLE_END
300
CELLSTYLE
  1
TABLEFORMAT_BEGIN
 90
        5
170
     1
 91
        0
 92
        0
 62
   257
 93
        1
300
CONTENTFORMAT
  1
CONTENTFORMAT_BEGIN
 90
        0
 91
        0
 92
      512
 93
        0
300

 40
0.0
140
1.0
 94
        5
 62
     0
340
11
144
0.18
309
CONTENTFORMAT_END
171
     0
 94
        0
309
TABLEFORMAT_END
  1
CELLSTYLE_BEGIN
 90
        2
 91
        1
300
_HEADER
309
CELLSTYLE_END
300
CELLSTYLE
  1
TABLEFORMAT_BEGIN
 90
        5
170
     1
 91
        0
 92
        0
 62
   257
 93
        1
300
CONTENTFORMAT
  1
CONTENTFORMAT_BEGIN
 90
        0
 91
        0
 92
      512
 93
        0
300

 40
0.0
140
1.0
 94
        2
 62
     0
340
11
144
0.18
309
CONTENTFORMAT_END
171
     0
 94
        0
309
TABLEFORMAT_END
  1
CELLSTYLE_BEGIN
 90
        3
 91
        2
300
_DATA
309
CELLSTYLE_END
  0
XRECORD
  5
139
102
{ACAD_REACTORS
330
F3
102
}
330
F3
100
AcDbXrecord
280
     1
102
ACAD_ROUNDTRIP_PRE2007_TABLESTYLE
 90
      512
 91
        0
  1

 92
      512
 93
        0
  2

 94
      512
 95
        0
  3

  0
XRECORD
  5
108
102
{ACAD_REACTORS
330
107
102
}
330
107
100
AcDbXrecord
280
     1
102
RTVSPropertyOp0
 70
     1
102
RTVSPropertyOp1
 70
     1
102
RTVSPropertyOp2
 70
     1
102
RTVSPropertyOp3
 70
     1
102
RTVSPropertyOp4
 70
     1
102
RTVSPropertyOp5
 70
     1
102
RTVSPropertyOp6
 70
     1
102
RTVSPropertyOp7
 70
     1
102
RTVSPropertyOp8
 70
     1
102
RTVSPropertyOp9
 70
     1
102
RTVSPropertyOp10
 70
     1
102
RTVSPropertyOp11
 70
     1
102
RTVSPropertyOp12
 70
     1
102
RTVSPropertyOp13
 70
     1
102
RTVSPropertyOp14
 70
     1
102
RTVSPropertyOp15
 70
     1
102
RTVSPropertyOp16
 70
     1
102
RTVSPropertyOp17
 70
     1
102
RTVSPropertyOp18
 70
     1
102
RTVSPropertyOp19
 70
     1
102
RTVSPropertyOp20
 70
     1
102
RTVSPropertyOp21
 70
     1
102
RTVSPropertyOp22
 70
     1
102
RTVSPropertyOp23
 70
     1
102
RTVSPropertyOp24
 70
     1
102
RTVSPropertyOp25
 70
     1
102
RTVSPropertyOp26
 70
     1
102
RTVSPropertyOp27
 70
     1
102
RTVSPropertyOp28
 70
     1
102
RTVSPropertyOp29
 70
     1
102
RTVSPropertyOp30
 70
     1
102
RTVSPropertyOp31
 70
     1
102
RTVSPropertyOp32
 70
     1
  0
XRECORD
  5
10C
102
{ACAD_REACTORS
330
10B
102
}
330
10B
100
AcDbXrecord
280
     1
102
RTVSPropertyOp0
 70
     1
102
RTVSPropertyOp1
 70
     1
102
RTVSPropertyOp2
 70
     1
102
RTVSPropertyOp3
 70
     1
102
RTVSPropertyOp4
 70
     1
102
RTVSPropertyOp5
 70
     1
102
RTVSPropertyOp6
 70
     1
102
RTVSPropertyOp7
 70
     1
102
RTVSPropertyOp8
 70
     1
102
RTVSPropertyOp9
 70
     1
102
RTVSPropertyOp10
 70
     1
102
RTVSPropertyOp11
 70
     1
102
RTVSPropertyOp12
 70
     1
102
RTVSPropertyOp13
 70
     1
102
RTVSPropertyOp14
 70
     1
102
RTVSPropertyOp15
 70
     1
102
RTVSPropertyOp16
 70
     1
102
RTVSPropertyOp17
 70
     1
102
RTVSPropertyOp18
 70
     1
102
RTVSPropertyOp19
 70
     1
102
RTVSPropertyOp20
 70
     1
102
RTVSPropertyOp21
 70
     1
102
RTVSPropertyOp22
 70
     1
102
RTVSPropertyOp23
 70
     1
102
RTVSPropertyOp24
 70
     1
102
RTVSPropertyOp25
 70
     1
102
RTVSPropertyOp26
 70
     1
102
RTVSPropertyOp27
 70
     1
102
RTVSPropertyOp28
 70
     1
102
RTVSPropertyOp29
 70
     1
102
RTVSPropertyOp30
 70
     1
102
RTVSPropertyOp31
 70
     1
102
RTVSPropertyOp32
 70
     1
  0
XRECORD
  5
10A
102
{ACAD_REACTORS
330
109
102
}
330
109
100
AcDbXrecord
280
     1
102
RTVSPropertyOp0
 70
     1
102
RTVSPropertyOp1
 70
     1
102
RTVSPropertyOp2
 70
     1
102
RTVSPropertyOp3
 70
     1
102
RTVSPropertyOp4
 70
     1
102
RTVSPropertyOp5
 70
     1
102
RTVSPropertyOp6
 70
     1
102
RTVSPropertyOp7
 70
     1
102
RTVSPropertyOp8
 70
     1
102
RTVSPropertyOp9
 70
     1
102
RTVSPropertyOp10
 70
     1
102
RTVSPropertyOp11
 70
     1
102
RTVSPropertyOp12
 70
     1
102
RTVSPropertyOp13
 70
     1
102
RTVSPropertyOp14
 70
     1
102
RTVSPropertyOp15
 70
     1
102
RTVSPropertyOp16
 70
     1
102
RTVSPropertyOp17
 70
     1
102
RTVSPropertyOp18
 70
     1
102
RTVSPropertyOp19
 70
     1
102
RTVSPropertyOp20
 70
     1
102
RTVSPropertyOp21
 70
     1
102
RTVSPropertyOp22
 70
     1
102
RTVSPropertyOp23
 70
     1
102
RTVSPropertyOp24
 70
     1
102
RTVSPropertyOp25
 70
     1
102
RTVSPropertyOp26
 70
     1
102
RTVSPropertyOp27
 70
     1
102
RTVSPropertyOp28
 70
     1
102
RTVSPropertyOp29
 70
     1
102
RTVSPropertyOp30
 70
     1
102
RTVSPropertyOp31
 70
     1
102
RTVSPropertyOp32
 70
     1
  0
XRECORD
  5
10E
102
{ACAD_REACTORS
330
10D
102
}
330
10D
100
AcDbXrecord
280
     1
102
RTVSPropertyOp0
 70
     1
102
RTVSPropertyOp1
 70
     1
102
RTVSPropertyOp2
 70
     1
102
RTVSPropertyOp3
 70
     1
102
RTVSPropertyOp4
 70
     1
102
RTVSPropertyOp5
 70
     1
102
RTVSPropertyOp6
 70
     1
102
RTVSPropertyOp7
 70
     1
102
RTVSPropertyOp8
 70
     1
102
RTVSPropertyOp9
 70
     1
102
RTVSPropertyOp10
 70
     1
102
RTVSPropertyOp11
 70
     1
102
RTVSPropertyOp12
 70
     1
102
RTVSPropertyOp13
 70
     1
102
RTVSPropertyOp14
 70
     1
102
RTVSPropertyOp15
 70
     1
102
RTVSPropertyOp16
 70
     1
102
RTVSPropertyOp17
 70
     1
102
RTVSPropertyOp18
 70
     1
102
RTVSPropertyOp19
 70
     1
102
RTVSPropertyOp20
 70
     1
102
RTVSPropertyOp21
 70
     1
102
RTVSPropertyOp22
 70
     1
102
RTVSPropertyOp23
 70
     1
102
RTVSPropertyOp24
 70
     1
102
RTVSPropertyOp25
 70
     1
102
RTVSPropertyOp26
 70
     1
102
RTVSPropertyOp27
 70
     1
102
RTVSPropertyOp28
 70
     1
102
RTVSPropertyOp29
 70
     1
102
RTVSPropertyOp30
 70
     1
102
RTVSPropertyOp31
 70
     1
102
RTVSPropertyOp32
 70
     1
  0
XRECORD
  5
116
102
{ACAD_REACTORS
330
115
102
}
330
115
100
AcDbXrecord
280
     1
102
RTVSPropertyOp0
 70
     1
102
RTVSPropertyOp1
 70
     1
102
RTVSPropertyOp2
 70
     1
102
RTVSPropertyOp3
 70
     1
102
RTVSPropertyOp4
 70
     1
102
RTVSPropertyOp5
 70
     1
102
RTVSPropertyOp6
 70
     1
102
RTVSPropertyOp7
 70
     1
102
RTVSPropertyOp8
 70
     1
102
RTVSPropertyOp9
 70
     1
102
RTVSPropertyOp10
 70
     1
102
RTVSPropertyOp11
 70
     1
102
RTVSPropertyOp12
 70
     1
102
RTVSPropertyOp13
 70
     1
102
RTVSPropertyOp14
 70
     1
102
RTVSPropertyOp15
 70
     1
102
RTVSPropertyOp16
 70
     1
102
RTVSPropertyOp17
 70
     1
102
RTVSPropertyOp18
 70
     1
102
RTVSPropertyOp19
 70
     1
102
RTVSPropertyOp20
 70
     1
102
RTVSPropertyOp21
 70
     1
102
RTVSPropertyOp22
 70
     1
102
RTVSPropertyOp23
 70
     1
102
RTVSPropertyOp24
 70
     1
102
RTVSPropertyOp25
 70
     1
102
RTVSPropertyOp26
 70
     1
102
RTVSPropertyOp27
 70
     1
102
RTVSPropertyOp28
 70
     1
102
RTVSPropertyOp29
 70
     1
102
RTVSPropertyOp30
 70
     1
102
RTVSPropertyOp31
 70
     1
102
RTVSPropertyOp32
 70
     1
  0
XRECORD
  5
11E
102
{ACAD_REACTORS
330
11D
102
}
330
11D
100
AcDbXrecord
280
     1
102
RTVSPropertyOp0
 70
     1
102
RTVSPropertyOp1
 70
     1
102
RTVSPropertyOp2
 70
     1
102
RTVSPropertyOp3
 70
     1
102
RTVSPropertyOp4
 70
     1
102
RTVSPropertyOp5
 70
     1
102
RTVSPropertyOp6
 70
     1
102
RTVSPropertyOp7
 70
     1
102
RTVSPropertyOp8
 70
     1
102
RTVSPropertyOp9
 70
     1
102
RTVSPropertyOp10
 70
     1
102
RTVSPropertyOp11
 70
     1
102
RTVSPropertyOp12
 70
     1
102
RTVSPropertyOp13
 70
     1
102
RTVSPropertyOp14
 70
     1
102
RTVSPropertyOp15
 70
     1
102
RTVSPropertyOp16
 70
     1
102
RTVSPropertyOp17
 70
     1
102
RTVSPropertyOp18
 70
     1
102
RTVSPropertyOp19
 70
     1
102
RTVSPropertyOp20
 70
     1
102
RTVSPropertyOp21
 70
     1
102
RTVSPropertyOp22
 70
     1
102
RTVSPropertyOp23
 70
     1
102
RTVSPropertyOp24
 70
     1
102
RTVSPropertyOp25
 70
     1
102
RTVSPropertyOp26
 70
     1
102
RTVSPropertyOp27
 70
     1
102
RTVSPropertyOp28
 70
     1
102
RTVSPropertyOp29
 70
     1
102
RTVSPropertyOp30
 70
     1
102
RTVSPropertyOp31
 70
     1
102
RTVSPropertyOp32
 70
     1
  0
XRECORD
  5
112
102
{ACAD_REACTORS
330
111
102
}
330
111
100
AcDbXrecord
280
     1
102
RTVSPropertyOp0
 70
     1
102
RTVSPropertyOp1
 70
     1
102
RTVSPropertyOp2
 70
     1
102
RTVSPropertyOp3
 70
     1
102
RTVSPropertyOp4
 70
     1
102
RTVSPropertyOp5
 70
     1
102
RTVSPropertyOp6
 70
     1
102
RTVSPropertyOp7
 70
     1
102
RTVSPropertyOp8
 70
     1
102
RTVSPropertyOp9
 70
     1
102
RTVSPropertyOp10
 70
     1
102
RTVSPropertyOp11
 70
     1
102
RTVSPropertyOp12
 70
     1
102
RTVSPropertyOp13
 70
     1
102
RTVSPropertyOp14
 70
     1
102
RTVSPropertyOp15
 70
     1
102
RTVSPropertyOp16
 70
     1
102
RTVSPropertyOp17
 70
     1
102
RTVSPropertyOp18
 70
     1
102
RTVSPropertyOp19
 70
     1
102
RTVSPropertyOp20
 70
     1
102
RTVSPropertyOp21
 70
     1
102
RTVSPropertyOp22
 70
     1
102
RTVSPropertyOp23
 70
     1
102
RTVSPropertyOp24
 70
     1
102
RTVSPropertyOp25
 70
     1
102
RTVSPropertyOp26
 70
     1
102
RTVSPropertyOp27
 70
     1
102
RTVSPropertyOp28
 70
     1
102
RTVSPropertyOp29
 70
     1
102
RTVSPropertyOp30
 70
     1
102
RTVSPropertyOp31
 70
     1
102
RTVSPropertyOp32
 70
     1
  0
XRECORD
  5
114
102
{ACAD_REACTORS
330
113
102
}
330
113
100
AcDbXrecord
280
     1
102
RTVSPropertyOp0
 70
     1
102
RTVSPropertyOp1
 70
     1
102
RTVSPropertyOp2
 70
     1
102
RTVSPropertyOp3
 70
     1
102
RTVSPropertyOp4
 70
     1
102
RTVSPropertyOp5
 70
     1
102
RTVSPropertyOp6
 70
     1
102
RTVSPropertyOp7
 70
     1
102
RTVSPropertyOp8
 70
     1
102
RTVSPropertyOp9
 70
     1
102
RTVSPropertyOp10
 70
     1
102
RTVSPropertyOp11
 70
     1
102
RTVSPropertyOp12
 70
     1
102
RTVSPropertyOp13
 70
     1
102
RTVSPropertyOp14
 70
     1
102
RTVSPropertyOp15
 70
     1
102
RTVSPropertyOp16
 70
     1
102
RTVSPropertyOp17
 70
     1
102
RTVSPropertyOp18
 70
     1
102
RTVSPropertyOp19
 70
     1
102
RTVSPropertyOp20
 70
     1
102
RTVSPropertyOp21
 70
     1
102
RTVSPropertyOp22
 70
     1
102
RTVSPropertyOp23
 70
     1
102
RTVSPropertyOp24
 70
     1
102
RTVSPropertyOp25
 70
     1
102
RTVSPropertyOp26
 70
     1
102
RTVSPropertyOp27
 70
     1
102
RTVSPropertyOp28
 70
     1
102
RTVSPropertyOp29
 70
     1
102
RTVSPropertyOp30
 70
     1
102
RTVSPropertyOp31
 70
     1
102
RTVSPropertyOp32
 70
     1
  0
XRECORD
  5
138
102
{ACAD_REACTORS
330
137
102
}
330
137
100
AcDbXrecord
280
     1
102
RTVSPropertyOp0
 70
     0
102
RTVSPropertyOp1
 70
     0
102
RTVSPropertyOp2
 70
     0
102
RTVSPropertyOp3
 70
     0
102
RTVSPropertyOp4
 70
     0
102
RTVSPropertyOp5
 70
     0
102
RTVSPropertyOp6
 70
     0
102
RTVSPropertyOp7
 70
     0
102
RTVSPropertyOp8
 70
     0
102
RTVSPropertyOp9
 70
     0
102
RTVSPropertyOp10
 70
     0
102
RTVSPropertyOp11
 70
     0
102
RTVSPropertyOp12
 70
     0
102
RTVSPropertyOp13
 70
     0
102
RTVSPropertyOp14
 70
     2
102
RTVSPropertyOp15
 70
     0
102
RTVSPropertyOp16
 70
     0
102
RTVSPropertyOp17
 70
     0
102
RTVSPropertyOp18
 70
     0
102
RTVSPropertyOp19
 70
     0
102
RTVSPropertyOp20
 70
     0
102
RTVSPropertyOp21
 70
     0
102
RTVSPropertyOp22
 70
     0
102
RTVSPropertyOp23
 70
     0
102
RTVSPropertyOp24
 70
     0
102
RTVSPropertyOp25
 70
     0
102
RTVSPropertyOp26
 70
     0
102
RTVSPropertyOp27
 70
     0
102
RTVSPropertyOp28
 70
     0
102
RTVSPropertyOp29
 70
     0
102
RTVSPropertyOp30
 70
     0
102
RTVSPropertyOp31
 70
     0
102
RTVSPropertyOp32
 70
     0
  0
XRECORD
  5
11C
102
{ACAD_REACTORS
330
11B
102
}
330
11B
100
AcDbXrecord
280
     1
102
RTVSPropertyOp0
 70
     1
102
RTVSPropertyOp1
 70
     1
102
RTVSPropertyOp2
 70
     1
102
RTVSPropertyOp3
 70
     1
102
RTVSPropertyOp4
 70
     1
102
RTVSPropertyOp5
 70
     1
102
RTVSPropertyOp6
 70
     1
102
RTVSPropertyOp7
 70
     1
102
RTVSPropertyOp8
 70
     1
102
RTVSPropertyOp9
 70
     1
102
RTVSPropertyOp10
 70
     1
102
RTVSPropertyOp11
 70
     1
102
RTVSPropertyOp12
 70
     1
102
RTVSPropertyOp13
 70
     1
102
RTVSPropertyOp14
 70
     1
102
RTVSPropertyOp15
 70
     1
102
RTVSPropertyOp16
 70
     1
102
RTVSPropertyOp17
 70
     1
102
RTVSPropertyOp18
 70
     1
102
RTVSPropertyOp19
 70
     1
102
RTVSPropertyOp20
 70
     1
102
RTVSPropertyOp21
 70
     1
102
RTVSPropertyOp22
 70
     1
102
RTVSPropertyOp23
 70
     1
102
RTVSPropertyOp24
 70
     1
102
RTVSPropertyOp25
 70
     1
102
RTVSPropertyOp26
 70
     1
102
RTVSPropertyOp27
 70
     1
102
RTVSPropertyOp28
 70
     1
102
RTVSPropertyOp29
 70
     1
102
RTVSPropertyOp30
 70
     1
102
RTVSPropertyOp31
 70
     1
102
RTVSPropertyOp32
 70
     1
  0
XRECORD
  5
100
102
{ACAD_REACTORS
330
FF
102
}
330
FF
100
AcDbXrecord
280
     1
102
RTVSPropertyOp0
 70
     1
102
RTVSPropertyOp1
 70
     1
102
RTVSPropertyOp2
 70
     1
102
RTVSPropertyOp3
 70
     1
102
RTVSPropertyOp4
 70
     1
102
RTVSPropertyOp5
 70
     1
102
RTVSPropertyOp6
 70
     1
102
RTVSPropertyOp7
 70
     1
102
RTVSPropertyOp8
 70
     1
102
RTVSPropertyOp9
 70
     1
102
RTVSPropertyOp10
 70
     1
102
RTVSPropertyOp11
 70
     1
102
RTVSPropertyOp12
 70
     1
102
RTVSPropertyOp13
 70
     1
102
RTVSPropertyOp14
 70
     1
102
RTVSPropertyOp15
 70
     1
102
RTVSPropertyOp16
 70
     1
102
RTVSPropertyOp17
 70
     1
102
RTVSPropertyOp18
 70
     1
102
RTVSPropertyOp19
 70
     1
102
RTVSPropertyOp20
 70
     1
102
RTVSPropertyOp21
 70
     1
102
RTVSPropertyOp22
 70
     1
102
RTVSPropertyOp23
 70
     1
102
RTVSPropertyOp24
 70
     1
102
RTVSPropertyOp25
 70
     1
102
RTVSPropertyOp26
 70
     1
102
RTVSPropertyOp27
 70
     1
102
RTVSPropertyOp28
 70
     1
102
RTVSPropertyOp29
 70
     1
102
RTVSPropertyOp30
 70
     1
102
RTVSPropertyOp31
 70
     1
102
RTVSPropertyOp32
 70
     1
  0
XRECORD
  5
102
102
{ACAD_REACTORS
330
101
102
}
330
101
100
AcDbXrecord
280
     1
102
RTVSPropertyOp0
 70
     1
102
RTVSPropertyOp1
 70
     1
102
RTVSPropertyOp2
 70
     1
102
RTVSPropertyOp3
 70
     1
102
RTVSPropertyOp4
 70
     1
102
RTVSPropertyOp5
 70
     1
102
RTVSPropertyOp6
 70
     1
102
RTVSPropertyOp7
 70
     1
102
RTVSPropertyOp8
 70
     1
102
RTVSPropertyOp9
 70
     1
102
RTVSPropertyOp10
 70
     1
102
RTVSPropertyOp11
 70
     1
102
RTVSPropertyOp12
 70
     1
102
RTVSPropertyOp13
 70
     1
102
RTVSPropertyOp14
 70
     1
102
RTVSPropertyOp15
 70
     1
102
RTVSPropertyOp16
 70
     1
102
RTVSPropertyOp17
 70
     1
102
RTVSPropertyOp18
 70
     1
102
RTVSPropertyOp19
 70
     1
102
RTVSPropertyOp20
 70
     1
102
RTVSPropertyOp21
 70
     1
102
RTVSPropertyOp22
 70
     1
102
RTVSPropertyOp23
 70
     1
102
RTVSPropertyOp24
 70
     1
102
RTVSPropertyOp25
 70
     1
102
RTVSPropertyOp26
 70
     1
102
RTVSPropertyOp27
 70
     1
102
RTVSPropertyOp28
 70
     1
102
RTVSPropertyOp29
 70
     1
102
RTVSPropertyOp30
 70
     1
102
RTVSPropertyOp31
 70
     1
102
RTVSPropertyOp32
 70
     1
  0
XRECORD
  5
104
102
{ACAD_REACTORS
330
103
102
}
330
103
100
AcDbXrecord
280
     1
102
RTVSPropertyOp0
 70
     1
102
RTVSPropertyOp1
 70
     1
102
RTVSPropertyOp2
 70
     1
102
RTVSPropertyOp3
 70
     1
102
RTVSPropertyOp4
 70
     1
102
RTVSPropertyOp5
 70
     1
102
RTVSPropertyOp6
 70
     1
102
RTVSPropertyOp7
 70
     1
102
RTVSPropertyOp8
 70
     1
102
RTVSPropertyOp9
 70
     1
102
RTVSPropertyOp10
 70
     1
102
RTVSPropertyOp11
 70
     1
102
RTVSPropertyOp12
 70
     1
102
RTVSPropertyOp13
 70
     1
102
RTVSPropertyOp14
 70
     1
102
RTVSPropertyOp15
 70
     1
102
RTVSPropertyOp16
 70
     1
102
RTVSPropertyOp17
 70
     1
102
RTVSPropertyOp18
 70
     1
102
RTVSPropertyOp19
 70
     1
102
RTVSPropertyOp20
 70
     1
102
RTVSPropertyOp21
 70
     1
102
RTVSPropertyOp22
 70
     1
102
RTVSPropertyOp23
 70
     1
102
RTVSPropertyOp24
 70
     1
102
RTVSPropertyOp25
 70
     1
102
RTVSPropertyOp26
 70
     1
102
RTVSPropertyOp27
 70
     1
102
RTVSPropertyOp28
 70
     1
102
RTVSPropertyOp29
 70
     1
102
RTVSPropertyOp30
 70
     1
102
RTVSPropertyOp31
 70
     1
102
RTVSPropertyOp32
 70
     1
  0
XRECORD
  5
106
102
{ACAD_REACTORS
330
105
102
}
330
105
100
AcDbXrecord
280
     1
102
RTVSPropertyOp0
 70
     1
102
RTVSPropertyOp1
 70
     1
102
RTVSPropertyOp2
 70
     1
102
RTVSPropertyOp3
 70
     1
102
RTVSPropertyOp4
 70
     1
102
RTVSPropertyOp5
 70
     1
102
RTVSPropertyOp6
 70
     1
102
RTVSPropertyOp7
 70
     1
102
RTVSPropertyOp8
 70
     1
102
RTVSPropertyOp9
 70
     1
102
RTVSPropertyOp10
 70
     1
102
RTVSPropertyOp11
 70
     1
102
RTVSPropertyOp12
 70
     1
102
RTVSPropertyOp13
 70
     1
102
RTVSPropertyOp14
 70
     1
102
RTVSPropertyOp15
 70
     1
102
RTVSPropertyOp16
 70
     1
102
RTVSPropertyOp17
 70
     1
102
RTVSPropertyOp18
 70
     1
102
RTVSPropertyOp19
 70
     1
102
RTVSPropertyOp20
 70
     1
102
RTVSPropertyOp21
 70
     1
102
RTVSPropertyOp22
 70
     1
102
RTVSPropertyOp23
 70
     1
102
RTVSPropertyOp24
 70
     1
102
RTVSPropertyOp25
 70
     1
102
RTVSPropertyOp26
 70
     1
102
RTVSPropertyOp27
 70
     1
102
RTVSPropertyOp28
 70
     1
102
RTVSPropertyOp29
 70
     1
102
RTVSPropertyOp30
 70
     1
102
RTVSPropertyOp31
 70
     1
102
RTVSPropertyOp32
 70
     1
  0
XRECORD
  5
128
102
{ACAD_REACTORS
330
127
102
}
330
127
100
AcDbXrecord
280
     1
102
RTVSPropertyOp0
 70
     1
102
RTVSPropertyOp1
 70
     1
102
RTVSPropertyOp2
 70
     1
102
RTVSPropertyOp3
 70
     1
102
RTVSPropertyOp4
 70
     1
102
RTVSPropertyOp5
 70
     1
102
RTVSPropertyOp6
 70
     1
102
RTVSPropertyOp7
 70
     1
102
RTVSPropertyOp8
 70
     1
102
RTVSPropertyOp9
 70
     1
102
RTVSPropertyOp10
 70
     1
102
RTVSPropertyOp11
 70
     1
102
RTVSPropertyOp12
 70
     1
102
RTVSPropertyOp13
 70
     1
102
RTVSPropertyOp14
 70
     1
102
RTVSPropertyOp15
 70
     1
102
RTVSPropertyOp16
 70
     1
102
RTVSPropertyOp17
 70
     1
102
RTVSPropertyOp18
 70
     1
102
RTVSPropertyOp19
 70
     1
102
RTVSPropertyOp20
 70
     1
102
RTVSPropertyOp21
 70
     1
102
RTVSPropertyOp22
 70
     1
102
RTVSPropertyOp23
 70
     1
102
RTVSPropertyOp24
 70
     1
102
RTVSPropertyOp25
 70
     1
102
RTVSPropertyOp26
 70
     1
102
RTVSPropertyOp27
 70
     1
102
RTVSPropertyOp28
 70
     1
102
RTVSPropertyOp29
 70
     1
102
RTVSPropertyOp30
 70
     1
102
RTVSPropertyOp31
 70
     1
102
RTVSPropertyOp32
 70
     1
  0
XRECORD
  5
134
102
{ACAD_REACTORS
330
133
102
}
330
133
100
AcDbXrecord
280
     1
102
RTVSPropertyOp0
 70
     0
102
RTVSPropertyOp1
 70
     0
102
RTVSPropertyOp2
 70
     0
102
RTVSPropertyOp3
 70
     0
102
RTVSPropertyOp4
 70
     0
102
RTVSPropertyOp5
 70
     0
102
RTVSPropertyOp6
 70
     0
102
RTVSPropertyOp7
 70
     0
102
RTVSPropertyOp8
 70
     0
102
RTVSPropertyOp9
 70
     0
102
RTVSPropertyOp10
 70
     0
102
RTVSPropertyOp11
 70
     0
102
RTVSPropertyOp12
 70
     0
102
RTVSPropertyOp13
 70
     0
102
RTVSPropertyOp14
 70
     2
102
RTVSPropertyOp15
 70
     0
102
RTVSPropertyOp16
 70
     0
102
RTVSPropertyOp17
 70
     0
102
RTVSPropertyOp18
 70
     0
102
RTVSPropertyOp19
 70
     0
102
RTVSPropertyOp20
 70
     0
102
RTVSPropertyOp21
 70
     0
102
RTVSPropertyOp22
 70
     0
102
RTVSPropertyOp23
 70
     0
102
RTVSPropertyOp24
 70
     0
102
RTVSPropertyOp25
 70
     0
102
RTVSPropertyOp26
 70
     0
102
RTVSPropertyOp27
 70
     0
102
RTVSPropertyOp28
 70
     0
102
RTVSPropertyOp29
 70
     0
102
RTVSPropertyOp30
 70
     0
102
RTVSPropertyOp31
 70
     0
102
RTVSPropertyOp32
 70
     0
  0
XRECORD
  5
11A
102
{ACAD_REACTORS
330
119
102
}
330
119
100
AcDbXrecord
280
     1
102
RTVSPropertyOp0
 70
     1
102
RTVSPropertyOp1
 70
     1
102
RTVSPropertyOp2
 70
     1
102
RTVSPropertyOp3
 70
     1
102
RTVSPropertyOp4
 70
     1
102
RTVSPropertyOp5
 70
     1
102
RTVSPropertyOp6
 70
     1
102
RTVSPropertyOp7
 70
     1
102
RTVSPropertyOp8
 70
     1
102
RTVSPropertyOp9
 70
     1
102
RTVSPropertyOp10
 70
     1
102
RTVSPropertyOp11
 70
     1
102
RTVSPropertyOp12
 70
     1
102
RTVSPropertyOp13
 70
     1
102
RTVSPropertyOp14
 70
     1
102
RTVSPropertyOp15
 70
     1
102
RTVSPropertyOp16
 70
     1
102
RTVSPropertyOp17
 70
     1
102
RTVSPropertyOp18
 70
     1
102
RTVSPropertyOp19
 70
     1
102
RTVSPropertyOp20
 70
     1
102
RTVSPropertyOp21
 70
     1
102
RTVSPropertyOp22
 70
     1
102
RTVSPropertyOp23
 70
     1
102
RTVSPropertyOp24
 70
     1
102
RTVSPropertyOp25
 70
     1
102
RTVSPropertyOp26
 70
     1
102
RTVSPropertyOp27
 70
     1
102
RTVSPropertyOp28
 70
     1
102
RTVSPropertyOp29
 70
     1
102
RTVSPropertyOp30
 70
     1
102
RTVSPropertyOp31
 70
     1
102
RTVSPropertyOp32
 70
     1
  0
XRECORD
  5
136
102
{ACAD_REACTORS
330
135
102
}
330
135
100
AcDbXrecord
280
     1
102
RTVSPropertyOp0
 70
     0
102
RTVSPropertyOp1
 70
     0
102
RTVSPropertyOp2
 70
     0
102
RTVSPropertyOp3
 70
     0
102
RTVSPropertyOp4
 70
     0
102
RTVSPropertyOp5
 70
     0
102
RTVSPropertyOp6
 70
     0
102
RTVSPropertyOp7
 70
     0
102
RTVSPropertyOp8
 70
     0
102
RTVSPropertyOp9
 70
     0
102
RTVSPropertyOp10
 70
     0
102
RTVSPropertyOp11
 70
     0
102
RTVSPropertyOp12
 70
     0
102
RTVSPropertyOp13
 70
     0
102
RTVSPropertyOp14
 70
     2
102
RTVSPropertyOp15
 70
     0
102
RTVSPropertyOp16
 70
     0
102
RTVSPropertyOp17
 70
     0
102
RTVSPropertyOp18
 70
     0
102
RTVSPropertyOp19
 70
     0
102
RTVSPropertyOp20
 70
     0
102
RTVSPropertyOp21
 70
     0
102
RTVSPropertyOp22
 70
     0
102
RTVSPropertyOp23
 70
     0
102
RTVSPropertyOp24
 70
     0
102
RTVSPropertyOp25
 70
     0
102
RTVSPropertyOp26
 70
     0
102
RTVSPropertyOp27
 70
     0
102
RTVSPropertyOp28
 70
     0
102
RTVSPropertyOp29
 70
     0
102
RTVSPropertyOp30
 70
     0
102
RTVSPropertyOp31
 70
     0
102
RTVSPropertyOp32
 70
     0
  0
XRECORD
  5
110
102
{ACAD_REACTORS
330
10F
102
}
330
10F
100
AcDbXrecord
280
     1
102
RTVSPropertyOp0
 70
     1
102
RTVSPropertyOp1
 70
     1
102
RTVSPropertyOp2
 70
     1
102
RTVSPropertyOp3
 70
     1
102
RTVSPropertyOp4
 70
     1
102
RTVSPropertyOp5
 70
     1
102
RTVSPropertyOp6
 70
     1
102
RTVSPropertyOp7
 70
     1
102
RTVSPropertyOp8
 70
     1
102
RTVSPropertyOp9
 70
     1
102
RTVSPropertyOp10
 70
     1
102
RTVSPropertyOp11
 70
     1
102
RTVSPropertyOp12
 70
     1
102
RTVSPropertyOp13
 70
     1
102
RTVSPropertyOp14
 70
     1
102
RTVSPropertyOp15
 70
     1
102
RTVSPropertyOp16
 70
     1
102
RTVSPropertyOp17
 70
     1
102
RTVSPropertyOp18
 70
     1
102
RTVSPropertyOp19
 70
     1
102
RTVSPropertyOp20
 70
     1
102
RTVSPropertyOp21
 70
     1
102
RTVSPropertyOp22
 70
     1
102
RTVSPropertyOp23
 70
     1
102
RTVSPropertyOp24
 70
     1
102
RTVSPropertyOp25
 70
     1
102
RTVSPropertyOp26
 70
     1
102
RTVSPropertyOp27
 70
     1
102
RTVSPropertyOp28
 70
     1
102
RTVSPropertyOp29
 70
     1
102
RTVSPropertyOp30
 70
     1
102
RTVSPropertyOp31
 70
     1
102
RTVSPropertyOp32
 70
     1
  0
XRECORD
  5
132
102
{ACAD_REACTORS
330
131
102
}
330
131
100
AcDbXrecord
280
     1
102
RTVSPropertyOp0
 70
     1
102
RTVSPropertyOp1
 70
     1
102
RTVSPropertyOp2
 70
     1
102
RTVSPropertyOp3
 70
     1
102
RTVSPropertyOp4
 70
     1
102
RTVSPropertyOp5
 70
     1
102
RTVSPropertyOp6
 70
     1
102
RTVSPropertyOp7
 70
     1
102
RTVSPropertyOp8
 70
     1
102
RTVSPropertyOp9
 70
     1
102
RTVSPropertyOp10
 70
     1
102
RTVSPropertyOp11
 70
     1
102
RTVSPropertyOp12
 70
     1
102
RTVSPropertyOp13
 70
     1
102
RTVSPropertyOp14
 70
     1
102
RTVSPropertyOp15
 70
     1
102
RTVSPropertyOp16
 70
     1
102
RTVSPropertyOp17
 70
     1
102
RTVSPropertyOp18
 70
     1
102
RTVSPropertyOp19
 70
     1
102
RTVSPropertyOp20
 70
     1
102
RTVSPropertyOp21
 70
     1
102
RTVSPropertyOp22
 70
     1
102
RTVSPropertyOp23
 70
     1
102
RTVSPropertyOp24
 70
     1
102
RTVSPropertyOp25
 70
     1
102
RTVSPropertyOp26
 70
     1
102
RTVSPropertyOp27
 70
     1
102
RTVSPropertyOp28
 70
     1
102
RTVSPropertyOp29
 70
     1
102
RTVSPropertyOp30
 70
     1
102
RTVSPropertyOp31
 70
     1
102
RTVSPropertyOp32
 70
     1
  0
XRECORD
  5
130
102
{ACAD_REACTORS
330
12F
102
}
330
12F
100
AcDbXrecord
280
     1
102
RTVSPropertyOp0
 70
     1
102
RTVSPropertyOp1
 70
     1
102
RTVSPropertyOp2
 70
     1
102
RTVSPropertyOp3
 70
     1
102
RTVSPropertyOp4
 70
     1
102
RTVSPropertyOp5
 70
     1
102
RTVSPropertyOp6
 70
     1
102
RTVSPropertyOp7
 70
     1
102
RTVSPropertyOp8
 70
     1
102
RTVSPropertyOp9
 70
     1
102
RTVSPropertyOp10
 70
     1
102
RTVSPropertyOp11
 70
     1
102
RTVSPropertyOp12
 70
     1
102
RTVSPropertyOp13
 70
     1
102
RTVSPropertyOp14
 70
     1
102
RTVSPropertyOp15
 70
     1
102
RTVSPropertyOp16
 70
     1
102
RTVSPropertyOp17
 70
     1
102
RTVSPropertyOp18
 70
     1
102
RTVSPropertyOp19
 70
     1
102
RTVSPropertyOp20
 70
     1
102
RTVSPropertyOp21
 70
     1
102
RTVSPropertyOp22
 70
     1
102
RTVSPropertyOp23
 70
     1
102
RTVSPropertyOp24
 70
     1
102
RTVSPropertyOp25
 70
     1
102
RTVSPropertyOp26
 70
     1
102
RTVSPropertyOp27
 70
     1
102
RTVSPropertyOp28
 70
     1
102
RTVSPropertyOp29
 70
     1
102
RTVSPropertyOp30
 70
     1
102
RTVSPropertyOp31
 70
     1
102
RTVSPropertyOp32
 70
     1
  0
XRECORD
  5
12A
102
{ACAD_REACTORS
330
129
102
}
330
129
100
AcDbXrecord
280
     1
102
RTVSPropertyOp0
 70
     1
102
RTVSPropertyOp1
 70
     1
102
RTVSPropertyOp2
 70
     1
102
RTVSPropertyOp3
 70
     1
102
RTVSPropertyOp4
 70
     1
102
RTVSPropertyOp5
 70
     1
102
RTVSPropertyOp6
 70
     1
102
RTVSPropertyOp7
 70
     1
102
RTVSPropertyOp8
 70
     1
102
RTVSPropertyOp9
 70
     1
102
RTVSPropertyOp10
 70
     1
102
RTVSPropertyOp11
 70
     1
102
RTVSPropertyOp12
 70
     1
102
RTVSPropertyOp13
 70
     1
102
RTVSPropertyOp14
 70
     1
102
RTVSPropertyOp15
 70
     1
102
RTVSPropertyOp16
 70
     1
102
RTVSPropertyOp17
 70
     1
102
RTVSPropertyOp18
 70
     1
102
RTVSPropertyOp19
 70
     1
102
RTVSPropertyOp20
 70
     1
102
RTVSPropertyOp21
 70
     1
102
RTVSPropertyOp22
 70
     1
102
RTVSPropertyOp23
 70
     1
102
RTVSPropertyOp24
 70
     1
102
RTVSPropertyOp25
 70
     1
102
RTVSPropertyOp26
 70
     1
102
RTVSPropertyOp27
 70
     1
102
RTVSPropertyOp28
 70
     1
102
RTVSPropertyOp29
 70
     1
102
RTVSPropertyOp30
 70
     1
102
RTVSPropertyOp31
 70
     1
102
RTVSPropertyOp32
 70
     1
  0
XRECORD
  5
12C
102
{ACAD_REACTORS
330
12B
102
}
330
12B
100
AcDbXrecord
280
     1
102
RTVSPropertyOp0
 70
     1
102
RTVSPropertyOp1
 70
     1
102
RTVSPropertyOp2
 70
     1
102
RTVSPropertyOp3
 70
     1
102
RTVSPropertyOp4
 70
     1
102
RTVSPropertyOp5
 70
     1
102
RTVSPropertyOp6
 70
     1
102
RTVSPropertyOp7
 70
     1
102
RTVSPropertyOp8
 70
     1
102
RTVSPropertyOp9
 70
     1
102
RTVSPropertyOp10
 70
     1
102
RTVSPropertyOp11
 70
     1
102
RTVSPropertyOp12
 70
     1
102
RTVSPropertyOp13
 70
     1
102
RTVSPropertyOp14
 70
     1
102
RTVSPropertyOp15
 70
     1
102
RTVSPropertyOp16
 70
     1
102
RTVSPropertyOp17
 70
     1
102
RTVSPropertyOp18
 70
     1
102
RTVSPropertyOp19
 70
     1
102
RTVSPropertyOp20
 70
     1
102
RTVSPropertyOp21
 70
     1
102
RTVSPropertyOp22
 70
     1
102
RTVSPropertyOp23
 70
     1
102
RTVSPropertyOp24
 70
     1
102
RTVSPropertyOp25
 70
     1
102
RTVSPropertyOp26
 70
     1
102
RTVSPropertyOp27
 70
     1
102
RTVSPropertyOp28
 70
     1
102
RTVSPropertyOp29
 70
     1
102
RTVSPropertyOp30
 70
     1
102
RTVSPropertyOp31
 70
     1
102
RTVSPropertyOp32
 70
     1
  0
XRECORD
  5
118
102
{ACAD_REACTORS
330
117
102
}
330
117
100
AcDbXrecord
280
     1
102
RTVSPropertyOp0
 70
     1
102
RTVSPropertyOp1
 70
     1
102
RTVSPropertyOp2
 70
     1
102
RTVSPropertyOp3
 70
     1
102
RTVSPropertyOp4
 70
     1
102
RTVSPropertyOp5
 70
     1
102
RTVSPropertyOp6
 70
     1
102
RTVSPropertyOp7
 70
     1
102
RTVSPropertyOp8
 70
     1
102
RTVSPropertyOp9
 70
     1
102
RTVSPropertyOp10
 70
     1
102
RTVSPropertyOp11
 70
     1
102
RTVSPropertyOp12
 70
     1
102
RTVSPropertyOp13
 70
     1
102
RTVSPropertyOp14
 70
     1
102
RTVSPropertyOp15
 70
     1
102
RTVSPropertyOp16
 70
     1
102
RTVSPropertyOp17
 70
     1
102
RTVSPropertyOp18
 70
     1
102
RTVSPropertyOp19
 70
     1
102
RTVSPropertyOp20
 70
     1
102
RTVSPropertyOp21
 70
     1
102
RTVSPropertyOp22
 70
     1
102
RTVSPropertyOp23
 70
     1
102
RTVSPropertyOp24
 70
     1
102
RTVSPropertyOp25
 70
     1
102
RTVSPropertyOp26
 70
     1
102
RTVSPropertyOp27
 70
     1
102
RTVSPropertyOp28
 70
     1
102
RTVSPropertyOp29
 70
     1
102
RTVSPropertyOp30
 70
     1
102
RTVSPropertyOp31
 70
     1
102
RTVSPropertyOp32
 70
     1
  0
XRECORD
  5
126
102
{ACAD_REACTORS
330
125
102
}
330
125
100
AcDbXrecord
280
     1
102
RTVSPropertyOp0
 70
     1
102
RTVSPropertyOp1
 70
     1
102
RTVSPropertyOp2
 70
     1
102
RTVSPropertyOp3
 70
     1
102
RTVSPropertyOp4
 70
     1
102
RTVSPropertyOp5
 70
     1
102
RTVSPropertyOp6
 70
     1
102
RTVSPropertyOp7
 70
     1
102
RTVSPropertyOp8
 70
     1
102
RTVSPropertyOp9
 70
     1
102
RTVSPropertyOp10
 70
     1
102
RTVSPropertyOp11
 70
     1
102
RTVSPropertyOp12
 70
     1
102
RTVSPropertyOp13
 70
     1
102
RTVSPropertyOp14
 70
     1
102
RTVSPropertyOp15
 70
     1
102
RTVSPropertyOp16
 70
     1
102
RTVSPropertyOp17
 70
     1
102
RTVSPropertyOp18
 70
     1
102
RTVSPropertyOp19
 70
     1
102
RTVSPropertyOp20
 70
     1
102
RTVSPropertyOp21
 70
     1
102
RTVSPropertyOp22
 70
     1
102
RTVSPropertyOp23
 70
     1
102
RTVSPropertyOp24
 70
     1
102
RTVSPropertyOp25
 70
     1
102
RTVSPropertyOp26
 70
     1
102
RTVSPropertyOp27
 70
     1
102
RTVSPropertyOp28
 70
     1
102
RTVSPropertyOp29
 70
     1
102
RTVSPropertyOp30
 70
     1
102
RTVSPropertyOp31
 70
     1
102
RTVSPropertyOp32
 70
     1
  0
XRECORD
  5
12E
102
{ACAD_REACTORS
330
12D
102
}
330
12D
100
AcDbXrecord
280
     1
102
RTVSPropertyOp0
 70
     1
102
RTVSPropertyOp1
 70
     1
102
RTVSPropertyOp2
 70
     1
102
RTVSPropertyOp3
 70
     1
102
RTVSPropertyOp4
 70
     1
102
RTVSPropertyOp5
 70
     1
102
RTVSPropertyOp6
 70
     1
102
RTVSPropertyOp7
 70
     1
102
RTVSPropertyOp8
 70
     1
102
RTVSPropertyOp9
 70
     1
102
RTVSPropertyOp10
 70
     1
102
RTVSPropertyOp11
 70
     1
102
RTVSPropertyOp12
 70
     1
102
RTVSPropertyOp13
 70
     1
102
RTVSPropertyOp14
 70
     1
102
RTVSPropertyOp15
 70
     1
102
RTVSPropertyOp16
 70
     1
102
RTVSPropertyOp17
 70
     1
102
RTVSPropertyOp18
 70
     1
102
RTVSPropertyOp19
 70
     1
102
RTVSPropertyOp20
 70
     1
102
RTVSPropertyOp21
 70
     1
102
RTVSPropertyOp22
 70
     1
102
RTVSPropertyOp23
 70
     1
102
RTVSPropertyOp24
 70
     1
102
RTVSPropertyOp25
 70
     1
102
RTVSPropertyOp26
 70
     1
102
RTVSPropertyOp27
 70
     1
102
RTVSPropertyOp28
 70
     1
102
RTVSPropertyOp29
 70
     1
102
RTVSPropertyOp30
 70
     1
102
RTVSPropertyOp31
 70
     1
102
RTVSPropertyOp32
 70
     1
  0
ENDSEC
  0
EOF
