  0
SECTION
  2
HEADER
  9
$ACADVER
  1
AC1015
  9
$ACADMAINTVER
 70
    20
  9
$DWGCODEPAGE
  3
ANSI_1252
  9
$INSBASE
 10
0.0
 20
0.0
 30
0.0
  9
$EXTMIN
 10
-21.14450569826244
 20
-17.86976790829014
 30
-0.0015258207003583
  9
$EXTMAX
 10
21.76447171479202
 20
18.03271818492678
 30
0.0000000349246037
  9
$LIMMIN
 10
0.0
 20
0.0
  9
$LIMMAX
 10
12.0
 20
9.0
  9
$ORTHOMODE
 70
     0
  9
$REGENMODE
 70
     1
  9
$FILLMODE
 70
     1
  9
$QTEXTMODE
 70
     0
  9
$MIRRTEXT
 70
     1
  9
$LTSCALE
 40
1.0
  9
$ATTMODE
 70
     1
  9
$TEXTSIZE
 40
0.2
  9
$TRACEWID
 40
0.05
  9
$TEXTSTYLE
  7
Standard
  9
$CLAYER
  8
0
  9
$CELTYPE
  6
ByLayer
  9
$CECOLOR
 62
   256
  9
$CELTSCALE
 40
1.0
  9
$DISPSILH
 70
     0
  9
$DIMSCALE
 40
1.0
  9
$DIMASZ
 40
0.18
  9
$DIMEXO
 40
0.0625
  9
$DIMDLI
 40
0.38
  9
$DIMRND
 40
0.0
  9
$DIMDLE
 40
0.0
  9
$DIMEXE
 40
0.18
  9
$DIMTP
 40
0.0
  9
$DIMTM
 40
0.0
  9
$DIMTXT
 40
0.18
  9
$DIMCEN
 40
0.09
  9
$DIMTSZ
 40
0.0
  9
$DIMTOL
 70
     0
  9
$DIMLIM
 70
     0
  9
$DIMTIH
 70
     1
  9
$DIMTOH
 70
     1
  9
$DIMSE1
 70
     0
  9
$DIMSE2
 70
     0
  9
$DIMTAD
 70
     0
  9
$DIMZIN
 70
     0
  9
$DIMBLK
  1

  9
$DIMASO
 70
     1
  9
$DIMSHO
 70
     1
  9
$DIMPOST
  1

  9
$DIMAPOST
  1

  9
$DIMALT
 70
     0
  9
$DIMALTD
 70
     2
  9
$DIMALTF
 40
25.4
  9
$DIMLFAC
 40
1.0
  9
$DIMTOFL
 70
     0
  9
$DIMTVP
 40
0.0
  9
$DIMTIX
 70
     0
  9
$DIMSOXD
 70
     0
  9
$DIMSAH
 70
     0
  9
$DIMBLK1
  1

  9
$DIMBLK2
  1

  9
$DIMSTYLE
  2
Standard
  9
$DIMCLRD
 70
     0
  9
$DIMCLRE
 70
     0
  9
$DIMCLRT
 70
     0
  9
$DIMTFAC
 40
1.0
  9
$DIMGAP
 40
0.09
  9
$DIMJUST
 70
     0
  9
$DIMSD1
 70
     0
  9
$DIMSD2
 70
     0
  9
$DIMTOLJ
 70
     1
  9
$DIMTZIN
 70
     0
  9
$DIMALTZ
 70
     0
  9
$DIMALTTZ
 70
     0
  9
$DIMUPT
 70
     0
  9
$DIMDEC
 70
     4
  9
$DIMTDEC
 70
     4
  9
$DIMALTU
 70
     2
  9
$DIMALTTD
 70
     2
  9
$DIMTXSTY
  7
Standard
  9
$DIMAUNIT
 70
     0
  9
$DIMADEC
 70
     0
  9
$DIMALTRND
 40
0.0
  9
$DIMAZIN
 70
     0
  9
$DIMDSEP
 70
    46
  9
$DIMATFIT
 70
     3
  9
$DIMFRAC
 70
     0
  9
$DIMLDRBLK
  1

  9
$DIMLUNIT
 70
     2
  9
$DIMLWD
 70
    -2
  9
$DIMLWE
 70
    -2
  9
$DIMTMOVE
 70
     0
  9
$LUNITS
 70
     2
  9
$LUPREC
 70
     4
  9
$SKETCHINC
 40
0.1
  9
$FILLETRAD
 40
0.0
  9
$AUNITS
 70
     0
  9
$AUPREC
 70
     0
  9
$MENU
  1
.
  9
$ELEVATION
 40
0.0
  9
$PELEVATION
 40
0.0
  9
$THICKNESS
 40
0.0
  9
$LIMCHECK
 70
     0
  9
$CHAMFERA
 40
0.5
  9
$CHAMFERB
 40
0.5
  9
$CHAMFERC
 40
1.0
  9
$CHAMFERD
 40
0.0
  9
$SKPOLY
 70
     0
  9
$TDCREATE
 40
2457474.222736181
  9
$TDUCREATE
 40
2457474.389402848
  9
$TDUPDATE
 40
2457523.410422836
  9
$TDUUPDATE
 40
2457523.577089502
  9
$TDINDWG
 40
0.0120689005
  9
$TDUSRTIMER
 40
0.0120688773
  9
$USRTIMER
 70
     1
  9
$ANGBASE
 50
0.0
  9
$ANGDIR
 70
     0
  9
$PDMODE
 70
     0
  9
$PDSIZE
 40
0.0
  9
$PLINEWID
 40
0.0
  9
$SPLFRAME
 70
     0
  9
$SPLINETYPE
 70
     6
  9
$SPLINESEGS
 70
     8
  9
$HANDSEED
  5
12D
  9
$SURFTAB1
 70
     6
  9
$SURFTAB2
 70
     6
  9
$SURFTYPE
 70
     6
  9
$SURFU
 70
     6
  9
$SURFV
 70
     6
  9
$UCSBASE
  2

  9
$UCSNAME
  2

  9
$UCSORG
 10
0.0
 20
0.0
 30
0.0
  9
$UCSXDIR
 10
1.0
 20
0.0
 30
0.0
  9
$UCSYDIR
 10
0.0
 20
1.0
 30
0.0
  9
$UCSORTHOREF
  2

  9
$UCSORTHOVIEW
 70
     0
  9
$UCSORGTOP
 10
0.0
 20
0.0
 30
0.0
  9
$UCSORGBOTTOM
 10
0.0
 20
0.0
 30
0.0
  9
$UCSORGLEFT
 10
0.0
 20
0.0
 30
0.0
  9
$UCSORGRIGHT
 10
0.0
 20
0.0
 30
0.0
  9
$UCSORGFRONT
 10
0.0
 20
0.0
 30
0.0
  9
$UCSORGBACK
 10
0.0
 20
0.0
 30
0.0
  9
$PUCSBASE
  2

  9
$PUCSNAME
  2

  9
$PUCSORG
 10
0.0
 20
0.0
 30
0.0
  9
$PUCSXDIR
 10
1.0
 20
0.0
 30
0.0
  9
$PUCSYDIR
 10
0.0
 20
1.0
 30
0.0
  9
$PUCSORTHOREF
  2

  9
$PUCSORTHOVIEW
 70
     0
  9
$PUCSORGTOP
 10
0.0
 20
0.0
 30
0.0
  9
$PUCSORGBOTTOM
 10
0.0
 20
0.0
 30
0.0
  9
$PUCSORGLEFT
 10
0.0
 20
0.0
 30
0.0
  9
$PUCSORGRIGHT
 10
0.0
 20
0.0
 30
0.0
  9
$PUCSORGFRONT
 10
0.0
 20
0.0
 30
0.0
  9
$PUCSORGBACK
 10
0.0
 20
0.0
 30
0.0
  9
$USERI1
 70
     0
  9
$USERI2
 70
     0
  9
$USERI3
 70
     0
  9
$USERI4
 70
     0
  9
$USERI5
 70
     0
  9
$USERR1
 40
0.0
  9
$USERR2
 40
0.0
  9
$USERR3
 40
0.0
  9
$USERR4
 40
0.0
  9
$USERR5
 40
0.0
  9
$WORLDVIEW
 70
     1
  9
$SHADEDGE
 70
     3
  9
$SHADEDIF
 70
    70
  9
$TILEMODE
 70
     1
  9
$MAXACTVP
 70
    64
  9
$PINSBASE
 10
0.0
 20
0.0
 30
0.0
  9
$PLIMCHECK
 70
     0
  9
$PEXTMIN
 10
1.000000000000000E+20
 20
1.000000000000000E+20
 30
1.000000000000000E+20
  9
$PEXTMAX
 10
-1.000000000000000E+20
 20
-1.000000000000000E+20
 30
-1.000000000000000E+20
  9
$PLIMMIN
 10
0.0
 20
0.0
  9
$PLIMMAX
 10
12.0
 20
9.0
  9
$UNITMODE
 70
     0
  9
$VISRETAIN
 70
     1
  9
$PLINEGEN
 70
     0
  9
$PSLTSCALE
 70
     1
  9
$TREEDEPTH
 70
  3020
  9
$CMLSTYLE
  2
Standard
  9
$CMLJUST
 70
     0
  9
$CMLSCALE
 40
1.0
  9
$PROXYGRAPHICS
 70
     1
  9
$MEASUREMENT
 70
     0
  9
$CELWEIGHT
370
    -1
  9
$ENDCAPS
280
     0
  9
$JOINSTYLE
280
     0
  9
$LWDISPLAY
290
     0
  9
$INSUNITS
 70
     5
  9
$HYPERLINKBASE
  1

  9
$STYLESHEET
  1

  9
$XEDIT
290
     1
  9
$CEPSNTYPE
380
     0
  9
$PSTYLEMODE
290
     1
  9
$FINGERPRINTGUID
  2
{7B80DBE4-C84E-48F6-A6B3-2C1B74CA5B5B}
  9
$VERSIONGUID
  2
{40B4CB5C-2F3C-47B8-A6A7-C733598088EB}
  9
$EXTNAMES
290
     1
  9
$PSVPSCALE
 40
0.0
  9
$OLESTARTUP
290
     0
  0
ENDSEC
  0
SECTION
  2
CLASSES
  0
CLASS
  1
ACDBDICTIONARYWDFLT
  2
AcDbDictionaryWithDefault
  3
ObjectDBX Classes
 90
        0
280
     0
281
     0
  0
CLASS
  1
VISUALSTYLE
  2
AcDbVisualStyle
  3
ObjectDBX Classes
 90
     4095
280
     0
281
     0
  0
CLASS
  1
MATERIAL
  2
AcDbMaterial
  3
ObjectDBX Classes
 90
     1153
280
     0
281
     0
  0
CLASS
  1
IMAGEDEF
  2
AcDbRasterImageDef
  3
ISM
 90
        0
280
     0
281
     0
  0
CLASS
  1
IMAGE
  2
AcDbRasterImage
  3
ISM
 90
     2175
280
     0
281
     1
  0
CLASS
  1
IMAGEDEF_REACTOR
  2
AcDbRasterImageDefReactor
  3
ISM
 90
        1
280
     0
281
     0
  0
CLASS
  1
TABLESTYLE
  2
AcDbTableStyle
  3
ObjectDBX Classes
 90
     4095
280
     0
281
     0
  0
CLASS
  1
SCALE
  2
AcDbScale
  3
ObjectDBX Classes
 90
     1153
280
     0
281
     0
  0
CLASS
  1
MLEADERSTYLE
  2
AcDbMLeaderStyle
  3
ACDB_MLEADERSTYLE_CLASS
 90
     4095
280
     0
281
     0
  0
CLASS
  1
RASTERVARIABLES
  2
AcDbRasterVariables
  3
ISM
 90
        0
280
     0
281
     0
  0
CLASS
  1
EXACXREFPANELOBJECT
  2
ExAcXREFPanelObject
  3
EXAC_ESW
 90
     1025
280
     0
281
     0
  0
CLASS
  1
NPOCOLLECTION
  2
AcDbImpNonPersistentObjectsCollection
  3
ObjectDBX Classes
 90
     1153
280
     0
281
     0
  0
CLASS
  1
DICTIONARYVAR
  2
AcDbDictionaryVar
  3
ObjectDBX Classes
 90
        0
280
     0
281
     0
  0
CLASS
  1
CELLSTYLEMAP
  2
AcDbCellStyleMap
  3
ObjectDBX Classes
 90
     1152
280
     0
281
     0
  0
CLASS
  1
ACDBPLACEHOLDER
  2
AcDbPlaceHolder
  3
ObjectDBX Classes
 90
        0
280
     0
281
     0
  0
CLASS
  1
LAYOUT
  2
AcDbLayout
  3
ObjectDBX Classes
 90
        0
280
     0
281
     0
  0
ENDSEC
  0
SECTION
  2
TABLES
  0
TABLE
  2
VPORT
  5
8
330
0
100
AcDbSymbolTable
 70
     1
  0
VPORT
  5
29
330
8
100
AcDbSymbolTableRecord
100
AcDbViewportTableRecord
  2
*Active
 70
     0
 10
0.0
 20
0.0
 11
1.0
 21
1.0
 12
0.3099830082647905
 22
0.0814751383183179
 13
0.0
 23
0.0
 14
0.5
 24
0.5
 15
0.5
 25
0.5
 16
0.0
 26
0.0
 36
1.0
 17
0.0
 27
0.0
 37
0.0
 40
36.1753921808931
 41
2.201197604790419
 42
50.0
 43
0.0
 44
0.0
 50
0.0
 51
0.0
 71
     0
 72
   100
 73
     1
 74
     3
 75
     0
 76
     0
 77
     0
 78
     0
281
     0
 65
     1
110
0.0
120
0.0
130
0.0
111
1.0
121
0.0
131
0.0
112
0.0
122
1.0
132
0.0
 79
     0
146
0.0
1001
ACAD_NAV_VCDISPLAY
1070
     3
  0
ENDTAB
  0
TABLE
  2
LTYPE
  5
5
330
0
100
AcDbSymbolTable
 70
     1
  0
LTYPE
  5
14
330
5
100
AcDbSymbolTableRecord
100
AcDbLinetypeTableRecord
  2
ByBlock
 70
     0
  3

 72
    65
 73
     0
 40
0.0
  0
LTYPE
  5
15
330
5
100
AcDbSymbolTableRecord
100
AcDbLinetypeTableRecord
  2
ByLayer
 70
     0
  3

 72
    65
 73
     0
 40
0.0
  0
LTYPE
  5
16
330
5
100
AcDbSymbolTableRecord
100
AcDbLinetypeTableRecord
  2
Continuous
 70
     0
  3
Solid line
 72
    65
 73
     0
 40
0.0
  0
ENDTAB
  0
TABLE
  2
LAYER
  5
2
330
0
100
AcDbSymbolTable
 70
     2
  0
LAYER
  5
10
330
2
100
AcDbSymbolTableRecord
100
AcDbLayerTableRecord
  2
0
 70
     0
 62
     7
  6
Continuous
370
    -3
390
F
  0
LAYER
  5
40
330
2
100
AcDbSymbolTableRecord
100
AcDbLayerTableRecord
  2
layer 1
 70
     0
 62
     7
  6
Continuous
370
    -3
390
F
  0
ENDTAB
  0
TABLE
  2
STYLE
  5
3
330
0
100
AcDbSymbolTable
 70
     1
  0
STYLE
  5
11
330
3
100
AcDbSymbolTableRecord
100
AcDbTextStyleTableRecord
  2
Standard
 70
     0
 40
0.0
 41
1.0
 50
0.0
 71
     0
 42
0.2
  3
txt
  4

  0
ENDTAB
  0
TABLE
  2
VIEW
  5
6
330
0
100
AcDbSymbolTable
 70
     0
  0
ENDTAB
  0
TABLE
  2
UCS
  5
7
330
0
100
AcDbSymbolTable
 70
     0
  0
ENDTAB
  0
TABLE
  2
APPID
  5
9
330
0
100
AcDbSymbolTable
 70
     4
  0
APPID
  5
12
330
9
100
AcDbSymbolTableRecord
100
AcDbRegAppTableRecord
  2
ACAD
 70
     0
  0
APPID
  5
3F
330
9
100
AcDbSymbolTableRecord
100
AcDbRegAppTableRecord
  2
ODA
 70
     0
  0
APPID
  5
B0
330
9
100
AcDbSymbolTableRecord
100
AcDbRegAppTableRecord
  2
ACAD_NAV_VCDISPLAY
 70
     0
  0
APPID
  5
12C
330
9
100
AcDbSymbolTableRecord
100
AcDbRegAppTableRecord
  2
ACAD_MLEADERVER
 70
     0
  0
ENDTAB
  0
TABLE
  2
DIMSTYLE
  5
A
330
0
100
AcDbSymbolTable
 70
     1
100
AcDbDimStyleTable
 71
     0
  0
DIMSTYLE
105
27
330
A
100
AcDbSymbolTableRecord
100
AcDbDimStyleTableRecord
  2
Standard
 70
     0
340
11
  0
ENDTAB
  0
TABLE
  2
BLOCK_RECORD
  5
1
330
0
100
AcDbSymbolTable
 70
     2
  0
BLOCK_RECORD
  5
1F
330
1
100
AcDbSymbolTableRecord
100
AcDbBlockTableRecord
  2
*Model_Space
340
22
  0
BLOCK_RECORD
  5
1B
330
1
100
AcDbSymbolTableRecord
100
AcDbBlockTableRecord
  2
*Paper_Space
340
1E
  0
BLOCK_RECORD
  5
23
330
1
100
AcDbSymbolTableRecord
100
AcDbBlockTableRecord
  2
*Paper_Space0
340
26
  0
ENDTAB
  0
ENDSEC
  0
SECTION
  2
BLOCKS
  0
BLOCK
  5
20
330
1F
100
AcDbEntity
  8
0
100
AcDbBlockBegin
  2
*Model_Space
 70
     0
 10
0.0
 20
0.0
 30
0.0
  3
*Model_Space
  1

  0
ENDBLK
  5
21
330
1F
100
AcDbEntity
  8
0
100
AcDbBlockEnd
  0
BLOCK
  5
1C
330
1B
100
AcDbEntity
 67
     1
  8
0
100
AcDbBlockBegin
  2
*Paper_Space
 70
     0
 10
0.0
 20
0.0
 30
0.0
  3
*Paper_Space
  1

  0
ENDBLK
  5
1D
330
1B
100
AcDbEntity
 67
     1
  8
0
100
AcDbBlockEnd
  0
BLOCK
  5
24
330
23
100
AcDbEntity
 67
     1
  8
0
100
AcDbBlockBegin
  2
*Paper_Space0
 70
     0
 10
0.0
 20
0.0
 30
0.0
  3
*Paper_Space0
  1

  0
ENDBLK
  5
25
330
23
100
AcDbEntity
 67
     1
  8
0
100
AcDbBlockEnd
  0
ENDSEC
  0
SECTION
  2
ENTITIES
  0
SPLINE
  5
41
330
1F
100
AcDbEntity
  8
layer 1
 62
   250
370
    50
100
AcDbSpline
210
0.0
220
0.0
230
1.0
 70
     9
 71
     3
 72
    20
 73
    16
 74
     0
 42
0.0000000001
 43
0.0000000001
 40
0.0
 40
0.0
 40
0.0
 40
0.0
 40
0.2
 40
0.2
 40
0.2
 40
0.2
 40
0.4
 40
0.4
 40
0.4
 40
0.4
 40
0.6
 40
0.6
 40
0.6
 40
0.6
 40
1.0
 40
1.0
 40
1.0
 40
1.0
 10
0.31272
 20
16.52957
 30
0.0
 10
12.15922
 20
16.52957
 30
0.0
 10
21.76271
 20
8.82887
 30
0.0
 10
21.76271
 20
-0.6704200000000001
 30
0.0
 10
21.76271
 20
-0.6704200000000001
 30
0.0
 10
21.76271
 20
-10.16971
 30
0.0
 10
12.15922
 20
-17.87041
 30
0.0
 10
0.31272
 20
-17.87041
 30
0.0
 10
0.31272
 20
-17.87041
 30
0.0
 10
-11.53378
 20
-17.87041
 30
0.0
 10
-21.13727
 20
-10.16971
 30
0.0
 10
-21.13727
 20
-0.6704200000000001
 30
0.0
 10
-21.13727
 20
-0.6704200000000001
 30
0.0
 10
-21.13727
 20
8.82887
 30
0.0
 10
-11.53378
 20
16.52957
 30
0.0
 10
0.31272
 20
16.52957
 30
0.0
  0
SPLINE
  5
46
330
1F
100
AcDbEntity
  8
layer 1
 62
   250
370
    50
100
AcDbSpline
210
0.0
220
0.0
230
1.0
 70
    24
 71
     3
 72
     8
 73
     4
 74
     0
 42
0.0000000001
 43
0.0000000001
 40
0.0
 40
0.0
 40
0.0
 40
0.0
 40
1.0
 40
1.0
 40
1.0
 40
1.0
 10
0.31273
 20
2.933849999999999
 30
0.0
 10
0.31273
 20
2.933849999999999
 30
0.0
 10
0.31273
 20
-17.51392
 30
0.0
 10
0.31273
 20
-17.51392
 30
0.0
  0
SPLINE
  5
47
330
1F
100
AcDbEntity
  8
layer 1
 62
   250
370
    50
100
AcDbSpline
210
0.0
220
0.0
230
1.0
 70
    24
 71
     3
 72
     8
 73
     4
 74
     0
 42
0.0000000001
 43
0.0000000001
 40
0.0
 40
0.0
 40
0.0
 40
0.0
 40
1.0
 40
1.0
 40
1.0
 40
1.0
 10
0.31277
 20
16.53184
 30
0.0
 10
0.31277
 20
16.53184
 30
0.0
 10
0.31277
 20
0.35111
 30
0.0
 10
0.31277
 20
0.35111
 30
0.0
  0
SPLINE
  5
48
330
1F
100
AcDbEntity
  8
layer 1
 62
   250
370
    50
100
AcDbSpline
210
0.0
220
0.0
230
1.0
 70
    11
 71
     3
 72
    16
 73
    12
 74
     0
 42
0.0000000001
 43
0.0000000001
 40
0.0
 40
0.0
 40
0.0
 40
0.0
 40
0.25
 40
0.25
 40
0.25
 40
0.25
 40
0.5
 40
0.5
 40
0.5
 40
0.5
 40
1.0
 40
1.0
 40
1.0
 40
1.0
 10
0.12028
 20
-17.3427
 30
0.0
 10
0.12028
 20
-17.3427
 30
0.0
 10
0.51492
 20
-17.3427
 30
0.0
 10
0.51492
 20
-17.3427
 30
0.0
 10
0.51492
 20
-17.3427
 30
0.0
 10
0.51492
 20
-17.3427
 30
0.0
 10
0.30882
 20
-17.85452
 30
0.0
 10
0.30882
 20
-17.85452
 30
0.0
 10
0.30882
 20
-17.85452
 30
0.0
 10
0.30882
 20
-17.85452
 30
0.0
 10
0.12028
 20
-17.3427
 30
0.0
 10
0.12028
 20
-17.3427
 30
0.0
  0
SPLINE
  5
49
330
1F
100
AcDbEntity
  8
layer 1
 62
   250
370
    50
100
AcDbSpline
210
0.0
220
0.0
230
1.0
 70
    24
 71
     3
 72
     8
 73
     4
 74
     0
 42
0.0000000001
 43
0.0000000001
 40
0.0
 40
0.0
 40
0.0
 40
0.0
 40
1.0
 40
1.0
 40
1.0
 40
1.0
 10
-4.398399999999999
 20
-0.67043
 30
0.0
 10
-4.398399999999999
 20
-0.67043
 30
0.0
 10
21.33399
 20
-0.67043
 30
0.0
 10
21.33399
 20
-0.67043
 30
0.0
  0
SPLINE
  5
4A
330
1F
100
AcDbEntity
  8
layer 1
 62
   250
370
    50
100
AcDbSpline
210
0.0
220
0.0
230
1.0
 70
    24
 71
     3
 72
     8
 73
     4
 74
     0
 42
0.0000000001
 43
0.0000000001
 40
0.0
 40
0.0
 40
0.0
 40
0.0
 40
1.0
 40
1.0
 40
1.0
 40
1.0
 10
-20.8456
 20
-0.67043
 30
0.0
 10
-20.8456
 20
-0.67043
 30
0.0
 10
-1.938109999999999
 20
-0.67043
 30
0.0
 10
-1.938109999999999
 20
-0.67043
 30
0.0
  0
SPLINE
  5
4B
330
1F
100
AcDbEntity
  8
layer 1
 62
   250
370
    50
100
AcDbSpline
210
0.0
220
0.0
230
1.0
 70
    11
 71
     3
 72
    16
 73
    12
 74
     0
 42
0.0000000001
 43
0.0000000001
 40
0.0
 40
0.0
 40
0.0
 40
0.0
 40
0.25
 40
0.25
 40
0.25
 40
0.25
 40
0.5
 40
0.5
 40
0.5
 40
0.5
 40
1.0
 40
1.0
 40
1.0
 40
1.0
 10
21.21694
 20
-0.86767
 30
0.0
 10
21.21694
 20
-0.86767
 30
0.0
 10
21.21694
 20
-0.4766700000000001
 30
0.0
 10
21.21694
 20
-0.4766700000000001
 30
0.0
 10
21.21694
 20
-0.4766700000000001
 30
0.0
 10
21.21694
 20
-0.4766700000000001
 30
0.0
 10
21.73208
 20
-0.68087
 30
0.0
 10
21.73208
 20
-0.68087
 30
0.0
 10
21.73208
 20
-0.68087
 30
0.0
 10
21.73208
 20
-0.68087
 30
0.0
 10
21.21694
 20
-0.86767
 30
0.0
 10
21.21694
 20
-0.86767
 30
0.0
  0
SPLINE
  5
4C
330
1F
100
AcDbEntity
  8
layer 1
 62
   250
370
    50
100
AcDbSpline
210
0.0
220
0.0
230
1.0
 70
    11
 71
     3
 72
    16
 73
    12
 74
     0
 42
0.0000000001
 43
0.0000000001
 40
0.0
 40
0.0
 40
0.0
 40
0.0
 40
0.25
 40
0.25
 40
0.25
 40
0.25
 40
0.5
 40
0.5
 40
0.5
 40
0.5
 40
1.0
 40
1.0
 40
1.0
 40
1.0
 10
-20.6265
 20
-0.86767
 30
0.0
 10
-20.6265
 20
-0.86767
 30
0.0
 10
-20.6265
 20
-0.4766700000000001
 30
0.0
 10
-20.6265
 20
-0.4766700000000001
 30
0.0
 10
-20.6265
 20
-0.4766700000000001
 30
0.0
 10
-20.6265
 20
-0.4766700000000001
 30
0.0
 10
-21.14165
 20
-0.68087
 30
0.0
 10
-21.14165
 20
-0.68087
 30
0.0
 10
-21.14165
 20
-0.68087
 30
0.0
 10
-21.14165
 20
-0.68087
 30
0.0
 10
-20.6265
 20
-0.86767
 30
0.0
 10
-20.6265
 20
-0.86767
 30
0.0
  0
SPLINE
  5
4F
330
1F
100
AcDbEntity
  8
layer 1
 62
   250
100
AcDbSpline
210
0.0
220
0.0
230
1.0
 70
     9
 71
     3
 72
   152
 73
   148
 74
     0
 42
0.0000000001
 43
0.0000000001
 40
0.0
 40
0.0
 40
0.0
 40
0.0
 40
0.0263157894736842
 40
0.0263157894736842
 40
0.0263157894736842
 40
0.0263157894736842
 40
0.0526315789473684
 40
0.0526315789473684
 40
0.0526315789473684
 40
0.0526315789473684
 40
0.0789473684210526
 40
0.0789473684210526
 40
0.0789473684210526
 40
0.0789473684210526
 40
0.1052631578947368
 40
0.1052631578947368
 40
0.1052631578947368
 40
0.1052631578947368
 40
0.131578947368421
 40
0.131578947368421
 40
0.131578947368421
 40
0.131578947368421
 40
0.1578947368421053
 40
0.1578947368421053
 40
0.1578947368421053
 40
0.1578947368421053
 40
0.1842105263157895
 40
0.1842105263157895
 40
0.1842105263157895
 40
0.1842105263157895
 40
0.2105263157894737
 40
0.2105263157894737
 40
0.2105263157894737
 40
0.2105263157894737
 40
0.2368421052631579
 40
0.2368421052631579
 40
0.2368421052631579
 40
0.2368421052631579
 40
0.2631578947368421
 40
0.2631578947368421
 40
0.2631578947368421
 40
0.2631578947368421
 40
0.2894736842105263
 40
0.2894736842105263
 40
0.2894736842105263
 40
0.2894736842105263
 40
0.3157894736842105
 40
0.3157894736842105
 40
0.3157894736842105
 40
0.3157894736842105
 40
0.3421052631578947
 40
0.3421052631578947
 40
0.3421052631578947
 40
0.3421052631578947
 40
0.3684210526315789
 40
0.3684210526315789
 40
0.3684210526315789
 40
0.3684210526315789
 40
0.3947368421052632
 40
0.3947368421052632
 40
0.3947368421052632
 40
0.3947368421052632
 40
0.4210526315789473
 40
0.4210526315789473
 40
0.4210526315789473
 40
0.4210526315789473
 40
0.4473684210526316
 40
0.4473684210526316
 40
0.4473684210526316
 40
0.4473684210526316
 40
0.4736842105263159
 40
0.4736842105263159
 40
0.4736842105263159
 40
0.4736842105263159
 40
0.5
 40
0.5
 40
0.5
 40
0.5
 40
0.5263157894736842
 40
0.5263157894736842
 40
0.5263157894736842
 40
0.5263157894736842
 40
0.5526315789473685
 40
0.5526315789473685
 40
0.5526315789473685
 40
0.5526315789473685
 40
0.5789473684210527
 40
0.5789473684210527
 40
0.5789473684210527
 40
0.5789473684210527
 40
0.6052631578947369
 40
0.6052631578947369
 40
0.6052631578947369
 40
0.6052631578947369
 40
0.6315789473684211
 40
0.6315789473684211
 40
0.6315789473684211
 40
0.6315789473684211
 40
0.6578947368421053
 40
0.6578947368421053
 40
0.6578947368421053
 40
0.6578947368421053
 40
0.6842105263157895
 40
0.6842105263157895
 40
0.6842105263157895
 40
0.6842105263157895
 40
0.7105263157894737
 40
0.7105263157894737
 40
0.7105263157894737
 40
0.7105263157894737
 40
0.7368421052631579
 40
0.7368421052631579
 40
0.7368421052631579
 40
0.7368421052631579
 40
0.7631578947368422
 40
0.7631578947368422
 40
0.7631578947368422
 40
0.7631578947368422
 40
0.7894736842105264
 40
0.7894736842105264
 40
0.7894736842105264
 40
0.7894736842105264
 40
0.8157894736842104
 40
0.8157894736842104
 40
0.8157894736842104
 40
0.8157894736842104
 40
0.8421052631578946
 40
0.8421052631578946
 40
0.8421052631578946
 40
0.8421052631578946
 40
0.8684210526315791
 40
0.8684210526315791
 40
0.8684210526315791
 40
0.8684210526315791
 40
0.8947368421052631
 40
0.8947368421052631
 40
0.8947368421052631
 40
0.8947368421052631
 40
0.9210526315789472
 40
0.9210526315789472
 40
0.9210526315789472
 40
0.9210526315789472
 40
0.9473684210526316
 40
0.9473684210526316
 40
0.9473684210526316
 40
0.9473684210526316
 40
1.0
 40
1.0
 40
1.0
 40
1.0
 10
19.09296
 20
-9.44303
 30
0.0
 10
19.11377
 20
-9.47602
 30
0.0
 10
19.12031
 20
-9.51172
 30
0.0
 10
19.11258
 20
-9.550119999999999
 30
0.0
 10
19.11258
 20
-9.550119999999999
 30
0.0
 10
19.10485
 20
-9.588510000000001
 30
0.0
 10
19.08681
 20
-9.62725
 30
0.0
 10
19.05845
 20
-9.66633
 30
0.0
 10
19.05845
 20
-9.66633
 30
0.0
 10
19.00172
 20
-9.7445
 30
0.0
 10
18.89473
 20
-9.835410000000001
 30
0.0
 10
18.73747
 20
-9.939060000000001
 30
0.0
 10
18.73747
 20
-9.939060000000001
 30
0.0
 10
18.58021
 20
-10.04271
 30
0.0
 10
18.42783
 20
-10.1417
 30
0.0
 10
18.28033
 20
-10.23603
 30
0.0
 10
18.28033
 20
-10.23603
 30
0.0
 10
18.27527
 20
-10.32931
 30
0.0
 10
18.24872
 20
-10.41781
 30
0.0
 10
18.20065
 20
-10.50151
 30
0.0
 10
18.20065
 20
-10.50151
 30
0.0
 10
18.15259
 20
-10.58522
 30
0.0
 10
18.13882
 20
-10.63451
 30
0.0
 10
18.15933
 20
-10.6494
 30
0.0
 10
18.15933
 20
-10.6494
 30
0.0
 10
18.1779
 20
-10.66288
 30
0.0
 10
18.20094
 20
-10.67326
 30
0.0
 10
18.22846
 20
-10.68055
 30
0.0
 10
18.22846
 20
-10.68055
 30
0.0
 10
18.25599
 20
-10.68785
 30
0.0
 10
18.27366
 20
-10.69433
 30
0.0
 10
18.28147
 20
-10.7
 30
0.0
 10
18.28147
 20
-10.7
 30
0.0
 10
18.32739
 20
-10.73333
 30
0.0
 10
18.35172
 20
-10.78305
 30
0.0
 10
18.35427
 20
-10.84942
 30
0.0
 10
18.35427
 20
-10.84942
 30
0.0
 10
18.35683
 20
-10.91578
 30
0.0
 10
18.33391
 20
-10.98231
 30
0.0
 10
18.28534
 20
-11.04924
 30
0.0
 10
18.28534
 20
-11.04924
 30
0.0
 10
18.25804
 20
-11.08685
 30
0.0
 10
18.21533
 20
-11.10769
 30
0.0
 10
18.15737
 20
-11.1115
 30
0.0
 10
18.15737
 20
-11.1115
 30
0.0
 10
18.09941
 20
-11.11531
 30
0.0
 10
18.04837
 20
-11.10138
 30
0.0
 10
18.0044
 20
-11.06948
 30
0.0
 10
18.0044
 20
-11.06948
 30
0.0
 10
17.95262
 20
-11.0319
 30
0.0
 10
17.92595
 20
-10.97563
 30
0.0
 10
17.92441
 20
-10.90068
 30
0.0
 10
17.92441
 20
-10.90068
 30
0.0
 10
17.92287
 20
-10.82572
 30
0.0
 10
17.95081
 20
-10.74867
 30
0.0
 10
18.00825
 20
-10.66953
 30
0.0
 10
18.00825
 20
-10.66953
 30
0.0
 10
18.01463
 20
-10.66074
 30
0.0
 10
18.02101
 20
-10.65194
 30
0.0
 10
18.02739
 20
-10.64315
 30
0.0
 10
18.02739
 20
-10.64315
 30
0.0
 10
18.03785
 20
-10.63284
 30
0.0
 10
18.04747
 20
-10.62267
 30
0.0
 10
18.05625
 20
-10.61263
 30
0.0
 10
18.05625
 20
-10.61263
 30
0.0
 10
18.06503
 20
-10.6026
 30
0.0
 10
18.07225
 20
-10.59367
 30
0.0
 10
18.07792
 20
-10.58585
 30
0.0
 10
18.07792
 20
-10.58585
 30
0.0
 10
18.10841
 20
-10.54384
 30
0.0
 10
18.12707
 20
-10.49808
 30
0.0
 10
18.1339
 20
-10.4486
 30
0.0
 10
18.1339
 20
-10.4486
 30
0.0
 10
18.14072
 20
-10.39911
 30
0.0
 10
18.13155
 20
-10.34957
 30
0.0
 10
18.10638
 20
-10.29998
 30
0.0
 10
18.10638
 20
-10.29998
 30
0.0
 10
18.02248
 20
-10.27787
 30
0.0
 10
17.94752
 20
-10.30924
 30
0.0
 10
17.88148
 20
-10.39407
 30
0.0
 10
17.88148
 20
-10.39407
 30
0.0
 10
17.81545
 20
-10.4789
 30
0.0
 10
17.75947
 20
-10.5509
 30
0.0
 10
17.71355
 20
-10.61006
 30
0.0
 10
17.71355
 20
-10.61006
 30
0.0
 10
17.6781
 20
-10.65891
 30
0.0
 10
17.6306
 20
-10.68634
 30
0.0
 10
17.57105
 20
-10.69235
 30
0.0
 10
17.57105
 20
-10.69235
 30
0.0
 10
17.5115
 20
-10.69836
 30
0.0
 10
17.45779
 20
-10.68399
 30
0.0
 10
17.40991
 20
-10.64925
 30
0.0
 10
17.40991
 20
-10.64925
 30
0.0
 10
17.36204
 20
-10.6145
 30
0.0
 10
17.3352
 20
-10.56259
 30
0.0
 10
17.3294
 20
-10.4935
 30
0.0
 10
17.3294
 20
-10.4935
 30
0.0
 10
17.32361
 20
-10.4244
 30
0.0
 10
17.33595
 20
-10.36885
 30
0.0
 10
17.36644
 20
-10.32684
 30
0.0
 10
17.36644
 20
-10.32684
 30
0.0
 10
17.4026
 20
-10.27701
 30
0.0
 10
17.45301
 20
-10.24609
 30
0.0
 10
17.51766
 20
-10.23409
 30
0.0
 10
17.51766
 20
-10.23409
 30
0.0
 10
17.5823
 20
-10.22208
 30
0.0
 10
17.63759
 20
-10.23274
 30
0.0
 10
17.68351
 20
-10.26607
 30
0.0
 10
17.68351
 20
-10.26607
 30
0.0
 10
17.70598
 20
-10.28237
 30
0.0
 10
17.72615
 20
-10.30596
 30
0.0
 10
17.74403
 20
-10.33683
 30
0.0
 10
17.74403
 20
-10.33683
 30
0.0
 10
17.78213
 20
-10.36449
 30
0.0
 10
17.83343
 20
-10.34056
 30
0.0
 10
17.89792
 20
-10.26505
 30
0.0
 10
17.89792
 20
-10.26505
 30
0.0
 10
17.96242
 20
-10.18953
 30
0.0
 10
18.03028
 20
-10.13661
 30
0.0
 10
18.10152
 20
-10.10627
 30
0.0
 10
18.10152
 20
-10.10627
 30
0.0
 10
18.12995
 20
-10.04038
 30
0.0
 10
18.16383
 20
-9.92998
 30
0.0
 10
18.20316
 20
-9.775059999999999
 30
0.0
 10
18.20316
 20
-9.775059999999999
 30
0.0
 10
18.2425
 20
-9.620129999999999
 30
0.0
 10
18.27497
 20
-9.50088
 30
0.0
 10
18.30058
 20
-9.417289999999999
 30
0.0
 10
18.30058
 20
-9.417289999999999
 30
0.0
 10
18.32619
 20
-9.333689999999998
 30
0.0
 10
18.35991
 20
-9.26308
 30
0.0
 10
18.40174
 20
-9.205429999999999
 30
0.0
 10
18.40174
 20
-9.205429999999999
 30
0.0
 10
18.4294
 20
-9.167329999999999
 30
0.0
 10
18.45978999999999
 20
-9.138289999999999
 30
0.0
 10
18.49292
 20
-9.11833
 30
0.0
 10
18.49292
 20
-9.11833
 30
0.0
 10
18.52605
 20
-9.098369999999999
 30
0.0
 10
18.56387
 20
-9.0889
 30
0.0
 10
18.60639
 20
-9.089919999999999
 30
0.0
 10
18.60639
 20
-9.089919999999999
 30
0.0
 10
18.60639
 20
-9.089919999999999
 30
0.0
 10
18.37972
 20
-9.92332
 30
0.0
 10
18.37972
 20
-9.92332
 30
0.0
 10
18.37972
 20
-9.92332
 30
0.0
 10
18.37972
 20
-9.92332
 30
0.0
 10
19.09296
 20
-9.44303
 30
0.0
 10
19.09296
 20
-9.44303
 30
0.0
  0
SPLINE
  5
50
330
1F
100
AcDbEntity
  8
layer 1
 62
   250
100
AcDbSpline
210
0.0
220
0.0
230
1.0
 70
     9
 71
     3
 72
    36
 73
    32
 74
     0
 42
0.0000000001
 43
0.0000000001
 40
0.0
 40
0.0
 40
0.0
 40
0.0
 40
0.1111111111111111
 40
0.1111111111111111
 40
0.1111111111111111
 40
0.1111111111111111
 40
0.2222222222222222
 40
0.2222222222222222
 40
0.2222222222222222
 40
0.2222222222222222
 40
0.3333333333333333
 40
0.3333333333333333
 40
0.3333333333333333
 40
0.3333333333333333
 40
0.4444444444444445
 40
0.4444444444444445
 40
0.4444444444444445
 40
0.4444444444444445
 40
0.5555555555555556
 40
0.5555555555555556
 40
0.5555555555555556
 40
0.5555555555555556
 40
0.6666666666666666
 40
0.6666666666666666
 40
0.6666666666666666
 40
0.6666666666666666
 40
0.7777777777777778
 40
0.7777777777777778
 40
0.7777777777777778
 40
0.7777777777777778
 40
1.0
 40
1.0
 40
1.0
 40
1.0
 10
17.63033
 20
-10.33935
 30
0.0
 10
17.59809
 20
-10.31595
 30
0.0
 10
17.56455
 20
-10.30615
 30
0.0
 10
17.52972
 20
-10.30996
 30
0.0
 10
17.52972
 20
-10.30996
 30
0.0
 10
17.49488
 20
-10.31377
 30
0.0
 10
17.46116
 20
-10.33814
 30
0.0
 10
17.42854
 20
-10.38309
 30
0.0
 10
17.42854
 20
-10.38309
 30
0.0
 10
17.40798
 20
-10.41142
 30
0.0
 10
17.40189
 20
-10.44654
 30
0.0
 10
17.41028
 20
-10.48842
 30
0.0
 10
17.41028
 20
-10.48842
 30
0.0
 10
17.41866
 20
-10.5303
 30
0.0
 10
17.438
 20
-10.56224
 30
0.0
 10
17.46829
 20
-10.58422
 30
0.0
 10
17.46829
 20
-10.58422
 30
0.0
 10
17.49467
 20
-10.60336
 30
0.0
 10
17.52572
 20
-10.61247
 30
0.0
 10
17.56145
 20
-10.61155
 30
0.0
 10
17.56145
 20
-10.61155
 30
0.0
 10
17.59717
 20
-10.61062
 30
0.0
 10
17.62744
 20
-10.59306
 30
0.0
 10
17.65226
 20
-10.55886
 30
0.0
 10
17.65226
 20
-10.55886
 30
0.0
 10
17.66077
 20
-10.54714
 30
0.0
 10
17.67414
 20
-10.51843
 30
0.0
 10
17.69238
 20
-10.47275
 30
0.0
 10
17.69238
 20
-10.47275
 30
0.0
 10
17.71061
 20
-10.42707
 30
0.0
 10
17.68993
 20
-10.3826
 30
0.0
 10
17.63033
 20
-10.33935
 30
0.0
  0
SPLINE
  5
51
330
1F
100
AcDbEntity
  8
layer 1
 62
   250
100
AcDbSpline
210
0.0
220
0.0
230
1.0
 70
     9
 71
     3
 72
    36
 73
    32
 74
     0
 42
0.0000000001
 43
0.0000000001
 40
0.0
 40
0.0
 40
0.0
 40
0.0
 40
0.1111111111111111
 40
0.1111111111111111
 40
0.1111111111111111
 40
0.1111111111111111
 40
0.2222222222222222
 40
0.2222222222222222
 40
0.2222222222222222
 40
0.2222222222222222
 40
0.3333333333333333
 40
0.3333333333333333
 40
0.3333333333333333
 40
0.3333333333333333
 40
0.4444444444444445
 40
0.4444444444444445
 40
0.4444444444444445
 40
0.4444444444444445
 40
0.5555555555555556
 40
0.5555555555555556
 40
0.5555555555555556
 40
0.5555555555555556
 40
0.6666666666666666
 40
0.6666666666666666
 40
0.6666666666666666
 40
0.6666666666666666
 40
0.7777777777777778
 40
0.7777777777777778
 40
0.7777777777777778
 40
0.7777777777777778
 40
1.0
 40
1.0
 40
1.0
 40
1.0
 10
18.20484
 20
-10.75627
 30
0.0
 10
18.17465
 20
-10.74032
 30
0.0
 10
18.14424
 20
-10.73392
 30
0.0
 10
18.11363
 20
-10.73706
 30
0.0
 10
18.11363
 20
-10.73706
 30
0.0
 10
18.08301
 20
-10.74019
 30
0.0
 10
18.05813
 20
-10.75495
 30
0.0
 10
18.03898
 20
-10.78133
 30
0.0
 10
18.03898
 20
-10.78133
 30
0.0
 10
18.00637
 20
-10.82628
 30
0.0
 10
17.99323
 20
-10.87007
 30
0.0
 10
17.99958
 20
-10.91271
 30
0.0
 10
17.99958
 20
-10.91271
 30
0.0
 10
18.00592
 20
-10.95535
 30
0.0
 10
18.02375
 20
-10.98731
 30
0.0
 10
18.05306
 20
-11.00858
 30
0.0
 10
18.05306
 20
-11.00858
 30
0.0
 10
18.08042
 20
-11.02844
 30
0.0
 10
18.11277999999999
 20
-11.03626
 30
0.0
 10
18.15014
 20
-11.03205
 30
0.0
 10
18.15014
 20
-11.03205
 30
0.0
 10
18.1875
 20
-11.02784
 30
0.0
 10
18.21789
 20
-11.00961
 30
0.0
 10
18.24128
 20
-10.97737
 30
0.0
 10
18.24128
 20
-10.97737
 30
0.0
 10
18.2661
 20
-10.94317
 30
0.0
 10
18.27549
 20
-10.903
 30
0.0
 10
18.26945
 20
-10.85685
 30
0.0
 10
18.26945
 20
-10.85685
 30
0.0
 10
18.26341
 20
-10.8107
 30
0.0
 10
18.24188
 20
-10.77717
 30
0.0
 10
18.20484
 20
-10.75627
 30
0.0
  0
SPLINE
  5
58
330
1F
100
AcDbEntity
  8
layer 1
 62
   250
100
AcDbSpline
210
0.0
220
0.0
230
1.0
 70
    11
 71
     3
 72
    48
 73
    44
 74
     0
 42
0.0000000001
 43
0.0000000001
 40
0.0
 40
0.0
 40
0.0
 40
0.0
 40
0.0833333333333333
 40
0.0833333333333333
 40
0.0833333333333333
 40
0.0833333333333333
 40
0.1666666666666667
 40
0.1666666666666667
 40
0.1666666666666667
 40
0.1666666666666667
 40
0.25
 40
0.25
 40
0.25
 40
0.25
 40
0.3333333333333333
 40
0.3333333333333333
 40
0.3333333333333333
 40
0.3333333333333333
 40
0.4166666666666667
 40
0.4166666666666667
 40
0.4166666666666667
 40
0.4166666666666667
 40
0.5
 40
0.5
 40
0.5
 40
0.5
 40
0.5833333333333334
 40
0.5833333333333334
 40
0.5833333333333334
 40
0.5833333333333334
 40
0.6666666666666666
 40
0.6666666666666666
 40
0.6666666666666666
 40
0.6666666666666666
 40
0.75
 40
0.75
 40
0.75
 40
0.75
 40
0.8333333333333333
 40
0.8333333333333333
 40
0.8333333333333333
 40
0.8333333333333333
 40
1.0
 40
1.0
 40
1.0
 40
1.0
 10
-8.1866
 20
0.05132
 30
0.0
 10
-8.1866
 20
0.05132
 30
0.0
 10
-8.1866
 20
0.19449
 30
0.0
 10
-8.1866
 20
0.19449
 30
0.0
 10
-8.1866
 20
0.19449
 30
0.0
 10
-8.1866
 20
0.19449
 30
0.0
 10
-8.447519999999999
 20
0.19449
 30
0.0
 10
-8.447519999999999
 20
0.19449
 30
0.0
 10
-8.447519999999999
 20
0.19449
 30
0.0
 10
-8.447519999999999
 20
0.19449
 30
0.0
 10
-8.447519999999999
 20
0.26189
 30
0.0
 10
-8.447519999999999
 20
0.26189
 30
0.0
 10
-8.447519999999999
 20
0.26189
 30
0.0
 10
-8.447519999999999
 20
0.26189
 30
0.0
 10
-8.173019999999999
 20
0.6494800000000001
 30
0.0
 10
-8.173019999999999
 20
0.6494800000000001
 30
0.0
 10
-8.173019999999999
 20
0.6494800000000001
 30
0.0
 10
-8.173019999999999
 20
0.6494800000000001
 30
0.0
 10
-8.112659999999999
 20
0.6494800000000001
 30
0.0
 10
-8.112659999999999
 20
0.6494800000000001
 30
0.0
 10
-8.112659999999999
 20
0.6494800000000001
 30
0.0
 10
-8.112659999999999
 20
0.6494800000000001
 30
0.0
 10
-8.112659999999999
 20
0.26189
 30
0.0
 10
-8.112659999999999
 20
0.26189
 30
0.0
 10
-8.112659999999999
 20
0.26189
 30
0.0
 10
-8.112659999999999
 20
0.26189
 30
0.0
 10
-8.03143
 20
0.26189
 30
0.0
 10
-8.03143
 20
0.26189
 30
0.0
 10
-8.03143
 20
0.26189
 30
0.0
 10
-8.03143
 20
0.26189
 30
0.0
 10
-8.03143
 20
0.19449
 30
0.0
 10
-8.03143
 20
0.19449
 30
0.0
 10
-8.03143
 20
0.19449
 30
0.0
 10
-8.03143
 20
0.19449
 30
0.0
 10
-8.112659999999999
 20
0.19449
 30
0.0
 10
-8.112659999999999
 20
0.19449
 30
0.0
 10
-8.112659999999999
 20
0.19449
 30
0.0
 10
-8.112659999999999
 20
0.19449
 30
0.0
 10
-8.112659999999999
 20
0.05132
 30
0.0
 10
-8.112659999999999
 20
0.05132
 30
0.0
 10
-8.112659999999999
 20
0.05132
 30
0.0
 10
-8.112659999999999
 20
0.05132
 30
0.0
 10
-8.1866
 20
0.05132
 30
0.0
 10
-8.1866
 20
0.05132
 30
0.0
  0
SPLINE
  5
59
330
1F
100
AcDbEntity
  8
layer 1
 62
   250
100
AcDbSpline
210
0.0
220
0.0
230
1.0
 70
    11
 71
     3
 72
    16
 73
    12
 74
     0
 42
0.0000000001
 43
0.0000000001
 40
0.0
 40
0.0
 40
0.0
 40
0.0
 40
0.25
 40
0.25
 40
0.25
 40
0.25
 40
0.5
 40
0.5
 40
0.5
 40
0.5
 40
1.0
 40
1.0
 40
1.0
 40
1.0
 10
-8.1866
 20
0.26189
 30
0.0
 10
-8.1866
 20
0.26189
 30
0.0
 10
-8.1866
 20
0.53152
 30
0.0
 10
-8.1866
 20
0.53152
 30
0.0
 10
-8.1866
 20
0.53152
 30
0.0
 10
-8.1866
 20
0.53152
 30
0.0
 10
-8.374830000000001
 20
0.26189
 30
0.0
 10
-8.374830000000001
 20
0.26189
 30
0.0
 10
-8.374830000000001
 20
0.26189
 30
0.0
 10
-8.374830000000001
 20
0.26189
 30
0.0
 10
-8.1866
 20
0.26189
 30
0.0
 10
-8.1866
 20
0.26189
 30
0.0
  0
SPLINE
  5
5A
330
1F
100
AcDbEntity
  8
layer 1
 62
   250
100
AcDbSpline
210
0.0
220
0.0
230
1.0
 70
    11
 71
     3
 72
    92
 73
    88
 74
     0
 42
0.0000000001
 43
0.0000000001
 40
0.0
 40
0.0
 40
0.0
 40
0.0
 40
0.0434782608695652
 40
0.0434782608695652
 40
0.0434782608695652
 40
0.0434782608695652
 40
0.0869565217391304
 40
0.0869565217391304
 40
0.0869565217391304
 40
0.0869565217391304
 40
0.1304347826086956
 40
0.1304347826086956
 40
0.1304347826086956
 40
0.1304347826086956
 40
0.1739130434782609
 40
0.1739130434782609
 40
0.1739130434782609
 40
0.1739130434782609
 40
0.2173913043478261
 40
0.2173913043478261
 40
0.2173913043478261
 40
0.2173913043478261
 40
0.2608695652173913
 40
0.2608695652173913
 40
0.2608695652173913
 40
0.2608695652173913
 40
0.3043478260869565
 40
0.3043478260869565
 40
0.3043478260869565
 40
0.3043478260869565
 40
0.3478260869565217
 40
0.3478260869565217
 40
0.3478260869565217
 40
0.3478260869565217
 40
0.391304347826087
 40
0.391304347826087
 40
0.391304347826087
 40
0.391304347826087
 40
0.4347826086956523
 40
0.4347826086956523
 40
0.4347826086956523
 40
0.4347826086956523
 40
0.4782608695652174
 40
0.4782608695652174
 40
0.4782608695652174
 40
0.4782608695652174
 40
0.5217391304347827
 40
0.5217391304347827
 40
0.5217391304347827
 40
0.5217391304347827
 40
0.5652173913043478
 40
0.5652173913043478
 40
0.5652173913043478
 40
0.5652173913043478
 40
0.6086956521739131
 40
0.6086956521739131
 40
0.6086956521739131
 40
0.6086956521739131
 40
0.6521739130434784
 40
0.6521739130434784
 40
0.6521739130434784
 40
0.6521739130434784
 40
0.6956521739130435
 40
0.6956521739130435
 40
0.6956521739130435
 40
0.6956521739130435
 40
0.7391304347826086
 40
0.7391304347826086
 40
0.7391304347826086
 40
0.7391304347826086
 40
0.7826086956521741
 40
0.7826086956521741
 40
0.7826086956521741
 40
0.7826086956521741
 40
0.826086956521739
 40
0.826086956521739
 40
0.826086956521739
 40
0.826086956521739
 40
0.8695652173913043
 40
0.8695652173913043
 40
0.8695652173913043
 40
0.8695652173913043
 40
0.9130434782608695
 40
0.9130434782608695
 40
0.9130434782608695
 40
0.9130434782608695
 40
1.0
 40
1.0
 40
1.0
 40
1.0
 10
-7.52103
 20
0.12193
 30
0.0
 10
-7.52103
 20
0.12193
 30
0.0
 10
-7.52103
 20
0.05132
 30
0.0
 10
-7.52103
 20
0.05132
 30
0.0
 10
-7.52103
 20
0.05132
 30
0.0
 10
-7.52103
 20
0.05132
 30
0.0
 10
-7.91863
 20
0.05132
 30
0.0
 10
-7.91863
 20
0.05132
 30
0.0
 10
-7.91863
 20
0.05132
 30
0.0
 10
-7.919189999999999
 20
0.06901
 30
0.0
 10
-7.91638
 20
0.086
 30
0.0
 10
-7.910089999999999
 20
0.10229
 30
0.0
 10
-7.910089999999999
 20
0.10229
 30
0.0
 10
-7.9
 20
0.12931
 30
0.0
 10
-7.88376
 20
0.15577
 30
0.0
 10
-7.861489999999998
 20
0.18195
 30
0.0
 10
-7.861489999999998
 20
0.18195
 30
0.0
 10
-7.83908
 20
0.208
 30
0.0
 10
-7.806869999999999
 20
0.23822
 30
0.0
 10
-7.76486
 20
0.27248
 30
0.0
 10
-7.76486
 20
0.27248
 30
0.0
 10
-7.699449999999999
 20
0.32582
 30
0.0
 10
-7.655199999999999
 20
0.36802
 30
0.0
 10
-7.632229999999999
 20
0.39921
 30
0.0
 10
-7.632229999999999
 20
0.39921
 30
0.0
 10
-7.60926
 20
0.43027
 30
0.0
 10
-7.597769999999999
 20
0.45979
 30
0.0
 10
-7.597769999999999
 20
0.4875100000000001
 30
0.0
 10
-7.597769999999999
 20
0.4875100000000001
 30
0.0
 10
-7.597769999999999
 20
0.51662
 30
0.0
 10
-7.60827
 20
0.54113
 30
0.0
 10
-7.62915
 20
0.5611800000000001
 30
0.0
 10
-7.62915
 20
0.5611800000000001
 30
0.0
 10
-7.65016
 20
0.5811
 30
0.0
 10
-7.67746
 20
0.59112
 30
0.0
 10
-7.711079999999999
 20
0.59112
 30
0.0
 10
-7.711079999999999
 20
0.59112
 30
0.0
 10
-7.746649999999999
 20
0.59112
 30
0.0
 10
-7.775079999999999
 20
0.58054
 30
0.0
 10
-7.79636
 20
0.55923
 30
0.0
 10
-7.79636
 20
0.55923
 30
0.0
 10
-7.817789999999999
 20
0.53806
 30
0.0
 10
-7.82857
 20
0.5086800000000001
 30
0.0
 10
-7.82886
 20
0.4712100000000001
 30
0.0
 10
-7.82886
 20
0.4712100000000001
 30
0.0
 10
-7.82886
 20
0.4712100000000001
 30
0.0
 10
-7.90477
 20
0.47887
 30
0.0
 10
-7.90477
 20
0.47887
 30
0.0
 10
-7.90477
 20
0.47887
 30
0.0
 10
-7.89958
 20
0.5352800000000001
 30
0.0
 10
-7.87998
 20
0.57817
 30
0.0
 10
-7.84608
 20
0.6077
 30
0.0
 10
-7.84608
 20
0.6077
 30
0.0
 10
-7.812189999999999
 20
0.6372200000000001
 30
0.0
 10
-7.766539999999999
 20
0.65198
 30
0.0
 10
-7.709399999999999
 20
0.65198
 30
0.0
 10
-7.709399999999999
 20
0.65198
 30
0.0
 10
-7.651699999999999
 20
0.65198
 30
0.0
 10
-7.606039999999999
 20
0.6359700000000001
 30
0.0
 10
-7.57242
 20
0.60422
 30
0.0
 10
-7.57242
 20
0.60422
 30
0.0
 10
-7.538669999999999
 20
0.57232
 30
0.0
 10
-7.521869999999999
 20
0.5329100000000001
 30
0.0
 10
-7.521869999999999
 20
0.48584
 30
0.0
 10
-7.521869999999999
 20
0.48584
 30
0.0
 10
-7.521869999999999
 20
0.4618800000000001
 30
0.0
 10
-7.526769999999999
 20
0.43835
 30
0.0
 10
-7.53671
 20
0.4152300000000001
 30
0.0
 10
-7.53671
 20
0.4152300000000001
 30
0.0
 10
-7.54652
 20
0.39211
 30
0.0
 10
-7.562899999999999
 20
0.36774
 30
0.0
 10
-7.585729999999999
 20
0.34225
 30
0.0
 10
-7.585729999999999
 20
0.34225
 30
0.0
 10
-7.60856
 20
0.31663
 30
0.0
 10
-7.64651
 20
0.28153
 30
0.0
 10
-7.699589999999999
 20
0.23696
 30
0.0
 10
-7.699589999999999
 20
0.23696
 30
0.0
 10
-7.74385
 20
0.19992
 30
0.0
 10
-7.77228
 20
0.17485
 30
0.0
 10
-7.78488
 20
0.16162
 30
0.0
 10
-7.78488
 20
0.16162
 30
0.0
 10
-7.797489999999999
 20
0.14853
 30
0.0
 10
-7.80785
 20
0.1353
 30
0.0
 10
-7.816110000000001
 20
0.12193
 30
0.0
 10
-7.816110000000001
 20
0.12193
 30
0.0
 10
-7.816110000000001
 20
0.12193
 30
0.0
 10
-7.52103
 20
0.12193
 30
0.0
 10
-7.52103
 20
0.12193
 30
0.0
  0
SPLINE
  5
5B
330
1F
100
AcDbEntity
  8
layer 1
 62
   250
100
AcDbSpline
210
0.0
220
0.0
230
1.0
 70
     9
 71
     3
 72
    92
 73
    88
 74
     0
 42
0.0000000001
 43
0.0000000001
 40
0.0
 40
0.0
 40
0.0
 40
0.0
 40
0.0434782608695652
 40
0.0434782608695652
 40
0.0434782608695652
 40
0.0434782608695652
 40
0.0869565217391304
 40
0.0869565217391304
 40
0.0869565217391304
 40
0.0869565217391304
 40
0.1304347826086956
 40
0.1304347826086956
 40
0.1304347826086956
 40
0.1304347826086956
 40
0.1739130434782609
 40
0.1739130434782609
 40
0.1739130434782609
 40
0.1739130434782609
 40
0.2173913043478261
 40
0.2173913043478261
 40
0.2173913043478261
 40
0.2173913043478261
 40
0.2608695652173913
 40
0.2608695652173913
 40
0.2608695652173913
 40
0.2608695652173913
 40
0.3043478260869565
 40
0.3043478260869565
 40
0.3043478260869565
 40
0.3043478260869565
 40
0.3478260869565217
 40
0.3478260869565217
 40
0.3478260869565217
 40
0.3478260869565217
 40
0.391304347826087
 40
0.391304347826087
 40
0.391304347826087
 40
0.391304347826087
 40
0.4347826086956523
 40
0.4347826086956523
 40
0.4347826086956523
 40
0.4347826086956523
 40
0.4782608695652174
 40
0.4782608695652174
 40
0.4782608695652174
 40
0.4782608695652174
 40
0.5217391304347827
 40
0.5217391304347827
 40
0.5217391304347827
 40
0.5217391304347827
 40
0.5652173913043478
 40
0.5652173913043478
 40
0.5652173913043478
 40
0.5652173913043478
 40
0.6086956521739131
 40
0.6086956521739131
 40
0.6086956521739131
 40
0.6086956521739131
 40
0.6521739130434784
 40
0.6521739130434784
 40
0.6521739130434784
 40
0.6521739130434784
 40
0.6956521739130435
 40
0.6956521739130435
 40
0.6956521739130435
 40
0.6956521739130435
 40
0.7391304347826086
 40
0.7391304347826086
 40
0.7391304347826086
 40
0.7391304347826086
 40
0.7826086956521741
 40
0.7826086956521741
 40
0.7826086956521741
 40
0.7826086956521741
 40
0.826086956521739
 40
0.826086956521739
 40
0.826086956521739
 40
0.826086956521739
 40
0.8695652173913043
 40
0.8695652173913043
 40
0.8695652173913043
 40
0.8695652173913043
 40
0.9130434782608695
 40
0.9130434782608695
 40
0.9130434782608695
 40
0.9130434782608695
 40
1.0
 40
1.0
 40
1.0
 40
1.0
 10
-7.384139999999999
 20
0.18961
 30
0.0
 10
-7.384139999999999
 20
0.18961
 30
0.0
 10
-7.313139999999999
 20
0.19616
 30
0.0
 10
-7.313139999999999
 20
0.19616
 30
0.0
 10
-7.313139999999999
 20
0.19616
 30
0.0
 10
-7.30711
 20
0.16301
 30
0.0
 10
-7.29563
 20
0.13892
 30
0.0
 10
-7.27868
 20
0.12388
 30
0.0
 10
-7.27868
 20
0.12388
 30
0.0
 10
-7.261739999999999
 20
0.10898
 30
0.0
 10
-7.240029999999999
 20
0.10146
 30
0.0
 10
-7.213419999999999
 20
0.10146
 30
0.0
 10
-7.213419999999999
 20
0.10146
 30
0.0
 10
-7.19073
 20
0.10146
 30
0.0
 10
-7.170839999999999
 20
0.10661
 30
0.0
 10
-7.153749999999999
 20
0.11705
 30
0.0
 10
-7.153749999999999
 20
0.11705
 30
0.0
 10
-7.136669999999999
 20
0.12736
 30
0.0
 10
-7.122669999999999
 20
0.14115
 30
0.0
 10
-7.111739999999999
 20
0.15842
 30
0.0
 10
-7.111739999999999
 20
0.15842
 30
0.0
 10
-7.10068
 20
0.17569
 30
0.0
 10
-7.09158
 20
0.19908
 30
0.0
 10
-7.08416
 20
0.22833
 30
0.0
 10
-7.08416
 20
0.22833
 30
0.0
 10
-7.07688
 20
0.25772
 30
0.0
 10
-7.073089999999999
 20
0.28766
 30
0.0
 10
-7.073089999999999
 20
0.31816
 30
0.0
 10
-7.073089999999999
 20
0.31816
 30
0.0
 10
-7.073089999999999
 20
0.32136
 30
0.0
 10
-7.07323
 20
0.32637
 30
0.0
 10
-7.07351
 20
0.33278
 30
0.0
 10
-7.07351
 20
0.33278
 30
0.0
 10
-7.08836
 20
0.30952
 30
0.0
 10
-7.108519999999999
 20
0.29044
 30
0.0
 10
-7.13401
 20
0.27596
 30
0.0
 10
-7.13401
 20
0.27596
 30
0.0
 10
-7.159639999999999
 20
0.26134
 30
0.0
 10
-7.187369999999999
 20
0.25409
 30
0.0
 10
-7.21706
 20
0.25409
 30
0.0
 10
-7.21706
 20
0.25409
 30
0.0
 10
-7.266919999999999
 20
0.25409
 30
0.0
 10
-7.309069999999999
 20
0.27206
 30
0.0
 10
-7.343519999999999
 20
0.30799
 30
0.0
 10
-7.343519999999999
 20
0.30799
 30
0.0
 10
-7.377979999999999
 20
0.34392
 30
0.0
 10
-7.395199999999999
 20
0.39113
 30
0.0
 10
-7.395199999999999
 20
0.4499100000000001
 30
0.0
 10
-7.395199999999999
 20
0.4499100000000001
 30
0.0
 10
-7.395199999999999
 20
0.51063
 30
0.0
 10
-7.37728
 20
0.5593700000000001
 30
0.0
 10
-7.34128
 20
0.59642
 30
0.0
 10
-7.34128
 20
0.59642
 30
0.0
 10
-7.305289999999999
 20
0.63346
 30
0.0
 10
-7.2602
 20
0.65198
 30
0.0
 10
-7.206
 20
0.65198
 30
0.0
 10
-7.206
 20
0.65198
 30
0.0
 10
-7.166919999999999
 20
0.65198
 30
0.0
 10
-7.13121
 20
0.6414
 30
0.0
 10
-7.09872
 20
0.62051
 30
0.0
 10
-7.09872
 20
0.62051
 30
0.0
 10
-7.06637
 20
0.5996199999999999
 30
0.0
 10
-7.041719999999999
 20
0.56968
 30
0.0
 10
-7.024919999999999
 20
0.53096
 30
0.0
 10
-7.024919999999999
 20
0.53096
 30
0.0
 10
-7.008099999999999
 20
0.49224
 30
0.0
 10
-6.999699999999999
 20
0.4361200000000001
 30
0.0
 10
-6.999699999999999
 20
0.36258
 30
0.0
 10
-6.999699999999999
 20
0.36258
 30
0.0
 10
-6.999699999999999
 20
0.28627
 30
0.0
 10
-7.007969999999999
 20
0.22541
 30
0.0
 10
-7.02463
 20
0.18
 30
0.0
 10
-7.02463
 20
0.18
 30
0.0
 10
-7.041439999999999
 20
0.13474
 30
0.0
 10
-7.06623
 20
0.10034
 30
0.0
 10
-7.099139999999999
 20
0.07667
 30
0.0
 10
-7.099139999999999
 20
0.07667
 30
0.0
 10
-7.132189999999999
 20
0.05299
 30
0.0
 10
-7.17071
 20
0.04115
 30
0.0
 10
-7.215099999999999
 20
0.04115
 30
0.0
 10
-7.215099999999999
 20
0.04115
 30
0.0
 10
-7.26216
 20
0.04115
 30
0.0
 10
-7.30053
 20
0.05411
 30
0.0
 10
-7.33036
 20
0.08015
 30
0.0
 10
-7.33036
 20
0.08015
 30
0.0
 10
-7.360199999999999
 20
0.10605
 30
0.0
 10
-7.37812
 20
0.14254
 30
0.0
 10
-7.384139999999999
 20
0.18961
 30
0.0
  0
SPLINE
  5
5C
330
1F
100
AcDbEntity
  8
layer 1
 62
   250
100
AcDbSpline
210
0.0
220
0.0
230
1.0
 70
     9
 71
     3
 72
    36
 73
    32
 74
     0
 42
0.0000000001
 43
0.0000000001
 40
0.0
 40
0.0
 40
0.0
 40
0.0
 40
0.1111111111111111
 40
0.1111111111111111
 40
0.1111111111111111
 40
0.1111111111111111
 40
0.2222222222222222
 40
0.2222222222222222
 40
0.2222222222222222
 40
0.2222222222222222
 40
0.3333333333333333
 40
0.3333333333333333
 40
0.3333333333333333
 40
0.3333333333333333
 40
0.4444444444444445
 40
0.4444444444444445
 40
0.4444444444444445
 40
0.4444444444444445
 40
0.5555555555555556
 40
0.5555555555555556
 40
0.5555555555555556
 40
0.5555555555555556
 40
0.6666666666666666
 40
0.6666666666666666
 40
0.6666666666666666
 40
0.6666666666666666
 40
0.7777777777777778
 40
0.7777777777777778
 40
0.7777777777777778
 40
0.7777777777777778
 40
1.0
 40
1.0
 40
1.0
 40
1.0
 10
-7.081769999999999
 20
0.45367
 30
0.0
 10
-7.081769999999999
 20
0.49573
 30
0.0
 10
-7.09298
 20
0.52929
 30
0.0
 10
-7.11552
 20
0.55394
 30
0.0
 10
-7.11552
 20
0.55394
 30
0.0
 10
-7.13821
 20
0.57873
 30
0.0
 10
-7.165239999999999
 20
0.59112
 30
0.0
 10
-7.197039999999999
 20
0.59112
 30
0.0
 10
-7.197039999999999
 20
0.59112
 30
0.0
 10
-7.22981
 20
0.59112
 30
0.0
 10
-7.25838
 20
0.57775
 30
0.0
 10
-7.28275
 20
0.55115
 30
0.0
 10
-7.28275
 20
0.55115
 30
0.0
 10
-7.30711
 20
0.5244100000000001
 30
0.0
 10
-7.3193
 20
0.4898800000000001
 30
0.0
 10
-7.3193
 20
0.44754
 30
0.0
 10
-7.3193
 20
0.44754
 30
0.0
 10
-7.3193
 20
0.40938
 30
0.0
 10
-7.307669999999999
 20
0.37846
 30
0.0
 10
-7.284569999999999
 20
0.35465
 30
0.0
 10
-7.284569999999999
 20
0.35465
 30
0.0
 10
-7.26146
 20
0.33083
 30
0.0
 10
-7.23303
 20
0.31899
 30
0.0
 10
-7.199139999999998
 20
0.31899
 30
0.0
 10
-7.199139999999998
 20
0.31899
 30
0.0
 10
-7.16483
 20
0.31899
 30
0.0
 10
-7.13681
 20
0.33083
 30
0.0
 10
-7.11483
 20
0.35465
 30
0.0
 10
-7.11483
 20
0.35465
 30
0.0
 10
-7.092689999999999
 20
0.37846
 30
0.0
 10
-7.081769999999999
 20
0.41147
 30
0.0
 10
-7.081769999999999
 20
0.45367
 30
0.0
  0
SPLINE
  5
5D
330
1F
100
AcDbEntity
  8
layer 1
 62
   250
100
AcDbSpline
210
0.0
220
0.0
230
1.0
 70
    11
 71
     3
 72
    64
 73
    60
 74
     0
 42
0.0000000001
 43
0.0000000001
 40
0.0
 40
0.0
 40
0.0
 40
0.0
 40
0.0625
 40
0.0625
 40
0.0625
 40
0.0625
 40
0.125
 40
0.125
 40
0.125
 40
0.125
 40
0.1875
 40
0.1875
 40
0.1875
 40
0.1875
 40
0.25
 40
0.25
 40
0.25
 40
0.25
 40
0.3125
 40
0.3125
 40
0.3125
 40
0.3125
 40
0.375
 40
0.375
 40
0.375
 40
0.375
 40
0.4375
 40
0.4375
 40
0.4375
 40
0.4375
 40
0.5
 40
0.5
 40
0.5
 40
0.5
 40
0.5625
 40
0.5625
 40
0.5625
 40
0.5625
 40
0.625
 40
0.625
 40
0.625
 40
0.625
 40
0.6875
 40
0.6875
 40
0.6875
 40
0.6875
 40
0.75
 40
0.75
 40
0.75
 40
0.75
 40
0.8125
 40
0.8125
 40
0.8125
 40
0.8125
 40
0.875
 40
0.875
 40
0.875
 40
0.875
 40
1.0
 40
1.0
 40
1.0
 40
1.0
 10
-6.85372
 20
0.05132
 30
0.0
 10
-6.85372
 20
0.05132
 30
0.0
 10
-6.85372
 20
0.6494800000000001
 30
0.0
 10
-6.85372
 20
0.6494800000000001
 30
0.0
 10
-6.85372
 20
0.6494800000000001
 30
0.0
 10
-6.85372
 20
0.6494800000000001
 30
0.0
 10
-6.73383
 20
0.6494800000000001
 30
0.0
 10
-6.73383
 20
0.6494800000000001
 30
0.0
 10
-6.73383
 20
0.6494800000000001
 30
0.0
 10
-6.73383
 20
0.6494800000000001
 30
0.0
 10
-6.591549999999999
 20
0.22596
 30
0.0
 10
-6.591549999999999
 20
0.22596
 30
0.0
 10
-6.591549999999999
 20
0.22596
 30
0.0
 10
-6.578369999999999
 20
0.18655
 30
0.0
 10
-6.56871
 20
0.15702
 30
0.0
 10
-6.562829999999999
 20
0.13739
 30
0.0
 10
-6.562829999999999
 20
0.13739
 30
0.0
 10
-6.555969999999999
 20
0.15911
 30
0.0
 10
-6.545329999999999
 20
0.19115
 30
0.0
 10
-6.530759999999999
 20
0.23334
 30
0.0
 10
-6.530759999999999
 20
0.23334
 30
0.0
 10
-6.530759999999999
 20
0.23334
 30
0.0
 10
-6.386779999999999
 20
0.6494800000000001
 30
0.0
 10
-6.386779999999999
 20
0.6494800000000001
 30
0.0
 10
-6.386779999999999
 20
0.6494800000000001
 30
0.0
 10
-6.386779999999999
 20
0.6494800000000001
 30
0.0
 10
-6.27964
 20
0.6494800000000001
 30
0.0
 10
-6.27964
 20
0.6494800000000001
 30
0.0
 10
-6.27964
 20
0.6494800000000001
 30
0.0
 10
-6.27964
 20
0.6494800000000001
 30
0.0
 10
-6.27964
 20
0.05132
 30
0.0
 10
-6.27964
 20
0.05132
 30
0.0
 10
-6.27964
 20
0.05132
 30
0.0
 10
-6.27964
 20
0.05132
 30
0.0
 10
-6.35639
 20
0.05132
 30
0.0
 10
-6.35639
 20
0.05132
 30
0.0
 10
-6.35639
 20
0.05132
 30
0.0
 10
-6.35639
 20
0.05132
 30
0.0
 10
-6.35639
 20
0.55199
 30
0.0
 10
-6.35639
 20
0.55199
 30
0.0
 10
-6.35639
 20
0.55199
 30
0.0
 10
-6.35639
 20
0.55199
 30
0.0
 10
-6.531179999999999
 20
0.05132
 30
0.0
 10
-6.531179999999999
 20
0.05132
 30
0.0
 10
-6.531179999999999
 20
0.05132
 30
0.0
 10
-6.531179999999999
 20
0.05132
 30
0.0
 10
-6.60303
 20
0.05132
 30
0.0
 10
-6.60303
 20
0.05132
 30
0.0
 10
-6.60303
 20
0.05132
 30
0.0
 10
-6.60303
 20
0.05132
 30
0.0
 10
-6.776969999999999
 20
0.5604899999999999
 30
0.0
 10
-6.776969999999999
 20
0.5604899999999999
 30
0.0
 10
-6.776969999999999
 20
0.5604899999999999
 30
0.0
 10
-6.776969999999999
 20
0.5604899999999999
 30
0.0
 10
-6.776969999999999
 20
0.05132
 30
0.0
 10
-6.776969999999999
 20
0.05132
 30
0.0
 10
-6.776969999999999
 20
0.05132
 30
0.0
 10
-6.776969999999999
 20
0.05132
 30
0.0
 10
-6.85372
 20
0.05132
 30
0.0
 10
-6.85372
 20
0.05132
 30
0.0
  0
SPLINE
  5
5E
330
1F
100
AcDbEntity
  8
layer 1
 62
   250
100
AcDbSpline
210
0.0
220
0.0
230
1.0
 70
    11
 71
     3
 72
    64
 73
    60
 74
     0
 42
0.0000000001
 43
0.0000000001
 40
0.0
 40
0.0
 40
0.0
 40
0.0
 40
0.0625
 40
0.0625
 40
0.0625
 40
0.0625
 40
0.125
 40
0.125
 40
0.125
 40
0.125
 40
0.1875
 40
0.1875
 40
0.1875
 40
0.1875
 40
0.25
 40
0.25
 40
0.25
 40
0.25
 40
0.3125
 40
0.3125
 40
0.3125
 40
0.3125
 40
0.375
 40
0.375
 40
0.375
 40
0.375
 40
0.4375
 40
0.4375
 40
0.4375
 40
0.4375
 40
0.5
 40
0.5
 40
0.5
 40
0.5
 40
0.5625
 40
0.5625
 40
0.5625
 40
0.5625
 40
0.625
 40
0.625
 40
0.625
 40
0.625
 40
0.6875
 40
0.6875
 40
0.6875
 40
0.6875
 40
0.75
 40
0.75
 40
0.75
 40
0.75
 40
0.8125
 40
0.8125
 40
0.8125
 40
0.8125
 40
0.875
 40
0.875
 40
0.875
 40
0.875
 40
1.0
 40
1.0
 40
1.0
 40
1.0
 10
-6.107059999999999
 20
0.05132
 30
0.0
 10
-6.107059999999999
 20
0.05132
 30
0.0
 10
-6.107059999999999
 20
0.6494800000000001
 30
0.0
 10
-6.107059999999999
 20
0.6494800000000001
 30
0.0
 10
-6.107059999999999
 20
0.6494800000000001
 30
0.0
 10
-6.107059999999999
 20
0.6494800000000001
 30
0.0
 10
-5.987169999999999
 20
0.6494800000000001
 30
0.0
 10
-5.987169999999999
 20
0.6494800000000001
 30
0.0
 10
-5.987169999999999
 20
0.6494800000000001
 30
0.0
 10
-5.987169999999999
 20
0.6494800000000001
 30
0.0
 10
-5.84489
 20
0.22596
 30
0.0
 10
-5.84489
 20
0.22596
 30
0.0
 10
-5.84489
 20
0.22596
 30
0.0
 10
-5.83171
 20
0.18655
 30
0.0
 10
-5.822049999999999
 20
0.15702
 30
0.0
 10
-5.816169999999999
 20
0.13739
 30
0.0
 10
-5.816169999999999
 20
0.13739
 30
0.0
 10
-5.809309999999999
 20
0.15911
 30
0.0
 10
-5.798669999999999
 20
0.19115
 30
0.0
 10
-5.784099999999999
 20
0.23334
 30
0.0
 10
-5.784099999999999
 20
0.23334
 30
0.0
 10
-5.784099999999999
 20
0.23334
 30
0.0
 10
-5.640119999999999
 20
0.6494800000000001
 30
0.0
 10
-5.640119999999999
 20
0.6494800000000001
 30
0.0
 10
-5.640119999999999
 20
0.6494800000000001
 30
0.0
 10
-5.640119999999999
 20
0.6494800000000001
 30
0.0
 10
-5.53298
 20
0.6494800000000001
 30
0.0
 10
-5.53298
 20
0.6494800000000001
 30
0.0
 10
-5.53298
 20
0.6494800000000001
 30
0.0
 10
-5.53298
 20
0.6494800000000001
 30
0.0
 10
-5.53298
 20
0.05132
 30
0.0
 10
-5.53298
 20
0.05132
 30
0.0
 10
-5.53298
 20
0.05132
 30
0.0
 10
-5.53298
 20
0.05132
 30
0.0
 10
-5.609729999999999
 20
0.05132
 30
0.0
 10
-5.609729999999999
 20
0.05132
 30
0.0
 10
-5.609729999999999
 20
0.05132
 30
0.0
 10
-5.609729999999999
 20
0.05132
 30
0.0
 10
-5.609729999999999
 20
0.55199
 30
0.0
 10
-5.609729999999999
 20
0.55199
 30
0.0
 10
-5.609729999999999
 20
0.55199
 30
0.0
 10
-5.609729999999999
 20
0.55199
 30
0.0
 10
-5.784519999999999
 20
0.05132
 30
0.0
 10
-5.784519999999999
 20
0.05132
 30
0.0
 10
-5.784519999999999
 20
0.05132
 30
0.0
 10
-5.784519999999999
 20
0.05132
 30
0.0
 10
-5.85637
 20
0.05132
 30
0.0
 10
-5.85637
 20
0.05132
 30
0.0
 10
-5.85637
 20
0.05132
 30
0.0
 10
-5.85637
 20
0.05132
 30
0.0
 10
-6.03031
 20
0.5604899999999999
 30
0.0
 10
-6.03031
 20
0.5604899999999999
 30
0.0
 10
-6.03031
 20
0.5604899999999999
 30
0.0
 10
-6.03031
 20
0.5604899999999999
 30
0.0
 10
-6.03031
 20
0.05132
 30
0.0
 10
-6.03031
 20
0.05132
 30
0.0
 10
-6.03031
 20
0.05132
 30
0.0
 10
-6.03031
 20
0.05132
 30
0.0
 10
-6.107059999999999
 20
0.05132
 30
0.0
 10
-6.107059999999999
 20
0.05132
 30
0.0
  0
SPLINE
  5
5F
330
1F
100
AcDbEntity
  8
layer 1
 62
   250
100
AcDbSpline
210
0.0
220
0.0
230
1.0
 70
     9
 71
     3
 72
   124
 73
   120
 74
     0
 42
0.0000000001
 43
0.0000000001
 40
0.0
 40
0.0
 40
0.0
 40
0.0
 40
0.032258064516129
 40
0.032258064516129
 40
0.032258064516129
 40
0.032258064516129
 40
0.0645161290322581
 40
0.0645161290322581
 40
0.0645161290322581
 40
0.0645161290322581
 40
0.0967741935483871
 40
0.0967741935483871
 40
0.0967741935483871
 40
0.0967741935483871
 40
0.1290322580645161
 40
0.1290322580645161
 40
0.1290322580645161
 40
0.1290322580645161
 40
0.1612903225806452
 40
0.1612903225806452
 40
0.1612903225806452
 40
0.1612903225806452
 40
0.1935483870967742
 40
0.1935483870967742
 40
0.1935483870967742
 40
0.1935483870967742
 40
0.2258064516129032
 40
0.2258064516129032
 40
0.2258064516129032
 40
0.2258064516129032
 40
0.2580645161290323
 40
0.2580645161290323
 40
0.2580645161290323
 40
0.2580645161290323
 40
0.2903225806451613
 40
0.2903225806451613
 40
0.2903225806451613
 40
0.2903225806451613
 40
0.3225806451612903
 40
0.3225806451612903
 40
0.3225806451612903
 40
0.3225806451612903
 40
0.3548387096774194
 40
0.3548387096774194
 40
0.3548387096774194
 40
0.3548387096774194
 40
0.3870967741935484
 40
0.3870967741935484
 40
0.3870967741935484
 40
0.3870967741935484
 40
0.4193548387096774
 40
0.4193548387096774
 40
0.4193548387096774
 40
0.4193548387096774
 40
0.4516129032258064
 40
0.4516129032258064
 40
0.4516129032258064
 40
0.4516129032258064
 40
0.4838709677419355
 40
0.4838709677419355
 40
0.4838709677419355
 40
0.4838709677419355
 40
0.5161290322580645
 40
0.5161290322580645
 40
0.5161290322580645
 40
0.5161290322580645
 40
0.5483870967741935
 40
0.5483870967741935
 40
0.5483870967741935
 40
0.5483870967741935
 40
0.5806451612903226
 40
0.5806451612903226
 40
0.5806451612903226
 40
0.5806451612903226
 40
0.6129032258064516
 40
0.6129032258064516
 40
0.6129032258064516
 40
0.6129032258064516
 40
0.6451612903225806
 40
0.6451612903225806
 40
0.6451612903225806
 40
0.6451612903225806
 40
0.6774193548387096
 40
0.6774193548387096
 40
0.6774193548387096
 40
0.6774193548387096
 40
0.7096774193548388
 40
0.7096774193548388
 40
0.7096774193548388
 40
0.7096774193548388
 40
0.7419354838709678
 40
0.7419354838709678
 40
0.7419354838709678
 40
0.7419354838709678
 40
0.7741935483870968
 40
0.7741935483870968
 40
0.7741935483870968
 40
0.7741935483870968
 40
0.8064516129032258
 40
0.8064516129032258
 40
0.8064516129032258
 40
0.8064516129032258
 40
0.8387096774193548
 40
0.8387096774193548
 40
0.8387096774193548
 40
0.8387096774193548
 40
0.8709677419354838
 40
0.8709677419354838
 40
0.8709677419354838
 40
0.8709677419354838
 40
0.9032258064516128
 40
0.9032258064516128
 40
0.9032258064516128
 40
0.9032258064516128
 40
0.9354838709677419
 40
0.9354838709677419
 40
0.9354838709677419
 40
0.9354838709677419
 40
1.0
 40
1.0
 40
1.0
 40
1.0
 10
1.14996
 20
6.13698
 30
0.0
 10
1.14996
 20
6.13698
 30
0.0
 10
1.140209999999999
 20
6.21078
 30
0.0
 10
1.140209999999999
 20
6.21078
 30
0.0
 10
1.140209999999999
 20
6.21078
 30
0.0
 10
1.18185
 20
6.21933
 30
0.0
 10
1.211789999999999
 20
6.233749999999999
 30
0.0
 10
1.230179999999999
 20
6.25405
 30
0.0
 10
1.230179999999999
 20
6.25405
 30
0.0
 10
1.24856
 20
6.27451
 30
0.0
 10
1.257749999999999
 20
6.29929
 30
0.0
 10
1.257749999999999
 20
6.328559999999999
 30
0.0
 10
1.257749999999999
 20
6.328559999999999
 30
0.0
 10
1.257749999999999
 20
6.36329
 30
0.0
 10
1.245779999999999
 20
6.39271
 30
0.0
 10
1.22182
 20
6.416649999999999
 30
0.0
 10
1.22182
 20
6.416649999999999
 30
0.0
 10
1.197869999999999
 20
6.440459999999999
 30
0.0
 10
1.168199999999999
 20
6.45251
 30
0.0
 10
1.13283
 20
6.45251
 30
0.0
 10
1.13283
 20
6.45251
 30
0.0
 10
1.099129999999999
 20
6.45251
 30
0.0
 10
1.07127
 20
6.44144
 30
0.0
 10
1.049409999999999
 20
6.41931
 30
0.0
 10
1.049409999999999
 20
6.41931
 30
0.0
 10
1.027539999999999
 20
6.39705
 30
0.0
 10
1.016539999999999
 20
6.36889
 30
0.0
 10
1.016539999999999
 20
6.334719999999999
 30
0.0
 10
1.016539999999999
 20
6.334719999999999
 30
0.0
 10
1.016539999999999
 20
6.320719999999999
 30
0.0
 10
1.019329999999999
 20
6.303359999999999
 30
0.0
 10
1.02476
 20
6.282619999999999
 30
0.0
 10
1.02476
 20
6.282619999999999
 30
0.0
 10
1.02476
 20
6.282619999999999
 30
0.0
 10
0.9602799999999998
 20
6.29089
 30
0.0
 10
0.9602799999999998
 20
6.29089
 30
0.0
 10
0.9602799999999998
 20
6.29089
 30
0.0
 10
0.9608299999999999
 20
6.29579
 30
0.0
 10
0.96111
 20
6.299719999999999
 30
0.0
 10
0.96111
 20
6.302789999999999
 30
0.0
 10
0.96111
 20
6.302789999999999
 30
0.0
 10
0.96111
 20
6.334169999999999
 30
0.0
 10
0.9528999999999999
 20
6.362459999999999
 30
0.0
 10
0.9365999999999999
 20
6.387669999999999
 30
0.0
 10
0.9365999999999999
 20
6.387669999999999
 30
0.0
 10
0.92031
 20
6.412869999999999
 30
0.0
 10
0.8951
 20
6.42548
 30
0.0
 10
0.86112
 20
6.42548
 30
0.0
 10
0.86112
 20
6.42548
 30
0.0
 10
0.8342399999999999
 20
6.42548
 30
0.0
 10
0.8118199999999999
 20
6.41624
 30
0.0
 10
0.7942700000000001
 20
6.39788
 30
0.0
 10
0.7942700000000001
 20
6.39788
 30
0.0
 10
0.7765800000000001
 20
6.37954
 30
0.0
 10
0.76767
 20
6.355869999999999
 30
0.0
 10
0.76767
 20
6.32688
 30
0.0
 10
0.76767
 20
6.32688
 30
0.0
 10
0.76767
 20
6.298169999999999
 30
0.0
 10
0.77672
 20
6.274219999999999
 30
0.0
 10
0.79455
 20
6.25518
 30
0.0
 10
0.79455
 20
6.25518
 30
0.0
 10
0.8125099999999999
 20
6.23599
 30
0.0
 10
0.8395299999999998
 20
6.223659999999999
 30
0.0
 10
0.8754599999999999
 20
6.2182
 30
0.0
 10
0.8754599999999999
 20
6.2182
 30
0.0
 10
0.8754599999999999
 20
6.2182
 30
0.0
 10
0.8623700000000001
 20
6.1444
 30
0.0
 10
0.8623700000000001
 20
6.1444
 30
0.0
 10
0.8623700000000001
 20
6.1444
 30
0.0
 10
0.8130699999999999
 20
6.15336
 30
0.0
 10
0.7749100000000001
 20
6.173939999999999
 30
0.0
 10
0.74789
 20
6.20588
 30
0.0
 10
0.74789
 20
6.20588
 30
0.0
 10
0.7208700000000001
 20
6.237949999999999
 30
0.0
 10
0.7072300000000001
 20
6.277719999999999
 30
0.0
 10
0.7072300000000001
 20
6.325339999999999
 30
0.0
 10
0.7072300000000001
 20
6.325339999999999
 30
0.0
 10
0.7072300000000001
 20
6.358109999999999
 30
0.0
 10
0.71433
 20
6.388359999999999
 30
0.0
 10
0.7282600000000001
 20
6.41596
 30
0.0
 10
0.7282600000000001
 20
6.41596
 30
0.0
 10
0.74232
 20
6.44354
 30
0.0
 10
0.7614
 20
6.46469
 30
0.0
 10
0.7856300000000001
 20
6.4794
 30
0.0
 10
0.7856300000000001
 20
6.4794
 30
0.0
 10
0.8098699999999999
 20
6.493959999999999
 30
0.0
 10
0.8354899999999998
 20
6.50138
 30
0.0
 10
0.86279
 20
6.50138
 30
0.0
 10
0.86279
 20
6.50138
 30
0.0
 10
0.88855
 20
6.50138
 30
0.0
 10
0.9120899999999998
 20
6.49438
 30
0.0
 10
0.9333999999999999
 20
6.480369999999999
 30
0.0
 10
0.9333999999999999
 20
6.480369999999999
 30
0.0
 10
0.95457
 20
6.466369999999999
 30
0.0
 10
0.9714199999999999
 20
6.44578
 30
0.0
 10
0.9839499999999999
 20
6.41847
 30
0.0
 10
0.9839499999999999
 20
6.41847
 30
0.0
 10
0.9920299999999999
 20
6.454049999999999
 30
0.0
 10
1.00902
 20
6.48163
 30
0.0
 10
1.03478
 20
6.50138
 30
0.0
 10
1.03478
 20
6.50138
 30
0.0
 10
1.06041
 20
6.52099
 30
0.0
 10
1.092579999999999
 20
6.5308
 30
0.0
 10
1.131159999999999
 20
6.5308
 30
0.0
 10
1.131159999999999
 20
6.5308
 30
0.0
 10
1.183379999999999
 20
6.5308
 30
0.0
 10
1.22767
 20
6.51175
 30
0.0
 10
1.26402
 20
6.47338
 30
0.0
 10
1.26402
 20
6.47338
 30
0.0
 10
1.30037
 20
6.43514
 30
0.0
 10
1.31847
 20
6.38668
 30
0.0
 10
1.31847
 20
6.32814
 30
0.0
 10
1.31847
 20
6.32814
 30
0.0
 10
1.31847
 20
6.275339999999999
 30
0.0
 10
1.30288
 20
6.23151
 30
0.0
 10
1.271539999999999
 20
6.196629999999999
 30
0.0
 10
1.271539999999999
 20
6.196629999999999
 30
0.0
 10
1.240339999999999
 20
6.161769999999999
 30
0.0
 10
1.19982
 20
6.141869999999999
 30
0.0
 10
1.14996
 20
6.13698
 30
0.0
  0
SPLINE
  5
60
330
1F
100
AcDbEntity
  8
layer 1
 62
   250
100
AcDbSpline
210
0.0
220
0.0
230
1.0
 70
    11
 71
     3
 72
    48
 73
    44
 74
     0
 42
0.0000000001
 43
0.0000000001
 40
0.0
 40
0.0
 40
0.0
 40
0.0
 40
0.0833333333333333
 40
0.0833333333333333
 40
0.0833333333333333
 40
0.0833333333333333
 40
0.1666666666666667
 40
0.1666666666666667
 40
0.1666666666666667
 40
0.1666666666666667
 40
0.25
 40
0.25
 40
0.25
 40
0.25
 40
0.3333333333333333
 40
0.3333333333333333
 40
0.3333333333333333
 40
0.3333333333333333
 40
0.4166666666666667
 40
0.4166666666666667
 40
0.4166666666666667
 40
0.4166666666666667
 40
0.5
 40
0.5
 40
0.5
 40
0.5
 40
0.5833333333333334
 40
0.5833333333333334
 40
0.5833333333333334
 40
0.5833333333333334
 40
0.6666666666666666
 40
0.6666666666666666
 40
0.6666666666666666
 40
0.6666666666666666
 40
0.75
 40
0.75
 40
0.75
 40
0.75
 40
0.8333333333333333
 40
0.8333333333333333
 40
0.8333333333333333
 40
0.8333333333333333
 40
1.0
 40
1.0
 40
1.0
 40
1.0
 10
1.307889999999999
 20
6.88728
 30
0.0
 10
1.307889999999999
 20
6.88728
 30
0.0
 10
1.164719999999999
 20
6.88728
 30
0.0
 10
1.164719999999999
 20
6.88728
 30
0.0
 10
1.164719999999999
 20
6.88728
 30
0.0
 10
1.164719999999999
 20
6.88728
 30
0.0
 10
1.164719999999999
 20
6.62636
 30
0.0
 10
1.164719999999999
 20
6.62636
 30
0.0
 10
1.164719999999999
 20
6.62636
 30
0.0
 10
1.164719999999999
 20
6.62636
 30
0.0
 10
1.09732
 20
6.62636
 30
0.0
 10
1.09732
 20
6.62636
 30
0.0
 10
1.09732
 20
6.62636
 30
0.0
 10
1.09732
 20
6.62636
 30
0.0
 10
0.70973
 20
6.90086
 30
0.0
 10
0.70973
 20
6.90086
 30
0.0
 10
0.70973
 20
6.90086
 30
0.0
 10
0.70973
 20
6.90086
 30
0.0
 10
0.70973
 20
6.961219999999999
 30
0.0
 10
0.70973
 20
6.961219999999999
 30
0.0
 10
0.70973
 20
6.961219999999999
 30
0.0
 10
0.70973
 20
6.961219999999999
 30
0.0
 10
1.09732
 20
6.961219999999999
 30
0.0
 10
1.09732
 20
6.961219999999999
 30
0.0
 10
1.09732
 20
6.961219999999999
 30
0.0
 10
1.09732
 20
6.961219999999999
 30
0.0
 10
1.09732
 20
7.042449999999999
 30
0.0
 10
1.09732
 20
7.042449999999999
 30
0.0
 10
1.09732
 20
7.042449999999999
 30
0.0
 10
1.09732
 20
7.042449999999999
 30
0.0
 10
1.164719999999999
 20
7.042449999999999
 30
0.0
 10
1.164719999999999
 20
7.042449999999999
 30
0.0
 10
1.164719999999999
 20
7.042449999999999
 30
0.0
 10
1.164719999999999
 20
7.042449999999999
 30
0.0
 10
1.164719999999999
 20
6.961219999999999
 30
0.0
 10
1.164719999999999
 20
6.961219999999999
 30
0.0
 10
1.164719999999999
 20
6.961219999999999
 30
0.0
 10
1.164719999999999
 20
6.961219999999999
 30
0.0
 10
1.307889999999999
 20
6.961219999999999
 30
0.0
 10
1.307889999999999
 20
6.961219999999999
 30
0.0
 10
1.307889999999999
 20
6.961219999999999
 30
0.0
 10
1.307889999999999
 20
6.961219999999999
 30
0.0
 10
1.307889999999999
 20
6.88728
 30
0.0
 10
1.307889999999999
 20
6.88728
 30
0.0
  0
SPLINE
  5
61
330
1F
100
AcDbEntity
  8
layer 1
 62
   250
100
AcDbSpline
210
0.0
220
0.0
230
1.0
 70
    11
 71
     3
 72
    16
 73
    12
 74
     0
 42
0.0000000001
 43
0.0000000001
 40
0.0
 40
0.0
 40
0.0
 40
0.0
 40
0.25
 40
0.25
 40
0.25
 40
0.25
 40
0.5
 40
0.5
 40
0.5
 40
0.5
 40
1.0
 40
1.0
 40
1.0
 40
1.0
 10
1.09732
 20
6.88728
 30
0.0
 10
1.09732
 20
6.88728
 30
0.0
 10
0.8276899999999999
 20
6.88728
 30
0.0
 10
0.8276899999999999
 20
6.88728
 30
0.0
 10
0.8276899999999999
 20
6.88728
 30
0.0
 10
0.8276899999999999
 20
6.88728
 30
0.0
 10
1.09732
 20
6.699049999999999
 30
0.0
 10
1.09732
 20
6.699049999999999
 30
0.0
 10
1.09732
 20
6.699049999999999
 30
0.0
 10
1.09732
 20
6.699049999999999
 30
0.0
 10
1.09732
 20
6.88728
 30
0.0
 10
1.09732
 20
6.88728
 30
0.0
  0
SPLINE
  5
62
330
1F
100
AcDbEntity
  8
layer 1
 62
   250
100
AcDbSpline
210
0.0
220
0.0
230
1.0
 70
    11
 71
     3
 72
    48
 73
    44
 74
     0
 42
0.0000000001
 43
0.0000000001
 40
0.0
 40
0.0
 40
0.0
 40
0.0
 40
0.0833333333333333
 40
0.0833333333333333
 40
0.0833333333333333
 40
0.0833333333333333
 40
0.1666666666666667
 40
0.1666666666666667
 40
0.1666666666666667
 40
0.1666666666666667
 40
0.25
 40
0.25
 40
0.25
 40
0.25
 40
0.3333333333333333
 40
0.3333333333333333
 40
0.3333333333333333
 40
0.3333333333333333
 40
0.4166666666666667
 40
0.4166666666666667
 40
0.4166666666666667
 40
0.4166666666666667
 40
0.5
 40
0.5
 40
0.5
 40
0.5
 40
0.5833333333333334
 40
0.5833333333333334
 40
0.5833333333333334
 40
0.5833333333333334
 40
0.6666666666666666
 40
0.6666666666666666
 40
0.6666666666666666
 40
0.6666666666666666
 40
0.75
 40
0.75
 40
0.75
 40
0.75
 40
0.8333333333333333
 40
0.8333333333333333
 40
0.8333333333333333
 40
0.8333333333333333
 40
1.0
 40
1.0
 40
1.0
 40
1.0
 10
1.307889999999999
 20
7.40132
 30
0.0
 10
1.307889999999999
 20
7.40132
 30
0.0
 10
1.164719999999999
 20
7.40132
 30
0.0
 10
1.164719999999999
 20
7.40132
 30
0.0
 10
1.164719999999999
 20
7.40132
 30
0.0
 10
1.164719999999999
 20
7.40132
 30
0.0
 10
1.164719999999999
 20
7.140399999999999
 30
0.0
 10
1.164719999999999
 20
7.140399999999999
 30
0.0
 10
1.164719999999999
 20
7.140399999999999
 30
0.0
 10
1.164719999999999
 20
7.140399999999999
 30
0.0
 10
1.09732
 20
7.140399999999999
 30
0.0
 10
1.09732
 20
7.140399999999999
 30
0.0
 10
1.09732
 20
7.140399999999999
 30
0.0
 10
1.09732
 20
7.140399999999999
 30
0.0
 10
0.70973
 20
7.4149
 30
0.0
 10
0.70973
 20
7.4149
 30
0.0
 10
0.70973
 20
7.4149
 30
0.0
 10
0.70973
 20
7.4149
 30
0.0
 10
0.70973
 20
7.47526
 30
0.0
 10
0.70973
 20
7.47526
 30
0.0
 10
0.70973
 20
7.47526
 30
0.0
 10
0.70973
 20
7.47526
 30
0.0
 10
1.09732
 20
7.47526
 30
0.0
 10
1.09732
 20
7.47526
 30
0.0
 10
1.09732
 20
7.47526
 30
0.0
 10
1.09732
 20
7.47526
 30
0.0
 10
1.09732
 20
7.556499999999999
 30
0.0
 10
1.09732
 20
7.556499999999999
 30
0.0
 10
1.09732
 20
7.556499999999999
 30
0.0
 10
1.09732
 20
7.556499999999999
 30
0.0
 10
1.164719999999999
 20
7.556499999999999
 30
0.0
 10
1.164719999999999
 20
7.556499999999999
 30
0.0
 10
1.164719999999999
 20
7.556499999999999
 30
0.0
 10
1.164719999999999
 20
7.556499999999999
 30
0.0
 10
1.164719999999999
 20
7.47526
 30
0.0
 10
1.164719999999999
 20
7.47526
 30
0.0
 10
1.164719999999999
 20
7.47526
 30
0.0
 10
1.164719999999999
 20
7.47526
 30
0.0
 10
1.307889999999999
 20
7.47526
 30
0.0
 10
1.307889999999999
 20
7.47526
 30
0.0
 10
1.307889999999999
 20
7.47526
 30
0.0
 10
1.307889999999999
 20
7.47526
 30
0.0
 10
1.307889999999999
 20
7.40132
 30
0.0
 10
1.307889999999999
 20
7.40132
 30
0.0
  0
SPLINE
  5
63
330
1F
100
AcDbEntity
  8
layer 1
 62
   250
100
AcDbSpline
210
0.0
220
0.0
230
1.0
 70
    11
 71
     3
 72
    16
 73
    12
 74
     0
 42
0.0000000001
 43
0.0000000001
 40
0.0
 40
0.0
 40
0.0
 40
0.0
 40
0.25
 40
0.25
 40
0.25
 40
0.25
 40
0.5
 40
0.5
 40
0.5
 40
0.5
 40
1.0
 40
1.0
 40
1.0
 40
1.0
 10
1.09732
 20
7.40132
 30
0.0
 10
1.09732
 20
7.40132
 30
0.0
 10
0.8276899999999999
 20
7.40132
 30
0.0
 10
0.8276899999999999
 20
7.40132
 30
0.0
 10
0.8276899999999999
 20
7.40132
 30
0.0
 10
0.8276899999999999
 20
7.40132
 30
0.0
 10
1.09732
 20
7.213089999999999
 30
0.0
 10
1.09732
 20
7.213089999999999
 30
0.0
 10
1.09732
 20
7.213089999999999
 30
0.0
 10
1.09732
 20
7.213089999999999
 30
0.0
 10
1.09732
 20
7.40132
 30
0.0
 10
1.09732
 20
7.40132
 30
0.0
  0
SPLINE
  5
64
330
1F
100
AcDbEntity
  8
layer 1
 62
   250
100
AcDbSpline
210
0.0
220
0.0
230
1.0
 70
    11
 71
     3
 72
    64
 73
    60
 74
     0
 42
0.0000000001
 43
0.0000000001
 40
0.0
 40
0.0
 40
0.0
 40
0.0
 40
0.0625
 40
0.0625
 40
0.0625
 40
0.0625
 40
0.125
 40
0.125
 40
0.125
 40
0.125
 40
0.1875
 40
0.1875
 40
0.1875
 40
0.1875
 40
0.25
 40
0.25
 40
0.25
 40
0.25
 40
0.3125
 40
0.3125
 40
0.3125
 40
0.3125
 40
0.375
 40
0.375
 40
0.375
 40
0.375
 40
0.4375
 40
0.4375
 40
0.4375
 40
0.4375
 40
0.5
 40
0.5
 40
0.5
 40
0.5
 40
0.5625
 40
0.5625
 40
0.5625
 40
0.5625
 40
0.625
 40
0.625
 40
0.625
 40
0.625
 40
0.6875
 40
0.6875
 40
0.6875
 40
0.6875
 40
0.75
 40
0.75
 40
0.75
 40
0.75
 40
0.8125
 40
0.8125
 40
0.8125
 40
0.8125
 40
0.875
 40
0.875
 40
0.875
 40
0.875
 40
1.0
 40
1.0
 40
1.0
 40
1.0
 10
1.307889999999999
 20
7.706119999999999
 30
0.0
 10
1.307889999999999
 20
7.706119999999999
 30
0.0
 10
0.70973
 20
7.706119999999999
 30
0.0
 10
0.70973
 20
7.706119999999999
 30
0.0
 10
0.70973
 20
7.706119999999999
 30
0.0
 10
0.70973
 20
7.706119999999999
 30
0.0
 10
0.70973
 20
7.826010000000001
 30
0.0
 10
0.70973
 20
7.826010000000001
 30
0.0
 10
0.70973
 20
7.826010000000001
 30
0.0
 10
0.70973
 20
7.826010000000001
 30
0.0
 10
1.13325
 20
7.968289999999999
 30
0.0
 10
1.13325
 20
7.968289999999999
 30
0.0
 10
1.13325
 20
7.968289999999999
 30
0.0
 10
1.17266
 20
7.981469999999999
 30
0.0
 10
1.202189999999999
 20
7.99113
 30
0.0
 10
1.22182
 20
7.99701
 30
0.0
 10
1.22182
 20
7.99701
 30
0.0
 10
1.200099999999999
 20
8.003869999999999
 30
0.0
 10
1.16806
 20
8.014510000000001
 30
0.0
 10
1.12587
 20
8.02908
 30
0.0
 10
1.12587
 20
8.02908
 30
0.0
 10
1.12587
 20
8.02908
 30
0.0
 10
0.70973
 20
8.173060000000001
 30
0.0
 10
0.70973
 20
8.173060000000001
 30
0.0
 10
0.70973
 20
8.173060000000001
 30
0.0
 10
0.70973
 20
8.173060000000001
 30
0.0
 10
0.70973
 20
8.2802
 30
0.0
 10
0.70973
 20
8.2802
 30
0.0
 10
0.70973
 20
8.2802
 30
0.0
 10
0.70973
 20
8.2802
 30
0.0
 10
1.307889999999999
 20
8.2802
 30
0.0
 10
1.307889999999999
 20
8.2802
 30
0.0
 10
1.307889999999999
 20
8.2802
 30
0.0
 10
1.307889999999999
 20
8.2802
 30
0.0
 10
1.307889999999999
 20
8.20345
 30
0.0
 10
1.307889999999999
 20
8.20345
 30
0.0
 10
1.307889999999999
 20
8.20345
 30
0.0
 10
1.307889999999999
 20
8.20345
 30
0.0
 10
0.8072199999999998
 20
8.20345
 30
0.0
 10
0.8072199999999998
 20
8.20345
 30
0.0
 10
0.8072199999999998
 20
8.20345
 30
0.0
 10
0.8072199999999998
 20
8.20345
 30
0.0
 10
1.307889999999999
 20
8.02866
 30
0.0
 10
1.307889999999999
 20
8.02866
 30
0.0
 10
1.307889999999999
 20
8.02866
 30
0.0
 10
1.307889999999999
 20
8.02866
 30
0.0
 10
1.307889999999999
 20
7.95681
 30
0.0
 10
1.307889999999999
 20
7.95681
 30
0.0
 10
1.307889999999999
 20
7.95681
 30
0.0
 10
1.307889999999999
 20
7.95681
 30
0.0
 10
0.79872
 20
7.782869999999999
 30
0.0
 10
0.79872
 20
7.782869999999999
 30
0.0
 10
0.79872
 20
7.782869999999999
 30
0.0
 10
0.79872
 20
7.782869999999999
 30
0.0
 10
1.307889999999999
 20
7.782869999999999
 30
0.0
 10
1.307889999999999
 20
7.782869999999999
 30
0.0
 10
1.307889999999999
 20
7.782869999999999
 30
0.0
 10
1.307889999999999
 20
7.782869999999999
 30
0.0
 10
1.307889999999999
 20
7.706119999999999
 30
0.0
 10
1.307889999999999
 20
7.706119999999999
 30
0.0
  0
SPLINE
  5
65
330
1F
100
AcDbEntity
  8
layer 1
 62
   250
100
AcDbSpline
210
0.0
220
0.0
230
1.0
 70
    11
 71
     3
 72
    64
 73
    60
 74
     0
 42
0.0000000001
 43
0.0000000001
 40
0.0
 40
0.0
 40
0.0
 40
0.0
 40
0.0625
 40
0.0625
 40
0.0625
 40
0.0625
 40
0.125
 40
0.125
 40
0.125
 40
0.125
 40
0.1875
 40
0.1875
 40
0.1875
 40
0.1875
 40
0.25
 40
0.25
 40
0.25
 40
0.25
 40
0.3125
 40
0.3125
 40
0.3125
 40
0.3125
 40
0.375
 40
0.375
 40
0.375
 40
0.375
 40
0.4375
 40
0.4375
 40
0.4375
 40
0.4375
 40
0.5
 40
0.5
 40
0.5
 40
0.5
 40
0.5625
 40
0.5625
 40
0.5625
 40
0.5625
 40
0.625
 40
0.625
 40
0.625
 40
0.625
 40
0.6875
 40
0.6875
 40
0.6875
 40
0.6875
 40
0.75
 40
0.75
 40
0.75
 40
0.75
 40
0.8125
 40
0.8125
 40
0.8125
 40
0.8125
 40
0.875
 40
0.875
 40
0.875
 40
0.875
 40
1.0
 40
1.0
 40
1.0
 40
1.0
 10
1.307889999999999
 20
8.45278
 30
0.0
 10
1.307889999999999
 20
8.45278
 30
0.0
 10
0.70973
 20
8.45278
 30
0.0
 10
0.70973
 20
8.45278
 30
0.0
 10
0.70973
 20
8.45278
 30
0.0
 10
0.70973
 20
8.45278
 30
0.0
 10
0.70973
 20
8.57267
 30
0.0
 10
0.70973
 20
8.57267
 30
0.0
 10
0.70973
 20
8.57267
 30
0.0
 10
0.70973
 20
8.57267
 30
0.0
 10
1.13325
 20
8.714949999999999
 30
0.0
 10
1.13325
 20
8.714949999999999
 30
0.0
 10
1.13325
 20
8.714949999999999
 30
0.0
 10
1.17266
 20
8.72813
 30
0.0
 10
1.202189999999999
 20
8.737789999999998
 30
0.0
 10
1.22182
 20
8.743669999999999
 30
0.0
 10
1.22182
 20
8.743669999999999
 30
0.0
 10
1.200099999999999
 20
8.750529999999999
 30
0.0
 10
1.16806
 20
8.761169999999999
 30
0.0
 10
1.12587
 20
8.775739999999998
 30
0.0
 10
1.12587
 20
8.775739999999998
 30
0.0
 10
1.12587
 20
8.775739999999998
 30
0.0
 10
0.70973
 20
8.919719999999999
 30
0.0
 10
0.70973
 20
8.919719999999999
 30
0.0
 10
0.70973
 20
8.919719999999999
 30
0.0
 10
0.70973
 20
8.919719999999999
 30
0.0
 10
0.70973
 20
9.02686
 30
0.0
 10
0.70973
 20
9.02686
 30
0.0
 10
0.70973
 20
9.02686
 30
0.0
 10
0.70973
 20
9.02686
 30
0.0
 10
1.307889999999999
 20
9.02686
 30
0.0
 10
1.307889999999999
 20
9.02686
 30
0.0
 10
1.307889999999999
 20
9.02686
 30
0.0
 10
1.307889999999999
 20
9.02686
 30
0.0
 10
1.307889999999999
 20
8.95011
 30
0.0
 10
1.307889999999999
 20
8.95011
 30
0.0
 10
1.307889999999999
 20
8.95011
 30
0.0
 10
1.307889999999999
 20
8.95011
 30
0.0
 10
0.8072199999999998
 20
8.95011
 30
0.0
 10
0.8072199999999998
 20
8.95011
 30
0.0
 10
0.8072199999999998
 20
8.95011
 30
0.0
 10
0.8072199999999998
 20
8.95011
 30
0.0
 10
1.307889999999999
 20
8.775319999999998
 30
0.0
 10
1.307889999999999
 20
8.775319999999998
 30
0.0
 10
1.307889999999999
 20
8.775319999999998
 30
0.0
 10
1.307889999999999
 20
8.775319999999998
 30
0.0
 10
1.307889999999999
 20
8.703469999999999
 30
0.0
 10
1.307889999999999
 20
8.703469999999999
 30
0.0
 10
1.307889999999999
 20
8.703469999999999
 30
0.0
 10
1.307889999999999
 20
8.703469999999999
 30
0.0
 10
0.79872
 20
8.529530000000001
 30
0.0
 10
0.79872
 20
8.529530000000001
 30
0.0
 10
0.79872
 20
8.529530000000001
 30
0.0
 10
0.79872
 20
8.529530000000001
 30
0.0
 10
1.307889999999999
 20
8.529530000000001
 30
0.0
 10
1.307889999999999
 20
8.529530000000001
 30
0.0
 10
1.307889999999999
 20
8.529530000000001
 30
0.0
 10
1.307889999999999
 20
8.529530000000001
 30
0.0
 10
1.307889999999999
 20
8.45278
 30
0.0
 10
1.307889999999999
 20
8.45278
 30
0.0
  0
SPLINE
  5
66
330
1F
100
AcDbEntity
  8
layer 1
 62
   250
370
    50
100
AcDbSpline
210
0.0
220
0.0
230
1.0
 70
    11
 71
     3
 72
    16
 73
    12
 74
     0
 42
0.0000000001
 43
0.0000000001
 40
0.0
 40
0.0
 40
0.0
 40
0.0
 40
0.25
 40
0.25
 40
0.25
 40
0.25
 40
0.5
 40
0.5
 40
0.5
 40
0.5
 40
1.0
 40
1.0
 40
1.0
 40
1.0
 10
0.51009
 20
16.02003
 30
0.0
 10
0.51009
 20
16.02003
 30
0.0
 10
0.11545
 20
16.02003
 30
0.0
 10
0.11545
 20
16.02003
 30
0.0
 10
0.11545
 20
16.02003
 30
0.0
 10
0.11545
 20
16.02003
 30
0.0
 10
0.32155
 20
16.53185
 30
0.0
 10
0.32155
 20
16.53185
 30
0.0
 10
0.32155
 20
16.53185
 30
0.0
 10
0.32155
 20
16.53185
 30
0.0
 10
0.51009
 20
16.02003
 30
0.0
 10
0.51009
 20
16.02003
 30
0.0
  0
SPLINE
  5
BE
330
1F
100
AcDbEntity
  8
layer 1
 62
   250
100
AcDbSpline
210
0.0
220
0.0
230
1.0
 70
    11
 71
     3
 72
    92
 73
    88
 74
     0
 42
0.0000000001
 43
0.0000000001
 40
0.0
 40
0.0
 40
0.0
 40
0.0
 40
0.0434782608695652
 40
0.0434782608695652
 40
0.0434782608695652
 40
0.0652173913043478
 40
0.0869565217391304
 40
0.0869565217391304
 40
0.0869565217391304
 40
0.108695652173913
 40
0.1304347826086956
 40
0.1304347826086956
 40
0.1304347826086956
 40
0.1521739130434782
 40
0.1739130434782609
 40
0.1739130434782609
 40
0.1739130434782609
 40
0.1956521739130435
 40
0.2173913043478261
 40
0.2173913043478261
 40
0.2173913043478261
 40
0.2391304347826087
 40
0.2608695652173913
 40
0.2608695652173913
 40
0.2608695652173913
 40
0.2826086956521739
 40
0.3043478260869565
 40
0.3043478260869565
 40
0.3043478260869565
 40
0.3260869565217391
 40
0.3478260869565217
 40
0.3478260869565217
 40
0.3478260869565217
 40
0.3695652173913043
 40
0.391304347826087
 40
0.391304347826087
 40
0.391304347826087
 40
0.4130434782608697
 40
0.4347826086956523
 40
0.4347826086956523
 40
0.4347826086956523
 40
0.4565217391304348
 40
0.4782608695652174
 40
0.4782608695652174
 40
0.4782608695652174
 40
0.5
 40
0.5217391304347827
 40
0.5217391304347827
 40
0.5217391304347827
 40
0.5434782608695653
 40
0.5652173913043478
 40
0.5652173913043478
 40
0.5652173913043478
 40
0.5869565217391304
 40
0.6086956521739131
 40
0.6086956521739131
 40
0.6086956521739131
 40
0.6304347826086957
 40
0.6521739130434784
 40
0.6521739130434784
 40
0.6521739130434784
 40
0.6739130434782609
 40
0.6956521739130435
 40
0.6956521739130435
 40
0.6956521739130435
 40
0.7173913043478261
 40
0.7391304347826086
 40
0.7391304347826086
 40
0.7391304347826086
 40
0.7608695652173914
 40
0.7826086956521741
 40
0.7826086956521741
 40
0.7826086956521741
 40
0.8043478260869566
 40
0.826086956521739
 40
0.826086956521739
 40
0.826086956521739
 40
0.8478260869565216
 40
0.8695652173913043
 40
0.8695652173913043
 40
0.8695652173913043
 40
0.8913043478260869
 40
0.9130434782608695
 40
0.9130434782608695
 40
0.9130434782608695
 40
0.9565217391304347
 40
1.0
 40
1.0
 40
1.0
 40
1.0
 10
18.70216
 20
17.74486999999966
 30
0.0
 10
18.70216
 20
17.74486999999966
 30
0.0
 10
18.70216
 20
17.70739999999966
 30
0.0
 10
18.70216
 20
17.70739999999966
 30
0.0
 10
18.70216
 20
17.70739999999966
 30
0.0
 10
18.70216
 20
17.70739999999966
 30
0.0
 10
18.49236
 20
17.70739999999966
 30
0.0
 10
18.49236
 20
17.70739999999966
 30
0.0
 10
18.49236
 20
17.70739999999966
 30
0.0
 10
18.49206
 20
17.71678999999966
 30
0.0
 10
18.49354
 20
17.72579999999966
 30
0.0
 10
18.49687
 20
17.73444999999966
 30
0.0
 10
18.49687
 20
17.73444999999966
 30
0.0
 10
18.50219
 20
17.74877999999966
 30
0.0
 10
18.51076
 20
17.76282999999966
 30
0.0
 10
18.52251
 20
17.77671999999966
 30
0.0
 10
18.52251
 20
17.77671999999966
 30
0.0
 10
18.53434
 20
17.79053999999966
 30
0.0
 10
18.55133
 20
17.80656999999966
 30
0.0
 10
18.5735
 20
17.82474999999966
 30
0.0
 10
18.5735
 20
17.82474999999966
 30
0.0
 10
18.60801
 20
17.85305999999966
 30
0.0
 10
18.63137
 20
17.87544999999966
 30
0.0
 10
18.64348999999999
 20
17.89199999999966
 30
0.0
 10
18.64348999999999
 20
17.89199999999966
 30
0.0
 10
18.6556
 20
17.90847999999966
 30
0.0
 10
18.66165999999999
 20
17.92414999999966
 30
0.0
 10
18.66165999999999
 20
17.93884999999966
 30
0.0
 10
18.66165999999999
 20
17.93884999999966
 30
0.0
 10
18.66165999999999
 20
17.95429999999966
 30
0.0
 10
18.65612
 20
17.96730999999966
 30
0.0
 10
18.64511
 20
17.97794999999966
 30
0.0
 10
18.64511
 20
17.97794999999966
 30
0.0
 10
18.63403
 20
17.98851999999966
 30
0.0
 10
18.61962
 20
17.99383999999966
 30
0.0
 10
18.60188
 20
17.99383999999966
 30
0.0
 10
18.60188
 20
17.99383999999966
 30
0.0
 10
18.58311
 20
17.99383999999966
 30
0.0
 10
18.56811
 20
17.98821999999966
 30
0.0
 10
18.55687
 20
17.97690999999966
 30
0.0
 10
18.55687
 20
17.97690999999966
 30
0.0
 10
18.54556999999999
 20
17.96567999999966
 30
0.0
 10
18.53988
 20
17.95008999999966
 30
0.0
 10
18.53973
 20
17.93020999999966
 30
0.0
 10
18.53973
 20
17.93020999999966
 30
0.0
 10
18.53973
 20
17.93020999999966
 30
0.0
 10
18.49968
 20
17.93426999999966
 30
0.0
 10
18.49968
 20
17.93426999999966
 30
0.0
 10
18.49968
 20
17.93426999999966
 30
0.0
 10
18.50241
 20
17.96419999999966
 30
0.0
 10
18.51276
 20
17.98695999999966
 30
0.0
 10
18.53064
 20
18.00262999999966
 30
0.0
 10
18.53064
 20
18.00262999999966
 30
0.0
 10
18.54852
 20
18.01829999999966
 30
0.0
 10
18.57262
 20
18.02612999999966
 30
0.0
 10
18.60277
 20
18.02612999999966
 30
0.0
 10
18.60277
 20
18.02612999999966
 30
0.0
 10
18.63321
 20
18.02612999999966
 30
0.0
 10
18.6573
 20
18.01762999999966
 30
0.0
 10
18.67504
 20
18.00077999999966
 30
0.0
 10
18.67504
 20
18.00077999999966
 30
0.0
 10
18.69285
 20
17.98385999999966
 30
0.0
 10
18.70172
 20
17.96294999999966
 30
0.0
 10
18.70172
 20
17.93796999999966
 30
0.0
 10
18.70172
 20
17.93796999999966
 30
0.0
 10
18.70172
 20
17.92525999999966
 30
0.0
 10
18.69913
 20
17.91276999999966
 30
0.0
 10
18.69388999999999
 20
17.90049999999966
 30
0.0
 10
18.69388999999999
 20
17.90049999999966
 30
0.0
 10
18.68871
 20
17.88822999999966
 30
0.0
 10
18.68007
 20
17.87529999999966
 30
0.0
 10
18.66802
 20
17.86177999999966
 30
0.0
 10
18.66802
 20
17.86177999999966
 30
0.0
 10
18.65597
 20
17.84817999999965
 30
0.0
 10
18.63595
 20
17.82955999999966
 30
0.0
 10
18.60794
 20
17.80590999999966
 30
0.0
 10
18.60794
 20
17.80590999999966
 30
0.0
 10
18.58459
 20
17.78624999999966
 30
0.0
 10
18.56958999999999
 20
17.77294999999966
 30
0.0
 10
18.56293
 20
17.76592999999966
 30
0.0
 10
18.56293
 20
17.76592999999966
 30
0.0
 10
18.55628
 20
17.75897999999966
 30
0.0
 10
18.55081
 20
17.75195999999966
 30
0.0
 10
18.54644999999999
 20
17.74486999999966
 30
0.0
 10
18.54644999999999
 20
17.74486999999966
 30
0.0
 10
18.54644999999999
 20
17.74486999999966
 30
0.0
 10
18.70216
 20
17.74486999999966
 30
0.0
 10
18.70216
 20
17.74486999999966
 30
0.0
  0
SPLINE
  5
BF
330
1F
100
AcDbEntity
  8
layer 1
 62
   250
100
AcDbSpline
210
0.0
220
0.0
230
1.0
 70
     9
 71
     3
 72
    52
 73
    48
 74
     0
 42
0.0000000001
 43
0.0000000001
 40
0.0
 40
0.0
 40
0.0
 40
0.0
 40
0.0769230769230769
 40
0.0769230769230769
 40
0.0769230769230769
 40
0.1153846153846154
 40
0.1538461538461539
 40
0.1538461538461539
 40
0.1538461538461539
 40
0.1923076923076923
 40
0.2307692307692308
 40
0.2307692307692308
 40
0.2307692307692308
 40
0.2692307692307692
 40
0.3076923076923077
 40
0.3076923076923077
 40
0.3076923076923077
 40
0.3461538461538462
 40
0.3846153846153846
 40
0.3846153846153846
 40
0.3846153846153846
 40
0.4230769230769232
 40
0.4615384615384616
 40
0.4615384615384616
 40
0.4615384615384616
 40
0.5
 40
0.5384615384615385
 40
0.5384615384615385
 40
0.5384615384615385
 40
0.5769230769230769
 40
0.6153846153846155
 40
0.6153846153846155
 40
0.6153846153846155
 40
0.6538461538461539
 40
0.6923076923076924
 40
0.6923076923076924
 40
0.6923076923076924
 40
0.7307692307692309
 40
0.7692307692307693
 40
0.7692307692307693
 40
0.7692307692307693
 40
0.8076923076923076
 40
0.8461538461538461
 40
0.8461538461538461
 40
0.8461538461538461
 40
0.9230769230769231
 40
1.0
 40
1.0
 40
1.0
 40
1.0
 10
18.76855
 20
17.86391999999966
 30
0.0
 10
18.76855
 20
17.90145999999966
 30
0.0
 10
18.77239
 20
17.93168999999966
 30
0.0
 10
18.78015
 20
17.95451999999966
 30
0.0
 10
18.78015
 20
17.95451999999966
 30
0.0
 10
18.78784
 20
17.97742999999966
 30
0.0
 10
18.79937
 20
17.99508999999966
 30
0.0
 10
18.81459
 20
18.00750999999966
 30
0.0
 10
18.81459
 20
18.00750999999966
 30
0.0
 10
18.82981
 20
18.01991999999966
 30
0.0
 10
18.84895
 20
18.02612999999966
 30
0.0
 10
18.87201
 20
18.02612999999966
 30
0.0
 10
18.87201
 20
18.02612999999966
 30
0.0
 10
18.88908
 20
18.02612999999966
 30
0.0
 10
18.90401
 20
18.02265999999966
 30
0.0
 10
18.91687
 20
18.01577999999966
 30
0.0
 10
18.91687
 20
18.01577999999966
 30
0.0
 10
18.92973
 20
18.00898999999966
 30
0.0
 10
18.94028999999999
 20
17.99907999999966
 30
0.0
 10
18.94872
 20
17.98614999999966
 30
0.0
 10
18.94872
 20
17.98614999999966
 30
0.0
 10
18.95706999999999
 20
17.97321999999966
 30
0.0
 10
18.96365
 20
17.95747999999966
 30
0.0
 10
18.96838
 20
17.93892999999966
 30
0.0
 10
18.96838
 20
17.93892999999966
 30
0.0
 10
18.97318
 20
17.92037999999966
 30
0.0
 10
18.97555
 20
17.89539999999966
 30
0.0
 10
18.97555
 20
17.86391999999966
 30
0.0
 10
18.97555
 20
17.86391999999966
 30
0.0
 10
18.97555
 20
17.82666999999966
 30
0.0
 10
18.9717
 20
17.79666999999966
 30
0.0
 10
18.96409
 20
17.77375999999966
 30
0.0
 10
18.96409
 20
17.77375999999966
 30
0.0
 10
18.9564
 20
17.75084999999966
 30
0.0
 10
18.94495
 20
17.73318999999966
 30
0.0
 10
18.92973
 20
17.72069999999966
 30
0.0
 10
18.92973
 20
17.72069999999966
 30
0.0
 10
18.9145
 20
17.70820999999966
 30
0.0
 10
18.89529
 20
17.70200999999966
 30
0.0
 10
18.87201
 20
17.70200999999966
 30
0.0
 10
18.87201
 20
17.70200999999966
 30
0.0
 10
18.84142
 20
17.70200999999966
 30
0.0
 10
18.8174
 20
17.71293999999966
 30
0.0
 10
18.79996
 20
17.73488999999966
 30
0.0
 10
18.79996
 20
17.73488999999966
 30
0.0
 10
18.77904
 20
17.76126999999966
 30
0.0
 10
18.76855
 20
17.80435999999966
 30
0.0
 10
18.76855
 20
17.86391999999966
 30
0.0
  0
SPLINE
  5
C0
330
1F
100
AcDbEntity
  8
layer 1
 62
   250
100
AcDbSpline
210
0.0
220
0.0
230
1.0
 70
    11
 71
     3
 72
    36
 73
    32
 74
     0
 42
0.0000000001
 43
0.0000000001
 40
0.0
 40
0.0
 40
0.0
 40
0.0
 40
0.1111111111111111
 40
0.1111111111111111
 40
0.1111111111111111
 40
0.1666666666666666
 40
0.2222222222222222
 40
0.2222222222222222
 40
0.2222222222222222
 40
0.2777777777777778
 40
0.3333333333333333
 40
0.3333333333333333
 40
0.3333333333333333
 40
0.3888888888888888
 40
0.4444444444444445
 40
0.4444444444444445
 40
0.4444444444444445
 40
0.5
 40
0.5555555555555556
 40
0.5555555555555556
 40
0.5555555555555556
 40
0.6111111111111112
 40
0.6666666666666666
 40
0.6666666666666666
 40
0.6666666666666666
 40
0.7222222222222223
 40
0.7777777777777778
 40
0.7777777777777778
 40
0.7777777777777778
 40
0.8888888888888889
 40
1.0
 40
1.0
 40
1.0
 40
1.0
 10
18.8086
 20
17.86391999999966
 30
0.0
 10
18.8086
 20
17.81181999999966
 30
0.0
 10
18.81474
 20
17.77715999999966
 30
0.0
 10
18.82693
 20
17.75986999999966
 30
0.0
 10
18.82693
 20
17.75986999999966
 30
0.0
 10
18.83913
 20
17.74264999999966
 30
0.0
 10
18.85413
 20
17.73399999999966
 30
0.0
 10
18.87201
 20
17.73399999999966
 30
0.0
 10
18.87201
 20
17.73399999999966
 30
0.0
 10
18.88996999999999
 20
17.73399999999966
 30
0.0
 10
18.90497
 20
17.74271999999966
 30
0.0
 10
18.91716
 20
17.76001999999966
 30
0.0
 10
18.91716
 20
17.76001999999966
 30
0.0
 10
18.92936
 20
17.77730999999966
 30
0.0
 10
18.93549
 20
17.81196999999966
 30
0.0
 10
18.93549
 20
17.86391999999966
 30
0.0
 10
18.93549
 20
17.86391999999966
 30
0.0
 10
18.93549
 20
17.91616999999966
 30
0.0
 10
18.92936
 20
17.95089999999966
 30
0.0
 10
18.91716
 20
17.96804999999966
 30
0.0
 10
18.91716
 20
17.96804999999966
 30
0.0
 10
18.90497
 20
17.98525999999966
 30
0.0
 10
18.88982
 20
17.99383999999966
 30
0.0
 10
18.87164
 20
17.99383999999966
 30
0.0
 10
18.87164
 20
17.99383999999966
 30
0.0
 10
18.85368
 20
17.99383999999966
 30
0.0
 10
18.83942
 20
17.98621999999966
 30
0.0
 10
18.82870999999999
 20
17.97107999999966
 30
0.0
 10
18.82870999999999
 20
17.97107999999966
 30
0.0
 10
18.81533
 20
17.95178999999966
 30
0.0
 10
18.8086
 20
17.91601999999966
 30
0.0
 10
18.8086
 20
17.86391999999966
 30
0.0
  0
SPLINE
  5
C1
330
1F
100
AcDbEntity
  8
layer 1
 62
   250
100
AcDbSpline
210
0.0
220
0.0
230
1.0
 70
     9
 71
     3
 72
    52
 73
    48
 74
     0
 42
0.0000000001
 43
0.0000000001
 40
0.0
 40
0.0
 40
0.0
 40
0.0
 40
0.0769230769230769
 40
0.0769230769230769
 40
0.0769230769230769
 40
0.1153846153846154
 40
0.1538461538461539
 40
0.1538461538461539
 40
0.1538461538461539
 40
0.1923076923076923
 40
0.2307692307692308
 40
0.2307692307692308
 40
0.2307692307692308
 40
0.2692307692307692
 40
0.3076923076923077
 40
0.3076923076923077
 40
0.3076923076923077
 40
0.3461538461538462
 40
0.3846153846153846
 40
0.3846153846153846
 40
0.3846153846153846
 40
0.4230769230769232
 40
0.4615384615384616
 40
0.4615384615384616
 40
0.4615384615384616
 40
0.5
 40
0.5384615384615385
 40
0.5384615384615385
 40
0.5384615384615385
 40
0.5769230769230769
 40
0.6153846153846155
 40
0.6153846153846155
 40
0.6153846153846155
 40
0.6538461538461539
 40
0.6923076923076924
 40
0.6923076923076924
 40
0.6923076923076924
 40
0.7307692307692309
 40
0.7692307692307693
 40
0.7692307692307693
 40
0.7692307692307693
 40
0.8076923076923076
 40
0.8461538461538461
 40
0.8461538461538461
 40
0.8461538461538461
 40
0.9230769230769231
 40
1.0
 40
1.0
 40
1.0
 40
1.0
 10
19.58729546715408
 20
17.86391999999966
 30
0.0
 10
19.58729546715408
 20
17.90145999999966
 30
0.0
 10
19.59113546715408
 20
17.93168999999966
 30
0.0
 10
19.59889546715408
 20
17.95451999999966
 30
0.0
 10
19.59889546715408
 20
17.95451999999966
 30
0.0
 10
19.60658546715408
 20
17.97742999999966
 30
0.0
 10
19.61811546715408
 20
17.99508999999966
 30
0.0
 10
19.63333546715408
 20
18.00750999999966
 30
0.0
 10
19.63333546715408
 20
18.00750999999966
 30
0.0
 10
19.64855546715408
 20
18.01991999999966
 30
0.0
 10
19.66769546715408
 20
18.02612999999966
 30
0.0
 10
19.69075546715408
 20
18.02612999999966
 30
0.0
 10
19.69075546715408
 20
18.02612999999966
 30
0.0
 10
19.70782546715408
 20
18.02612999999966
 30
0.0
 10
19.72275546715408
 20
18.02265999999966
 30
0.0
 10
19.73561546715408
 20
18.01577999999966
 30
0.0
 10
19.73561546715408
 20
18.01577999999966
 30
0.0
 10
19.74847546715408
 20
18.00898999999966
 30
0.0
 10
19.75903546715408
 20
17.99907999999966
 30
0.0
 10
19.76746546715408
 20
17.98614999999966
 30
0.0
 10
19.76746546715408
 20
17.98614999999966
 30
0.0
 10
19.77581546715408
 20
17.97321999999966
 30
0.0
 10
19.78239546715408
 20
17.95747999999966
 30
0.0
 10
19.78712546715408
 20
17.93892999999966
 30
0.0
 10
19.78712546715408
 20
17.93892999999966
 30
0.0
 10
19.79192546715408
 20
17.92037999999966
 30
0.0
 10
19.79429546715408
 20
17.89539999999966
 30
0.0
 10
19.79429546715408
 20
17.86391999999966
 30
0.0
 10
19.79429546715408
 20
17.86391999999966
 30
0.0
 10
19.79429546715408
 20
17.82666999999966
 30
0.0
 10
19.79044546715408
 20
17.79666999999966
 30
0.0
 10
19.78283546715408
 20
17.77375999999966
 30
0.0
 10
19.78283546715408
 20
17.77375999999966
 30
0.0
 10
19.77514546715408
 20
17.75084999999966
 30
0.0
 10
19.76369546715408
 20
17.73318999999966
 30
0.0
 10
19.74847546715408
 20
17.72069999999966
 30
0.0
 10
19.74847546715408
 20
17.72069999999966
 30
0.0
 10
19.73324546715408
 20
17.70820999999966
 30
0.0
 10
19.71403546715408
 20
17.70200999999966
 30
0.0
 10
19.69075546715408
 20
17.70200999999966
 30
0.0
 10
19.69075546715408
 20
17.70200999999966
 30
0.0
 10
19.66016546715408
 20
17.70200999999966
 30
0.0
 10
19.63614546715408
 20
17.71293999999966
 30
0.0
 10
19.61870546715408
 20
17.73488999999966
 30
0.0
 10
19.61870546715408
 20
17.73488999999966
 30
0.0
 10
19.59778546715408
 20
17.76126999999966
 30
0.0
 10
19.58729546715408
 20
17.80435999999966
 30
0.0
 10
19.58729546715408
 20
17.86391999999966
 30
0.0
  0
SPLINE
  5
C2
330
1F
100
AcDbEntity
  8
layer 1
 62
   250
100
AcDbSpline
210
0.0
220
0.0
230
1.0
 70
    11
 71
     3
 72
    36
 73
    32
 74
     0
 42
0.0000000001
 43
0.0000000001
 40
0.0
 40
0.0
 40
0.0
 40
0.0
 40
0.1111111111111111
 40
0.1111111111111111
 40
0.1111111111111111
 40
0.1666666666666666
 40
0.2222222222222222
 40
0.2222222222222222
 40
0.2222222222222222
 40
0.2777777777777778
 40
0.3333333333333333
 40
0.3333333333333333
 40
0.3333333333333333
 40
0.3888888888888888
 40
0.4444444444444445
 40
0.4444444444444445
 40
0.4444444444444445
 40
0.5
 40
0.5555555555555556
 40
0.5555555555555556
 40
0.5555555555555556
 40
0.6111111111111112
 40
0.6666666666666666
 40
0.6666666666666666
 40
0.6666666666666666
 40
0.7222222222222223
 40
0.7777777777777778
 40
0.7777777777777778
 40
0.7777777777777778
 40
0.8888888888888889
 40
1.0
 40
1.0
 40
1.0
 40
1.0
 10
19.62734546715408
 20
17.86391999999966
 30
0.0
 10
19.62734546715408
 20
17.81181999999966
 30
0.0
 10
19.63348546715408
 20
17.77715999999966
 30
0.0
 10
19.64567546715408
 20
17.75986999999966
 30
0.0
 10
19.64567546715408
 20
17.75986999999966
 30
0.0
 10
19.65787546715408
 20
17.74264999999966
 30
0.0
 10
19.67287546715408
 20
17.73399999999966
 30
0.0
 10
19.69075546715408
 20
17.73399999999966
 30
0.0
 10
19.69075546715408
 20
17.73399999999966
 30
0.0
 10
19.70871546715408
 20
17.73399999999966
 30
0.0
 10
19.72371546715408
 20
17.74271999999966
 30
0.0
 10
19.73590546715408
 20
17.76001999999966
 30
0.0
 10
19.73590546715408
 20
17.76001999999966
 30
0.0
 10
19.74810546715408
 20
17.77730999999966
 30
0.0
 10
19.75423546715408
 20
17.81196999999966
 30
0.0
 10
19.75423546715408
 20
17.86391999999966
 30
0.0
 10
19.75423546715408
 20
17.86391999999966
 30
0.0
 10
19.75423546715408
 20
17.91616999999966
 30
0.0
 10
19.74810546715408
 20
17.95089999999966
 30
0.0
 10
19.73590546715408
 20
17.96804999999966
 30
0.0
 10
19.73590546715408
 20
17.96804999999966
 30
0.0
 10
19.72371546715408
 20
17.98525999999966
 30
0.0
 10
19.70856546715408
 20
17.99383999999966
 30
0.0
 10
19.69038546715408
 20
17.99383999999966
 30
0.0
 10
19.69038546715408
 20
17.99383999999966
 30
0.0
 10
19.67242546715408
 20
17.99383999999966
 30
0.0
 10
19.65816546715408
 20
17.98621999999966
 30
0.0
 10
19.64745546715408
 20
17.97107999999966
 30
0.0
 10
19.64745546715408
 20
17.97107999999966
 30
0.0
 10
19.63407546715408
 20
17.95178999999966
 30
0.0
 10
19.62734546715408
 20
17.91601999999966
 30
0.0
 10
19.62734546715408
 20
17.86391999999966
 30
0.0
  0
SPLINE
  5
C3
330
1F
100
AcDbEntity
  8
layer 1
 62
   250
100
AcDbSpline
210
0.0
220
0.0
230
1.0
 70
     9
 71
     3
 72
   124
 73
   120
 74
     0
 42
0.0000000001
 43
0.0000000001
 40
0.0
 40
0.0
 40
0.0
 40
0.0
 40
0.032258064516129
 40
0.032258064516129
 40
0.032258064516129
 40
0.0483870967741936
 40
0.0645161290322581
 40
0.0645161290322581
 40
0.0645161290322581
 40
0.0806451612903226
 40
0.0967741935483871
 40
0.0967741935483871
 40
0.0967741935483871
 40
0.1129032258064516
 40
0.1290322580645161
 40
0.1290322580645161
 40
0.1290322580645161
 40
0.1451612903225806
 40
0.1612903225806452
 40
0.1612903225806452
 40
0.1612903225806452
 40
0.1774193548387097
 40
0.1935483870967742
 40
0.1935483870967742
 40
0.1935483870967742
 40
0.2096774193548387
 40
0.2258064516129032
 40
0.2258064516129032
 40
0.2258064516129032
 40
0.2419354838709677
 40
0.2580645161290323
 40
0.2580645161290323
 40
0.2580645161290323
 40
0.2741935483870968
 40
0.2903225806451613
 40
0.2903225806451613
 40
0.2903225806451613
 40
0.3064516129032258
 40
0.3225806451612903
 40
0.3225806451612903
 40
0.3225806451612903
 40
0.3387096774193549
 40
0.3548387096774194
 40
0.3548387096774194
 40
0.3548387096774194
 40
0.3709677419354839
 40
0.3870967741935484
 40
0.3870967741935484
 40
0.3870967741935484
 40
0.4032258064516129
 40
0.4193548387096774
 40
0.4193548387096774
 40
0.4193548387096774
 40
0.4354838709677419
 40
0.4516129032258064
 40
0.4516129032258064
 40
0.4516129032258064
 40
0.4677419354838709
 40
0.4838709677419355
 40
0.4838709677419355
 40
0.4838709677419355
 40
0.5
 40
0.5161290322580645
 40
0.5161290322580645
 40
0.5161290322580645
 40
0.532258064516129
 40
0.5483870967741935
 40
0.5483870967741935
 40
0.5483870967741935
 40
0.564516129032258
 40
0.5806451612903226
 40
0.5806451612903226
 40
0.5806451612903226
 40
0.5967741935483871
 40
0.6129032258064516
 40
0.6129032258064516
 40
0.6129032258064516
 40
0.6290322580645161
 40
0.6451612903225806
 40
0.6451612903225806
 40
0.6451612903225806
 40
0.6612903225806451
 40
0.6774193548387096
 40
0.6774193548387096
 40
0.6774193548387096
 40
0.6935483870967742
 40
0.7096774193548388
 40
0.7096774193548388
 40
0.7096774193548388
 40
0.7258064516129032
 40
0.7419354838709678
 40
0.7419354838709678
 40
0.7419354838709678
 40
0.7580645161290322
 40
0.7741935483870968
 40
0.7741935483870968
 40
0.7741935483870968
 40
0.7903225806451612
 40
0.8064516129032258
 40
0.8064516129032258
 40
0.8064516129032258
 40
0.8225806451612902
 40
0.8387096774193548
 40
0.8387096774193548
 40
0.8387096774193548
 40
0.8548387096774193
 40
0.8709677419354838
 40
0.8709677419354838
 40
0.8709677419354838
 40
0.8870967741935482
 40
0.9032258064516128
 40
0.9032258064516128
 40
0.9032258064516128
 40
0.9193548387096774
 40
0.9354838709677419
 40
0.9354838709677419
 40
0.9354838709677419
 40
0.9677419354838709
 40
1.0
 40
1.0
 40
1.0
 40
1.0
 10
19.03643389635461
 20
17.79347244420474
 30
0.0
 10
19.03643389635461
 20
17.79347244420474
 30
0.0
 10
19.07588314450823
 20
17.79871234671581
 30
0.0
 10
19.07588314450823
 20
17.79871234671581
 30
0.0
 10
19.07588314450823
 20
17.79871234671581
 30
0.0
 10
19.08044814007691
 20
17.77633261998022
 30
0.0
 10
19.088158014523
 20
17.76023796414566
 30
0.0
 10
19.09900808099272
 20
17.75035807640562
 30
0.0
 10
19.09900808099272
 20
17.75035807640562
 30
0.0
 10
19.10993782397647
 20
17.7404781886656
 30
0.0
 10
19.1231875595747
 20
17.73553824479558
 30
0.0
 10
19.1388275905939
 20
17.73553824479558
 30
0.0
 10
19.1388275905939
 20
17.73553824479558
 30
0.0
 10
19.15739221836347
 20
17.73553824479558
 30
0.0
 10
19.17311192589671
 20
17.74197798187092
 30
0.0
 10
19.18591172353334
 20
17.75484808231405
 30
0.0
 10
19.18591172353334
 20
17.75484808231405
 30
0.0
 10
19.19863184465594
 20
17.76772286961094
 30
0.0
 10
19.20507158173127
 20
17.78366754612498
 30
0.0
 10
19.20507158173127
 20
17.80267742500238
 30
0.0
 10
19.20507158173127
 20
17.80267742500238
 30
0.0
 10
19.20507158173127
 20
17.82079211481035
 30
0.0
 10
19.1991567722778
 20
17.83576192574093
 30
0.0
 10
19.18733184022462
 20
17.84751186813384
 30
0.0
 10
19.18733184022462
 20
17.84751186813384
 30
0.0
 10
19.17543191851118
 20
17.85926649738051
 30
0.0
 10
19.16038711792034
 20
17.86517661998022
 30
0.0
 10
19.14212244879183
 20
17.86517661998022
 30
0.0
 10
19.14212244879183
 20
17.86517661998022
 30
0.0
 10
19.13463754332655
 20
17.86517661998022
 30
0.0
 10
19.12535757286864
 20
17.86368151362867
 30
0.0
 10
19.11427785056436
 20
17.86076160373206
 30
0.0
 10
19.11427785056436
 20
17.86076160373206
 30
0.0
 10
19.11427785056436
 20
17.86076160373206
 30
0.0
 10
19.11869286681251
 20
17.89541620048243
 30
0.0
 10
19.11869286681251
 20
17.89541620048243
 30
0.0
 10
19.11869286681251
 20
17.89541620048243
 30
0.0
 10
19.12131281806805
 20
17.89511624184137
 30
0.0
 10
19.1234125285555
 20
17.89496626252084
 30
0.0
 10
19.12505761422758
 20
17.89496626252084
 30
0.0
 10
19.12505761422758
 20
17.89496626252084
 30
0.0
 10
19.14182249015077
 20
17.89496626252084
 30
0.0
 10
19.15694228040188
 20
17.89938596562276
 30
0.0
 10
19.1704169849809
 20
17.9081410084588
 30
0.0
 10
19.1704169849809
 20
17.9081410084588
 30
0.0
 10
19.18388700270616
 20
17.91690073814861
 30
0.0
 10
19.19062669842256
 20
17.93044574553413
 30
0.0
 10
19.19062669842256
 20
17.94871041466264
 30
0.0
 10
19.19062669842256
 20
17.94871041466264
 30
0.0
 10
19.19062669842256
 20
17.96315529797136
 30
0.0
 10
19.18568675455254
 20
17.97520519900533
 30
0.0
 10
19.17588185647278
 20
17.98463514878377
 30
0.0
 10
19.17588185647278
 20
17.98463514878377
 30
0.0
 10
19.16607227153925
 20
17.99414477507623
 30
0.0
 10
19.15342714007692
 20
17.99893473962572
 30
0.0
 10
19.13793240152448
 20
17.99893473962572
 30
0.0
 10
19.13793240152448
 20
17.99893473962572
 30
0.0
 10
19.12258764229257
 20
17.99893473962572
 30
0.0
 10
19.10978784465594
 20
17.99406978541596
 30
0.0
 10
19.09960799827485
 20
17.98448516946323
 30
0.0
 10
19.09960799827485
 20
17.98448516946323
 30
0.0
 10
19.08935316223349
 20
17.974830250704
 30
0.0
 10
19.08276813269139
 20
17.96031037773502
 30
0.0
 10
19.07984822279479
 20
17.94100054021656
 30
0.0
 10
19.07984822279479
 20
17.94100054021656
 30
0.0
 10
19.07984822279479
 20
17.94100054021656
 30
0.0
 10
19.04040366149493
 20
17.94803550772025
 30
0.0
 10
19.04040366149493
 20
17.94803550772025
 30
0.0
 10
19.04040366149493
 20
17.94803550772025
 30
0.0
 10
19.04519362604442
 20
17.97453029206294
 30
0.0
 10
19.05619835868844
 20
17.99503996414566
 30
0.0
 10
19.07326319325269
 20
18.00955983711464
 30
0.0
 10
19.07326319325269
 20
18.00955983711464
 30
0.0
 10
19.09040301747721
 20
18.02408439693738
 30
0.0
 10
19.11165789930882
 20
18.03141932308214
 30
0.0
 10
19.13710751526155
 20
18.03141932308214
 30
0.0
 10
19.13710751526155
 20
18.03141932308214
 30
0.0
 10
19.1546222877874
 20
18.03141932308214
 30
0.0
 10
19.17079193328223
 20
18.02759953726235
 30
0.0
 10
19.18553677523201
 20
18.02011463179706
 30
0.0
 10
19.18553677523201
 20
18.02011463179706
 30
0.0
 10
19.20028161718179
 20
18.0125547366715
 30
0.0
 10
19.2115816216131
 20
18.00229990063015
 30
0.0
 10
19.21944147537972
 20
17.98927982086648
 30
0.0
 10
19.21944147537972
 20
17.98927982086648
 30
0.0
 10
19.22722633948607
 20
17.97625505424905
 30
0.0
 10
19.23119141777263
 20
17.96248039102896
 30
0.0
 10
19.23119141777263
 20
17.94781053873945
 30
0.0
 10
19.23119141777263
 20
17.94781053873945
 30
0.0
 10
19.23119141777263
 20
17.93396557271286
 30
0.0
 10
19.22745130846687
 20
17.92131575439676
 30
0.0
 10
19.21996640300158
 20
17.90986108379115
 30
0.0
 10
19.21996640300158
 20
17.90986108379115
 30
0.0
 10
19.21248149753629
 20
17.89848608969957
 30
0.0
 10
19.20147676489228
 20
17.88943108822246
 30
0.0
 10
19.18688190226303
 20
17.88269139250607
 30
0.0
 10
19.18688190226303
 20
17.88269139250607
 30
0.0
 10
19.2058964679942
 20
17.87835136591818
 30
0.0
 10
19.22064130994397
 20
17.86922137478081
 30
0.0
 10
19.23119141777263
 20
17.85537172190046
 30
0.0
 10
19.23119141777263
 20
17.85537172190046
 30
0.0
 10
19.24167122279479
 20
17.84160174553413
 30
0.0
 10
19.24691112530586
 20
17.82431194198908
 30
0.0
 10
19.24691112530586
 20
17.80357730092557
 30
0.0
 10
19.24691112530586
 20
17.80357730092557
 30
0.0
 10
19.24691112530586
 20
17.7755077337173
 30
0.0
 10
19.23673127892477
 20
17.75170789029041
 30
0.0
 10
19.21622160684206
 20
17.73217308379115
 30
0.0
 10
19.21622160684206
 20
17.73217308379115
 30
0.0
 10
19.19579161127337
 20
17.71263359043812
 30
0.0
 10
19.16989205735904
 20
17.70290368201862
 30
0.0
 10
19.1386026216131
 20
17.70290368201862
 30
0.0
 10
19.1386026216131
 20
17.70290368201862
 30
0.0
 10
19.11038776193807
 20
17.70290368201862
 30
0.0
 10
19.08695817995874
 20
17.7112884634071
 30
0.0
 10
19.06832324938267
 20
17.72812832899056
 30
0.0
 10
19.06832324938267
 20
17.72812832899056
 30
0.0
 10
19.04968363195284
 20
17.74489320491375
 30
0.0
 10
19.03905384761015
 20
17.76667770122099
 30
0.0
 10
19.03643389635461
 20
17.79347244420474
 30
0.0
  0
SPLINE
  5
C4
330
1F
100
AcDbEntity
  8
layer 1
 62
   250
100
AcDbSpline
210
0.0
220
0.0
230
1.0
 70
    11
 71
     3
 72
    48
 73
    44
 74
     0
 42
0.0000000001
 43
0.0000000001
 40
0.0
 40
0.0
 40
0.0
 40
0.0
 40
0.0833333333333333
 40
0.0833333333333333
 40
0.0833333333333333
 40
0.125
 40
0.1666666666666667
 40
0.1666666666666667
 40
0.1666666666666667
 40
0.2083333333333334
 40
0.25
 40
0.25
 40
0.25
 40
0.2916666666666666
 40
0.3333333333333333
 40
0.3333333333333333
 40
0.3333333333333333
 40
0.375
 40
0.4166666666666667
 40
0.4166666666666667
 40
0.4166666666666667
 40
0.4583333333333334
 40
0.5
 40
0.5
 40
0.5
 40
0.5416666666666668
 40
0.5833333333333334
 40
0.5833333333333334
 40
0.5833333333333334
 40
0.625
 40
0.6666666666666666
 40
0.6666666666666666
 40
0.6666666666666666
 40
0.7083333333333333
 40
0.75
 40
0.75
 40
0.75
 40
0.7916666666666668
 40
0.8333333333333333
 40
0.8333333333333333
 40
0.8333333333333333
 40
0.9166666666666667
 40
1.0
 40
1.0
 40
1.0
 40
1.0
 10
19.3135534990134
 20
17.9879300069817
 30
0.0
 10
19.3135534990134
 20
17.9879300069817
 30
0.0
 10
19.3135534990134
 20
18.02587946193
 30
0.0
 10
19.3135534990134
 20
18.02587946193
 30
0.0
 10
19.3135534990134
 20
18.02587946193
 30
0.0
 10
19.3135534990134
 20
18.02587946193
 30
0.0
 10
19.52163574568992
 20
18.02587946193
 30
0.0
 10
19.52163574568992
 20
18.02587946193
 30
0.0
 10
19.52163574568992
 20
18.02587946193
 30
0.0
 10
19.52163574568992
 20
18.02587946193
 30
0.0
 10
19.52163574568992
 20
17.99518994346619
 30
0.0
 10
19.52163574568992
 20
17.99518994346619
 30
0.0
 10
19.52163574568992
 20
17.99518994346619
 30
0.0
 10
19.50120106326746
 20
17.97341013401271
 30
0.0
 10
19.48091636016554
 20
17.94444069088125
 30
0.0
 10
19.46078163638415
 20
17.9083659774396
 30
0.0
 10
19.46078163638415
 20
17.9083659774396
 30
0.0
 10
19.44072658911679
 20
17.87228657714418
 30
0.0
 10
19.42515686090409
 20
17.83508701879854
 30
0.0
 10
19.41422711792034
 20
17.79699227138347
 30
0.0
 10
19.41422711792034
 20
17.79699227138347
 30
0.0
 10
19.40629227449346
 20
17.77004286222542
 30
0.0
 10
19.40127734096318
 20
17.74062816798613
 30
0.0
 10
19.39910732766923
 20
17.7085935224913
 30
0.0
 10
19.39910732766923
 20
17.7085935224913
 30
0.0
 10
19.39910732766923
 20
17.7085935224913
 30
0.0
 10
19.35853792146539
 20
17.7085935224913
 30
0.0
 10
19.35853792146539
 20
17.7085935224913
 30
0.0
 10
19.35853792146539
 20
17.7085935224913
 30
0.0
 10
19.35898785942699
 20
17.7338931591235
 30
0.0
 10
19.363927803297
 20
17.76443269826678
 30
0.0
 10
19.3734327427357
 20
17.80028244272763
 30
0.0
 10
19.3734327427357
 20
17.80028244272763
 30
0.0
 10
19.38294236902817
 20
17.83606188438199
 30
0.0
 10
19.39656236607396
 20
17.87064149147209
 30
0.0
 10
19.41430210758061
 20
17.90387597153118
 30
0.0
 10
19.41430210758061
 20
17.90387597153118
 30
0.0
 10
19.43211683874752
 20
17.9371057647365
 30
0.0
 10
19.45097673830439
 20
17.96517533194477
 30
0.0
 10
19.47103647242551
 20
17.9879300069817
 30
0.0
 10
19.47103647242551
 20
17.9879300069817
 30
0.0
 10
19.47103647242551
 20
17.9879300069817
 30
0.0
 10
19.3135534990134
 20
17.9879300069817
 30
0.0
 10
19.3135534990134
 20
17.9879300069817
 30
0.0
  0
SPLINE
  5
CA
330
1F
100
AcDbEntity
  8
layer 1
 62
   250
100
AcDbSpline
210
0.0
220
0.0
230
1.0
 70
    11
 71
     3
 72
    48
 73
    44
 74
     0
 42
0.0000000001
 43
0.0000000001
 40
0.0
 40
0.0
 40
0.0
 40
0.0
 40
0.0833333333333333
 40
0.0833333333333333
 40
0.0833333333333333
 40
0.125
 40
0.1666666666666667
 40
0.1666666666666667
 40
0.1666666666666667
 40
0.2083333333333334
 40
0.25
 40
0.25
 40
0.25
 40
0.2916666666666666
 40
0.3333333333333333
 40
0.3333333333333333
 40
0.3333333333333333
 40
0.375
 40
0.4166666666666667
 40
0.4166666666666667
 40
0.4166666666666667
 40
0.4583333333333334
 40
0.5
 40
0.5
 40
0.5
 40
0.5416666666666668
 40
0.5833333333333334
 40
0.5833333333333334
 40
0.5833333333333334
 40
0.625
 40
0.6666666666666666
 40
0.6666666666666666
 40
0.6666666666666666
 40
0.7083333333333333
 40
0.75
 40
0.75
 40
0.75
 40
0.7916666666666668
 40
0.8333333333333333
 40
0.8333333333333333
 40
0.8333333333333333
 40
0.9166666666666667
 40
1.0
 40
1.0
 40
1.0
 40
1.0
 10
19.88275213282437
 20
17.9879300069817
 30
0.0
 10
19.88275213282437
 20
17.9879300069817
 30
0.0
 10
19.88275213282437
 20
18.02587946193
 30
0.0
 10
19.88275213282437
 20
18.02587946193
 30
0.0
 10
19.88275213282437
 20
18.02587946193
 30
0.0
 10
19.88275213282437
 20
18.02587946193
 30
0.0
 10
20.09083437950089
 20
18.02587946193
 30
0.0
 10
20.09083437950089
 20
18.02587946193
 30
0.0
 10
20.09083437950089
 20
18.02587946193
 30
0.0
 10
20.09083437950089
 20
18.02587946193
 30
0.0
 10
20.09083437950089
 20
17.99518994346619
 30
0.0
 10
20.09083437950089
 20
17.99518994346619
 30
0.0
 10
20.09083437950089
 20
17.99518994346619
 30
0.0
 10
20.07039969707843
 20
17.97341013401271
 30
0.0
 10
20.05011499397651
 20
17.94444069088125
 30
0.0
 10
20.02998027019512
 20
17.9083659774396
 30
0.0
 10
20.02998027019512
 20
17.9083659774396
 30
0.0
 10
20.00992522292777
 20
17.87228657714418
 30
0.0
 10
19.99435549471506
 20
17.83508701879854
 30
0.0
 10
19.98342575173131
 20
17.79699227138347
 30
0.0
 10
19.98342575173131
 20
17.79699227138347
 30
0.0
 10
19.97549090830443
 20
17.77004286222542
 30
0.0
 10
19.97047597477415
 20
17.74062816798613
 30
0.0
 10
19.9683059614802
 20
17.7085935224913
 30
0.0
 10
19.9683059614802
 20
17.7085935224913
 30
0.0
 10
19.9683059614802
 20
17.7085935224913
 30
0.0
 10
19.92773655527636
 20
17.7085935224913
 30
0.0
 10
19.92773655527636
 20
17.7085935224913
 30
0.0
 10
19.92773655527636
 20
17.7085935224913
 30
0.0
 10
19.92818649323796
 20
17.7338931591235
 30
0.0
 10
19.93312643710797
 20
17.76443269826678
 30
0.0
 10
19.94263137654667
 20
17.80028244272763
 30
0.0
 10
19.94263137654667
 20
17.80028244272763
 30
0.0
 10
19.95214100283914
 20
17.83606188438199
 30
0.0
 10
19.96576099988493
 20
17.87064149147209
 30
0.0
 10
19.98350074139158
 20
17.90387597153118
 30
0.0
 10
19.98350074139158
 20
17.90387597153118
 30
0.0
 10
20.00131547255849
 20
17.9371057647365
 30
0.0
 10
20.02017537211536
 20
17.96517533194477
 30
0.0
 10
20.04023510623648
 20
17.9879300069817
 30
0.0
 10
20.04023510623648
 20
17.9879300069817
 30
0.0
 10
20.04023510623648
 20
17.9879300069817
 30
0.0
 10
19.88275213282437
 20
17.9879300069817
 30
0.0
 10
19.88275213282437
 20
17.9879300069817
 30
0.0
  0
ENDSEC
  0
SECTION
  2
OBJECTS
  0
DICTIONARY
  5
C
330
0
100
AcDbDictionary
281
     1
  3
ACAD_2007HEADERVARS_RT
350
E9
  3
ACAD_CIP_PREVIOUS_PRODUCT_INFO
350
AC
  3
ACAD_COLOR
350
95
  3
ACAD_GROUP
350
D
  3
ACAD_IMAGE_DICT
350
42
  3
ACAD_IMAGE_VARS
350
AD
  3
ACAD_LAYOUT
350
1A
  3
ACAD_MATERIAL
350
3B
  3
ACAD_MLEADERSTYLE
350
88
  3
ACAD_MLINESTYLE
350
17
  3
ACAD_PLOTSETTINGS
350
19
  3
ACAD_PLOTSTYLENAME
350
E
  3
ACAD_SCALELIST
350
97
  3
ACAD_TABLESTYLE
350
87
  3
ACAD_VISUALSTYLE
350
2A
  3
ACDB_RECOMPOSE_DATA
350
E7
  3
AcDbVariableDictionary
350
D3
  3
AEC_PROPERTY_SET_DEFS
350
BC
  3
DWGPROPS
350
E8
  0
DICTIONARY
  5
E9
102
{ACAD_REACTORS
330
C
102
}
330
C
100
AcDbDictionary
281
     1
  3
INTERFERECOLOR
350
EA
  0
XRECORD
  5
AC
102
{ACAD_REACTORS
330
C
102
}
330
C
100
AcDbXrecord
280
     1
300
STRDET
300
2012
300
REVSU_F_S
  0
DICTIONARY
  5
95
102
{ACAD_REACTORS
330
C
102
}
330
C
100
AcDbDictionary
281
     1
  0
DICTIONARY
  5
D
102
{ACAD_REACTORS
330
C
102
}
330
C
100
AcDbDictionary
281
     1
  0
DICTIONARY
  5
42
102
{ACAD_REACTORS
330
C
102
}
330
C
100
AcDbDictionary
281
     1
  3
Image #1
350
43
  0
RASTERVARIABLES
  5
AD
102
{ACAD_REACTORS
330
C
102
}
330
C
100
AcDbRasterVariables
 90
        0
 70
     1
 71
     1
 72
     2
  0
DICTIONARY
  5
1A
102
{ACAD_REACTORS
330
C
102
}
330
C
100
AcDbDictionary
281
     1
  3
Layout1
350
1E
  3
Layout2
350
26
  3
Model
350
22
  0
DICTIONARY
  5
3B
102
{ACAD_REACTORS
330
C
102
}
330
C
100
AcDbDictionary
281
     1
  3
ByBlock
350
3D
  3
ByLayer
350
3C
  3
Global
350
3E
  0
DICTIONARY
  5
88
102
{ACAD_REACTORS
330
C
102
}
330
C
100
AcDbDictionary
281
     1
  3
Standard
350
A9
  0
DICTIONARY
  5
17
102
{ACAD_REACTORS
330
C
102
}
330
C
100
AcDbDictionary
281
     1
  3
Standard
350
18
  0
DICTIONARY
  5
19
102
{ACAD_REACTORS
330
C
102
}
330
C
100
AcDbDictionary
281
     1
  0
ACDBDICTIONARYWDFLT
  5
E
102
{ACAD_REACTORS
330
C
102
}
330
C
100
AcDbDictionary
281
     1
  3
Normal
350
F
100
AcDbDictionaryWithDefault
340
F
  0
DICTIONARY
  5
97
102
{ACAD_REACTORS
330
C
102
}
330
C
100
AcDbDictionary
281
     1
  3
A0
350
98
  3
A1
350
99
  3
A2
350
9A
  3
A3
350
9B
  3
A4
350
9C
  3
A5
350
9D
  3
A6
350
9E
  3
A7
350
9F
  3
A8
350
A0
  3
A9
350
A1
  3
B0
350
A2
  3
B1
350
A3
  3
B2
350
A4
  3
B3
350
A5
  3
B4
350
A6
  3
B5
350
A7
  3
B6
350
A8
  0
DICTIONARY
  5
87
102
{ACAD_REACTORS
330
C
102
}
330
C
100
AcDbDictionary
281
     1
  3
Standard
350
96
  0
DICTIONARY
  5
2A
102
{ACAD_REACTORS
330
C
102
}
330
C
100
AcDbDictionary
281
     1
  3
2dWireframe
350
2F
  3
3D Hidden
350
31
  3
3dWireframe
350
30
  3
Basic
350
32
  3
Brighten
350
36
  3
ColorChange
350
3A
  3
Conceptual
350
34
  3
Dim
350
35
  3
EdgeColorOff
350
94
  3
Facepattern
350
39
  3
Flat
350
2B
  3
FlatWithEdges
350
2C
  3
Gouraud
350
2D
  3
GouraudWithEdges
350
2E
  3
Hidden
350
8C
  3
JitterOff
350
92
  3
Linepattern
350
38
  3
OverhangOff
350
93
  3
Realistic
350
33
  3
Shaded
350
91
  3
Shaded with edges
350
90
  3
Shades of Gray
350
8D
  3
Sketchy
350
8E
  3
Thicken
350
37
  3
Wireframe
350
8B
  3
X-Ray
350
8F
  0
XRECORD
  5
E7
102
{ACAD_REACTORS
330
C
102
}
330
C
100
AcDbXrecord
280
     1
 90
        1
330
96
  0
DICTIONARY
  5
D3
102
{ACAD_REACTORS
330
C
102
}
330
C
100
AcDbDictionary
281
     1
  3
CANNOSCALE
350
D7
  3
CMLEADERSTYLE
350
D5
  3
CTABLESTYLE
350
D4
  3
DGNFRAME
350
E1
  3
DIMASSOC
350
DF
  3
HIDETEXT
350
DD
  3
INDEXCTL
350
DC
  3
LAYEREVAL
350
D9
  3
LAYERNOTIFY
350
DA
  3
LIGHTINGUNITS
350
D8
  3
LOFTANG1
350
E2
  3
LOFTANG2
350
E3
  3
LONGITUDE
350
E4
  3
MSLTSCALE
350
D6
  3
SOLIDHIST
350
E0
  3
SORTENTS
350
DB
  3
XCLIPFRAME
350
DE
  0
DICTIONARY
  5
BC
102
{ACAD_REACTORS
330
C
102
}
330
C
100
AcDbDictionary
281
     1
  0
XRECORD
  5
E8
102
{ACAD_REACTORS
330
C
102
}
330
C
100
AcDbXrecord
280
     1
  1
DWGPROPS COOKIE
  2

  3

  4

  6

  7

  8
mlis
  9

300
=
301
=
302
=
303
=
304
=
305
=
306
=
307
=
308
=
309
=
 40
0.0120688310185185
 41
2457474.222736181
 42
2457523.410422836
  1

 90
        0
  0
XRECORD
  5
EA
102
{ACAD_REACTORS
330
E9
102
}
330
E9
100
AcDbXrecord
280
     1
1004
1800000001000000000000C0000000000000000000000000
  0
IMAGEDEF
  5
43
102
{ACAD_REACTORS
330
42
330
45
102
}
330
42
100
AcDbRasterImageDef
 90
        0
  1
C:\Documents and Settings\Administrator\\U+684C\U+9762\\U+5F00\U+5B54\U+7EB8\\U+5F00\U+5B54\U+7EB82206_1_ACD_0.jpg
 10
856.0
 20
813.0
 11
0.0011682242990654
 21
0.0011682242990654
280
     1
281
     5
  0
LAYOUT
  5
1E
102
{ACAD_XDICTIONARY
360
EB
102
}
102
{ACAD_REACTORS
330
1A
102
}
330
1A
100
AcDbPlotSettings
  1

  2
none_device
  4

  6

 40
0.0
 41
0.0
 42
0.0
 43
0.0
 44
0.0
 45
0.0
 46
0.0
 47
0.0
 48
0.0
 49
0.0
140
0.0
141
0.0
142
1.0
143
1.0
 70
   688
 72
     0
 73
     0
 74
     5
  7

 75
    16
147
1.0
148
0.0
149
0.0
100
AcDbLayout
  1
Layout1
 70
     1
 71
     1
 10
0.0
 20
0.0
 11
12.0
 21
9.0
 12
0.0
 22
0.0
 32
0.0
 14
1.000000000000000E+20
 24
1.000000000000000E+20
 34
1.000000000000000E+20
 15
-1.000000000000000E+20
 25
-1.000000000000000E+20
 35
-1.000000000000000E+20
146
0.0
 13
0.0
 23
0.0
 33
0.0
 16
1.0
 26
0.0
 36
0.0
 17
0.0
 27
1.0
 37
0.0
 76
     0
330
1B
  0
LAYOUT
  5
26
102
{ACAD_XDICTIONARY
360
EF
102
}
102
{ACAD_REACTORS
330
1A
102
}
330
1A
100
AcDbPlotSettings
  1

  2
none_device
  4

  6

 40
0.0
 41
0.0
 42
0.0
 43
0.0
 44
0.0
 45
0.0
 46
0.0
 47
0.0
 48
0.0
 49
0.0
140
0.0
141
0.0
142
1.0
143
1.0
 70
   688
 72
     0
 73
     0
 74
     5
  7

 75
    16
147
1.0
148
0.0
149
0.0
100
AcDbLayout
  1
Layout2
 70
     1
 71
     2
 10
0.0
 20
0.0
 11
0.0
 21
0.0
 12
0.0
 22
0.0
 32
0.0
 14
0.0
 24
0.0
 34
0.0
 15
0.0
 25
0.0
 35
0.0
146
0.0
 13
0.0
 23
0.0
 33
0.0
 16
1.0
 26
0.0
 36
0.0
 17
0.0
 27
1.0
 37
0.0
 76
     0
330
23
  0
LAYOUT
  5
22
102
{ACAD_XDICTIONARY
360
ED
102
}
102
{ACAD_REACTORS
330
1A
102
}
330
1A
100
AcDbPlotSettings
  1

  2
none_device
  4

  6

 40
0.0
 41
0.0
 42
0.0
 43
0.0
 44
0.0
 45
0.0
 46
0.0
 47
0.0
 48
0.0
 49
0.0
140
0.0
141
0.0
142
1.0
143
1.0
 70
  1712
 72
     0
 73
     0
 74
     0
  7

 75
     0
147
1.0
148
0.0
149
0.0
100
AcDbLayout
  1
Model
 70
     1
 71
     0
 10
0.0
 20
0.0
 11
12.0
 21
9.0
 12
0.0
 22
0.0
 32
0.0
 14
-21.21211
 24
-17.92403
 34
0.0
 15
21.80254
 25
16.60136
 35
0.0
146
0.0
 13
0.0
 23
0.0
 33
0.0
 16
1.0
 26
0.0
 36
0.0
 17
0.0
 27
1.0
 37
0.0
 76
     0
330
1F
331
29
  0
MATERIAL
  5
3D
102
{ACAD_XDICTIONARY
360
113
102
}
102
{ACAD_REACTORS
330
3B
102
}
330
3B
100
AcDbMaterial
  1
ByBlock
  0
MATERIAL
  5
3C
102
{ACAD_XDICTIONARY
360
111
102
}
102
{ACAD_REACTORS
330
3B
102
}
330
3B
100
AcDbMaterial
  1
ByLayer
  0
MATERIAL
  5
3E
102
{ACAD_XDICTIONARY
360
115
102
}
102
{ACAD_REACTORS
330
3B
102
}
330
3B
100
AcDbMaterial
  1
Global
  0
MLEADERSTYLE
  5
A9
102
{ACAD_REACTORS
330
88
102
}
330
88
100
AcDbMLeaderStyle
170
     2
171
     1
172
     0
 90
        2
 40
0.0
 41
0.0
173
     1
 91
-1056964608
340
14
 92
       -2
290
     1
 42
0.09
291
     1
 43
0.36
  3
Standard
 44
0.18
300

342
11
174
     1
178
     6
175
     1
176
     0
 93
-1056964608
 45
0.18
292
     0
297
     0
 46
0.18
 94
-1056964608
 47
1.0
 49
1.0
140
1.0
293
     1
141
0.0
294
     1
177
     0
142
1.0
295
     0
296
     0
143
0.125
1001
ACAD_MLEADERVER
1070
     2
  0
MLINESTYLE
  5
18
102
{ACAD_REACTORS
330
17
102
}
330
17
100
AcDbMlineStyle
  2
STANDARD
 70
     0
  3

 62
   256
 51
90.0
 52
90.0
 71
     2
 49
0.5
 62
   256
  6
BYLAYER
 49
-0.5
 62
   256
  6
BYLAYER
  0
ACDBPLACEHOLDER
  5
F
102
{ACAD_REACTORS
330
E
102
}
330
E
  0
SCALE
  5
98
102
{ACAD_REACTORS
330
97
102
}
330
97
100
AcDbScale
 70
     0
300
1:1
140
1.0
141
1.0
290
     1
  0
SCALE
  5
99
102
{ACAD_REACTORS
330
97
102
}
330
97
100
AcDbScale
 70
     0
300
1/128" = 1'-0"
140
0.0078125
141
12.0
290
     0
  0
SCALE
  5
9A
102
{ACAD_REACTORS
330
97
102
}
330
97
100
AcDbScale
 70
     0
300
1/64" = 1'-0"
140
0.015625
141
12.0
290
     0
  0
SCALE
  5
9B
102
{ACAD_REACTORS
330
97
102
}
330
97
100
AcDbScale
 70
     0
300
1/32" = 1'-0"
140
0.03125
141
12.0
290
     0
  0
SCALE
  5
9C
102
{ACAD_REACTORS
330
97
102
}
330
97
100
AcDbScale
 70
     0
300
1/16" = 1'-0"
140
0.0625
141
12.0
290
     0
  0
SCALE
  5
9D
102
{ACAD_REACTORS
330
97
102
}
330
97
100
AcDbScale
 70
     0
300
3/32" = 1'-0"
140
0.09375
141
12.0
290
     0
  0
SCALE
  5
9E
102
{ACAD_REACTORS
330
97
102
}
330
97
100
AcDbScale
 70
     0
300
1/8" = 1'-0"
140
0.125
141
12.0
290
     0
  0
SCALE
  5
9F
102
{ACAD_REACTORS
330
97
102
}
330
97
100
AcDbScale
 70
     0
300
3/16" = 1'-0"
140
0.1875
141
12.0
290
     0
  0
SCALE
  5
A0
102
{ACAD_REACTORS
330
97
102
}
330
97
100
AcDbScale
 70
     0
300
1/4" = 1'-0"
140
0.25
141
12.0
290
     0
  0
SCALE
  5
A1
102
{ACAD_REACTORS
330
97
102
}
330
97
100
AcDbScale
 70
     0
300
3/8" = 1'-0"
140
0.375
141
12.0
290
     0
  0
SCALE
  5
A2
102
{ACAD_REACTORS
330
97
102
}
330
97
100
AcDbScale
 70
     0
300
1/2" = 1'-0"
140
0.5
141
12.0
290
     0
  0
SCALE
  5
A3
102
{ACAD_REACTORS
330
97
102
}
330
97
100
AcDbScale
 70
     0
300
3/4" = 1'-0"
140
0.75
141
12.0
290
     0
  0
SCALE
  5
A4
102
{ACAD_REACTORS
330
97
102
}
330
97
100
AcDbScale
 70
     0
300
1" = 1'-0"
140
1.0
141
12.0
290
     0
  0
SCALE
  5
A5
102
{ACAD_REACTORS
330
97
102
}
330
97
100
AcDbScale
 70
     0
300
1-1/2" = 1'-0"
140
1.5
141
12.0
290
     0
  0
SCALE
  5
A6
102
{ACAD_REACTORS
330
97
102
}
330
97
100
AcDbScale
 70
     0
300
3" = 1'-0"
140
3.0
141
12.0
290
     0
  0
SCALE
  5
A7
102
{ACAD_REACTORS
330
97
102
}
330
97
100
AcDbScale
 70
     0
300
6" = 1'-0"
140
6.0
141
12.0
290
     0
  0
SCALE
  5
A8
102
{ACAD_REACTORS
330
97
102
}
330
97
100
AcDbScale
 70
     0
300
1'-0" = 1'-0"
140
12.0
141
12.0
290
     0
  0
TABLESTYLE
  5
96
102
{ACAD_XDICTIONARY
360
E5
102
}
102
{ACAD_REACTORS
330
87
102
}
330
87
100
AcDbTableStyle
  3
Standard
 70
     0
 71
     0
 40
0.06
 41
0.06
280
     0
281
     0
  7
Standard
140
0.18
170
     2
 62
     0
 63
     7
283
     0
274
    -2
284
     1
 64
     0
275
    -2
285
     1
 65
     0
276
    -2
286
     1
 66
     0
277
    -2
287
     1
 67
     0
278
    -2
288
     1
 68
     0
279
    -2
289
     1
 69
     0
  7
Standard
140
0.25
170
     5
 62
     0
 63
     7
283
     0
274
    -2
284
     1
 64
     0
275
    -2
285
     1
 65
     0
276
    -2
286
     1
 66
     0
277
    -2
287
     1
 67
     0
278
    -2
288
     1
 68
     0
279
    -2
289
     1
 69
     0
  7
Standard
140
0.18
170
     5
 62
     0
 63
     7
283
     0
274
    -2
284
     1
 64
     0
275
    -2
285
     1
 65
     0
276
    -2
286
     1
 66
     0
277
    -2
287
     1
 67
     0
278
    -2
288
     1
 68
     0
279
    -2
289
     1
 69
     0
  0
VISUALSTYLE
  5
2F
102
{ACAD_XDICTIONARY
360
F9
102
}
102
{ACAD_REACTORS
330
2A
102
}
330
2A
100
AcDbVisualStyle
  2

 70
     4
 71
     0
 72
     2
 73
     0
 90
        0
 40
-0.6
 41
-30.0
 62
     5
 63
     7
 74
     1
 91
        4
 64
     7
 65
   257
 75
     1
175
     1
 42
1.0
 92
        0
 66
   257
 43
1.0
 76
     1
 77
     6
 78
     2
 67
     7
 79
     5
170
     0
171
     0
290
     0
174
     0
 93
        1
 44
0.0
173
     0
291
     0
 45
0.0
1001
ACAD
1000
AcDbSavedByObjectVersion
1070
     0
  0
VISUALSTYLE
  5
31
102
{ACAD_XDICTIONARY
360
FD
102
}
102
{ACAD_REACTORS
330
2A
102
}
330
2A
100
AcDbVisualStyle
  2

 70
     6
 71
     1
 72
     2
 73
     2
 90
        0
 40
-0.6
 41
-30.0
 62
     5
 63
     7
 74
     2
 91
        2
 64
     7
 65
   257
 75
     2
175
     1
 42
40.0
 92
        0
 66
   257
 43
1.0
 76
     1
 77
     6
 78
     2
 67
     7
 79
     3
170
     0
171
     0
290
     0
174
     0
 93
        1
 44
0.0
173
     0
291
     0
 45
0.0
1001
ACAD
1000
AcDbSavedByObjectVersion
1070
     0
  0
VISUALSTYLE
  5
30
102
{ACAD_XDICTIONARY
360
FB
102
}
102
{ACAD_REACTORS
330
2A
102
}
330
2A
100
AcDbVisualStyle
  2

 70
     5
 71
     0
 72
     2
 73
     0
 90
        0
 40
-0.6
 41
-30.0
 62
     5
 63
     7
 74
     1
 91
        4
 64
     7
 65
   257
 75
     1
175
     1
 42
1.0
 92
        0
 66
   257
 43
1.0
 76
     1
 77
     6
 78
     2
 67
     7
 79
     5
170
     0
171
     0
290
     0
174
     0
 93
        1
 44
0.0
173
     0
291
     0
 45
0.0
1001
ACAD
1000
AcDbSavedByObjectVersion
1070
     0
  0
VISUALSTYLE
  5
32
102
{ACAD_XDICTIONARY
360
FF
102
}
102
{ACAD_REACTORS
330
2A
102
}
330
2A
100
AcDbVisualStyle
  2

 70
     7
 71
     1
 72
     0
 73
     1
 90
        0
 40
-0.6
 41
-30.0
 62
     5
 63
     7
 74
     0
 91
        4
 64
     7
 65
   257
 75
     1
175
     1
 42
1.0
 92
        8
 66
     7
 43
1.0
 76
     1
 77
     6
 78
     2
 67
     7
 79
     5
170
     0
171
     0
290
     0
174
     0
 93
        1
 44
0.0
173
     0
291
     1
 45
0.0
1001
ACAD
1000
AcDbSavedByObjectVersion
1070
     0
  0
VISUALSTYLE
  5
36
102
{ACAD_XDICTIONARY
360
107
102
}
102
{ACAD_REACTORS
330
2A
102
}
330
2A
100
AcDbVisualStyle
  2

 70
    12
 71
     2
 72
     2
 73
     0
 90
        0
 40
-0.6
 41
-30.0
 62
     5
 63
     7
 74
     1
 91
        4
 64
     7
 65
   257
 75
     1
175
     1
 42
1.0
 92
        8
 66
     7
 43
1.0
 76
     1
 77
     6
 78
     2
 67
     7
 79
     5
170
     0
171
     0
290
     0
174
     0
 93
        1
 44
50.0
173
     0
291
     1
 45
0.0
1001
ACAD
1000
AcDbSavedByObjectVersion
1070
     0
  0
VISUALSTYLE
  5
3A
102
{ACAD_XDICTIONARY
360
10F
102
}
102
{ACAD_REACTORS
330
2A
102
}
330
2A
100
AcDbVisualStyle
  2

 70
    16
 71
     2
 72
     2
 73
     3
 90
        0
 40
-0.6
 41
-30.0
 62
     5
 63
     8
 74
     1
 91
        4
 64
     7
 65
   257
 75
     1
175
     1
 42
1.0
 92
        8
 66
     8
 43
1.0
 76
     1
 77
     6
 78
     2
 67
     7
 79
     5
170
     0
171
     0
290
     0
174
     0
 93
        1
 44
0.0
173
     0
291
     1
 45
0.0
1001
ACAD
1000
AcDbSavedByObjectVersion
1070
     0
  0
VISUALSTYLE
  5
34
102
{ACAD_XDICTIONARY
360
103
102
}
102
{ACAD_REACTORS
330
2A
102
}
330
2A
100
AcDbVisualStyle
  2

 70
     9
 71
     3
 72
     2
 73
     0
 90
        0
 40
-0.6
 41
-30.0
 62
     5
 63
     7
 74
     2
 91
        2
 64
     7
 65
   257
 75
     1
175
     1
 42
40.0
 92
        8
 66
     7
 43
1.0
 76
     1
 77
     6
 78
     2
 67
     7
 79
     3
170
     0
171
     0
290
     0
174
     0
 93
        1
 44
0.0
173
     0
291
     0
 45
0.0
1001
ACAD
1000
AcDbSavedByObjectVersion
1070
     0
  0
VISUALSTYLE
  5
35
102
{ACAD_XDICTIONARY
360
105
102
}
102
{ACAD_REACTORS
330
2A
102
}
330
2A
100
AcDbVisualStyle
  2

 70
    11
 71
     2
 72
     2
 73
     0
 90
        0
 40
-0.6
 41
-30.0
 62
     5
 63
     7
 74
     1
 91
        4
 64
     7
 65
   257
 75
     1
175
     1
 42
1.0
 92
        8
 66
     7
 43
1.0
 76
     1
 77
     6
 78
     2
 67
     7
 79
     5
170
     0
171
     0
290
     0
174
     0
 93
        1
 44
-50.0
173
     0
291
     1
 45
0.0
1001
ACAD
1000
AcDbSavedByObjectVersion
1070
     0
  0
VISUALSTYLE
  5
94
102
{ACAD_XDICTIONARY
360
129
102
}
102
{ACAD_REACTORS
330
2A
102
}
330
2A
100
AcDbVisualStyle
  2
EdgeColorOff
 70
    22
 71
     2
 72
     2
 73
     0
 90
        0
 40
-0.6
 41
-30.0
 62
     5
 63
     7
 74
     1
 91
        4
 64
     7
 65
   257
 75
     1
175
     1
 42
1.0
 92
        8
 66
     7
 43
1.0
 76
     1
 77
     6
 78
     2
 67
     7
 79
     5
170
     0
171
     0
290
     0
174
     0
 93
        1
 44
0.0
173
     0
291
     1
 45
0.0
1001
ACAD
1000
AcDbSavedByObjectVersion
1070
     0
  0
VISUALSTYLE
  5
39
102
{ACAD_XDICTIONARY
360
10D
102
}
102
{ACAD_REACTORS
330
2A
102
}
330
2A
100
AcDbVisualStyle
  2

 70
    15
 71
     2
 72
     2
 73
     0
 90
        0
 40
-0.6
 41
-30.0
 62
     5
 63
     7
 74
     1
 91
        4
 64
     7
 65
   257
 75
     1
175
     1
 42
1.0
 92
        8
 66
     7
 43
1.0
 76
     1
 77
     6
 78
     2
 67
     7
 79
     5
170
     0
171
     0
290
     0
174
     0
 93
        1
 44
0.0
173
     0
291
     1
 45
0.0
1001
ACAD
1000
AcDbSavedByObjectVersion
1070
     0
  0
VISUALSTYLE
  5
2B
102
{ACAD_XDICTIONARY
360
F1
102
}
102
{ACAD_REACTORS
330
2A
102
}
330
2A
100
AcDbVisualStyle
  2

 70
     0
 71
     2
 72
     1
 73
     1
 90
        2
 40
-0.6
 41
30.0
 62
     5
 63
     7
 74
     0
 91
        4
 64
     7
 65
   257
 75
     1
175
     1
 42
1.0
 92
        8
 66
     7
 43
1.0
 76
     1
 77
     6
 78
     2
 67
     7
 79
     5
170
     0
171
     0
290
     0
174
     0
 93
       13
 44
0.0
173
     0
291
     1
 45
0.0
1001
ACAD
1000
AcDbSavedByObjectVersion
1070
     0
  0
VISUALSTYLE
  5
2C
102
{ACAD_XDICTIONARY
360
F3
102
}
102
{ACAD_REACTORS
330
2A
102
}
330
2A
100
AcDbVisualStyle
  2

 70
     1
 71
     2
 72
     1
 73
     1
 90
        2
 40
-0.6
 41
30.0
 62
     5
 63
     7
 74
     1
 91
        4
 64
     7
 65
   257
 75
     1
175
     1
 42
1.0
 92
        0
 66
   257
 43
1.0
 76
     1
 77
     6
 78
     2
 67
     7
 79
     5
170
     0
171
     0
290
     0
174
     0
 93
       13
 44
0.0
173
     0
291
     1
 45
0.0
1001
ACAD
1000
AcDbSavedByObjectVersion
1070
     0
  0
VISUALSTYLE
  5
2D
102
{ACAD_XDICTIONARY
360
F5
102
}
102
{ACAD_REACTORS
330
2A
102
}
330
2A
100
AcDbVisualStyle
  2

 70
     2
 71
     2
 72
     2
 73
     1
 90
        2
 40
-0.6
 41
30.0
 62
     5
 63
     7
 74
     0
 91
        4
 64
     7
 65
   257
 75
     1
175
     1
 42
1.0
 92
        0
 66
     7
 43
1.0
 76
     1
 77
     6
 78
     2
 67
     7
 79
     5
170
     0
171
     0
290
     0
174
     0
 93
       13
 44
0.0
173
     0
291
     1
 45
0.0
1001
ACAD
1000
AcDbSavedByObjectVersion
1070
     0
  0
VISUALSTYLE
  5
2E
102
{ACAD_XDICTIONARY
360
F7
102
}
102
{ACAD_REACTORS
330
2A
102
}
330
2A
100
AcDbVisualStyle
  2

 70
     3
 71
     2
 72
     2
 73
     1
 90
        2
 40
-0.6
 41
30.0
 62
     5
 63
     7
 74
     1
 91
        4
 64
     7
 65
   257
 75
     1
175
     1
 42
1.0
 92
        0
 66
   257
 43
1.0
 76
     1
 77
     6
 78
     2
 67
     7
 79
     5
170
     0
171
     0
290
     0
174
     0
 93
       13
 44
0.0
173
     0
291
     1
 45
0.0
1001
ACAD
1000
AcDbSavedByObjectVersion
1070
     0
  0
VISUALSTYLE
  5
8C
102
{ACAD_XDICTIONARY
360
119
102
}
102
{ACAD_REACTORS
330
2A
102
}
330
2A
100
AcDbVisualStyle
  2
Hidden
 70
     6
 71
     1
 72
     2
 73
     2
 90
        0
 40
-0.6
 41
-30.0
 62
     5
 63
     7
 74
     2
 91
        2
 64
     7
 65
   257
 75
     2
175
     1
 42
40.0
 92
        0
 66
   257
 43
1.0
 76
     1
 77
     6
 78
     2
 67
     7
 79
     3
170
     0
171
     0
290
     0
174
     0
 93
        1
 44
0.0
173
     0
291
     0
 45
0.0
1001
ACAD
1000
AcDbSavedByObjectVersion
1070
     0
  0
VISUALSTYLE
  5
92
102
{ACAD_XDICTIONARY
360
125
102
}
102
{ACAD_REACTORS
330
2A
102
}
330
2A
100
AcDbVisualStyle
  2
JitterOff
 70
    20
 71
     2
 72
     2
 73
     0
 90
        0
 40
-0.6
 41
-30.0
 62
     5
 63
     7
 74
     1
 91
        4
 64
     7
 65
   257
 75
     1
175
     1
 42
1.0
 92
       10
 66
     7
 43
1.0
 76
     1
 77
     6
 78
     2
 67
     7
 79
     5
170
     0
171
     0
290
     0
174
     0
 93
        1
 44
0.0
173
     0
291
     1
 45
0.0
1001
ACAD
1000
AcDbSavedByObjectVersion
1070
     0
  0
VISUALSTYLE
  5
38
102
{ACAD_XDICTIONARY
360
10B
102
}
102
{ACAD_REACTORS
330
2A
102
}
330
2A
100
AcDbVisualStyle
  2

 70
    14
 71
     2
 72
     2
 73
     0
 90
        0
 40
-0.6
 41
-30.0
 62
     5
 63
     7
 74
     1
 91
        4
 64
     7
 65
   257
 75
     7
175
     7
 42
1.0
 92
        8
 66
     7
 43
1.0
 76
     1
 77
     6
 78
     2
 67
     7
 79
     5
170
     0
171
     0
290
     0
174
     0
 93
        1
 44
0.0
173
     0
291
     1
 45
0.0
1001
ACAD
1000
AcDbSavedByObjectVersion
1070
     0
  0
VISUALSTYLE
  5
93
102
{ACAD_XDICTIONARY
360
127
102
}
102
{ACAD_REACTORS
330
2A
102
}
330
2A
100
AcDbVisualStyle
  2
OverhangOff
 70
    21
 71
     2
 72
     2
 73
     0
 90
        0
 40
-0.6
 41
-30.0
 62
     5
 63
     7
 74
     1
 91
        4
 64
     7
 65
   257
 75
     1
175
     1
 42
1.0
 92
        9
 66
     7
 43
1.0
 76
     1
 77
     6
 78
     2
 67
     7
 79
     5
170
     0
171
     0
290
     0
174
     0
 93
        1
 44
0.0
173
     0
291
     1
 45
0.0
1001
ACAD
1000
AcDbSavedByObjectVersion
1070
     0
  0
VISUALSTYLE
  5
33
102
{ACAD_XDICTIONARY
360
101
102
}
102
{ACAD_REACTORS
330
2A
102
}
330
2A
100
AcDbVisualStyle
  2

 70
     8
 71
     2
 72
     2
 73
     0
 90
        0
 40
-0.6
 41
-30.0
 62
     5
 63
     7
 74
     1
 91
        0
 64
     7
 65
   257
 75
     1
175
     1
 42
1.0
 92
        8
 66
     8
 43
1.0
 76
     1
 77
     6
 78
     2
 67
     7
 79
     5
170
     0
171
     0
290
     0
174
     0
 93
       13
 44
0.0
173
     0
291
     0
 45
0.0
1001
ACAD
1000
AcDbSavedByObjectVersion
1070
     0
  0
VISUALSTYLE
  5
91
102
{ACAD_XDICTIONARY
360
123
102
}
102
{ACAD_REACTORS
330
2A
102
}
330
2A
100
AcDbVisualStyle
  2
Shaded
 70
    27
 71
     2
 72
     2
 73
     1
 90
        2
 40
-0.6
 41
30.0
 62
     5
 63
     7
 74
     0
 91
        4
 64
     7
 65
   257
 75
     1
175
     1
 42
1.0
 92
        8
 66
   257
 43
1.0
 76
     1
 77
     6
 78
     2
 67
     8
 79
     3
170
     0
171
     0
290
     0
174
     0
 93
        5
 44
0.0
173
     0
291
     0
 45
0.0
1001
ACAD
1000
AcDbSavedByObjectVersion
1070
     0
  0
VISUALSTYLE
  5
90
102
{ACAD_XDICTIONARY
360
121
102
}
102
{ACAD_REACTORS
330
2A
102
}
330
2A
100
AcDbVisualStyle
  2
Shaded with edges
 70
    26
 71
     2
 72
     2
 73
     1
 90
        2
 40
-0.6
 41
30.0
 62
     5
 63
     7
 74
     1
 91
       10
 64
     7
 65
   257
 75
     2
175
     1
 42
1.0
 92
        8
 66
   257
 43
1.0
 76
     1
 77
     6
 78
     2
 67
     7
 79
     3
170
     0
171
     0
290
     0
174
     0
 93
        5
 44
0.0
173
     0
291
     0
 45
0.0
1001
ACAD
1000
AcDbSavedByObjectVersion
1070
     0
  0
VISUALSTYLE
  5
8D
102
{ACAD_XDICTIONARY
360
11B
102
}
102
{ACAD_REACTORS
330
2A
102
}
330
2A
100
AcDbVisualStyle
  2
Shades of Gray
 70
    23
 71
     2
 72
     2
 73
     3
 90
        0
 40
-0.6
 41
-30.0
 62
     5
 63
     7
 74
     2
 91
        2
 64
     7
 65
     7
 75
     1
175
     1
 42
40.0
 92
        8
 66
     7
 43
1.0
 76
     1
 77
     6
 78
     2
 67
     7
 79
     3
170
     0
171
     0
290
     0
174
     0
 93
        1
 44
0.0
173
     0
291
     0
 45
0.0
1001
ACAD
1000
AcDbSavedByObjectVersion
1070
     0
  0
VISUALSTYLE
  5
8E
102
{ACAD_XDICTIONARY
360
11D
102
}
102
{ACAD_REACTORS
330
2A
102
}
330
2A
100
AcDbVisualStyle
  2
Sketchy
 70
    24
 71
     1
 72
     2
 73
     2
 90
        0
 40
-0.6
 41
-30.0
 62
     5
 63
     7
 74
     2
 91
        2
 64
     7
 65
     7
 75
     1
175
     1
 42
40.0
 92
       11
 66
     7
 43
1.0
 76
     1
 77
     6
 78
     2
 67
     7
 79
     6
170
     0
171
     0
290
     0
174
     0
 93
        1
 44
0.0
173
     0
291
     0
 45
0.0
1001
ACAD
1000
AcDbSavedByObjectVersion
1070
     0
  0
VISUALSTYLE
  5
37
102
{ACAD_XDICTIONARY
360
109
102
}
102
{ACAD_REACTORS
330
2A
102
}
330
2A
100
AcDbVisualStyle
  2

 70
    13
 71
     2
 72
     2
 73
     0
 90
        0
 40
-0.6
 41
-30.0
 62
     5
 63
     7
 74
     1
 91
        4
 64
     7
 65
   257
 75
     1
175
     1
 42
1.0
 92
       12
 66
     7
 43
1.0
 76
     1
 77
     6
 78
     2
 67
     7
 79
     5
170
     0
171
     0
290
     0
174
     0
 93
        1
 44
0.0
173
     0
291
     1
 45
0.0
1001
ACAD
1000
AcDbSavedByObjectVersion
1070
     0
  0
VISUALSTYLE
  5
8B
102
{ACAD_XDICTIONARY
360
117
102
}
102
{ACAD_REACTORS
330
2A
102
}
330
2A
100
AcDbVisualStyle
  2
Wireframe
 70
     5
 71
     0
 72
     2
 73
     0
 90
        0
 40
-0.6
 41
-30.0
 62
     5
 63
     7
 74
     1
 91
        4
 64
     7
 65
   257
 75
     1
175
     1
 42
1.0
 92
        0
 66
   257
 43
1.0
 76
     1
 77
     6
 78
     2
 67
     7
 79
     3
170
     0
171
     0
290
     0
174
     0
 93
        1
 44
0.0
173
     0
291
     0
 45
0.0
1001
ACAD
1000
AcDbSavedByObjectVersion
1070
     0
  0
VISUALSTYLE
  5
8F
102
{ACAD_XDICTIONARY
360
11F
102
}
102
{ACAD_REACTORS
330
2A
102
}
330
2A
100
AcDbVisualStyle
  2
X-Ray
 70
    25
 71
     2
 72
     2
 73
     1
 90
        1
 40
0.5
 41
-30.0
 62
     5
 63
     7
 74
     1
 91
        0
 64
     7
 65
   257
 75
     1
175
     1
 42
1.0
 92
        8
 66
     7
 43
1.0
 76
     1
 77
     6
 78
     2
 67
     7
 79
     3
170
     0
171
     0
290
     0
174
     0
 93
       13
 44
0.0
173
     0
291
     0
 45
0.0
1001
ACAD
1000
AcDbSavedByObjectVersion
1070
     0
  0
DICTIONARYVAR
  5
D7
102
{ACAD_REACTORS
330
D3
102
}
330
D3
100
DictionaryVariables
280
     0
  1
1:1
  0
DICTIONARYVAR
  5
D5
102
{ACAD_REACTORS
330
D3
102
}
330
D3
100
DictionaryVariables
280
     0
  1
STANDARD
  0
DICTIONARYVAR
  5
D4
102
{ACAD_REACTORS
330
D3
102
}
330
D3
100
DictionaryVariables
280
     0
  1
STANDARD
  0
DICTIONARYVAR
  5
E1
102
{ACAD_REACTORS
330
D3
102
}
330
D3
100
DictionaryVariables
280
     0
  1
2
  0
DICTIONARYVAR
  5
DF
102
{ACAD_REACTORS
330
D3
102
}
330
D3
100
DictionaryVariables
280
     0
  1
2
  0
DICTIONARYVAR
  5
DD
102
{ACAD_REACTORS
330
D3
102
}
330
D3
100
DictionaryVariables
280
     0
  1
1
  0
DICTIONARYVAR
  5
DC
102
{ACAD_REACTORS
330
D3
102
}
330
D3
100
DictionaryVariables
280
     0
  1
0
  0
DICTIONARYVAR
  5
D9
102
{ACAD_REACTORS
330
D3
102
}
330
D3
100
DictionaryVariables
280
     0
  1
0
  0
DICTIONARYVAR
  5
DA
102
{ACAD_REACTORS
330
D3
102
}
330
D3
100
DictionaryVariables
280
     0
  1
0
  0
DICTIONARYVAR
  5
D8
102
{ACAD_REACTORS
330
D3
102
}
330
D3
100
DictionaryVariables
280
     0
  1
2
  0
DICTIONARYVAR
  5
E2
102
{ACAD_REACTORS
330
D3
102
}
330
D3
100
DictionaryVariables
280
     0
  1
1.570796
  0
DICTIONARYVAR
  5
E3
102
{ACAD_REACTORS
330
D3
102
}
330
D3
100
DictionaryVariables
280
     0
  1
1.570796
  0
DICTIONARYVAR
  5
E4
102
{ACAD_REACTORS
330
D3
102
}
330
D3
100
DictionaryVariables
280
     0
  1
-122.394000
  0
DICTIONARYVAR
  5
D6
102
{ACAD_REACTORS
330
D3
102
}
330
D3
100
DictionaryVariables
280
     0
  1
1
  0
DICTIONARYVAR
  5
E0
102
{ACAD_REACTORS
330
D3
102
}
330
D3
100
DictionaryVariables
280
     0
  1
1
  0
DICTIONARYVAR
  5
DB
102
{ACAD_REACTORS
330
D3
102
}
330
D3
100
DictionaryVariables
280
     0
  1
127
  0
DICTIONARYVAR
  5
DE
102
{ACAD_REACTORS
330
D3
102
}
330
D3
100
DictionaryVariables
280
     0
  1
0
  0
DICTIONARY
  5
EB
330
1E
100
AcDbDictionary
280
     1
281
     1
  3
ACAD_XREC_ROUNDTRIP
360
EC
  0
DICTIONARY
  5
EF
330
26
100
AcDbDictionary
280
     1
281
     1
  3
ACAD_XREC_ROUNDTRIP
360
F0
  0
DICTIONARY
  5
ED
330
22
100
AcDbDictionary
280
     1
281
     1
  3
ACAD_XREC_ROUNDTRIP
360
EE
  0
DICTIONARY
  5
113
330
3D
100
AcDbDictionary
280
     1
281
     1
  3
ACAD_XREC_ROUNDTRIP
360
114
  0
DICTIONARY
  5
111
330
3C
100
AcDbDictionary
280
     1
281
     1
  3
ACAD_XREC_ROUNDTRIP
360
112
  0
DICTIONARY
  5
115
330
3E
100
AcDbDictionary
280
     1
281
     1
  3
ACAD_XREC_ROUNDTRIP
360
116
  0
DICTIONARY
  5
E5
330
96
100
AcDbDictionary
280
     1
281
     1
  3
ACAD_ROUNDTRIP_2008_TABLESTYLE_CELLSTYLEMAP
360
E6
  3
ACAD_XREC_ROUNDTRIP
360
12B
  0
DICTIONARY
  5
F9
330
2F
100
AcDbDictionary
280
     1
281
     1
  3
ACAD_XREC_ROUNDTRIP
360
FA
  0
DICTIONARY
  5
FD
330
31
100
AcDbDictionary
280
     1
281
     1
  3
ACAD_XREC_ROUNDTRIP
360
FE
  0
DICTIONARY
  5
FB
330
30
100
AcDbDictionary
280
     1
281
     1
  3
ACAD_XREC_ROUNDTRIP
360
FC
  0
DICTIONARY
  5
FF
330
32
100
AcDbDictionary
280
     1
281
     1
  3
ACAD_XREC_ROUNDTRIP
360
100
  0
DICTIONARY
  5
107
330
36
100
AcDbDictionary
280
     1
281
     1
  3
ACAD_XREC_ROUNDTRIP
360
108
  0
DICTIONARY
  5
10F
330
3A
100
AcDbDictionary
280
     1
281
     1
  3
ACAD_XREC_ROUNDTRIP
360
110
  0
DICTIONARY
  5
103
330
34
100
AcDbDictionary
280
     1
281
     1
  3
ACAD_XREC_ROUNDTRIP
360
104
  0
DICTIONARY
  5
105
330
35
100
AcDbDictionary
280
     1
281
     1
  3
ACAD_XREC_ROUNDTRIP
360
106
  0
DICTIONARY
  5
129
330
94
100
AcDbDictionary
280
     1
281
     1
  3
ACAD_XREC_ROUNDTRIP
360
12A
  0
DICTIONARY
  5
10D
330
39
100
AcDbDictionary
280
     1
281
     1
  3
ACAD_XREC_ROUNDTRIP
360
10E
  0
DICTIONARY
  5
F1
330
2B
100
AcDbDictionary
280
     1
281
     1
  3
ACAD_XREC_ROUNDTRIP
360
F2
  0
DICTIONARY
  5
F3
330
2C
100
AcDbDictionary
280
     1
281
     1
  3
ACAD_XREC_ROUNDTRIP
360
F4
  0
DICTIONARY
  5
F5
330
2D
100
AcDbDictionary
280
     1
281
     1
  3
ACAD_XREC_ROUNDTRIP
360
F6
  0
DICTIONARY
  5
F7
330
2E
100
AcDbDictionary
280
     1
281
     1
  3
ACAD_XREC_ROUNDTRIP
360
F8
  0
DICTIONARY
  5
119
330
8C
100
AcDbDictionary
280
     1
281
     1
  3
ACAD_XREC_ROUNDTRIP
360
11A
  0
DICTIONARY
  5
125
330
92
100
AcDbDictionary
280
     1
281
     1
  3
ACAD_XREC_ROUNDTRIP
360
126
  0
DICTIONARY
  5
10B
330
38
100
AcDbDictionary
280
     1
281
     1
  3
ACAD_XREC_ROUNDTRIP
360
10C
  0
DICTIONARY
  5
127
330
93
100
AcDbDictionary
280
     1
281
     1
  3
ACAD_XREC_ROUNDTRIP
360
128
  0
DICTIONARY
  5
101
330
33
100
AcDbDictionary
280
     1
281
     1
  3
ACAD_XREC_ROUNDTRIP
360
102
  0
DICTIONARY
  5
123
330
91
100
AcDbDictionary
280
     1
281
     1
  3
ACAD_XREC_ROUNDTRIP
360
124
  0
DICTIONARY
  5
121
330
90
100
AcDbDictionary
280
     1
281
     1
  3
ACAD_XREC_ROUNDTRIP
360
122
  0
DICTIONARY
  5
11B
330
8D
100
AcDbDictionary
280
     1
281
     1
  3
ACAD_XREC_ROUNDTRIP
360
11C
  0
DICTIONARY
  5
11D
330
8E
100
AcDbDictionary
280
     1
281
     1
  3
ACAD_XREC_ROUNDTRIP
360
11E
  0
DICTIONARY
  5
109
330
37
100
AcDbDictionary
280
     1
281
     1
  3
ACAD_XREC_ROUNDTRIP
360
10A
  0
DICTIONARY
  5
117
330
8B
100
AcDbDictionary
280
     1
281
     1
  3
ACAD_XREC_ROUNDTRIP
360
118
  0
DICTIONARY
  5
11F
330
8F
100
AcDbDictionary
280
     1
281
     1
  3
ACAD_XREC_ROUNDTRIP
360
120
  0
XRECORD
  5
EC
102
{ACAD_REACTORS
330
EB
102
}
330
EB
100
AcDbXrecord
280
     1
102
SHADEPLOT
 70
     0
102
SHADEPLOTRESLEVEL
 70
     2
102
SHADEPLOTCUSTOMDPI
 70
   300
  0
XRECORD
  5
F0
102
{ACAD_REACTORS
330
EF
102
}
330
EF
100
AcDbXrecord
280
     1
102
SHADEPLOT
 70
     0
102
SHADEPLOTRESLEVEL
 70
     2
102
SHADEPLOTCUSTOMDPI
 70
   300
  0
XRECORD
  5
EE
102
{ACAD_REACTORS
330
ED
102
}
330
ED
100
AcDbXrecord
280
     1
102
SHADEPLOT
 70
     0
102
SHADEPLOTRESLEVEL
 70
     2
102
SHADEPLOTCUSTOMDPI
 70
   300
  0
XRECORD
  5
114
102
{ACAD_REACTORS
330
113
102
}
330
113
100
AcDbXrecord
280
     1
102
MATERIAL
148
0.0
149
0.0
149
0.0
 93
        0
 94
      127
282
     0
 72
     1
 77
     1
171
     1
175
     1
179
     1
273
     0
  0
XRECORD
  5
112
102
{ACAD_REACTORS
330
111
102
}
330
111
100
AcDbXrecord
280
     1
102
MATERIAL
148
0.0
149
0.0
149
0.0
 93
        0
 94
      127
282
     0
 72
     1
 77
     1
171
     1
175
     1
179
     1
273
     0
  0
XRECORD
  5
116
102
{ACAD_REACTORS
330
115
102
}
330
115
100
AcDbXrecord
280
     1
102
MATERIAL
148
0.0
149
0.0
149
0.0
 93
        0
 94
      127
282
     0
 72
     1
 77
     1
171
     1
175
     1
179
     1
273
     0
  0
CELLSTYLEMAP
  5
E6
102
{ACAD_REACTORS
330
E5
102
}
330
E5
100
AcDbCellStyleMap
 90
        3
300
CELLSTYLE
  1
TABLEFORMAT_BEGIN
 90
        5
170
     1
 91
        0
 92
    32768
 62
   257
 93
        1
300
CONTENTFORMAT
  1
CONTENTFORMAT_BEGIN
 90
        0
 91
        0
 92
      512
 93
        0
300

 40
0.0
140
1.0
 94
        5
 62
     0
340
11
144
0.25
309
CONTENTFORMAT_END
171
     0
 94
        0
309
TABLEFORMAT_END
  1
CELLSTYLE_BEGIN
 90
        1
 91
        1
300
_TITLE
309
CELLSTYLE_END
300
CELLSTYLE
  1
TABLEFORMAT_BEGIN
 90
        5
170
     1
 91
        0
 92
        0
 62
   257
 93
        1
300
CONTENTFORMAT
  1
CONTENTFORMAT_BEGIN
 90
        0
 91
        0
 92
      512
 93
        0
300

 40
0.0
140
1.0
 94
        5
 62
     0
340
11
144
0.18
309
CONTENTFORMAT_END
171
     0
 94
        0
309
TABLEFORMAT_END
  1
CELLSTYLE_BEGIN
 90
        2
 91
        1
300
_HEADER
309
CELLSTYLE_END
300
CELLSTYLE
  1
TABLEFORMAT_BEGIN
 90
        5
170
     1
 91
        0
 92
        0
 62
   257
 93
        1
300
CONTENTFORMAT
  1
CONTENTFORMAT_BEGIN
 90
        0
 91
        0
 92
      512
 93
        0
300

 40
0.0
140
1.0
 94
        2
 62
     0
340
11
144
0.18
309
CONTENTFORMAT_END
171
     0
 94
        0
309
TABLEFORMAT_END
  1
CELLSTYLE_BEGIN
 90
        3
 91
        2
300
_DATA
309
CELLSTYLE_END
  0
XRECORD
  5
12B
102
{ACAD_REACTORS
330
E5
102
}
330
E5
100
AcDbXrecord
280
     1
102
ACAD_ROUNDTRIP_PRE2007_TABLESTYLE
 90
      512
 91
        0
  1

 92
      512
 93
        0
  2

 94
      512
 95
        0
  3

  0
XRECORD
  5
FA
102
{ACAD_REACTORS
330
F9
102
}
330
F9
100
AcDbXrecord
280
     1
102
RTVSPropertyOp0
 70
     1
102
RTVSPropertyOp1
 70
     1
102
RTVSPropertyOp2
 70
     1
102
RTVSPropertyOp3
 70
     1
102
RTVSPropertyOp4
 70
     1
102
RTVSPropertyOp5
 70
     1
102
RTVSPropertyOp6
 70
     1
102
RTVSPropertyOp7
 70
     1
102
RTVSPropertyOp8
 70
     1
102
RTVSPropertyOp9
 70
     1
102
RTVSPropertyOp10
 70
     1
102
RTVSPropertyOp11
 70
     1
102
RTVSPropertyOp12
 70
     1
102
RTVSPropertyOp13
 70
     1
102
RTVSPropertyOp14
 70
     1
102
RTVSPropertyOp15
 70
     1
102
RTVSPropertyOp16
 70
     1
102
RTVSPropertyOp17
 70
     1
102
RTVSPropertyOp18
 70
     1
102
RTVSPropertyOp19
 70
     1
102
RTVSPropertyOp20
 70
     1
102
RTVSPropertyOp21
 70
     1
102
RTVSPropertyOp22
 70
     1
102
RTVSPropertyOp23
 70
     1
102
RTVSPropertyOp24
 70
     1
102
RTVSPropertyOp25
 70
     1
102
RTVSPropertyOp26
 70
     1
102
RTVSPropertyOp27
 70
     1
102
RTVSPropertyOp28
 70
     1
102
RTVSPropertyOp29
 70
     1
102
RTVSPropertyOp30
 70
     1
102
RTVSPropertyOp31
 70
     1
102
RTVSPropertyOp32
 70
     1
  0
XRECORD
  5
FE
102
{ACAD_REACTORS
330
FD
102
}
330
FD
100
AcDbXrecord
280
     1
102
RTVSPropertyOp0
 70
     1
102
RTVSPropertyOp1
 70
     1
102
RTVSPropertyOp2
 70
     1
102
RTVSPropertyOp3
 70
     1
102
RTVSPropertyOp4
 70
     1
102
RTVSPropertyOp5
 70
     1
102
RTVSPropertyOp6
 70
     1
102
RTVSPropertyOp7
 70
     1
102
RTVSPropertyOp8
 70
     1
102
RTVSPropertyOp9
 70
     1
102
RTVSPropertyOp10
 70
     1
102
RTVSPropertyOp11
 70
     1
102
RTVSPropertyOp12
 70
     1
102
RTVSPropertyOp13
 70
     1
102
RTVSPropertyOp14
 70
     1
102
RTVSPropertyOp15
 70
     1
102
RTVSPropertyOp16
 70
     1
102
RTVSPropertyOp17
 70
     1
102
RTVSPropertyOp18
 70
     1
102
RTVSPropertyOp19
 70
     1
102
RTVSPropertyOp20
 70
     1
102
RTVSPropertyOp21
 70
     1
102
RTVSPropertyOp22
 70
     1
102
RTVSPropertyOp23
 70
     1
102
RTVSPropertyOp24
 70
     1
102
RTVSPropertyOp25
 70
     1
102
RTVSPropertyOp26
 70
     1
102
RTVSPropertyOp27
 70
     1
102
RTVSPropertyOp28
 70
     1
102
RTVSPropertyOp29
 70
     1
102
RTVSPropertyOp30
 70
     1
102
RTVSPropertyOp31
 70
     1
102
RTVSPropertyOp32
 70
     1
  0
XRECORD
  5
FC
102
{ACAD_REACTORS
330
FB
102
}
330
FB
100
AcDbXrecord
280
     1
102
RTVSPropertyOp0
 70
     1
102
RTVSPropertyOp1
 70
     1
102
RTVSPropertyOp2
 70
     1
102
RTVSPropertyOp3
 70
     1
102
RTVSPropertyOp4
 70
     1
102
RTVSPropertyOp5
 70
     1
102
RTVSPropertyOp6
 70
     1
102
RTVSPropertyOp7
 70
     1
102
RTVSPropertyOp8
 70
     1
102
RTVSPropertyOp9
 70
     1
102
RTVSPropertyOp10
 70
     1
102
RTVSPropertyOp11
 70
     1
102
RTVSPropertyOp12
 70
     1
102
RTVSPropertyOp13
 70
     1
102
RTVSPropertyOp14
 70
     1
102
RTVSPropertyOp15
 70
     1
102
RTVSPropertyOp16
 70
     1
102
RTVSPropertyOp17
 70
     1
102
RTVSPropertyOp18
 70
     1
102
RTVSPropertyOp19
 70
     1
102
RTVSPropertyOp20
 70
     1
102
RTVSPropertyOp21
 70
     1
102
RTVSPropertyOp22
 70
     1
102
RTVSPropertyOp23
 70
     1
102
RTVSPropertyOp24
 70
     1
102
RTVSPropertyOp25
 70
     1
102
RTVSPropertyOp26
 70
     1
102
RTVSPropertyOp27
 70
     1
102
RTVSPropertyOp28
 70
     1
102
RTVSPropertyOp29
 70
     1
102
RTVSPropertyOp30
 70
     1
102
RTVSPropertyOp31
 70
     1
102
RTVSPropertyOp32
 70
     1
  0
XRECORD
  5
100
102
{ACAD_REACTORS
330
FF
102
}
330
FF
100
AcDbXrecord
280
     1
102
RTVSPropertyOp0
 70
     1
102
RTVSPropertyOp1
 70
     1
102
RTVSPropertyOp2
 70
     1
102
RTVSPropertyOp3
 70
     1
102
RTVSPropertyOp4
 70
     1
102
RTVSPropertyOp5
 70
     1
102
RTVSPropertyOp6
 70
     1
102
RTVSPropertyOp7
 70
     1
102
RTVSPropertyOp8
 70
     1
102
RTVSPropertyOp9
 70
     1
102
RTVSPropertyOp10
 70
     1
102
RTVSPropertyOp11
 70
     1
102
RTVSPropertyOp12
 70
     1
102
RTVSPropertyOp13
 70
     1
102
RTVSPropertyOp14
 70
     1
102
RTVSPropertyOp15
 70
     1
102
RTVSPropertyOp16
 70
     1
102
RTVSPropertyOp17
 70
     1
102
RTVSPropertyOp18
 70
     1
102
RTVSPropertyOp19
 70
     1
102
RTVSPropertyOp20
 70
     1
102
RTVSPropertyOp21
 70
     1
102
RTVSPropertyOp22
 70
     1
102
RTVSPropertyOp23
 70
     1
102
RTVSPropertyOp24
 70
     1
102
RTVSPropertyOp25
 70
     1
102
RTVSPropertyOp26
 70
     1
102
RTVSPropertyOp27
 70
     1
102
RTVSPropertyOp28
 70
     1
102
RTVSPropertyOp29
 70
     1
102
RTVSPropertyOp30
 70
     1
102
RTVSPropertyOp31
 70
     1
102
RTVSPropertyOp32
 70
     1
  0
XRECORD
  5
108
102
{ACAD_REACTORS
330
107
102
}
330
107
100
AcDbXrecord
280
     1
102
RTVSPropertyOp0
 70
     1
102
RTVSPropertyOp1
 70
     1
102
RTVSPropertyOp2
 70
     1
102
RTVSPropertyOp3
 70
     1
102
RTVSPropertyOp4
 70
     1
102
RTVSPropertyOp5
 70
     1
102
RTVSPropertyOp6
 70
     1
102
RTVSPropertyOp7
 70
     1
102
RTVSPropertyOp8
 70
     1
102
RTVSPropertyOp9
 70
     1
102
RTVSPropertyOp10
 70
     1
102
RTVSPropertyOp11
 70
     1
102
RTVSPropertyOp12
 70
     1
102
RTVSPropertyOp13
 70
     1
102
RTVSPropertyOp14
 70
     1
102
RTVSPropertyOp15
 70
     1
102
RTVSPropertyOp16
 70
     1
102
RTVSPropertyOp17
 70
     1
102
RTVSPropertyOp18
 70
     1
102
RTVSPropertyOp19
 70
     1
102
RTVSPropertyOp20
 70
     1
102
RTVSPropertyOp21
 70
     1
102
RTVSPropertyOp22
 70
     1
102
RTVSPropertyOp23
 70
     1
102
RTVSPropertyOp24
 70
     1
102
RTVSPropertyOp25
 70
     1
102
RTVSPropertyOp26
 70
     1
102
RTVSPropertyOp27
 70
     1
102
RTVSPropertyOp28
 70
     1
102
RTVSPropertyOp29
 70
     1
102
RTVSPropertyOp30
 70
     1
102
RTVSPropertyOp31
 70
     1
102
RTVSPropertyOp32
 70
     1
  0
XRECORD
  5
110
102
{ACAD_REACTORS
330
10F
102
}
330
10F
100
AcDbXrecord
280
     1
102
RTVSPropertyOp0
 70
     1
102
RTVSPropertyOp1
 70
     1
102
RTVSPropertyOp2
 70
     1
102
RTVSPropertyOp3
 70
     1
102
RTVSPropertyOp4
 70
     1
102
RTVSPropertyOp5
 70
     1
102
RTVSPropertyOp6
 70
     1
102
RTVSPropertyOp7
 70
     1
102
RTVSPropertyOp8
 70
     1
102
RTVSPropertyOp9
 70
     1
102
RTVSPropertyOp10
 70
     1
102
RTVSPropertyOp11
 70
     1
102
RTVSPropertyOp12
 70
     1
102
RTVSPropertyOp13
 70
     1
102
RTVSPropertyOp14
 70
     1
102
RTVSPropertyOp15
 70
     1
102
RTVSPropertyOp16
 70
     1
102
RTVSPropertyOp17
 70
     1
102
RTVSPropertyOp18
 70
     1
102
RTVSPropertyOp19
 70
     1
102
RTVSPropertyOp20
 70
     1
102
RTVSPropertyOp21
 70
     1
102
RTVSPropertyOp22
 70
     1
102
RTVSPropertyOp23
 70
     1
102
RTVSPropertyOp24
 70
     1
102
RTVSPropertyOp25
 70
     1
102
RTVSPropertyOp26
 70
     1
102
RTVSPropertyOp27
 70
     1
102
RTVSPropertyOp28
 70
     1
102
RTVSPropertyOp29
 70
     1
102
RTVSPropertyOp30
 70
     1
102
RTVSPropertyOp31
 70
     1
102
RTVSPropertyOp32
 70
     1
  0
XRECORD
  5
104
102
{ACAD_REACTORS
330
103
102
}
330
103
100
AcDbXrecord
280
     1
102
RTVSPropertyOp0
 70
     1
102
RTVSPropertyOp1
 70
     1
102
RTVSPropertyOp2
 70
     1
102
RTVSPropertyOp3
 70
     1
102
RTVSPropertyOp4
 70
     1
102
RTVSPropertyOp5
 70
     1
102
RTVSPropertyOp6
 70
     1
102
RTVSPropertyOp7
 70
     1
102
RTVSPropertyOp8
 70
     1
102
RTVSPropertyOp9
 70
     1
102
RTVSPropertyOp10
 70
     1
102
RTVSPropertyOp11
 70
     1
102
RTVSPropertyOp12
 70
     1
102
RTVSPropertyOp13
 70
     1
102
RTVSPropertyOp14
 70
     1
102
RTVSPropertyOp15
 70
     1
102
RTVSPropertyOp16
 70
     1
102
RTVSPropertyOp17
 70
     1
102
RTVSPropertyOp18
 70
     1
102
RTVSPropertyOp19
 70
     1
102
RTVSPropertyOp20
 70
     1
102
RTVSPropertyOp21
 70
     1
102
RTVSPropertyOp22
 70
     1
102
RTVSPropertyOp23
 70
     1
102
RTVSPropertyOp24
 70
     1
102
RTVSPropertyOp25
 70
     1
102
RTVSPropertyOp26
 70
     1
102
RTVSPropertyOp27
 70
     1
102
RTVSPropertyOp28
 70
     1
102
RTVSPropertyOp29
 70
     1
102
RTVSPropertyOp30
 70
     1
102
RTVSPropertyOp31
 70
     1
102
RTVSPropertyOp32
 70
     1
  0
XRECORD
  5
106
102
{ACAD_REACTORS
330
105
102
}
330
105
100
AcDbXrecord
280
     1
102
RTVSPropertyOp0
 70
     1
102
RTVSPropertyOp1
 70
     1
102
RTVSPropertyOp2
 70
     1
102
RTVSPropertyOp3
 70
     1
102
RTVSPropertyOp4
 70
     1
102
RTVSPropertyOp5
 70
     1
102
RTVSPropertyOp6
 70
     1
102
RTVSPropertyOp7
 70
     1
102
RTVSPropertyOp8
 70
     1
102
RTVSPropertyOp9
 70
     1
102
RTVSPropertyOp10
 70
     1
102
RTVSPropertyOp11
 70
     1
102
RTVSPropertyOp12
 70
     1
102
RTVSPropertyOp13
 70
     1
102
RTVSPropertyOp14
 70
     1
102
RTVSPropertyOp15
 70
     1
102
RTVSPropertyOp16
 70
     1
102
RTVSPropertyOp17
 70
     1
102
RTVSPropertyOp18
 70
     1
102
RTVSPropertyOp19
 70
     1
102
RTVSPropertyOp20
 70
     1
102
RTVSPropertyOp21
 70
     1
102
RTVSPropertyOp22
 70
     1
102
RTVSPropertyOp23
 70
     1
102
RTVSPropertyOp24
 70
     1
102
RTVSPropertyOp25
 70
     1
102
RTVSPropertyOp26
 70
     1
102
RTVSPropertyOp27
 70
     1
102
RTVSPropertyOp28
 70
     1
102
RTVSPropertyOp29
 70
     1
102
RTVSPropertyOp30
 70
     1
102
RTVSPropertyOp31
 70
     1
102
RTVSPropertyOp32
 70
     1
  0
XRECORD
  5
12A
102
{ACAD_REACTORS
330
129
102
}
330
129
100
AcDbXrecord
280
     1
102
RTVSPropertyOp0
 70
     0
102
RTVSPropertyOp1
 70
     0
102
RTVSPropertyOp2
 70
     0
102
RTVSPropertyOp3
 70
     0
102
RTVSPropertyOp4
 70
     0
102
RTVSPropertyOp5
 70
     0
102
RTVSPropertyOp6
 70
     0
102
RTVSPropertyOp7
 70
     0
102
RTVSPropertyOp8
 70
     0
102
RTVSPropertyOp9
 70
     0
102
RTVSPropertyOp10
 70
     0
102
RTVSPropertyOp11
 70
     0
102
RTVSPropertyOp12
 70
     0
102
RTVSPropertyOp13
 70
     0
102
RTVSPropertyOp14
 70
     2
102
RTVSPropertyOp15
 70
     0
102
RTVSPropertyOp16
 70
     0
102
RTVSPropertyOp17
 70
     0
102
RTVSPropertyOp18
 70
     0
102
RTVSPropertyOp19
 70
     0
102
RTVSPropertyOp20
 70
     0
102
RTVSPropertyOp21
 70
     0
102
RTVSPropertyOp22
 70
     0
102
RTVSPropertyOp23
 70
     0
102
RTVSPropertyOp24
 70
     0
102
RTVSPropertyOp25
 70
     0
102
RTVSPropertyOp26
 70
     0
102
RTVSPropertyOp27
 70
     0
102
RTVSPropertyOp28
 70
     0
102
RTVSPropertyOp29
 70
     0
102
RTVSPropertyOp30
 70
     0
102
RTVSPropertyOp31
 70
     0
102
RTVSPropertyOp32
 70
     0
  0
XRECORD
  5
10E
102
{ACAD_REACTORS
330
10D
102
}
330
10D
100
AcDbXrecord
280
     1
102
RTVSPropertyOp0
 70
     1
102
RTVSPropertyOp1
 70
     1
102
RTVSPropertyOp2
 70
     1
102
RTVSPropertyOp3
 70
     1
102
RTVSPropertyOp4
 70
     1
102
RTVSPropertyOp5
 70
     1
102
RTVSPropertyOp6
 70
     1
102
RTVSPropertyOp7
 70
     1
102
RTVSPropertyOp8
 70
     1
102
RTVSPropertyOp9
 70
     1
102
RTVSPropertyOp10
 70
     1
102
RTVSPropertyOp11
 70
     1
102
RTVSPropertyOp12
 70
     1
102
RTVSPropertyOp13
 70
     1
102
RTVSPropertyOp14
 70
     1
102
RTVSPropertyOp15
 70
     1
102
RTVSPropertyOp16
 70
     1
102
RTVSPropertyOp17
 70
     1
102
RTVSPropertyOp18
 70
     1
102
RTVSPropertyOp19
 70
     1
102
RTVSPropertyOp20
 70
     1
102
RTVSPropertyOp21
 70
     1
102
RTVSPropertyOp22
 70
     1
102
RTVSPropertyOp23
 70
     1
102
RTVSPropertyOp24
 70
     1
102
RTVSPropertyOp25
 70
     1
102
RTVSPropertyOp26
 70
     1
102
RTVSPropertyOp27
 70
     1
102
RTVSPropertyOp28
 70
     1
102
RTVSPropertyOp29
 70
     1
102
RTVSPropertyOp30
 70
     1
102
RTVSPropertyOp31
 70
     1
102
RTVSPropertyOp32
 70
     1
  0
XRECORD
  5
F2
102
{ACAD_REACTORS
330
F1
102
}
330
F1
100
AcDbXrecord
280
     1
102
RTVSPropertyOp0
 70
     1
102
RTVSPropertyOp1
 70
     1
102
RTVSPropertyOp2
 70
     1
102
RTVSPropertyOp3
 70
     1
102
RTVSPropertyOp4
 70
     1
102
RTVSPropertyOp5
 70
     1
102
RTVSPropertyOp6
 70
     1
102
RTVSPropertyOp7
 70
     1
102
RTVSPropertyOp8
 70
     1
102
RTVSPropertyOp9
 70
     1
102
RTVSPropertyOp10
 70
     1
102
RTVSPropertyOp11
 70
     1
102
RTVSPropertyOp12
 70
     1
102
RTVSPropertyOp13
 70
     1
102
RTVSPropertyOp14
 70
     1
102
RTVSPropertyOp15
 70
     1
102
RTVSPropertyOp16
 70
     1
102
RTVSPropertyOp17
 70
     1
102
RTVSPropertyOp18
 70
     1
102
RTVSPropertyOp19
 70
     1
102
RTVSPropertyOp20
 70
     1
102
RTVSPropertyOp21
 70
     1
102
RTVSPropertyOp22
 70
     1
102
RTVSPropertyOp23
 70
     1
102
RTVSPropertyOp24
 70
     1
102
RTVSPropertyOp25
 70
     1
102
RTVSPropertyOp26
 70
     1
102
RTVSPropertyOp27
 70
     1
102
RTVSPropertyOp28
 70
     1
102
RTVSPropertyOp29
 70
     1
102
RTVSPropertyOp30
 70
     1
102
RTVSPropertyOp31
 70
     1
102
RTVSPropertyOp32
 70
     1
  0
XRECORD
  5
F4
102
{ACAD_REACTORS
330
F3
102
}
330
F3
100
AcDbXrecord
280
     1
102
RTVSPropertyOp0
 70
     1
102
RTVSPropertyOp1
 70
     1
102
RTVSPropertyOp2
 70
     1
102
RTVSPropertyOp3
 70
     1
102
RTVSPropertyOp4
 70
     1
102
RTVSPropertyOp5
 70
     1
102
RTVSPropertyOp6
 70
     1
102
RTVSPropertyOp7
 70
     1
102
RTVSPropertyOp8
 70
     1
102
RTVSPropertyOp9
 70
     1
102
RTVSPropertyOp10
 70
     1
102
RTVSPropertyOp11
 70
     1
102
RTVSPropertyOp12
 70
     1
102
RTVSPropertyOp13
 70
     1
102
RTVSPropertyOp14
 70
     1
102
RTVSPropertyOp15
 70
     1
102
RTVSPropertyOp16
 70
     1
102
RTVSPropertyOp17
 70
     1
102
RTVSPropertyOp18
 70
     1
102
RTVSPropertyOp19
 70
     1
102
RTVSPropertyOp20
 70
     1
102
RTVSPropertyOp21
 70
     1
102
RTVSPropertyOp22
 70
     1
102
RTVSPropertyOp23
 70
     1
102
RTVSPropertyOp24
 70
     1
102
RTVSPropertyOp25
 70
     1
102
RTVSPropertyOp26
 70
     1
102
RTVSPropertyOp27
 70
     1
102
RTVSPropertyOp28
 70
     1
102
RTVSPropertyOp29
 70
     1
102
RTVSPropertyOp30
 70
     1
102
RTVSPropertyOp31
 70
     1
102
RTVSPropertyOp32
 70
     1
  0
XRECORD
  5
F6
102
{ACAD_REACTORS
330
F5
102
}
330
F5
100
AcDbXrecord
280
     1
102
RTVSPropertyOp0
 70
     1
102
RTVSPropertyOp1
 70
     1
102
RTVSPropertyOp2
 70
     1
102
RTVSPropertyOp3
 70
     1
102
RTVSPropertyOp4
 70
     1
102
RTVSPropertyOp5
 70
     1
102
RTVSPropertyOp6
 70
     1
102
RTVSPropertyOp7
 70
     1
102
RTVSPropertyOp8
 70
     1
102
RTVSPropertyOp9
 70
     1
102
RTVSPropertyOp10
 70
     1
102
RTVSPropertyOp11
 70
     1
102
RTVSPropertyOp12
 70
     1
102
RTVSPropertyOp13
 70
     1
102
RTVSPropertyOp14
 70
     1
102
RTVSPropertyOp15
 70
     1
102
RTVSPropertyOp16
 70
     1
102
RTVSPropertyOp17
 70
     1
102
RTVSPropertyOp18
 70
     1
102
RTVSPropertyOp19
 70
     1
102
RTVSPropertyOp20
 70
     1
102
RTVSPropertyOp21
 70
     1
102
RTVSPropertyOp22
 70
     1
102
RTVSPropertyOp23
 70
     1
102
RTVSPropertyOp24
 70
     1
102
RTVSPropertyOp25
 70
     1
102
RTVSPropertyOp26
 70
     1
102
RTVSPropertyOp27
 70
     1
102
RTVSPropertyOp28
 70
     1
102
RTVSPropertyOp29
 70
     1
102
RTVSPropertyOp30
 70
     1
102
RTVSPropertyOp31
 70
     1
102
RTVSPropertyOp32
 70
     1
  0
XRECORD
  5
F8
102
{ACAD_REACTORS
330
F7
102
}
330
F7
100
AcDbXrecord
280
     1
102
RTVSPropertyOp0
 70
     1
102
RTVSPropertyOp1
 70
     1
102
RTVSPropertyOp2
 70
     1
102
RTVSPropertyOp3
 70
     1
102
RTVSPropertyOp4
 70
     1
102
RTVSPropertyOp5
 70
     1
102
RTVSPropertyOp6
 70
     1
102
RTVSPropertyOp7
 70
     1
102
RTVSPropertyOp8
 70
     1
102
RTVSPropertyOp9
 70
     1
102
RTVSPropertyOp10
 70
     1
102
RTVSPropertyOp11
 70
     1
102
RTVSPropertyOp12
 70
     1
102
RTVSPropertyOp13
 70
     1
102
RTVSPropertyOp14
 70
     1
102
RTVSPropertyOp15
 70
     1
102
RTVSPropertyOp16
 70
     1
102
RTVSPropertyOp17
 70
     1
102
RTVSPropertyOp18
 70
     1
102
RTVSPropertyOp19
 70
     1
102
RTVSPropertyOp20
 70
     1
102
RTVSPropertyOp21
 70
     1
102
RTVSPropertyOp22
 70
     1
102
RTVSPropertyOp23
 70
     1
102
RTVSPropertyOp24
 70
     1
102
RTVSPropertyOp25
 70
     1
102
RTVSPropertyOp26
 70
     1
102
RTVSPropertyOp27
 70
     1
102
RTVSPropertyOp28
 70
     1
102
RTVSPropertyOp29
 70
     1
102
RTVSPropertyOp30
 70
     1
102
RTVSPropertyOp31
 70
     1
102
RTVSPropertyOp32
 70
     1
  0
XRECORD
  5
11A
102
{ACAD_REACTORS
330
119
102
}
330
119
100
AcDbXrecord
280
     1
102
RTVSPropertyOp0
 70
     1
102
RTVSPropertyOp1
 70
     1
102
RTVSPropertyOp2
 70
     1
102
RTVSPropertyOp3
 70
     1
102
RTVSPropertyOp4
 70
     1
102
RTVSPropertyOp5
 70
     1
102
RTVSPropertyOp6
 70
     1
102
RTVSPropertyOp7
 70
     1
102
RTVSPropertyOp8
 70
     1
102
RTVSPropertyOp9
 70
     1
102
RTVSPropertyOp10
 70
     1
102
RTVSPropertyOp11
 70
     1
102
RTVSPropertyOp12
 70
     1
102
RTVSPropertyOp13
 70
     1
102
RTVSPropertyOp14
 70
     1
102
RTVSPropertyOp15
 70
     1
102
RTVSPropertyOp16
 70
     1
102
RTVSPropertyOp17
 70
     1
102
RTVSPropertyOp18
 70
     1
102
RTVSPropertyOp19
 70
     1
102
RTVSPropertyOp20
 70
     1
102
RTVSPropertyOp21
 70
     1
102
RTVSPropertyOp22
 70
     1
102
RTVSPropertyOp23
 70
     1
102
RTVSPropertyOp24
 70
     1
102
RTVSPropertyOp25
 70
     1
102
RTVSPropertyOp26
 70
     1
102
RTVSPropertyOp27
 70
     1
102
RTVSPropertyOp28
 70
     1
102
RTVSPropertyOp29
 70
     1
102
RTVSPropertyOp30
 70
     1
102
RTVSPropertyOp31
 70
     1
102
RTVSPropertyOp32
 70
     1
  0
XRECORD
  5
126
102
{ACAD_REACTORS
330
125
102
}
330
125
100
AcDbXrecord
280
     1
102
RTVSPropertyOp0
 70
     0
102
RTVSPropertyOp1
 70
     0
102
RTVSPropertyOp2
 70
     0
102
RTVSPropertyOp3
 70
     0
102
RTVSPropertyOp4
 70
     0
102
RTVSPropertyOp5
 70
     0
102
RTVSPropertyOp6
 70
     0
102
RTVSPropertyOp7
 70
     0
102
RTVSPropertyOp8
 70
     0
102
RTVSPropertyOp9
 70
     0
102
RTVSPropertyOp10
 70
     0
102
RTVSPropertyOp11
 70
     0
102
RTVSPropertyOp12
 70
     0
102
RTVSPropertyOp13
 70
     0
102
RTVSPropertyOp14
 70
     2
102
RTVSPropertyOp15
 70
     0
102
RTVSPropertyOp16
 70
     0
102
RTVSPropertyOp17
 70
     0
102
RTVSPropertyOp18
 70
     0
102
RTVSPropertyOp19
 70
     0
102
RTVSPropertyOp20
 70
     0
102
RTVSPropertyOp21
 70
     0
102
RTVSPropertyOp22
 70
     0
102
RTVSPropertyOp23
 70
     0
102
RTVSPropertyOp24
 70
     0
102
RTVSPropertyOp25
 70
     0
102
RTVSPropertyOp26
 70
     0
102
RTVSPropertyOp27
 70
     0
102
RTVSPropertyOp28
 70
     0
102
RTVSPropertyOp29
 70
     0
102
RTVSPropertyOp30
 70
     0
102
RTVSPropertyOp31
 70
     0
102
RTVSPropertyOp32
 70
     0
  0
XRECORD
  5
10C
102
{ACAD_REACTORS
330
10B
102
}
330
10B
100
AcDbXrecord
280
     1
102
RTVSPropertyOp0
 70
     1
102
RTVSPropertyOp1
 70
     1
102
RTVSPropertyOp2
 70
     1
102
RTVSPropertyOp3
 70
     1
102
RTVSPropertyOp4
 70
     1
102
RTVSPropertyOp5
 70
     1
102
RTVSPropertyOp6
 70
     1
102
RTVSPropertyOp7
 70
     1
102
RTVSPropertyOp8
 70
     1
102
RTVSPropertyOp9
 70
     1
102
RTVSPropertyOp10
 70
     1
102
RTVSPropertyOp11
 70
     1
102
RTVSPropertyOp12
 70
     1
102
RTVSPropertyOp13
 70
     1
102
RTVSPropertyOp14
 70
     1
102
RTVSPropertyOp15
 70
     1
102
RTVSPropertyOp16
 70
     1
102
RTVSPropertyOp17
 70
     1
102
RTVSPropertyOp18
 70
     1
102
RTVSPropertyOp19
 70
     1
102
RTVSPropertyOp20
 70
     1
102
RTVSPropertyOp21
 70
     1
102
RTVSPropertyOp22
 70
     1
102
RTVSPropertyOp23
 70
     1
102
RTVSPropertyOp24
 70
     1
102
RTVSPropertyOp25
 70
     1
102
RTVSPropertyOp26
 70
     1
102
RTVSPropertyOp27
 70
     1
102
RTVSPropertyOp28
 70
     1
102
RTVSPropertyOp29
 70
     1
102
RTVSPropertyOp30
 70
     1
102
RTVSPropertyOp31
 70
     1
102
RTVSPropertyOp32
 70
     1
  0
XRECORD
  5
128
102
{ACAD_REACTORS
330
127
102
}
330
127
100
AcDbXrecord
280
     1
102
RTVSPropertyOp0
 70
     0
102
RTVSPropertyOp1
 70
     0
102
RTVSPropertyOp2
 70
     0
102
RTVSPropertyOp3
 70
     0
102
RTVSPropertyOp4
 70
     0
102
RTVSPropertyOp5
 70
     0
102
RTVSPropertyOp6
 70
     0
102
RTVSPropertyOp7
 70
     0
102
RTVSPropertyOp8
 70
     0
102
RTVSPropertyOp9
 70
     0
102
RTVSPropertyOp10
 70
     0
102
RTVSPropertyOp11
 70
     0
102
RTVSPropertyOp12
 70
     0
102
RTVSPropertyOp13
 70
     0
102
RTVSPropertyOp14
 70
     2
102
RTVSPropertyOp15
 70
     0
102
RTVSPropertyOp16
 70
     0
102
RTVSPropertyOp17
 70
     0
102
RTVSPropertyOp18
 70
     0
102
RTVSPropertyOp19
 70
     0
102
RTVSPropertyOp20
 70
     0
102
RTVSPropertyOp21
 70
     0
102
RTVSPropertyOp22
 70
     0
102
RTVSPropertyOp23
 70
     0
102
RTVSPropertyOp24
 70
     0
102
RTVSPropertyOp25
 70
     0
102
RTVSPropertyOp26
 70
     0
102
RTVSPropertyOp27
 70
     0
102
RTVSPropertyOp28
 70
     0
102
RTVSPropertyOp29
 70
     0
102
RTVSPropertyOp30
 70
     0
102
RTVSPropertyOp31
 70
     0
102
RTVSPropertyOp32
 70
     0
  0
XRECORD
  5
102
102
{ACAD_REACTORS
330
101
102
}
330
101
100
AcDbXrecord
280
     1
102
RTVSPropertyOp0
 70
     1
102
RTVSPropertyOp1
 70
     1
102
RTVSPropertyOp2
 70
     1
102
RTVSPropertyOp3
 70
     1
102
RTVSPropertyOp4
 70
     1
102
RTVSPropertyOp5
 70
     1
102
RTVSPropertyOp6
 70
     1
102
RTVSPropertyOp7
 70
     1
102
RTVSPropertyOp8
 70
     1
102
RTVSPropertyOp9
 70
     1
102
RTVSPropertyOp10
 70
     1
102
RTVSPropertyOp11
 70
     1
102
RTVSPropertyOp12
 70
     1
102
RTVSPropertyOp13
 70
     1
102
RTVSPropertyOp14
 70
     1
102
RTVSPropertyOp15
 70
     1
102
RTVSPropertyOp16
 70
     1
102
RTVSPropertyOp17
 70
     1
102
RTVSPropertyOp18
 70
     1
102
RTVSPropertyOp19
 70
     1
102
RTVSPropertyOp20
 70
     1
102
RTVSPropertyOp21
 70
     1
102
RTVSPropertyOp22
 70
     1
102
RTVSPropertyOp23
 70
     1
102
RTVSPropertyOp24
 70
     1
102
RTVSPropertyOp25
 70
     1
102
RTVSPropertyOp26
 70
     1
102
RTVSPropertyOp27
 70
     1
102
RTVSPropertyOp28
 70
     1
102
RTVSPropertyOp29
 70
     1
102
RTVSPropertyOp30
 70
     1
102
RTVSPropertyOp31
 70
     1
102
RTVSPropertyOp32
 70
     1
  0
XRECORD
  5
124
102
{ACAD_REACTORS
330
123
102
}
330
123
100
AcDbXrecord
280
     1
102
RTVSPropertyOp0
 70
     1
102
RTVSPropertyOp1
 70
     1
102
RTVSPropertyOp2
 70
     1
102
RTVSPropertyOp3
 70
     1
102
RTVSPropertyOp4
 70
     1
102
RTVSPropertyOp5
 70
     1
102
RTVSPropertyOp6
 70
     1
102
RTVSPropertyOp7
 70
     1
102
RTVSPropertyOp8
 70
     1
102
RTVSPropertyOp9
 70
     1
102
RTVSPropertyOp10
 70
     1
102
RTVSPropertyOp11
 70
     1
102
RTVSPropertyOp12
 70
     1
102
RTVSPropertyOp13
 70
     1
102
RTVSPropertyOp14
 70
     1
102
RTVSPropertyOp15
 70
     1
102
RTVSPropertyOp16
 70
     1
102
RTVSPropertyOp17
 70
     1
102
RTVSPropertyOp18
 70
     1
102
RTVSPropertyOp19
 70
     1
102
RTVSPropertyOp20
 70
     1
102
RTVSPropertyOp21
 70
     1
102
RTVSPropertyOp22
 70
     1
102
RTVSPropertyOp23
 70
     1
102
RTVSPropertyOp24
 70
     1
102
RTVSPropertyOp25
 70
     1
102
RTVSPropertyOp26
 70
     1
102
RTVSPropertyOp27
 70
     1
102
RTVSPropertyOp28
 70
     1
102
RTVSPropertyOp29
 70
     1
102
RTVSPropertyOp30
 70
     1
102
RTVSPropertyOp31
 70
     1
102
RTVSPropertyOp32
 70
     1
  0
XRECORD
  5
122
102
{ACAD_REACTORS
330
121
102
}
330
121
100
AcDbXrecord
280
     1
102
RTVSPropertyOp0
 70
     1
102
RTVSPropertyOp1
 70
     1
102
RTVSPropertyOp2
 70
     1
102
RTVSPropertyOp3
 70
     1
102
RTVSPropertyOp4
 70
     1
102
RTVSPropertyOp5
 70
     1
102
RTVSPropertyOp6
 70
     1
102
RTVSPropertyOp7
 70
     1
102
RTVSPropertyOp8
 70
     1
102
RTVSPropertyOp9
 70
     1
102
RTVSPropertyOp10
 70
     1
102
RTVSPropertyOp11
 70
     1
102
RTVSPropertyOp12
 70
     1
102
RTVSPropertyOp13
 70
     1
102
RTVSPropertyOp14
 70
     1
102
RTVSPropertyOp15
 70
     1
102
RTVSPropertyOp16
 70
     1
102
RTVSPropertyOp17
 70
     1
102
RTVSPropertyOp18
 70
     1
102
RTVSPropertyOp19
 70
     1
102
RTVSPropertyOp20
 70
     1
102
RTVSPropertyOp21
 70
     1
102
RTVSPropertyOp22
 70
     1
102
RTVSPropertyOp23
 70
     1
102
RTVSPropertyOp24
 70
     1
102
RTVSPropertyOp25
 70
     1
102
RTVSPropertyOp26
 70
     1
102
RTVSPropertyOp27
 70
     1
102
RTVSPropertyOp28
 70
     1
102
RTVSPropertyOp29
 70
     1
102
RTVSPropertyOp30
 70
     1
102
RTVSPropertyOp31
 70
     1
102
RTVSPropertyOp32
 70
     1
  0
XRECORD
  5
11C
102
{ACAD_REACTORS
330
11B
102
}
330
11B
100
AcDbXrecord
280
     1
102
RTVSPropertyOp0
 70
     1
102
RTVSPropertyOp1
 70
     1
102
RTVSPropertyOp2
 70
     1
102
RTVSPropertyOp3
 70
     1
102
RTVSPropertyOp4
 70
     1
102
RTVSPropertyOp5
 70
     1
102
RTVSPropertyOp6
 70
     1
102
RTVSPropertyOp7
 70
     1
102
RTVSPropertyOp8
 70
     1
102
RTVSPropertyOp9
 70
     1
102
RTVSPropertyOp10
 70
     1
102
RTVSPropertyOp11
 70
     1
102
RTVSPropertyOp12
 70
     1
102
RTVSPropertyOp13
 70
     1
102
RTVSPropertyOp14
 70
     1
102
RTVSPropertyOp15
 70
     1
102
RTVSPropertyOp16
 70
     1
102
RTVSPropertyOp17
 70
     1
102
RTVSPropertyOp18
 70
     1
102
RTVSPropertyOp19
 70
     1
102
RTVSPropertyOp20
 70
     1
102
RTVSPropertyOp21
 70
     1
102
RTVSPropertyOp22
 70
     1
102
RTVSPropertyOp23
 70
     1
102
RTVSPropertyOp24
 70
     1
102
RTVSPropertyOp25
 70
     1
102
RTVSPropertyOp26
 70
     1
102
RTVSPropertyOp27
 70
     1
102
RTVSPropertyOp28
 70
     1
102
RTVSPropertyOp29
 70
     1
102
RTVSPropertyOp30
 70
     1
102
RTVSPropertyOp31
 70
     1
102
RTVSPropertyOp32
 70
     1
  0
XRECORD
  5
11E
102
{ACAD_REACTORS
330
11D
102
}
330
11D
100
AcDbXrecord
280
     1
102
RTVSPropertyOp0
 70
     1
102
RTVSPropertyOp1
 70
     1
102
RTVSPropertyOp2
 70
     1
102
RTVSPropertyOp3
 70
     1
102
RTVSPropertyOp4
 70
     1
102
RTVSPropertyOp5
 70
     1
102
RTVSPropertyOp6
 70
     1
102
RTVSPropertyOp7
 70
     1
102
RTVSPropertyOp8
 70
     1
102
RTVSPropertyOp9
 70
     1
102
RTVSPropertyOp10
 70
     1
102
RTVSPropertyOp11
 70
     1
102
RTVSPropertyOp12
 70
     1
102
RTVSPropertyOp13
 70
     1
102
RTVSPropertyOp14
 70
     1
102
RTVSPropertyOp15
 70
     1
102
RTVSPropertyOp16
 70
     1
102
RTVSPropertyOp17
 70
     1
102
RTVSPropertyOp18
 70
     1
102
RTVSPropertyOp19
 70
     1
102
RTVSPropertyOp20
 70
     1
102
RTVSPropertyOp21
 70
     1
102
RTVSPropertyOp22
 70
     1
102
RTVSPropertyOp23
 70
     1
102
RTVSPropertyOp24
 70
     1
102
RTVSPropertyOp25
 70
     1
102
RTVSPropertyOp26
 70
     1
102
RTVSPropertyOp27
 70
     1
102
RTVSPropertyOp28
 70
     1
102
RTVSPropertyOp29
 70
     1
102
RTVSPropertyOp30
 70
     1
102
RTVSPropertyOp31
 70
     1
102
RTVSPropertyOp32
 70
     1
  0
XRECORD
  5
10A
102
{ACAD_REACTORS
330
109
102
}
330
109
100
AcDbXrecord
280
     1
102
RTVSPropertyOp0
 70
     1
102
RTVSPropertyOp1
 70
     1
102
RTVSPropertyOp2
 70
     1
102
RTVSPropertyOp3
 70
     1
102
RTVSPropertyOp4
 70
     1
102
RTVSPropertyOp5
 70
     1
102
RTVSPropertyOp6
 70
     1
102
RTVSPropertyOp7
 70
     1
102
RTVSPropertyOp8
 70
     1
102
RTVSPropertyOp9
 70
     1
102
RTVSPropertyOp10
 70
     1
102
RTVSPropertyOp11
 70
     1
102
RTVSPropertyOp12
 70
     1
102
RTVSPropertyOp13
 70
     1
102
RTVSPropertyOp14
 70
     1
102
RTVSPropertyOp15
 70
     1
102
RTVSPropertyOp16
 70
     1
102
RTVSPropertyOp17
 70
     1
102
RTVSPropertyOp18
 70
     1
102
RTVSPropertyOp19
 70
     1
102
RTVSPropertyOp20
 70
     1
102
RTVSPropertyOp21
 70
     1
102
RTVSPropertyOp22
 70
     1
102
RTVSPropertyOp23
 70
     1
102
RTVSPropertyOp24
 70
     1
102
RTVSPropertyOp25
 70
     1
102
RTVSPropertyOp26
 70
     1
102
RTVSPropertyOp27
 70
     1
102
RTVSPropertyOp28
 70
     1
102
RTVSPropertyOp29
 70
     1
102
RTVSPropertyOp30
 70
     1
102
RTVSPropertyOp31
 70
     1
102
RTVSPropertyOp32
 70
     1
  0
XRECORD
  5
118
102
{ACAD_REACTORS
330
117
102
}
330
117
100
AcDbXrecord
280
     1
102
RTVSPropertyOp0
 70
     1
102
RTVSPropertyOp1
 70
     1
102
RTVSPropertyOp2
 70
     1
102
RTVSPropertyOp3
 70
     1
102
RTVSPropertyOp4
 70
     1
102
RTVSPropertyOp5
 70
     1
102
RTVSPropertyOp6
 70
     1
102
RTVSPropertyOp7
 70
     1
102
RTVSPropertyOp8
 70
     1
102
RTVSPropertyOp9
 70
     1
102
RTVSPropertyOp10
 70
     1
102
RTVSPropertyOp11
 70
     1
102
RTVSPropertyOp12
 70
     1
102
RTVSPropertyOp13
 70
     1
102
RTVSPropertyOp14
 70
     1
102
RTVSPropertyOp15
 70
     1
102
RTVSPropertyOp16
 70
     1
102
RTVSPropertyOp17
 70
     1
102
RTVSPropertyOp18
 70
     1
102
RTVSPropertyOp19
 70
     1
102
RTVSPropertyOp20
 70
     1
102
RTVSPropertyOp21
 70
     1
102
RTVSPropertyOp22
 70
     1
102
RTVSPropertyOp23
 70
     1
102
RTVSPropertyOp24
 70
     1
102
RTVSPropertyOp25
 70
     1
102
RTVSPropertyOp26
 70
     1
102
RTVSPropertyOp27
 70
     1
102
RTVSPropertyOp28
 70
     1
102
RTVSPropertyOp29
 70
     1
102
RTVSPropertyOp30
 70
     1
102
RTVSPropertyOp31
 70
     1
102
RTVSPropertyOp32
 70
     1
  0
XRECORD
  5
120
102
{ACAD_REACTORS
330
11F
102
}
330
11F
100
AcDbXrecord
280
     1
102
RTVSPropertyOp0
 70
     1
102
RTVSPropertyOp1
 70
     1
102
RTVSPropertyOp2
 70
     1
102
RTVSPropertyOp3
 70
     1
102
RTVSPropertyOp4
 70
     1
102
RTVSPropertyOp5
 70
     1
102
RTVSPropertyOp6
 70
     1
102
RTVSPropertyOp7
 70
     1
102
RTVSPropertyOp8
 70
     1
102
RTVSPropertyOp9
 70
     1
102
RTVSPropertyOp10
 70
     1
102
RTVSPropertyOp11
 70
     1
102
RTVSPropertyOp12
 70
     1
102
RTVSPropertyOp13
 70
     1
102
RTVSPropertyOp14
 70
     1
102
RTVSPropertyOp15
 70
     1
102
RTVSPropertyOp16
 70
     1
102
RTVSPropertyOp17
 70
     1
102
RTVSPropertyOp18
 70
     1
102
RTVSPropertyOp19
 70
     1
102
RTVSPropertyOp20
 70
     1
102
RTVSPropertyOp21
 70
     1
102
RTVSPropertyOp22
 70
     1
102
RTVSPropertyOp23
 70
     1
102
RTVSPropertyOp24
 70
     1
102
RTVSPropertyOp25
 70
     1
102
RTVSPropertyOp26
 70
     1
102
RTVSPropertyOp27
 70
     1
102
RTVSPropertyOp28
 70
     1
102
RTVSPropertyOp29
 70
     1
102
RTVSPropertyOp30
 70
     1
102
RTVSPropertyOp31
 70
     1
102
RTVSPropertyOp32
 70
     1
  0
ENDSEC
  0
EOF
