  0
SECTION
  2
HEADER
  9
$ACADVER
  1
AC1021
  9
$ACADMAINTVER
 70
    25
  9
$DWGCODEPAGE
  3
ANSI_936
  9
$INSBASE
 10
0.0
 20
0.0
 30
0.0
  9
$EXTMIN
 10
-19.8043
 20
-18.76613
 30
0.0
  9
$EXTMAX
 10
18.11814
 20
19.12067
 30
0.0
  9
$LIMMIN
 10
0.0
 20
0.0
  9
$LIMMAX
 10
12.0
 20
9.0
  9
$ORTHOMODE
 70
     0
  9
$REGENMODE
 70
     1
  9
$FILLMODE
 70
     1
  9
$QTEXTMODE
 70
     0
  9
$MIRRTEXT
 70
     1
  9
$LTSCALE
 40
1.0
  9
$ATTMODE
 70
     1
  9
$TEXTSIZE
 40
0.2
  9
$TRACEWID
 40
0.05
  9
$TEXTSTYLE
  7
Standard
  9
$CLAYER
  8
0
  9
$CELTYPE
  6
ByLayer
  9
$CECOLOR
 62
   256
  9
$CELTSCALE
 40
1.0
  9
$DISPSILH
 70
     0
  9
$DIMSCALE
 40
1.0
  9
$DIMASZ
 40
0.18
  9
$DIMEXO
 40
0.0625
  9
$DIMDLI
 40
0.38
  9
$DIMRND
 40
0.0
  9
$DIMDLE
 40
0.0
  9
$DIMEXE
 40
0.18
  9
$DIMTP
 40
0.0
  9
$DIMTM
 40
0.0
  9
$DIMTXT
 40
0.18
  9
$DIMCEN
 40
0.09
  9
$DIMTSZ
 40
0.0
  9
$DIMTOL
 70
     0
  9
$DIMLIM
 70
     0
  9
$DIMTIH
 70
     1
  9
$DIMTOH
 70
     1
  9
$DIMSE1
 70
     0
  9
$DIMSE2
 70
     0
  9
$DIMTAD
 70
     0
  9
$DIMZIN
 70
     0
  9
$DIMBLK
  1

  9
$DIMASO
 70
     1
  9
$DIMSHO
 70
     1
  9
$DIMPOST
  1

  9
$DIMAPOST
  1

  9
$DIMALT
 70
     0
  9
$DIMALTD
 70
     2
  9
$DIMALTF
 40
25.4
  9
$DIMLFAC
 40
1.0
  9
$DIMTOFL
 70
     0
  9
$DIMTVP
 40
0.0
  9
$DIMTIX
 70
     0
  9
$DIMSOXD
 70
     0
  9
$DIMSAH
 70
     0
  9
$DIMBLK1
  1

  9
$DIMBLK2
  1

  9
$DIMSTYLE
  2
Standard
  9
$DIMCLRD
 70
     0
  9
$DIMCLRE
 70
     0
  9
$DIMCLRT
 70
     0
  9
$DIMTFAC
 40
1.0
  9
$DIMGAP
 40
0.09
  9
$DIMJUST
 70
     0
  9
$DIMSD1
 70
     0
  9
$DIMSD2
 70
     0
  9
$DIMTOLJ
 70
     1
  9
$DIMTZIN
 70
     0
  9
$DIMALTZ
 70
     0
  9
$DIMALTTZ
 70
     0
  9
$DIMUPT
 70
     0
  9
$DIMDEC
 70
     4
  9
$DIMTDEC
 70
     4
  9
$DIMALTU
 70
     2
  9
$DIMALTTD
 70
     2
  9
$DIMTXSTY
  7
Standard
  9
$DIMAUNIT
 70
     0
  9
$DIMADEC
 70
     0
  9
$DIMALTRND
 40
0.0
  9
$DIMAZIN
 70
     0
  9
$DIMDSEP
 70
    46
  9
$DIMATFIT
 70
     3
  9
$DIMFRAC
 70
     0
  9
$DIMLDRBLK
  1

  9
$DIMLUNIT
 70
     2
  9
$DIMLWD
 70
    -2
  9
$DIMLWE
 70
    -2
  9
$DIMTMOVE
 70
     0
  9
$DIMFXL
 40
1.0
  9
$DIMFXLON
 70
     0
  9
$DIMJOGANG
 40
0.7853981633974483
  9
$DIMTFILL
 70
     0
  9
$DIMTFILLCLR
 70
     0
  9
$DIMARCSYM
 70
     0
  9
$DIMLTYPE
  6

  9
$DIMLTEX1
  6

  9
$DIMLTEX2
  6

  9
$LUNITS
 70
     2
  9
$LUPREC
 70
     4
  9
$SKETCHINC
 40
0.1
  9
$FILLETRAD
 40
0.5
  9
$AUNITS
 70
     0
  9
$AUPREC
 70
     0
  9
$MENU
  1
.
  9
$ELEVATION
 40
0.0
  9
$PELEVATION
 40
0.0
  9
$THICKNESS
 40
0.0
  9
$LIMCHECK
 70
     0
  9
$CHAMFERA
 40
0.5
  9
$CHAMFERB
 40
0.5
  9
$CHAMFERC
 40
1.0
  9
$CHAMFERD
 40
0.0
  9
$SKPOLY
 70
     0
  9
$TDCREATE
 40
2457474.722529468
  9
$TDUCREATE
 40
2457474.389196134
  9
$TDUPDATE
 40
2457474.722529838
  9
$TDUUPDATE
 40
2457474.389196505
  9
$TDINDWG
 40
0.0000000116
  9
$TDUSRTIMER
 40
0.0000000116
  9
$USRTIMER
 70
     1
  9
$ANGBASE
 50
0.0
  9
$ANGDIR
 70
     0
  9
$PDMODE
 70
     0
  9
$PDSIZE
 40
0.0
  9
$PLINEWID
 40
0.0
  9
$SPLFRAME
 70
     0
  9
$SPLINETYPE
 70
     6
  9
$SPLINESEGS
 70
     8
  9
$HANDSEED
  5
88
  9
$SURFTAB1
 70
     6
  9
$SURFTAB2
 70
     6
  9
$SURFTYPE
 70
     6
  9
$SURFU
 70
     6
  9
$SURFV
 70
     6
  9
$UCSBASE
  2

  9
$UCSNAME
  2

  9
$UCSORG
 10
0.0
 20
0.0
 30
0.0
  9
$UCSXDIR
 10
1.0
 20
0.0
 30
0.0
  9
$UCSYDIR
 10
0.0
 20
1.0
 30
0.0
  9
$UCSORTHOREF
  2

  9
$UCSORTHOVIEW
 70
     0
  9
$UCSORGTOP
 10
0.0
 20
0.0
 30
0.0
  9
$UCSORGBOTTOM
 10
0.0
 20
0.0
 30
0.0
  9
$UCSORGLEFT
 10
0.0
 20
0.0
 30
0.0
  9
$UCSORGRIGHT
 10
0.0
 20
0.0
 30
0.0
  9
$UCSORGFRONT
 10
0.0
 20
0.0
 30
0.0
  9
$UCSORGBACK
 10
0.0
 20
0.0
 30
0.0
  9
$PUCSBASE
  2

  9
$PUCSNAME
  2

  9
$PUCSORG
 10
0.0
 20
0.0
 30
0.0
  9
$PUCSXDIR
 10
1.0
 20
0.0
 30
0.0
  9
$PUCSYDIR
 10
0.0
 20
1.0
 30
0.0
  9
$PUCSORTHOREF
  2

  9
$PUCSORTHOVIEW
 70
     0
  9
$PUCSORGTOP
 10
0.0
 20
0.0
 30
0.0
  9
$PUCSORGBOTTOM
 10
0.0
 20
0.0
 30
0.0
  9
$PUCSORGLEFT
 10
0.0
 20
0.0
 30
0.0
  9
$PUCSORGRIGHT
 10
0.0
 20
0.0
 30
0.0
  9
$PUCSORGFRONT
 10
0.0
 20
0.0
 30
0.0
  9
$PUCSORGBACK
 10
0.0
 20
0.0
 30
0.0
  9
$USERI1
 70
     0
  9
$USERI2
 70
     0
  9
$USERI3
 70
     0
  9
$USERI4
 70
     0
  9
$USERI5
 70
     0
  9
$USERR1
 40
0.0
  9
$USERR2
 40
0.0
  9
$USERR3
 40
0.0
  9
$USERR4
 40
0.0
  9
$USERR5
 40
0.0
  9
$WORLDVIEW
 70
     1
  9
$SHADEDGE
 70
     3
  9
$SHADEDIF
 70
    70
  9
$TILEMODE
 70
     1
  9
$MAXACTVP
 70
    64
  9
$PINSBASE
 10
0.0
 20
0.0
 30
0.0
  9
$PLIMCHECK
 70
     0
  9
$PEXTMIN
 10
1.000000000000000E+20
 20
1.000000000000000E+20
 30
1.000000000000000E+20
  9
$PEXTMAX
 10
-1.000000000000000E+20
 20
-1.000000000000000E+20
 30
-1.000000000000000E+20
  9
$PLIMMIN
 10
0.0
 20
0.0
  9
$PLIMMAX
 10
12.0
 20
9.0
  9
$UNITMODE
 70
     0
  9
$VISRETAIN
 70
     1
  9
$PLINEGEN
 70
     0
  9
$PSLTSCALE
 70
     1
  9
$TREEDEPTH
 70
  3020
  9
$CMLSTYLE
  2
Standard
  9
$CMLJUST
 70
     0
  9
$CMLSCALE
 40
1.0
  9
$PROXYGRAPHICS
 70
     1
  9
$MEASUREMENT
 70
     0
  9
$CELWEIGHT
370
    -1
  9
$ENDCAPS
280
     0
  9
$JOINSTYLE
280
     0
  9
$LWDISPLAY
290
     0
  9
$INSUNITS
 70
     5
  9
$HYPERLINKBASE
  1

  9
$STYLESHEET
  1

  9
$XEDIT
290
     1
  9
$CEPSNTYPE
380
     0
  9
$PSTYLEMODE
290
     1
  9
$FINGERPRINTGUID
  2
{6B11C677-EF36-4138-8252-5958F14AB3FF}
  9
$VERSIONGUID
  2
{FAEB1C32-E019-11D5-929B-00C0DF256EC4}
  9
$EXTNAMES
290
     1
  9
$PSVPSCALE
 40
0.0
  9
$OLESTARTUP
290
     0
  9
$SORTENTS
280
   127
  9
$INDEXCTL
280
     0
  9
$HIDETEXT
280
     1
  9
$XCLIPFRAME
290
     0
  9
$HALOGAP
280
     0
  9
$OBSCOLOR
 70
   257
  9
$OBSLTYPE
280
     0
  9
$INTERSECTIONDISPLAY
280
     0
  9
$INTERSECTIONCOLOR
 70
   257
  9
$DIMASSOC
280
     2
  9
$PROJECTNAME
  1

  9
$CAMERADISPLAY
290
     0
  9
$LENSLENGTH
 40
50.0
  9
$CAMERAHEIGHT
 40
0.0
  9
$STEPSPERSEC
 40
2.0
  9
$STEPSIZE
 40
6.0
  9
$3DDWFPREC
 40
2.0
  9
$PSOLWIDTH
 40
0.25
  9
$PSOLHEIGHT
 40
4.0
  9
$LOFTANG1
 40
1.570796326794897
  9
$LOFTANG2
 40
1.570796326794897
  9
$LOFTMAG1
 40
0.0
  9
$LOFTMAG2
 40
0.0
  9
$LOFTPARAM
 70
     7
  9
$LOFTNORMALS
280
     1
  9
$LATITUDE
 40
37.795
  9
$LONGITUDE
 40
-122.394
  9
$NORTHDIRECTION
 40
0.0
  9
$TIMEZONE
 70
 -8000
  9
$LIGHTGLYPHDISPLAY
280
     1
  9
$TILEMODELIGHTSYNCH
280
     1
  9
$SOLIDHIST
280
     1
  9
$SHOWHIST
280
     1
  9
$DWFFRAME
280
     2
  9
$DGNFRAME
280
     2
  9
$REALWORLDSCALE
290
     1
  9
$INTERFERECOLOR
 62
   256
  9
$CSHADOW
280
     0
  9
$SHADOWPLANELOCATION
 40
0.0
  0
ENDSEC
  0
SECTION
  2
CLASSES
  0
CLASS
  1
ACDBDICTIONARYWDFLT
  2
AcDbDictionaryWithDefault
  3
ObjectDBX Classes
 90
        0
 91
        4
280
     0
281
     0
  0
CLASS
  1
VISUALSTYLE
  2
AcDbVisualStyle
  3
ObjectDBX Classes
 90
     4095
 91
        4
280
     0
281
     0
  0
CLASS
  1
MATERIAL
  2
AcDbMaterial
  3
ObjectDBX Classes
 90
     1153
 91
        4
280
     0
281
     0
  0
CLASS
  1
IMAGEDEF
  2
AcDbRasterImageDef
  3
ISM
 90
        0
 91
        4
280
     0
281
     0
  0
CLASS
  1
IMAGE
  2
AcDbRasterImage
  3
ISM
 90
      127
 91
        5
280
     0
281
     1
  0
CLASS
  1
IMAGEDEF_REACTOR
  2
AcDbRasterImageDefReactor
  3
ISM
 90
        1
 91
        4
280
     0
281
     0
  0
ENDSEC
  0
SECTION
  2
TABLES
  0
TABLE
  2
VPORT
  5
8
330
0
100
AcDbSymbolTable
 70
     1
  0
VPORT
  5
29
330
8
100
AcDbSymbolTableRecord
100
AcDbViewportTableRecord
  2
*Active
 70
     0
 10
0.0
 20
0.0
 11
1.0
 21
1.0
 12
10.42990654205607
 22
4.5
 13
0.0
 23
0.0
 14
0.5
 24
0.5
 15
0.5
 25
0.5
 16
0.0
 26
0.0
 36
1.0
 17
0.0
 27
0.0
 37
0.0
 40
9.0
 41
1.972972972850329
 42
50.0
 43
0.0
 44
0.0
 50
0.0
 51
0.0
 71
     0
 72
   100
 73
     1
 74
     3
 75
     0
 76
     0
 77
     0
 78
     0
281
     0
 65
     1
110
0.0
120
0.0
130
0.0
111
1.0
121
0.0
131
0.0
112
0.0
122
1.0
132
0.0
 79
     0
146
0.0
 60
     3
 61
     5
292
     1
282
     1
141
0.0
142
0.0
 63
   250
  0
ENDTAB
  0
TABLE
  2
LTYPE
  5
5
330
0
100
AcDbSymbolTable
 70
     1
  0
LTYPE
  5
14
330
5
100
AcDbSymbolTableRecord
100
AcDbLinetypeTableRecord
  2
ByBlock
 70
     0
  3

 72
    65
 73
     0
 40
0.0
  0
LTYPE
  5
15
330
5
100
AcDbSymbolTableRecord
100
AcDbLinetypeTableRecord
  2
ByLayer
 70
     0
  3

 72
    65
 73
     0
 40
0.0
  0
LTYPE
  5
16
330
5
100
AcDbSymbolTableRecord
100
AcDbLinetypeTableRecord
  2
Continuous
 70
     0
  3
Solid line
 72
    65
 73
     0
 40
0.0
  0
ENDTAB
  0
TABLE
  2
LAYER
  5
2
330
0
100
AcDbSymbolTable
 70
     2
  0
LAYER
  5
10
330
2
100
AcDbSymbolTableRecord
100
AcDbLayerTableRecord
  2
0
 70
     0
 62
     7
  6
Continuous
370
    -3
390
F
347
3E
  0
LAYER
  5
40
330
2
100
AcDbSymbolTableRecord
100
AcDbLayerTableRecord
  2
layer 1
 70
     0
 62
     7
  6
Continuous
370
    -3
390
F
347
3E
  0
ENDTAB
  0
TABLE
  2
STYLE
  5
3
330
0
100
AcDbSymbolTable
 70
     1
  0
STYLE
  5
11
330
3
100
AcDbSymbolTableRecord
100
AcDbTextStyleTableRecord
  2
Standard
 70
     0
 40
0.0
 41
1.0
 50
0.0
 71
     0
 42
0.2
  3
txt
  4

  0
ENDTAB
  0
TABLE
  2
VIEW
  5
6
330
0
100
AcDbSymbolTable
 70
     0
  0
ENDTAB
  0
TABLE
  2
UCS
  5
7
330
0
100
AcDbSymbolTable
 70
     0
  0
ENDTAB
  0
TABLE
  2
APPID
  5
9
330
0
100
AcDbSymbolTable
 70
     2
  0
APPID
  5
12
330
9
100
AcDbSymbolTableRecord
100
AcDbRegAppTableRecord
  2
ACAD
 70
     0
  0
APPID
  5
3F
330
9
100
AcDbSymbolTableRecord
100
AcDbRegAppTableRecord
  2
ODA
 70
     0
  0
ENDTAB
  0
TABLE
  2
DIMSTYLE
  5
A
330
0
100
AcDbSymbolTable
 70
     1
100
AcDbDimStyleTable
  0
DIMSTYLE
105
27
330
A
100
AcDbSymbolTableRecord
100
AcDbDimStyleTableRecord
  2
Standard
 70
     0
178
     0
340
11
  0
ENDTAB
  0
TABLE
  2
BLOCK_RECORD
  5
1
330
0
100
AcDbSymbolTable
 70
     1
  0
BLOCK_RECORD
  5
1F
330
1
100
AcDbSymbolTableRecord
100
AcDbBlockTableRecord
  2
*Model_Space
340
22
 70
     0
280
     1
281
     0
  0
BLOCK_RECORD
  5
1B
330
1
100
AcDbSymbolTableRecord
100
AcDbBlockTableRecord
  2
*Paper_Space
340
1E
 70
     0
280
     1
281
     0
  0
BLOCK_RECORD
  5
23
330
1
100
AcDbSymbolTableRecord
100
AcDbBlockTableRecord
  2
*Paper_Space0
340
26
 70
     0
280
     1
281
     0
  0
ENDTAB
  0
ENDSEC
  0
SECTION
  2
BLOCKS
  0
BLOCK
  5
20
330
1F
100
AcDbEntity
  8
0
100
AcDbBlockBegin
  2
*Model_Space
 70
     0
 10
0.0
 20
0.0
 30
0.0
  3
*Model_Space
  1

  0
ENDBLK
  5
21
330
1F
100
AcDbEntity
  8
0
100
AcDbBlockEnd
  0
BLOCK
  5
1C
330
1B
100
AcDbEntity
 67
     1
  8
0
100
AcDbBlockBegin
  2
*Paper_Space
 70
     0
 10
0.0
 20
0.0
 30
0.0
  3
*Paper_Space
  1

  0
ENDBLK
  5
1D
330
1B
100
AcDbEntity
 67
     1
  8
0
100
AcDbBlockEnd
  0
BLOCK
  5
24
330
23
100
AcDbEntity
  8
0
100
AcDbBlockBegin
  2
*Paper_Space0
 70
     0
 10
0.0
 20
0.0
 30
0.0
  3
*Paper_Space0
  1

  0
ENDBLK
  5
25
330
23
100
AcDbEntity
  8
0
100
AcDbBlockEnd
  0
ENDSEC
  0
SECTION
  2
ENTITIES
  0
SPLINE
  5
41
330
1F
100
AcDbEntity
  8
layer 1
 62
   250
370
    50
100
AcDbSpline
210
0.0
220
0.0
230
1.0
 70
    11
 71
     3
 72
    20
 73
    16
 74
     0
 42
0.0000000001
 43
0.0000000001
 12
1.0
 22
0.0
 32
0.0
 13
1.0
 23
0.0
 33
0.0
 40
0.0
 40
0.0
 40
0.0
 40
0.0
 40
0.2
 40
0.2
 40
0.2
 40
0.2
 40
0.4
 40
0.4
 40
0.4
 40
0.4
 40
0.6
 40
0.6
 40
0.6
 40
0.6
 40
1.0
 40
1.0
 40
1.0
 40
1.0
 10
-0.84309
 20
19.09567
 30
0.0
 10
9.59509
 20
19.09567
 30
0.0
 10
18.05691
 20
10.63386
 30
0.0
 10
18.05691
 20
0.19569
 30
0.0
 10
18.05691
 20
0.19569
 30
0.0
 10
18.05691
 20
-10.24249
 30
0.0
 10
9.59509
 20
-18.7043
 30
0.0
 10
-0.84309
 20
-18.7043
 30
0.0
 10
-0.84309
 20
-18.7043
 30
0.0
 10
-11.28126
 20
-18.7043
 30
0.0
 10
-19.74308
 20
-10.24249
 30
0.0
 10
-19.74308
 20
0.19569
 30
0.0
 10
-19.74308
 20
0.19569
 30
0.0
 10
-19.74308
 20
10.63386
 30
0.0
 10
-11.28126
 20
19.09567
 30
0.0
 10
-0.84309
 20
19.09567
 30
0.0
  0
IMAGE
  5
44
330
1F
100
AcDbEntity
  8
layer 1
 62
   250
 92
      140
310
8C00000001000000840000000600000005000000F949B54FC763F13F36B05582C5F126C000000000000000005C706806401E284036B05582C5F126C000000000000000005C706806401E2840219E74844855F5BF0000000000000000F949B54FC763F13F219E74844855F5BF0000000000000000F949B54FC763F13F36B055
310
82C5F126C00000000000000000
100
AcDbRasterImage
 90
        0
 10
1.08686
 20
-11.47221
 30
0.0
 11
0.01388888888888889
 21
0.0
 31
0.0
 12
0.0
 22
0.01388888888888889
 32
0.0
 13
790.0
 23
730.0
340
43
 70
     3
280
     1
281
    50
282
    50
283
     0
360
45
 71
     1
 91
        2
 14
1.08686
 24
-11.47221
 14
12.05932
 24
-1.328860000000001
  0
SPLINE
  5
46
330
1F
100
AcDbEntity
  8
layer 1
 62
   250
370
    50
100
AcDbSpline
210
0.0
220
0.0
230
1.0
 70
    24
 71
     3
 72
     8
 73
     4
 74
     0
 42
0.0000000001
 43
0.0000000001
 12
1.0
 22
0.0
 32
0.0
 13
1.0
 23
0.0
 33
0.0
 40
0.0
 40
0.0
 40
0.0
 40
0.0
 40
1.0
 40
1.0
 40
1.0
 40
1.0
 10
-0.84308
 20
4.92891
 30
0.0
 10
-0.84308
 20
4.92891
 30
0.0
 10
-0.84308
 20
-18.32046
 30
0.0
 10
-0.84308
 20
-18.32046
 30
0.0
  0
SPLINE
  5
47
330
1F
100
AcDbEntity
  8
layer 1
 62
   250
370
    50
100
AcDbSpline
210
0.0
220
0.0
230
1.0
 70
    24
 71
     3
 72
     8
 73
     4
 74
     0
 42
0.0000000001
 43
0.0000000001
 12
1.0
 22
0.0
 32
0.0
 13
1.0
 23
0.0
 33
0.0
 40
0.0
 40
0.0
 40
0.0
 40
0.0
 40
1.0
 40
1.0
 40
1.0
 40
1.0
 10
-0.84303
 20
19.10513
 30
0.0
 10
-0.84303
 20
19.10513
 30
0.0
 10
-0.84303
 20
6.7569
 30
0.0
 10
-0.84303
 20
6.7569
 30
0.0
  0
SPLINE
  5
48
330
1F
100
AcDbEntity
  8
layer 1
 62
   250
370
    50
100
AcDbSpline
210
0.0
220
0.0
230
1.0
 70
    11
 71
     3
 72
    16
 73
    12
 74
     0
 42
0.0000000001
 43
0.0000000001
 12
1.0
 22
0.0
 32
0.0
 13
1.0
 23
0.0
 33
0.0
 40
0.0
 40
0.0
 40
0.0
 40
0.0
 40
0.25
 40
0.25
 40
0.25
 40
0.25
 40
0.5
 40
0.5
 40
0.5
 40
0.5
 40
1.0
 40
1.0
 40
1.0
 40
1.0
 10
-1.0487
 20
-18.13224
 30
0.0
 10
-1.0487
 20
-18.13224
 30
0.0
 10
-0.62705
 20
-18.13224
 30
0.0
 10
-0.62705
 20
-18.13224
 30
0.0
 10
-0.62705
 20
-18.13224
 30
0.0
 10
-0.62705
 20
-18.13224
 30
0.0
 10
-0.84726
 20
-18.69487
 30
0.0
 10
-0.84726
 20
-18.69487
 30
0.0
 10
-0.84726
 20
-18.69487
 30
0.0
 10
-0.84726
 20
-18.69487
 30
0.0
 10
-1.0487
 20
-18.13224
 30
0.0
 10
-1.0487
 20
-18.13224
 30
0.0
  0
SPLINE
  5
49
330
1F
100
AcDbEntity
  8
layer 1
 62
   250
370
    50
100
AcDbSpline
210
0.0
220
0.0
230
1.0
 70
    24
 71
     3
 72
     8
 73
     4
 74
     0
 42
0.0000000001
 43
0.0000000001
 12
1.0
 22
0.0
 32
0.0
 13
1.0
 23
0.0
 33
0.0
 40
0.0
 40
0.0
 40
0.0
 40
0.0
 40
1.0
 40
1.0
 40
1.0
 40
1.0
 10
-4.98125
 20
0.19567
 30
0.0
 10
-4.98125
 20
0.19567
 30
0.0
 10
17.70594
 20
0.19567
 30
0.0
 10
17.70594
 20
0.19567
 30
0.0
  0
SPLINE
  5
4A
330
1F
100
AcDbEntity
  8
layer 1
 62
   250
370
    50
100
AcDbSpline
210
0.0
220
0.0
230
1.0
 70
    24
 71
     3
 72
     8
 73
     4
 74
     0
 42
0.0000000001
 43
0.0000000001
 12
1.0
 22
0.0
 32
0.0
 13
1.0
 23
0.0
 33
0.0
 40
0.0
 40
0.0
 40
0.0
 40
0.0
 40
1.0
 40
1.0
 40
1.0
 40
1.0
 10
-19.48207
 20
0.19567
 30
0.0
 10
-19.48207
 20
0.19567
 30
0.0
 10
-8.93788
 20
0.19567
 30
0.0
 10
-8.93788
 20
0.19567
 30
0.0
  0
SPLINE
  5
4B
330
1F
100
AcDbEntity
  8
layer 1
 62
   250
370
    50
100
AcDbSpline
210
0.0
220
0.0
230
1.0
 70
    11
 71
     3
 72
    16
 73
    12
 74
     0
 42
0.0000000001
 43
0.0000000001
 12
1.0
 22
0.0
 32
0.0
 13
1.0
 23
0.0
 33
0.0
 40
0.0
 40
0.0
 40
0.0
 40
0.0
 40
0.25
 40
0.25
 40
0.25
 40
0.25
 40
0.5
 40
0.5
 40
0.5
 40
0.5
 40
1.0
 40
1.0
 40
1.0
 40
1.0
 10
17.60274
 20
-0.00938
 30
0.0
 10
17.60274
 20
-0.00938
 30
0.0
 10
17.60274
 20
0.39711
 30
0.0
 10
17.60274
 20
0.39711
 30
0.0
 10
17.60274
 20
0.39711
 30
0.0
 10
17.60274
 20
0.39711
 30
0.0
 10
18.05692
 20
0.18482
 30
0.0
 10
18.05692
 20
0.18482
 30
0.0
 10
18.05692
 20
0.18482
 30
0.0
 10
18.05692
 20
0.18482
 30
0.0
 10
17.60274
 20
-0.00938
 30
0.0
 10
17.60274
 20
-0.00938
 30
0.0
  0
SPLINE
  5
4C
330
1F
100
AcDbEntity
  8
layer 1
 62
   250
370
    50
100
AcDbSpline
210
0.0
220
0.0
230
1.0
 70
    11
 71
     3
 72
    16
 73
    12
 74
     0
 42
0.0000000001
 43
0.0000000001
 12
1.0
 22
0.0
 32
0.0
 13
1.0
 23
0.0
 33
0.0
 40
0.0
 40
0.0
 40
0.0
 40
0.0
 40
0.25
 40
0.25
 40
0.25
 40
0.25
 40
0.5
 40
0.5
 40
0.5
 40
0.5
 40
1.0
 40
1.0
 40
1.0
 40
1.0
 10
-19.28889
 20
-0.00938
 30
0.0
 10
-19.28889
 20
-0.00938
 30
0.0
 10
-19.28889
 20
0.39711
 30
0.0
 10
-19.28889
 20
0.39711
 30
0.0
 10
-19.28889
 20
0.39711
 30
0.0
 10
-19.28889
 20
0.39711
 30
0.0
 10
-19.74308
 20
0.18482
 30
0.0
 10
-19.74308
 20
0.18482
 30
0.0
 10
-19.74308
 20
0.18482
 30
0.0
 10
-19.74308
 20
0.18482
 30
0.0
 10
-19.28889
 20
-0.00938
 30
0.0
 10
-19.28889
 20
-0.00938
 30
0.0
  0
SPLINE
  5
4D
330
1F
100
AcDbEntity
  8
layer 1
 62
   250
370
    50
100
AcDbSpline
210
0.0
220
0.0
230
1.0
 70
     8
 71
     3
 72
    12
 73
     8
 74
     0
 42
0.0000000001
 43
0.0000000001
 12
1.0
 22
0.0
 32
0.0
 13
1.0
 23
0.0
 33
0.0
 40
0.0
 40
0.0
 40
0.0
 40
0.0
 40
0.3333333333333333
 40
0.3333333333333333
 40
0.3333333333333333
 40
0.3333333333333333
 40
1.0
 40
1.0
 40
1.0
 40
1.0
 10
10.35253
 20
-8.75773
 30
0.0
 10
10.35253
 20
-8.75773
 30
0.0
 10
11.85788
 20
-8.75773
 30
0.0
 10
11.85788
 20
-8.75773
 30
0.0
 10
11.85788
 20
-8.75773
 30
0.0
 10
11.85788
 20
-8.75773
 30
0.0
 10
12.89428
 20
-11.10971
 30
0.0
 10
12.89428
 20
-11.10971
 30
0.0
  0
SPLINE
  5
4E
330
1F
100
AcDbEntity
  8
layer 1
 62
   250
370
    50
100
AcDbSpline
210
0.0
220
0.0
230
1.0
 70
    11
 71
     3
 72
    16
 73
    12
 74
     0
 42
0.0000000001
 43
0.0000000001
 12
1.0
 22
0.0
 32
0.0
 13
1.0
 23
0.0
 33
0.0
 40
0.0
 40
0.0
 40
0.0
 40
0.0
 40
0.25
 40
0.25
 40
0.25
 40
0.25
 40
0.5
 40
0.5
 40
0.5
 40
0.5
 40
1.0
 40
1.0
 40
1.0
 40
1.0
 10
12.75945
 20
-11.69707
 30
0.0
 10
12.75945
 20
-11.69707
 30
0.0
 10
13.11117
 20
-11.5152
 30
0.0
 10
13.11117
 20
-11.5152
 30
0.0
 10
13.11117
 20
-11.5152
 30
0.0
 10
13.11117
 20
-11.5152
 30
0.0
 10
13.17101
 20
-12.04726
 30
0.0
 10
13.17101
 20
-12.04726
 30
0.0
 10
13.17101
 20
-12.04726
 30
0.0
 10
13.17101
 20
-12.04726
 30
0.0
 10
12.75945
 20
-11.69707
 30
0.0
 10
12.75945
 20
-11.69707
 30
0.0
  0
SPLINE
  5
4F
330
1F
100
AcDbEntity
  8
layer 1
 62
   250
100
AcDbSpline
210
0.0
220
0.0
230
1.0
 70
    11
 71
     3
 72
   152
 73
   148
 74
     0
 42
0.0000000001
 43
0.0000000001
 12
1.0
 22
0.0
 32
0.0
 13
1.0
 23
0.0
 33
0.0
 40
0.0
 40
0.0
 40
0.0
 40
0.0
 40
0.0263157894736842
 40
0.0263157894736842
 40
0.0263157894736842
 40
0.0263157894736842
 40
0.0526315789473684
 40
0.0526315789473684
 40
0.0526315789473684
 40
0.0526315789473684
 40
0.0789473684210526
 40
0.0789473684210526
 40
0.0789473684210526
 40
0.0789473684210526
 40
0.1052631578947368
 40
0.1052631578947368
 40
0.1052631578947368
 40
0.1052631578947368
 40
0.131578947368421
 40
0.131578947368421
 40
0.131578947368421
 40
0.131578947368421
 40
0.1578947368421053
 40
0.1578947368421053
 40
0.1578947368421053
 40
0.1578947368421053
 40
0.1842105263157895
 40
0.1842105263157895
 40
0.1842105263157895
 40
0.1842105263157895
 40
0.2105263157894737
 40
0.2105263157894737
 40
0.2105263157894737
 40
0.2105263157894737
 40
0.2368421052631579
 40
0.2368421052631579
 40
0.2368421052631579
 40
0.2368421052631579
 40
0.2631578947368421
 40
0.2631578947368421
 40
0.2631578947368421
 40
0.2631578947368421
 40
0.2894736842105263
 40
0.2894736842105263
 40
0.2894736842105263
 40
0.2894736842105263
 40
0.3157894736842105
 40
0.3157894736842105
 40
0.3157894736842105
 40
0.3157894736842105
 40
0.3421052631578947
 40
0.3421052631578947
 40
0.3421052631578947
 40
0.3421052631578947
 40
0.3684210526315789
 40
0.3684210526315789
 40
0.3684210526315789
 40
0.3684210526315789
 40
0.3947368421052632
 40
0.3947368421052632
 40
0.3947368421052632
 40
0.3947368421052632
 40
0.4210526315789473
 40
0.4210526315789473
 40
0.4210526315789473
 40
0.4210526315789473
 40
0.4473684210526316
 40
0.4473684210526316
 40
0.4473684210526316
 40
0.4473684210526316
 40
0.4736842105263158
 40
0.4736842105263158
 40
0.4736842105263158
 40
0.4736842105263158
 40
0.5
 40
0.5
 40
0.5
 40
0.5
 40
0.5263157894736842
 40
0.5263157894736842
 40
0.5263157894736842
 40
0.5263157894736842
 40
0.5526315789473685
 40
0.5526315789473685
 40
0.5526315789473685
 40
0.5526315789473685
 40
0.5789473684210527
 40
0.5789473684210527
 40
0.5789473684210527
 40
0.5789473684210527
 40
0.6052631578947368
 40
0.6052631578947368
 40
0.6052631578947368
 40
0.6052631578947368
 40
0.631578947368421
 40
0.631578947368421
 40
0.631578947368421
 40
0.631578947368421
 40
0.6578947368421053
 40
0.6578947368421053
 40
0.6578947368421053
 40
0.6578947368421053
 40
0.6842105263157895
 40
0.6842105263157895
 40
0.6842105263157895
 40
0.6842105263157895
 40
0.7105263157894737
 40
0.7105263157894737
 40
0.7105263157894737
 40
0.7105263157894737
 40
0.7368421052631579
 40
0.7368421052631579
 40
0.7368421052631579
 40
0.7368421052631579
 40
0.7631578947368421
 40
0.7631578947368421
 40
0.7631578947368421
 40
0.7631578947368421
 40
0.7894736842105263
 40
0.7894736842105263
 40
0.7894736842105263
 40
0.7894736842105263
 40
0.8157894736842105
 40
0.8157894736842105
 40
0.8157894736842105
 40
0.8157894736842105
 40
0.8421052631578947
 40
0.8421052631578947
 40
0.8421052631578947
 40
0.8421052631578947
 40
0.868421052631579
 40
0.868421052631579
 40
0.868421052631579
 40
0.868421052631579
 40
0.8947368421052632
 40
0.8947368421052632
 40
0.8947368421052632
 40
0.8947368421052632
 40
0.9210526315789473
 40
0.9210526315789473
 40
0.9210526315789473
 40
0.9210526315789473
 40
0.9473684210526315
 40
0.9473684210526315
 40
0.9473684210526315
 40
0.9473684210526315
 40
1.0
 40
1.0
 40
1.0
 40
1.0
 10
16.84621
 20
-7.59546
 30
0.0
 10
16.86576
 20
-7.62533
 30
0.0
 10
16.8719
 20
-7.65764
 30
0.0
 10
16.86464
 20
-7.69239
 30
0.0
 10
16.86464
 20
-7.69239
 30
0.0
 10
16.85738
 20
-7.72715
 30
0.0
 10
16.84043
 20
-7.76221
 30
0.0
 10
16.81378
 20
-7.79759
 30
0.0
 10
16.81378
 20
-7.79759
 30
0.0
 10
16.76048
 20
-7.86834
 30
0.0
 10
16.65996
 20
-7.95063
 30
0.0
 10
16.5122
 20
-8.04445
 30
0.0
 10
16.5122
 20
-8.04445
 30
0.0
 10
16.36444
 20
-8.13827
 30
0.0
 10
16.22126
 20
-8.22787
 30
0.0
 10
16.08267
 20
-8.31325
 30
0.0
 10
16.08267
 20
-8.31325
 30
0.0
 10
16.07792
 20
-8.39769
 30
0.0
 10
16.05297
 20
-8.47779
 30
0.0
 10
16.00781
 20
-8.55356
 30
0.0
 10
16.00781
 20
-8.55356
 30
0.0
 10
15.96265
 20
-8.62933
 30
0.0
 10
15.94971
 20
-8.67395
 30
0.0
 10
15.96899
 20
-8.68742
 30
0.0
 10
15.96899
 20
-8.68742
 30
0.0
 10
15.98643
 20
-8.69962
 30
0.0
 10
16.00808
 20
-8.70902
 30
0.0
 10
16.03394
 20
-8.71562
 30
0.0
 10
16.03394
 20
-8.71562
 30
0.0
 10
16.0598
 20
-8.72222
 30
0.0
 10
16.0764
 20
-8.72809
 30
0.0
 10
16.08375
 20
-8.73322
 30
0.0
 10
16.08375
 20
-8.73322
 30
0.0
 10
16.12689
 20
-8.76339
 30
0.0
 10
16.14975
 20
-8.80839
 30
0.0
 10
16.15215
 20
-8.86847
 30
0.0
 10
16.15215
 20
-8.86847
 30
0.0
 10
16.15455
 20
-8.92854
 30
0.0
 10
16.13301
 20
-8.98876
 30
0.0
 10
16.08738
 20
-9.04934
 30
0.0
 10
16.08738
 20
-9.04934
 30
0.0
 10
16.06173
 20
-9.08339
 30
0.0
 10
16.0216
 20
-9.10225
 30
0.0
 10
15.96714
 20
-9.10569
 30
0.0
 10
15.96714
 20
-9.10569
 30
0.0
 10
15.91269
 20
-9.10914
 30
0.0
 10
15.86472
 20
-9.09654
 30
0.0
 10
15.82341
 20
-9.06766
 30
0.0
 10
15.82341
 20
-9.06766
 30
0.0
 10
15.77476
 20
-9.03364
 30
0.0
 10
15.74971
 20
-8.98271
 30
0.0
 10
15.74826
 20
-8.91486
 30
0.0
 10
15.74826
 20
-8.91486
 30
0.0
 10
15.74681
 20
-8.84702
 30
0.0
 10
15.77306
 20
-8.77728
 30
0.0
 10
15.82703
 20
-8.70564
 30
0.0
 10
15.82703
 20
-8.70564
 30
0.0
 10
15.83302
 20
-8.69768
 30
0.0
 10
15.83902
 20
-8.68972
 30
0.0
 10
15.84502
 20
-8.68176
 30
0.0
 10
15.84502
 20
-8.68176
 30
0.0
 10
15.85484
 20
-8.67243
 30
0.0
 10
15.86388
 20
-8.66322
 30
0.0
 10
15.87213
 20
-8.65414
 30
0.0
 10
15.87213
 20
-8.65414
 30
0.0
 10
15.88038
 20
-8.64505
 30
0.0
 10
15.88717
 20
-8.63697
 30
0.0
 10
15.89249
 20
-8.6299
 30
0.0
 10
15.89249
 20
-8.6299
 30
0.0
 10
15.92114
 20
-8.59187
 30
0.0
 10
15.93867
 20
-8.55045
 30
0.0
 10
15.94509
 20
-8.50566
 30
0.0
 10
15.94509
 20
-8.50566
 30
0.0
 10
15.9515
 20
-8.46087
 30
0.0
 10
15.94288
 20
-8.41602
 30
0.0
 10
15.91924
 20
-8.37114
 30
0.0
 10
15.91924
 20
-8.37114
 30
0.0
 10
15.84041
 20
-8.35113
 30
0.0
 10
15.76997
 20
-8.37952
 30
0.0
 10
15.70792
 20
-8.45631
 30
0.0
 10
15.70792
 20
-8.45631
 30
0.0
 10
15.64588
 20
-8.53309
 30
0.0
 10
15.59328
 20
-8.59826
 30
0.0
 10
15.55014
 20
-8.65181
 30
0.0
 10
15.55014
 20
-8.65181
 30
0.0
 10
15.51683
 20
-8.69603
 30
0.0
 10
15.4722
 20
-8.72086
 30
0.0
 10
15.41625
 20
-8.7263
 30
0.0
 10
15.41625
 20
-8.7263
 30
0.0
 10
15.36029
 20
-8.73173
 30
0.0
 10
15.30983
 20
-8.71873
 30
0.0
 10
15.26484
 20
-8.68728
 30
0.0
 10
15.26484
 20
-8.68728
 30
0.0
 10
15.21986
 20
-8.65583
 30
0.0
 10
15.19465
 20
-8.60884
 30
0.0
 10
15.1892
 20
-8.5463
 30
0.0
 10
15.1892
 20
-8.5463
 30
0.0
 10
15.18375
 20
-8.48376
 30
0.0
 10
15.19535
 20
-8.43348
 30
0.0
 10
15.224
 20
-8.39545
 30
0.0
 10
15.224
 20
-8.39545
 30
0.0
 10
15.25798
 20
-8.35035
 30
0.0
 10
15.30534
 20
-8.32236
 30
0.0
 10
15.36608
 20
-8.31149
 30
0.0
 10
15.36608
 20
-8.31149
 30
0.0
 10
15.42682
 20
-8.30063
 30
0.0
 10
15.47876
 20
-8.31028
 30
0.0
 10
15.52191
 20
-8.34044
 30
0.0
 10
15.52191
 20
-8.34044
 30
0.0
 10
15.54303
 20
-8.3552
 30
0.0
 10
15.56198
 20
-8.37655
 30
0.0
 10
15.57877
 20
-8.4045
 30
0.0
 10
15.57877
 20
-8.4045
 30
0.0
 10
15.61458
 20
-8.42953
 30
0.0
 10
15.66278
 20
-8.40787
 30
0.0
 10
15.72337
 20
-8.33952
 30
0.0
 10
15.72337
 20
-8.33952
 30
0.0
 10
15.78397
 20
-8.27117
 30
0.0
 10
15.84773
 20
-8.22326
 30
0.0
 10
15.91467
 20
-8.1958
 30
0.0
 10
15.91467
 20
-8.1958
 30
0.0
 10
15.94138
 20
-8.13616
 30
0.0
 10
15.97321
 20
-8.03623
 30
0.0
 10
16.01017
 20
-7.896
 30
0.0
 10
16.01017
 20
-7.896
 30
0.0
 10
16.04713
 20
-7.75577
 30
0.0
 10
16.07764
 20
-7.64782
 30
0.0
 10
16.1017
 20
-7.57216
 30
0.0
 10
16.1017
 20
-7.57216
 30
0.0
 10
16.12576
 20
-7.49649
 30
0.0
 10
16.15745
 20
-7.43257
 30
0.0
 10
16.19675
 20
-7.38039
 30
0.0
 10
16.19675
 20
-7.38039
 30
0.0
 10
16.22273
 20
-7.3459
 30
0.0
 10
16.25129
 20
-7.31962
 30
0.0
 10
16.28242
 20
-7.30156
 30
0.0
 10
16.28242
 20
-7.30156
 30
0.0
 10
16.31355
 20
-7.28349
 30
0.0
 10
16.34909
 20
-7.27492
 30
0.0
 10
16.38903
 20
-7.27584
 30
0.0
 10
16.38903
 20
-7.27584
 30
0.0
 10
16.38903
 20
-7.27584
 30
0.0
 10
16.17606
 20
-8.0302
 30
0.0
 10
16.17606
 20
-8.0302
 30
0.0
 10
16.17606
 20
-8.0302
 30
0.0
 10
16.17606
 20
-8.0302
 30
0.0
 10
16.84621
 20
-7.59546
 30
0.0
 10
16.84621
 20
-7.59546
 30
0.0
  0
SPLINE
  5
50
330
1F
100
AcDbEntity
  8
layer 1
 62
   250
100
AcDbSpline
210
0.0
220
0.0
230
1.0
 70
    11
 71
     3
 72
    36
 73
    32
 74
     0
 42
0.0000000001
 43
0.0000000001
 12
1.0
 22
0.0
 32
0.0
 13
1.0
 23
0.0
 33
0.0
 40
0.0
 40
0.0
 40
0.0
 40
0.0
 40
0.1111111111111111
 40
0.1111111111111111
 40
0.1111111111111111
 40
0.1111111111111111
 40
0.2222222222222222
 40
0.2222222222222222
 40
0.2222222222222222
 40
0.2222222222222222
 40
0.3333333333333333
 40
0.3333333333333333
 40
0.3333333333333333
 40
0.3333333333333333
 40
0.4444444444444444
 40
0.4444444444444444
 40
0.4444444444444444
 40
0.4444444444444444
 40
0.5555555555555556
 40
0.5555555555555556
 40
0.5555555555555556
 40
0.5555555555555556
 40
0.6666666666666666
 40
0.6666666666666666
 40
0.6666666666666666
 40
0.6666666666666666
 40
0.7777777777777778
 40
0.7777777777777778
 40
0.7777777777777778
 40
0.7777777777777778
 40
1.0
 40
1.0
 40
1.0
 40
1.0
 10
15.47195
 20
-8.40677
 30
0.0
 10
15.44165
 20
-8.38559
 30
0.0
 10
15.41014
 20
-8.37673
 30
0.0
 10
15.37741
 20
-8.38017
 30
0.0
 10
15.37741
 20
-8.38017
 30
0.0
 10
15.34468
 20
-8.38362
 30
0.0
 10
15.313
 20
-8.40568
 30
0.0
 10
15.28235
 20
-8.44637
 30
0.0
 10
15.28235
 20
-8.44637
 30
0.0
 10
15.26303
 20
-8.47201
 30
0.0
 10
15.25731
 20
-8.5038
 30
0.0
 10
15.26519
 20
-8.54171
 30
0.0
 10
15.26519
 20
-8.54171
 30
0.0
 10
15.27307
 20
-8.57962
 30
0.0
 10
15.29124
 20
-8.60852
 30
0.0
 10
15.3197
 20
-8.62842
 30
0.0
 10
15.3197
 20
-8.62842
 30
0.0
 10
15.34448
 20
-8.64575
 30
0.0
 10
15.37366
 20
-8.65399
 30
0.0
 10
15.40723
 20
-8.65316
 30
0.0
 10
15.40723
 20
-8.65316
 30
0.0
 10
15.44079
 20
-8.65232
 30
0.0
 10
15.46923
 20
-8.63642
 30
0.0
 10
15.49255
 20
-8.60547
 30
0.0
 10
15.49255
 20
-8.60547
 30
0.0
 10
15.50054
 20
-8.59486
 30
0.0
 10
15.51311
 20
-8.56888
 30
0.0
 10
15.53024
 20
-8.52752
 30
0.0
 10
15.53024
 20
-8.52752
 30
0.0
 10
15.54738
 20
-8.48617
 30
0.0
 10
15.52795
 20
-8.44592
 30
0.0
 10
15.47195
 20
-8.40677
 30
0.0
  0
SPLINE
  5
51
330
1F
100
AcDbEntity
  8
layer 1
 62
   250
100
AcDbSpline
210
0.0
220
0.0
230
1.0
 70
    11
 71
     3
 72
    36
 73
    32
 74
     0
 42
0.0000000001
 43
0.0000000001
 12
1.0
 22
0.0
 32
0.0
 13
1.0
 23
0.0
 33
0.0
 40
0.0
 40
0.0
 40
0.0
 40
0.0
 40
0.1111111111111111
 40
0.1111111111111111
 40
0.1111111111111111
 40
0.1111111111111111
 40
0.2222222222222222
 40
0.2222222222222222
 40
0.2222222222222222
 40
0.2222222222222222
 40
0.3333333333333333
 40
0.3333333333333333
 40
0.3333333333333333
 40
0.3333333333333333
 40
0.4444444444444444
 40
0.4444444444444444
 40
0.4444444444444444
 40
0.4444444444444444
 40
0.5555555555555556
 40
0.5555555555555556
 40
0.5555555555555556
 40
0.5555555555555556
 40
0.6666666666666666
 40
0.6666666666666666
 40
0.6666666666666666
 40
0.6666666666666666
 40
0.7777777777777778
 40
0.7777777777777778
 40
0.7777777777777778
 40
0.7777777777777778
 40
1.0
 40
1.0
 40
1.0
 40
1.0
 10
16.01175
 20
-8.78415
 30
0.0
 10
15.98338
 20
-8.76972
 30
0.0
 10
15.95481
 20
-8.76392
 30
0.0
 10
15.92604
 20
-8.76676
 30
0.0
 10
15.92604
 20
-8.76676
 30
0.0
 10
15.89727
 20
-8.7696
 30
0.0
 10
15.8739
 20
-8.78296
 30
0.0
 10
15.85591
 20
-8.80684
 30
0.0
 10
15.85591
 20
-8.80684
 30
0.0
 10
15.82526
 20
-8.84752
 30
0.0
 10
15.81292
 20
-8.88716
 30
0.0
 10
15.81888
 20
-8.92576
 30
0.0
 10
15.81888
 20
-8.92576
 30
0.0
 10
15.82485
 20
-8.96436
 30
0.0
 10
15.8416
 20
-8.99328
 30
0.0
 10
15.86914
 20
-9.01254
 30
0.0
 10
15.86914
 20
-9.01254
 30
0.0
 10
15.89484
 20
-9.03051
 30
0.0
 10
15.92525
 20
-9.03759
 30
0.0
 10
15.96035
 20
-9.03378
 30
0.0
 10
15.96035
 20
-9.03378
 30
0.0
 10
15.99546
 20
-9.02997
 30
0.0
 10
16.024
 20
-9.01347
 30
0.0
 10
16.04599
 20
-8.98428
 30
0.0
 10
16.04599
 20
-8.98428
 30
0.0
 10
16.0693
 20
-8.95333
 30
0.0
 10
16.07813
 20
-8.91697
 30
0.0
 10
16.07245
 20
-8.8752
 30
0.0
 10
16.07245
 20
-8.8752
 30
0.0
 10
16.06678
 20
-8.83342
 30
0.0
 10
16.04654
 20
-8.80307
 30
0.0
 10
16.01175
 20
-8.78415
 30
0.0
  0
SPLINE
  5
52
330
1F
100
AcDbEntity
  8
layer 1
 62
   250
100
AcDbSpline
210
0.0
220
0.0
230
1.0
 70
    11
 71
     3
 72
    92
 73
    88
 74
     0
 42
0.0000000001
 43
0.0000000001
 12
1.0
 22
0.0
 32
0.0
 13
1.0
 23
0.0
 33
0.0
 40
0.0
 40
0.0
 40
0.0
 40
0.0
 40
0.0434782608695652
 40
0.0434782608695652
 40
0.0434782608695652
 40
0.0434782608695652
 40
0.0869565217391304
 40
0.0869565217391304
 40
0.0869565217391304
 40
0.0869565217391304
 40
0.1304347826086956
 40
0.1304347826086956
 40
0.1304347826086956
 40
0.1304347826086956
 40
0.1739130434782609
 40
0.1739130434782609
 40
0.1739130434782609
 40
0.1739130434782609
 40
0.2173913043478261
 40
0.2173913043478261
 40
0.2173913043478261
 40
0.2173913043478261
 40
0.2608695652173913
 40
0.2608695652173913
 40
0.2608695652173913
 40
0.2608695652173913
 40
0.3043478260869565
 40
0.3043478260869565
 40
0.3043478260869565
 40
0.3043478260869565
 40
0.3478260869565217
 40
0.3478260869565217
 40
0.3478260869565217
 40
0.3478260869565217
 40
0.391304347826087
 40
0.391304347826087
 40
0.391304347826087
 40
0.391304347826087
 40
0.4347826086956522
 40
0.4347826086956522
 40
0.4347826086956522
 40
0.4347826086956522
 40
0.4782608695652174
 40
0.4782608695652174
 40
0.4782608695652174
 40
0.4782608695652174
 40
0.5217391304347826
 40
0.5217391304347826
 40
0.5217391304347826
 40
0.5217391304347826
 40
0.5652173913043478
 40
0.5652173913043478
 40
0.5652173913043478
 40
0.5652173913043478
 40
0.6086956521739131
 40
0.6086956521739131
 40
0.6086956521739131
 40
0.6086956521739131
 40
0.6521739130434783
 40
0.6521739130434783
 40
0.6521739130434783
 40
0.6521739130434783
 40
0.6956521739130435
 40
0.6956521739130435
 40
0.6956521739130435
 40
0.6956521739130435
 40
0.7391304347826086
 40
0.7391304347826086
 40
0.7391304347826086
 40
0.7391304347826086
 40
0.782608695652174
 40
0.782608695652174
 40
0.782608695652174
 40
0.782608695652174
 40
0.8260869565217391
 40
0.8260869565217391
 40
0.8260869565217391
 40
0.8260869565217391
 40
0.8695652173913043
 40
0.8695652173913043
 40
0.8695652173913043
 40
0.8695652173913043
 40
0.9130434782608695
 40
0.9130434782608695
 40
0.9130434782608695
 40
0.9130434782608695
 40
1.0
 40
1.0
 40
1.0
 40
1.0
 10
17.27511
 20
18.61097
 30
0.0
 10
17.27511
 20
18.61097
 30
0.0
 10
17.27511
 20
18.5735
 30
0.0
 10
17.27511
 20
18.5735
 30
0.0
 10
17.27511
 20
18.5735
 30
0.0
 10
17.27511
 20
18.5735
 30
0.0
 10
17.06531
 20
18.5735
 30
0.0
 10
17.06531
 20
18.5735
 30
0.0
 10
17.06531
 20
18.5735
 30
0.0
 10
17.06501
 20
18.58289
 30
0.0
 10
17.06649
 20
18.5919
 30
0.0
 10
17.06982
 20
18.60055
 30
0.0
 10
17.06982
 20
18.60055
 30
0.0
 10
17.07514
 20
18.61488
 30
0.0
 10
17.08371
 20
18.62893
 30
0.0
 10
17.09546
 20
18.64282
 30
0.0
 10
17.09546
 20
18.64282
 30
0.0
 10
17.10729
 20
18.65664
 30
0.0
 10
17.12428
 20
18.67267
 30
0.0
 10
17.14645
 20
18.69085
 30
0.0
 10
17.14645
 20
18.69085
 30
0.0
 10
17.18096
 20
18.71916
 30
0.0
 10
17.20432
 20
18.74155
 30
0.0
 10
17.21644
 20
18.7581
 30
0.0
 10
17.21644
 20
18.7581
 30
0.0
 10
17.22855
 20
18.77458
 30
0.0
 10
17.23461
 20
18.79025
 30
0.0
 10
17.23461
 20
18.80495
 30
0.0
 10
17.23461
 20
18.80495
 30
0.0
 10
17.23461
 20
18.8204
 30
0.0
 10
17.22907
 20
18.83341
 30
0.0
 10
17.21806
 20
18.84405
 30
0.0
 10
17.21806
 20
18.84405
 30
0.0
 10
17.20698
 20
18.85462
 30
0.0
 10
17.19257
 20
18.85994
 30
0.0
 10
17.17483
 20
18.85994
 30
0.0
 10
17.17483
 20
18.85994
 30
0.0
 10
17.15606
 20
18.85994
 30
0.0
 10
17.14106
 20
18.85432
 30
0.0
 10
17.12982
 20
18.84301
 30
0.0
 10
17.12982
 20
18.84301
 30
0.0
 10
17.11852
 20
18.83178
 30
0.0
 10
17.11283
 20
18.81619
 30
0.0
 10
17.11268
 20
18.79631
 30
0.0
 10
17.11268
 20
18.79631
 30
0.0
 10
17.11268
 20
18.79631
 30
0.0
 10
17.07263
 20
18.80037
 30
0.0
 10
17.07263
 20
18.80037
 30
0.0
 10
17.07263
 20
18.80037
 30
0.0
 10
17.07536
 20
18.8303
 30
0.0
 10
17.08571
 20
18.85306
 30
0.0
 10
17.10359
 20
18.86873
 30
0.0
 10
17.10359
 20
18.86873
 30
0.0
 10
17.12147
 20
18.8844
 30
0.0
 10
17.14557
 20
18.89223
 30
0.0
 10
17.17572
 20
18.89223
 30
0.0
 10
17.17572
 20
18.89223
 30
0.0
 10
17.20616
 20
18.89223
 30
0.0
 10
17.23025
 20
18.88373
 30
0.0
 10
17.24799
 20
18.86688
 30
0.0
 10
17.24799
 20
18.86688
 30
0.0
 10
17.2658
 20
18.84996
 30
0.0
 10
17.27467
 20
18.82905
 30
0.0
 10
17.27467
 20
18.80407
 30
0.0
 10
17.27467
 20
18.80407
 30
0.0
 10
17.27467
 20
18.79136
 30
0.0
 10
17.27208
 20
18.77887
 30
0.0
 10
17.26684
 20
18.7666
 30
0.0
 10
17.26684
 20
18.7666
 30
0.0
 10
17.26166
 20
18.75433
 30
0.0
 10
17.25302
 20
18.7414
 30
0.0
 10
17.24097
 20
18.72788
 30
0.0
 10
17.24097
 20
18.72788
 30
0.0
 10
17.22892
 20
18.71428
 30
0.0
 10
17.2089
 20
18.69566
 30
0.0
 10
17.18089
 20
18.67201
 30
0.0
 10
17.18089
 20
18.67201
 30
0.0
 10
17.15754
 20
18.65235
 30
0.0
 10
17.14254
 20
18.63905
 30
0.0
 10
17.13588
 20
18.63203
 30
0.0
 10
17.13588
 20
18.63203
 30
0.0
 10
17.12923
 20
18.62508
 30
0.0
 10
17.12376
 20
18.61806
 30
0.0
 10
17.1194
 20
18.61097
 30
0.0
 10
17.1194
 20
18.61097
 30
0.0
 10
17.1194
 20
18.61097
 30
0.0
 10
17.27511
 20
18.61097
 30
0.0
 10
17.27511
 20
18.61097
 30
0.0
  0
SPLINE
  5
53
330
1F
100
AcDbEntity
  8
layer 1
 62
   250
100
AcDbSpline
210
0.0
220
0.0
230
1.0
 70
    11
 71
     3
 72
    92
 73
    88
 74
     0
 42
0.0000000001
 43
0.0000000001
 12
1.0
 22
0.0
 32
0.0
 13
1.0
 23
0.0
 33
0.0
 40
0.0
 40
0.0
 40
0.0
 40
0.0
 40
0.0434782608695652
 40
0.0434782608695652
 40
0.0434782608695652
 40
0.0434782608695652
 40
0.0869565217391304
 40
0.0869565217391304
 40
0.0869565217391304
 40
0.0869565217391304
 40
0.1304347826086956
 40
0.1304347826086956
 40
0.1304347826086956
 40
0.1304347826086956
 40
0.1739130434782609
 40
0.1739130434782609
 40
0.1739130434782609
 40
0.1739130434782609
 40
0.2173913043478261
 40
0.2173913043478261
 40
0.2173913043478261
 40
0.2173913043478261
 40
0.2608695652173913
 40
0.2608695652173913
 40
0.2608695652173913
 40
0.2608695652173913
 40
0.3043478260869565
 40
0.3043478260869565
 40
0.3043478260869565
 40
0.3043478260869565
 40
0.3478260869565217
 40
0.3478260869565217
 40
0.3478260869565217
 40
0.3478260869565217
 40
0.391304347826087
 40
0.391304347826087
 40
0.391304347826087
 40
0.391304347826087
 40
0.4347826086956522
 40
0.4347826086956522
 40
0.4347826086956522
 40
0.4347826086956522
 40
0.4782608695652174
 40
0.4782608695652174
 40
0.4782608695652174
 40
0.4782608695652174
 40
0.5217391304347826
 40
0.5217391304347826
 40
0.5217391304347826
 40
0.5217391304347826
 40
0.5652173913043478
 40
0.5652173913043478
 40
0.5652173913043478
 40
0.5652173913043478
 40
0.6086956521739131
 40
0.6086956521739131
 40
0.6086956521739131
 40
0.6086956521739131
 40
0.6521739130434783
 40
0.6521739130434783
 40
0.6521739130434783
 40
0.6521739130434783
 40
0.6956521739130435
 40
0.6956521739130435
 40
0.6956521739130435
 40
0.6956521739130435
 40
0.7391304347826086
 40
0.7391304347826086
 40
0.7391304347826086
 40
0.7391304347826086
 40
0.782608695652174
 40
0.782608695652174
 40
0.782608695652174
 40
0.782608695652174
 40
0.8260869565217391
 40
0.8260869565217391
 40
0.8260869565217391
 40
0.8260869565217391
 40
0.8695652173913043
 40
0.8695652173913043
 40
0.8695652173913043
 40
0.8695652173913043
 40
0.9130434782608695
 40
0.9130434782608695
 40
0.9130434782608695
 40
0.9130434782608695
 40
1.0
 40
1.0
 40
1.0
 40
1.0
 10
17.54635
 20
18.61097
 30
0.0
 10
17.54635
 20
18.61097
 30
0.0
 10
17.54635
 20
18.5735
 30
0.0
 10
17.54635
 20
18.5735
 30
0.0
 10
17.54635
 20
18.5735
 30
0.0
 10
17.54635
 20
18.5735
 30
0.0
 10
17.33655
 20
18.5735
 30
0.0
 10
17.33655
 20
18.5735
 30
0.0
 10
17.33655
 20
18.5735
 30
0.0
 10
17.33625
 20
18.58289
 30
0.0
 10
17.33773
 20
18.5919
 30
0.0
 10
17.34106
 20
18.60055
 30
0.0
 10
17.34106
 20
18.60055
 30
0.0
 10
17.34638
 20
18.61488
 30
0.0
 10
17.35495
 20
18.62893
 30
0.0
 10
17.3667
 20
18.64282
 30
0.0
 10
17.3667
 20
18.64282
 30
0.0
 10
17.37853
 20
18.65664
 30
0.0
 10
17.39552
 20
18.67267
 30
0.0
 10
17.41769
 20
18.69085
 30
0.0
 10
17.41769
 20
18.69085
 30
0.0
 10
17.4522
 20
18.71916
 30
0.0
 10
17.47556
 20
18.74155
 30
0.0
 10
17.48768
 20
18.7581
 30
0.0
 10
17.48768
 20
18.7581
 30
0.0
 10
17.49979
 20
18.77458
 30
0.0
 10
17.50585
 20
18.79025
 30
0.0
 10
17.50585
 20
18.80495
 30
0.0
 10
17.50585
 20
18.80495
 30
0.0
 10
17.50585
 20
18.8204
 30
0.0
 10
17.50031
 20
18.83341
 30
0.0
 10
17.4893
 20
18.84405
 30
0.0
 10
17.4893
 20
18.84405
 30
0.0
 10
17.47822
 20
18.85462
 30
0.0
 10
17.46381
 20
18.85994
 30
0.0
 10
17.44607
 20
18.85994
 30
0.0
 10
17.44607
 20
18.85994
 30
0.0
 10
17.4273
 20
18.85994
 30
0.0
 10
17.4123
 20
18.85432
 30
0.0
 10
17.40106
 20
18.84301
 30
0.0
 10
17.40106
 20
18.84301
 30
0.0
 10
17.38976
 20
18.83178
 30
0.0
 10
17.38407
 20
18.81619
 30
0.0
 10
17.38392
 20
18.79631
 30
0.0
 10
17.38392
 20
18.79631
 30
0.0
 10
17.38392
 20
18.79631
 30
0.0
 10
17.34387
 20
18.80037
 30
0.0
 10
17.34387
 20
18.80037
 30
0.0
 10
17.34387
 20
18.80037
 30
0.0
 10
17.3466
 20
18.8303
 30
0.0
 10
17.35695
 20
18.85306
 30
0.0
 10
17.37483
 20
18.86873
 30
0.0
 10
17.37483
 20
18.86873
 30
0.0
 10
17.39271
 20
18.8844
 30
0.0
 10
17.41681
 20
18.89223
 30
0.0
 10
17.44696
 20
18.89223
 30
0.0
 10
17.44696
 20
18.89223
 30
0.0
 10
17.4774
 20
18.89223
 30
0.0
 10
17.50149
 20
18.88373
 30
0.0
 10
17.51923
 20
18.86688
 30
0.0
 10
17.51923
 20
18.86688
 30
0.0
 10
17.53704
 20
18.84996
 30
0.0
 10
17.54591
 20
18.82905
 30
0.0
 10
17.54591
 20
18.80407
 30
0.0
 10
17.54591
 20
18.80407
 30
0.0
 10
17.54591
 20
18.79136
 30
0.0
 10
17.54332
 20
18.77887
 30
0.0
 10
17.53808
 20
18.7666
 30
0.0
 10
17.53808
 20
18.7666
 30
0.0
 10
17.5329
 20
18.75433
 30
0.0
 10
17.52426
 20
18.7414
 30
0.0
 10
17.51221
 20
18.72788
 30
0.0
 10
17.51221
 20
18.72788
 30
0.0
 10
17.50016
 20
18.71428
 30
0.0
 10
17.48014
 20
18.69566
 30
0.0
 10
17.45213
 20
18.67201
 30
0.0
 10
17.45213
 20
18.67201
 30
0.0
 10
17.42878
 20
18.65235
 30
0.0
 10
17.41378
 20
18.63905
 30
0.0
 10
17.40712
 20
18.63203
 30
0.0
 10
17.40712
 20
18.63203
 30
0.0
 10
17.40047
 20
18.62508
 30
0.0
 10
17.395
 20
18.61806
 30
0.0
 10
17.39064
 20
18.61097
 30
0.0
 10
17.39064
 20
18.61097
 30
0.0
 10
17.39064
 20
18.61097
 30
0.0
 10
17.54635
 20
18.61097
 30
0.0
 10
17.54635
 20
18.61097
 30
0.0
  0
SPLINE
  5
54
330
1F
100
AcDbEntity
  8
layer 1
 62
   250
100
AcDbSpline
210
0.0
220
0.0
230
1.0
 70
    11
 71
     3
 72
    52
 73
    48
 74
     0
 42
0.0000000001
 43
0.0000000001
 12
1.0
 22
0.0
 32
0.0
 13
1.0
 23
0.0
 33
0.0
 40
0.0
 40
0.0
 40
0.0
 40
0.0
 40
0.0769230769230769
 40
0.0769230769230769
 40
0.0769230769230769
 40
0.0769230769230769
 40
0.1538461538461539
 40
0.1538461538461539
 40
0.1538461538461539
 40
0.1538461538461539
 40
0.2307692307692308
 40
0.2307692307692308
 40
0.2307692307692308
 40
0.2307692307692308
 40
0.3076923076923077
 40
0.3076923076923077
 40
0.3076923076923077
 40
0.3076923076923077
 40
0.3846153846153846
 40
0.3846153846153846
 40
0.3846153846153846
 40
0.3846153846153846
 40
0.4615384615384616
 40
0.4615384615384616
 40
0.4615384615384616
 40
0.4615384615384616
 40
0.5384615384615384
 40
0.5384615384615384
 40
0.5384615384615384
 40
0.5384615384615384
 40
0.6153846153846154
 40
0.6153846153846154
 40
0.6153846153846154
 40
0.6153846153846154
 40
0.6923076923076923
 40
0.6923076923076923
 40
0.6923076923076923
 40
0.6923076923076923
 40
0.7692307692307693
 40
0.7692307692307693
 40
0.7692307692307693
 40
0.7692307692307693
 40
0.8461538461538461
 40
0.8461538461538461
 40
0.8461538461538461
 40
0.8461538461538461
 40
1.0
 40
1.0
 40
1.0
 40
1.0
 10
17.61274
 20
18.73002
 30
0.0
 10
17.61274
 20
18.76756
 30
0.0
 10
17.61658
 20
18.79779
 30
0.0
 10
17.62434
 20
18.82062
 30
0.0
 10
17.62434
 20
18.82062
 30
0.0
 10
17.63203
 20
18.84353
 30
0.0
 10
17.64356
 20
18.86119
 30
0.0
 10
17.65878
 20
18.87361
 30
0.0
 10
17.65878
 20
18.87361
 30
0.0
 10
17.674
 20
18.88602
 30
0.0
 10
17.69314
 20
18.89223
 30
0.0
 10
17.7162
 20
18.89223
 30
0.0
 10
17.7162
 20
18.89223
 30
0.0
 10
17.73327
 20
18.89223
 30
0.0
 10
17.7482
 20
18.88876
 30
0.0
 10
17.76106
 20
18.88188
 30
0.0
 10
17.76106
 20
18.88188
 30
0.0
 10
17.77392
 20
18.87509
 30
0.0
 10
17.78448
 20
18.86518
 30
0.0
 10
17.79291
 20
18.85225
 30
0.0
 10
17.79291
 20
18.85225
 30
0.0
 10
17.80126
 20
18.83932
 30
0.0
 10
17.80784
 20
18.82358
 30
0.0
 10
17.81257
 20
18.80503
 30
0.0
 10
17.81257
 20
18.80503
 30
0.0
 10
17.81737
 20
18.78648
 30
0.0
 10
17.81974
 20
18.7615
 30
0.0
 10
17.81974
 20
18.73002
 30
0.0
 10
17.81974
 20
18.73002
 30
0.0
 10
17.81974
 20
18.69277
 30
0.0
 10
17.81589
 20
18.66277
 30
0.0
 10
17.80828
 20
18.63986
 30
0.0
 10
17.80828
 20
18.63986
 30
0.0
 10
17.80059
 20
18.61695
 30
0.0
 10
17.78914
 20
18.59929
 30
0.0
 10
17.77392
 20
18.5868
 30
0.0
 10
17.77392
 20
18.5868
 30
0.0
 10
17.75869
 20
18.57431
 30
0.0
 10
17.73948
 20
18.56811
 30
0.0
 10
17.7162
 20
18.56811
 30
0.0
 10
17.7162
 20
18.56811
 30
0.0
 10
17.68561
 20
18.56811
 30
0.0
 10
17.66159
 20
18.57904
 30
0.0
 10
17.64415
 20
18.60099
 30
0.0
 10
17.64415
 20
18.60099
 30
0.0
 10
17.62323
 20
18.62737
 30
0.0
 10
17.61274
 20
18.67046
 30
0.0
 10
17.61274
 20
18.73002
 30
0.0
  0
SPLINE
  5
55
330
1F
100
AcDbEntity
  8
layer 1
 62
   250
100
AcDbSpline
210
0.0
220
0.0
230
1.0
 70
    11
 71
     3
 72
    36
 73
    32
 74
     0
 42
0.0000000001
 43
0.0000000001
 12
1.0
 22
0.0
 32
0.0
 13
1.0
 23
0.0
 33
0.0
 40
0.0
 40
0.0
 40
0.0
 40
0.0
 40
0.1111111111111111
 40
0.1111111111111111
 40
0.1111111111111111
 40
0.1111111111111111
 40
0.2222222222222222
 40
0.2222222222222222
 40
0.2222222222222222
 40
0.2222222222222222
 40
0.3333333333333333
 40
0.3333333333333333
 40
0.3333333333333333
 40
0.3333333333333333
 40
0.4444444444444444
 40
0.4444444444444444
 40
0.4444444444444444
 40
0.4444444444444444
 40
0.5555555555555556
 40
0.5555555555555556
 40
0.5555555555555556
 40
0.5555555555555556
 40
0.6666666666666666
 40
0.6666666666666666
 40
0.6666666666666666
 40
0.6666666666666666
 40
0.7777777777777778
 40
0.7777777777777778
 40
0.7777777777777778
 40
0.7777777777777778
 40
1.0
 40
1.0
 40
1.0
 40
1.0
 10
17.65279
 20
18.73002
 30
0.0
 10
17.65279
 20
18.67792
 30
0.0
 10
17.65893
 20
18.64326
 30
0.0
 10
17.67112
 20
18.62597
 30
0.0
 10
17.67112
 20
18.62597
 30
0.0
 10
17.68332
 20
18.60875
 30
0.0
 10
17.69832
 20
18.6001
 30
0.0
 10
17.7162
 20
18.6001
 30
0.0
 10
17.7162
 20
18.6001
 30
0.0
 10
17.73416
 20
18.6001
 30
0.0
 10
17.74916
 20
18.60882
 30
0.0
 10
17.76135
 20
18.62612
 30
0.0
 10
17.76135
 20
18.62612
 30
0.0
 10
17.77355
 20
18.64341
 30
0.0
 10
17.77968
 20
18.67807
 30
0.0
 10
17.77968
 20
18.73002
 30
0.0
 10
17.77968
 20
18.73002
 30
0.0
 10
17.77968
 20
18.78227
 30
0.0
 10
17.77355
 20
18.817
 30
0.0
 10
17.76135
 20
18.83415
 30
0.0
 10
17.76135
 20
18.83415
 30
0.0
 10
17.74916
 20
18.85136
 30
0.0
 10
17.73401
 20
18.85994
 30
0.0
 10
17.71583
 20
18.85994
 30
0.0
 10
17.71583
 20
18.85994
 30
0.0
 10
17.69787
 20
18.85994
 30
0.0
 10
17.68361
 20
18.85232
 30
0.0
 10
17.6729
 20
18.83718
 30
0.0
 10
17.6729
 20
18.83718
 30
0.0
 10
17.65952
 20
18.81789
 30
0.0
 10
17.65279
 20
18.78212
 30
0.0
 10
17.65279
 20
18.73002
 30
0.0
  0
SPLINE
  5
56
330
1F
100
AcDbEntity
  8
layer 1
 62
   250
100
AcDbSpline
210
0.0
220
0.0
230
1.0
 70
    11
 71
     3
 72
    52
 73
    48
 74
     0
 42
0.0000000001
 43
0.0000000001
 12
1.0
 22
0.0
 32
0.0
 13
1.0
 23
0.0
 33
0.0
 40
0.0
 40
0.0
 40
0.0
 40
0.0
 40
0.0769230769230769
 40
0.0769230769230769
 40
0.0769230769230769
 40
0.0769230769230769
 40
0.1538461538461539
 40
0.1538461538461539
 40
0.1538461538461539
 40
0.1538461538461539
 40
0.2307692307692308
 40
0.2307692307692308
 40
0.2307692307692308
 40
0.2307692307692308
 40
0.3076923076923077
 40
0.3076923076923077
 40
0.3076923076923077
 40
0.3076923076923077
 40
0.3846153846153846
 40
0.3846153846153846
 40
0.3846153846153846
 40
0.3846153846153846
 40
0.4615384615384616
 40
0.4615384615384616
 40
0.4615384615384616
 40
0.4615384615384616
 40
0.5384615384615384
 40
0.5384615384615384
 40
0.5384615384615384
 40
0.5384615384615384
 40
0.6153846153846154
 40
0.6153846153846154
 40
0.6153846153846154
 40
0.6153846153846154
 40
0.6923076923076923
 40
0.6923076923076923
 40
0.6923076923076923
 40
0.6923076923076923
 40
0.7692307692307693
 40
0.7692307692307693
 40
0.7692307692307693
 40
0.7692307692307693
 40
0.8461538461538461
 40
0.8461538461538461
 40
0.8461538461538461
 40
0.8461538461538461
 40
1.0
 40
1.0
 40
1.0
 40
1.0
 10
17.88398
 20
18.73002
 30
0.0
 10
17.88398
 20
18.76756
 30
0.0
 10
17.88782
 20
18.79779
 30
0.0
 10
17.89558
 20
18.82062
 30
0.0
 10
17.89558
 20
18.82062
 30
0.0
 10
17.90327
 20
18.84353
 30
0.0
 10
17.9148
 20
18.86119
 30
0.0
 10
17.93002
 20
18.87361
 30
0.0
 10
17.93002
 20
18.87361
 30
0.0
 10
17.94524
 20
18.88602
 30
0.0
 10
17.96438
 20
18.89223
 30
0.0
 10
17.98744
 20
18.89223
 30
0.0
 10
17.98744
 20
18.89223
 30
0.0
 10
18.00451
 20
18.89223
 30
0.0
 10
18.01944
 20
18.88876
 30
0.0
 10
18.0323
 20
18.88188
 30
0.0
 10
18.0323
 20
18.88188
 30
0.0
 10
18.04516
 20
18.87509
 30
0.0
 10
18.05572
 20
18.86518
 30
0.0
 10
18.06415
 20
18.85225
 30
0.0
 10
18.06415
 20
18.85225
 30
0.0
 10
18.0725
 20
18.83932
 30
0.0
 10
18.07908
 20
18.82358
 30
0.0
 10
18.08381
 20
18.80503
 30
0.0
 10
18.08381
 20
18.80503
 30
0.0
 10
18.08861
 20
18.78648
 30
0.0
 10
18.09098
 20
18.7615
 30
0.0
 10
18.09098
 20
18.73002
 30
0.0
 10
18.09098
 20
18.73002
 30
0.0
 10
18.09098
 20
18.69277
 30
0.0
 10
18.08713
 20
18.66277
 30
0.0
 10
18.07952
 20
18.63986
 30
0.0
 10
18.07952
 20
18.63986
 30
0.0
 10
18.07183
 20
18.61695
 30
0.0
 10
18.06038
 20
18.59929
 30
0.0
 10
18.04516
 20
18.5868
 30
0.0
 10
18.04516
 20
18.5868
 30
0.0
 10
18.02993
 20
18.57431
 30
0.0
 10
18.01072
 20
18.56811
 30
0.0
 10
17.98744
 20
18.56811
 30
0.0
 10
17.98744
 20
18.56811
 30
0.0
 10
17.95685
 20
18.56811
 30
0.0
 10
17.93283
 20
18.57904
 30
0.0
 10
17.91539
 20
18.60099
 30
0.0
 10
17.91539
 20
18.60099
 30
0.0
 10
17.89447
 20
18.62737
 30
0.0
 10
17.88398
 20
18.67046
 30
0.0
 10
17.88398
 20
18.73002
 30
0.0
  0
SPLINE
  5
57
330
1F
100
AcDbEntity
  8
layer 1
 62
   250
100
AcDbSpline
210
0.0
220
0.0
230
1.0
 70
    11
 71
     3
 72
    36
 73
    32
 74
     0
 42
0.0000000001
 43
0.0000000001
 12
1.0
 22
0.0
 32
0.0
 13
1.0
 23
0.0
 33
0.0
 40
0.0
 40
0.0
 40
0.0
 40
0.0
 40
0.1111111111111111
 40
0.1111111111111111
 40
0.1111111111111111
 40
0.1111111111111111
 40
0.2222222222222222
 40
0.2222222222222222
 40
0.2222222222222222
 40
0.2222222222222222
 40
0.3333333333333333
 40
0.3333333333333333
 40
0.3333333333333333
 40
0.3333333333333333
 40
0.4444444444444444
 40
0.4444444444444444
 40
0.4444444444444444
 40
0.4444444444444444
 40
0.5555555555555556
 40
0.5555555555555556
 40
0.5555555555555556
 40
0.5555555555555556
 40
0.6666666666666666
 40
0.6666666666666666
 40
0.6666666666666666
 40
0.6666666666666666
 40
0.7777777777777778
 40
0.7777777777777778
 40
0.7777777777777778
 40
0.7777777777777778
 40
1.0
 40
1.0
 40
1.0
 40
1.0
 10
17.92403
 20
18.73002
 30
0.0
 10
17.92403
 20
18.67792
 30
0.0
 10
17.93017
 20
18.64326
 30
0.0
 10
17.94236
 20
18.62597
 30
0.0
 10
17.94236
 20
18.62597
 30
0.0
 10
17.95456
 20
18.60875
 30
0.0
 10
17.96956
 20
18.6001
 30
0.0
 10
17.98744
 20
18.6001
 30
0.0
 10
17.98744
 20
18.6001
 30
0.0
 10
18.0054
 20
18.6001
 30
0.0
 10
18.0204
 20
18.60882
 30
0.0
 10
18.03259
 20
18.62612
 30
0.0
 10
18.03259
 20
18.62612
 30
0.0
 10
18.04479
 20
18.64341
 30
0.0
 10
18.05092
 20
18.67807
 30
0.0
 10
18.05092
 20
18.73002
 30
0.0
 10
18.05092
 20
18.73002
 30
0.0
 10
18.05092
 20
18.78227
 30
0.0
 10
18.04479
 20
18.817
 30
0.0
 10
18.03259
 20
18.83415
 30
0.0
 10
18.03259
 20
18.83415
 30
0.0
 10
18.0204
 20
18.85136
 30
0.0
 10
18.00525
 20
18.85994
 30
0.0
 10
17.98707
 20
18.85994
 30
0.0
 10
17.98707
 20
18.85994
 30
0.0
 10
17.96911
 20
18.85994
 30
0.0
 10
17.95485
 20
18.85232
 30
0.0
 10
17.94414
 20
18.83718
 30
0.0
 10
17.94414
 20
18.83718
 30
0.0
 10
17.93076
 20
18.81789
 30
0.0
 10
17.92403
 20
18.78212
 30
0.0
 10
17.92403
 20
18.73002
 30
0.0
  0
SPLINE
  5
58
330
1F
100
AcDbEntity
  8
layer 1
 62
   250
100
AcDbSpline
210
0.0
220
0.0
230
1.0
 70
    11
 71
     3
 72
   124
 73
   120
 74
     0
 42
0.0000000001
 43
0.0000000001
 12
1.0
 22
0.0
 32
0.0
 13
1.0
 23
0.0
 33
0.0
 40
0.0
 40
0.0
 40
0.0
 40
0.0
 40
0.032258064516129
 40
0.032258064516129
 40
0.032258064516129
 40
0.032258064516129
 40
0.0645161290322581
 40
0.0645161290322581
 40
0.0645161290322581
 40
0.0645161290322581
 40
0.0967741935483871
 40
0.0967741935483871
 40
0.0967741935483871
 40
0.0967741935483871
 40
0.1290322580645161
 40
0.1290322580645161
 40
0.1290322580645161
 40
0.1290322580645161
 40
0.1612903225806452
 40
0.1612903225806452
 40
0.1612903225806452
 40
0.1612903225806452
 40
0.1935483870967742
 40
0.1935483870967742
 40
0.1935483870967742
 40
0.1935483870967742
 40
0.2258064516129032
 40
0.2258064516129032
 40
0.2258064516129032
 40
0.2258064516129032
 40
0.2580645161290323
 40
0.2580645161290323
 40
0.2580645161290323
 40
0.2580645161290323
 40
0.2903225806451613
 40
0.2903225806451613
 40
0.2903225806451613
 40
0.2903225806451613
 40
0.3225806451612903
 40
0.3225806451612903
 40
0.3225806451612903
 40
0.3225806451612903
 40
0.3548387096774194
 40
0.3548387096774194
 40
0.3548387096774194
 40
0.3548387096774194
 40
0.3870967741935484
 40
0.3870967741935484
 40
0.3870967741935484
 40
0.3870967741935484
 40
0.4193548387096774
 40
0.4193548387096774
 40
0.4193548387096774
 40
0.4193548387096774
 40
0.4516129032258064
 40
0.4516129032258064
 40
0.4516129032258064
 40
0.4516129032258064
 40
0.4838709677419355
 40
0.4838709677419355
 40
0.4838709677419355
 40
0.4838709677419355
 40
0.5161290322580645
 40
0.5161290322580645
 40
0.5161290322580645
 40
0.5161290322580645
 40
0.5483870967741935
 40
0.5483870967741935
 40
0.5483870967741935
 40
0.5483870967741935
 40
0.5806451612903226
 40
0.5806451612903226
 40
0.5806451612903226
 40
0.5806451612903226
 40
0.6129032258064516
 40
0.6129032258064516
 40
0.6129032258064516
 40
0.6129032258064516
 40
0.6451612903225806
 40
0.6451612903225806
 40
0.6451612903225806
 40
0.6451612903225806
 40
0.6774193548387096
 40
0.6774193548387096
 40
0.6774193548387096
 40
0.6774193548387096
 40
0.7096774193548387
 40
0.7096774193548387
 40
0.7096774193548387
 40
0.7096774193548387
 40
0.7419354838709677
 40
0.7419354838709677
 40
0.7419354838709677
 40
0.7419354838709677
 40
0.7741935483870968
 40
0.7741935483870968
 40
0.7741935483870968
 40
0.7741935483870968
 40
0.8064516129032258
 40
0.8064516129032258
 40
0.8064516129032258
 40
0.8064516129032258
 40
0.8387096774193549
 40
0.8387096774193549
 40
0.8387096774193549
 40
0.8387096774193549
 40
0.8709677419354839
 40
0.8709677419354839
 40
0.8709677419354839
 40
0.8709677419354839
 40
0.9032258064516129
 40
0.9032258064516129
 40
0.9032258064516129
 40
0.9032258064516129
 40
0.9354838709677419
 40
0.9354838709677419
 40
0.9354838709677419
 40
0.9354838709677419
 40
1.0
 40
1.0
 40
1.0
 40
1.0
 10
-8.54174
 20
0.0062
 30
0.0
 10
-8.54174
 20
0.0062
 30
0.0
 10
-8.45757
 20
0.01738
 30
0.0
 10
-8.45757
 20
0.01738
 30
0.0
 10
-8.45757
 20
0.01738
 30
0.0
 10
-8.44783
 20
-0.03037
 30
0.0
 10
-8.43138
 20
-0.06471
 30
0.0
 10
-8.40823
 20
-0.08579
 30
0.0
 10
-8.40823
 20
-0.08579
 30
0.0
 10
-8.38491
 20
-0.10687
 30
0.0
 10
-8.35664
 20
-0.11741
 30
0.0
 10
-8.32327
 20
-0.11741
 30
0.0
 10
-8.32327
 20
-0.11741
 30
0.0
 10
-8.28366
 20
-0.11741
 30
0.0
 10
-8.25012
 20
-0.10367
 30
0.0
 10
-8.22281
 20
-0.07621
 30
0.0
 10
-8.22281
 20
-0.07621
 30
0.0
 10
-8.19567
 20
-0.04874
 30
0.0
 10
-8.18193
 20
-0.01472
 30
0.0
 10
-8.18193
 20
0.02584
 30
0.0
 10
-8.18193
 20
0.02584
 30
0.0
 10
-8.18193
 20
0.06449
 30
0.0
 10
-8.19455
 20
0.09643
 30
0.0
 10
-8.21978
 20
0.1215
 30
0.0
 10
-8.21978
 20
0.1215
 30
0.0
 10
-8.24517
 20
0.14658
 30
0.0
 10
-8.27727
 20
0.15919
 30
0.0
 10
-8.31624
 20
0.15919
 30
0.0
 10
-8.31624
 20
0.15919
 30
0.0
 10
-8.33221
 20
0.15919
 30
0.0
 10
-8.35201
 20
0.156
 30
0.0
 10
-8.37565
 20
0.14977
 30
0.0
 10
-8.37565
 20
0.14977
 30
0.0
 10
-8.37565
 20
0.14977
 30
0.0
 10
-8.36623
 20
0.22371
 30
0.0
 10
-8.36623
 20
0.22371
 30
0.0
 10
-8.36623
 20
0.22371
 30
0.0
 10
-8.36064
 20
0.22307
 30
0.0
 10
-8.35616
 20
0.22275
 30
0.0
 10
-8.35265
 20
0.22275
 30
0.0
 10
-8.35265
 20
0.22275
 30
0.0
 10
-8.31688
 20
0.22275
 30
0.0
 10
-8.28462
 20
0.23218
 30
0.0
 10
-8.25587
 20
0.25086
 30
0.0
 10
-8.25587
 20
0.25086
 30
0.0
 10
-8.22713
 20
0.26955
 30
0.0
 10
-8.21275
 20
0.29845
 30
0.0
 10
-8.21275
 20
0.33742
 30
0.0
 10
-8.21275
 20
0.33742
 30
0.0
 10
-8.21275
 20
0.36824
 30
0.0
 10
-8.22329
 20
0.39395
 30
0.0
 10
-8.24421
 20
0.41407
 30
0.0
 10
-8.24421
 20
0.41407
 30
0.0
 10
-8.26514
 20
0.43436
 30
0.0
 10
-8.29212
 20
0.44458
 30
0.0
 10
-8.32518
 20
0.44458
 30
0.0
 10
-8.32518
 20
0.44458
 30
0.0
 10
-8.35792
 20
0.44458
 30
0.0
 10
-8.38523
 20
0.4342
 30
0.0
 10
-8.40695
 20
0.41375
 30
0.0
 10
-8.40695
 20
0.41375
 30
0.0
 10
-8.42883
 20
0.39315
 30
0.0
 10
-8.44288
 20
0.36217
 30
0.0
 10
-8.44911
 20
0.32097
 30
0.0
 10
-8.44911
 20
0.32097
 30
0.0
 10
-8.44911
 20
0.32097
 30
0.0
 10
-8.53327
 20
0.33598
 30
0.0
 10
-8.53327
 20
0.33598
 30
0.0
 10
-8.53327
 20
0.33598
 30
0.0
 10
-8.52305
 20
0.39251
 30
0.0
 10
-8.49957
 20
0.43627
 30
0.0
 10
-8.46316
 20
0.46725
 30
0.0
 10
-8.46316
 20
0.46725
 30
0.0
 10
-8.42659
 20
0.49824
 30
0.0
 10
-8.38124
 20
0.51389
 30
0.0
 10
-8.32694
 20
0.51389
 30
0.0
 10
-8.32694
 20
0.51389
 30
0.0
 10
-8.28957
 20
0.51389
 30
0.0
 10
-8.25507
 20
0.50574
 30
0.0
 10
-8.22361
 20
0.48977
 30
0.0
 10
-8.22361
 20
0.48977
 30
0.0
 10
-8.19215
 20
0.47364
 30
0.0
 10
-8.16804
 20
0.45176
 30
0.0
 10
-8.15127
 20
0.42398
 30
0.0
 10
-8.15127
 20
0.42398
 30
0.0
 10
-8.13466
 20
0.39619
 30
0.0
 10
-8.1262
 20
0.3668
 30
0.0
 10
-8.1262
 20
0.3355
 30
0.0
 10
-8.1262
 20
0.3355
 30
0.0
 10
-8.1262
 20
0.30596
 30
0.0
 10
-8.13418
 20
0.27897
 30
0.0
 10
-8.15015
 20
0.25453
 30
0.0
 10
-8.15015
 20
0.25453
 30
0.0
 10
-8.16612
 20
0.23026
 30
0.0
 10
-8.1896
 20
0.21094
 30
0.0
 10
-8.22074
 20
0.19656
 30
0.0
 10
-8.22074
 20
0.19656
 30
0.0
 10
-8.18017
 20
0.1873
 30
0.0
 10
-8.14871
 20
0.16782
 30
0.0
 10
-8.1262
 20
0.13827
 30
0.0
 10
-8.1262
 20
0.13827
 30
0.0
 10
-8.10384
 20
0.10889
 30
0.0
 10
-8.09266
 20
0.072
 30
0.0
 10
-8.09266
 20
0.02776
 30
0.0
 10
-8.09266
 20
0.02776
 30
0.0
 10
-8.09266
 20
-0.03213
 30
0.0
 10
-8.11438
 20
-0.08291
 30
0.0
 10
-8.15814
 20
-0.12459
 30
0.0
 10
-8.15814
 20
-0.12459
 30
0.0
 10
-8.20173
 20
-0.16628
 30
0.0
 10
-8.25699
 20
-0.18704
 30
0.0
 10
-8.32375
 20
-0.18704
 30
0.0
 10
-8.32375
 20
-0.18704
 30
0.0
 10
-8.38395
 20
-0.18704
 30
0.0
 10
-8.43394
 20
-0.16915
 30
0.0
 10
-8.4737
 20
-0.13322
 30
0.0
 10
-8.4737
 20
-0.13322
 30
0.0
 10
-8.51347
 20
-0.09745
 30
0.0
 10
-8.53615
 20
-0.05097
 30
0.0
 10
-8.54174
 20
0.0062
 30
0.0
  0
SPLINE
  5
59
330
1F
100
AcDbEntity
  8
layer 1
 62
   250
100
AcDbSpline
210
0.0
220
0.0
230
1.0
 70
    11
 71
     3
 72
    48
 73
    44
 74
     0
 42
0.0000000001
 43
0.0000000001
 12
1.0
 22
0.0
 32
0.0
 13
1.0
 23
0.0
 33
0.0
 40
0.0
 40
0.0
 40
0.0
 40
0.0
 40
0.0833333333333333
 40
0.0833333333333333
 40
0.0833333333333333
 40
0.0833333333333333
 40
0.1666666666666667
 40
0.1666666666666667
 40
0.1666666666666667
 40
0.1666666666666667
 40
0.25
 40
0.25
 40
0.25
 40
0.25
 40
0.3333333333333333
 40
0.3333333333333333
 40
0.3333333333333333
 40
0.3333333333333333
 40
0.4166666666666667
 40
0.4166666666666667
 40
0.4166666666666667
 40
0.4166666666666667
 40
0.5
 40
0.5
 40
0.5
 40
0.5
 40
0.5833333333333334
 40
0.5833333333333334
 40
0.5833333333333334
 40
0.5833333333333334
 40
0.6666666666666666
 40
0.6666666666666666
 40
0.6666666666666666
 40
0.6666666666666666
 40
0.75
 40
0.75
 40
0.75
 40
0.75
 40
0.8333333333333334
 40
0.8333333333333334
 40
0.8333333333333334
 40
0.8333333333333334
 40
1.0
 40
1.0
 40
1.0
 40
1.0
 10
-7.95047
 20
0.4211
 30
0.0
 10
-7.95047
 20
0.4211
 30
0.0
 10
-7.95047
 20
0.50207
 30
0.0
 10
-7.95047
 20
0.50207
 30
0.0
 10
-7.95047
 20
0.50207
 30
0.0
 10
-7.95047
 20
0.50207
 30
0.0
 10
-7.5065
 20
0.50207
 30
0.0
 10
-7.5065
 20
0.50207
 30
0.0
 10
-7.5065
 20
0.50207
 30
0.0
 10
-7.5065
 20
0.50207
 30
0.0
 10
-7.5065
 20
0.43659
 30
0.0
 10
-7.5065
 20
0.43659
 30
0.0
 10
-7.5065
 20
0.43659
 30
0.0
 10
-7.5501
 20
0.39012
 30
0.0
 10
-7.59338
 20
0.32831
 30
0.0
 10
-7.63634
 20
0.25134
 30
0.0
 10
-7.63634
 20
0.25134
 30
0.0
 10
-7.67913
 20
0.17436
 30
0.0
 10
-7.71235
 20
0.09499
 30
0.0
 10
-7.73567
 20
0.01371
 30
0.0
 10
-7.73567
 20
0.01371
 30
0.0
 10
-7.7526
 20
-0.04379
 30
0.0
 10
-7.7633
 20
-0.10655
 30
0.0
 10
-7.76793
 20
-0.1749
 30
0.0
 10
-7.76793
 20
-0.1749
 30
0.0
 10
-7.76793
 20
-0.1749
 30
0.0
 10
-7.85449
 20
-0.1749
 30
0.0
 10
-7.85449
 20
-0.1749
 30
0.0
 10
-7.85449
 20
-0.1749
 30
0.0
 10
-7.85353
 20
-0.12092
 30
0.0
 10
-7.84299
 20
-0.05576
 30
0.0
 10
-7.82271
 20
0.02073
 30
0.0
 10
-7.82271
 20
0.02073
 30
0.0
 10
-7.80242
 20
0.09707
 30
0.0
 10
-7.77336
 20
0.17085
 30
0.0
 10
-7.73551
 20
0.24176
 30
0.0
 10
-7.73551
 20
0.24176
 30
0.0
 10
-7.6975
 20
0.31266
 30
0.0
 10
-7.65726
 20
0.37255
 30
0.0
 10
-7.61446
 20
0.4211
 30
0.0
 10
-7.61446
 20
0.4211
 30
0.0
 10
-7.61446
 20
0.4211
 30
0.0
 10
-7.95047
 20
0.4211
 30
0.0
 10
-7.95047
 20
0.4211
 30
0.0
  0
SPLINE
  5
5A
330
1F
100
AcDbEntity
  8
layer 1
 62
   250
100
AcDbSpline
210
0.0
220
0.0
230
1.0
 70
    11
 71
     3
 72
    68
 73
    64
 74
     0
 42
0.0000000001
 43
0.0000000001
 12
1.0
 22
0.0
 32
0.0
 13
1.0
 23
0.0
 33
0.0
 40
0.0
 40
0.0
 40
0.0
 40
0.0
 40
0.0588235294117647
 40
0.0588235294117647
 40
0.0588235294117647
 40
0.0588235294117647
 40
0.1176470588235294
 40
0.1176470588235294
 40
0.1176470588235294
 40
0.1176470588235294
 40
0.1764705882352941
 40
0.1764705882352941
 40
0.1764705882352941
 40
0.1764705882352941
 40
0.2352941176470588
 40
0.2352941176470588
 40
0.2352941176470588
 40
0.2352941176470588
 40
0.2941176470588235
 40
0.2941176470588235
 40
0.2941176470588235
 40
0.2941176470588235
 40
0.3529411764705883
 40
0.3529411764705883
 40
0.3529411764705883
 40
0.3529411764705883
 40
0.4117647058823529
 40
0.4117647058823529
 40
0.4117647058823529
 40
0.4117647058823529
 40
0.4705882352941176
 40
0.4705882352941176
 40
0.4705882352941176
 40
0.4705882352941176
 40
0.5294117647058824
 40
0.5294117647058824
 40
0.5294117647058824
 40
0.5294117647058824
 40
0.5882352941176471
 40
0.5882352941176471
 40
0.5882352941176471
 40
0.5882352941176471
 40
0.6470588235294118
 40
0.6470588235294118
 40
0.6470588235294118
 40
0.6470588235294118
 40
0.7058823529411765
 40
0.7058823529411765
 40
0.7058823529411765
 40
0.7058823529411765
 40
0.7647058823529411
 40
0.7647058823529411
 40
0.7647058823529411
 40
0.7647058823529411
 40
0.8235294117647058
 40
0.8235294117647058
 40
0.8235294117647058
 40
0.8235294117647058
 40
0.8823529411764706
 40
0.8823529411764706
 40
0.8823529411764706
 40
0.8823529411764706
 40
1.0
 40
1.0
 40
1.0
 40
1.0
 10
-7.24022
 20
0.19704
 30
0.0
 10
-7.27519
 20
0.20982
 30
0.0
 10
-7.30106
 20
0.22802
 30
0.0
 10
-7.31799
 20
0.25182
 30
0.0
 10
-7.31799
 20
0.25182
 30
0.0
 10
-7.33476
 20
0.27545
 30
0.0
 10
-7.34322
 20
0.30388
 30
0.0
 10
-7.34322
 20
0.33694
 30
0.0
 10
-7.34322
 20
0.33694
 30
0.0
 10
-7.34322
 20
0.38692
 30
0.0
 10
-7.32534
 20
0.42877
 30
0.0
 10
-7.28941
 20
0.46278
 30
0.0
 10
-7.28941
 20
0.46278
 30
0.0
 10
-7.25347
 20
0.4968
 30
0.0
 10
-7.20588
 20
0.51389
 30
0.0
 10
-7.14631
 20
0.51389
 30
0.0
 10
-7.14631
 20
0.51389
 30
0.0
 10
-7.08643
 20
0.51389
 30
0.0
 10
-7.0382
 20
0.49648
 30
0.0
 10
-7.00163
 20
0.46166
 30
0.0
 10
-7.00163
 20
0.46166
 30
0.0
 10
-6.96521
 20
0.42685
 30
0.0
 10
-6.94701
 20
0.38453
 30
0.0
 10
-6.94701
 20
0.33454
 30
0.0
 10
-6.94701
 20
0.33454
 30
0.0
 10
-6.94701
 20
0.30276
 30
0.0
 10
-6.95531
 20
0.27513
 30
0.0
 10
-6.97192
 20
0.2515
 30
0.0
 10
-6.97192
 20
0.2515
 30
0.0
 10
-6.98869
 20
0.22802
 30
0.0
 10
-7.01392
 20
0.20982
 30
0.0
 10
-7.04794
 20
0.19704
 30
0.0
 10
-7.04794
 20
0.19704
 30
0.0
 10
-7.00594
 20
0.18331
 30
0.0
 10
-6.97384
 20
0.16127
 30
0.0
 10
-6.9518
 20
0.13061
 30
0.0
 10
-6.9518
 20
0.13061
 30
0.0
 10
-6.92992
 20
0.1001
 30
0.0
 10
-6.9189
 20
0.06353
 30
0.0
 10
-6.9189
 20
0.02121
 30
0.0
 10
-6.9189
 20
0.02121
 30
0.0
 10
-6.9189
 20
-0.03756
 30
0.0
 10
-6.93966
 20
-0.08675
 30
0.0
 10
-6.98103
 20
-0.12667
 30
0.0
 10
-6.98103
 20
-0.12667
 30
0.0
 10
-7.02255
 20
-0.1666
 30
0.0
 10
-7.07716
 20
-0.18656
 30
0.0
 10
-7.14488
 20
-0.18656
 30
0.0
 10
-7.14488
 20
-0.18656
 30
0.0
 10
-7.21259
 20
-0.18656
 30
0.0
 10
-7.26705
 20
-0.1666
 30
0.0
 10
-7.30857
 20
-0.12651
 30
0.0
 10
-7.30857
 20
-0.12651
 30
0.0
 10
-7.35009
 20
-0.08643
 30
0.0
 10
-7.37085
 20
-0.03644
 30
0.0
 10
-7.37085
 20
0.02345
 30
0.0
 10
-7.37085
 20
0.02345
 30
0.0
 10
-7.37085
 20
0.068
 30
0.0
 10
-7.35951
 20
0.10537
 30
0.0
 10
-7.33684
 20
0.13556
 30
0.0
 10
-7.33684
 20
0.13556
 30
0.0
 10
-7.31432
 20
0.16558
 30
0.0
 10
-7.28206
 20
0.18618
 30
0.0
 10
-7.24022
 20
0.19704
 30
0.0
  0
SPLINE
  5
5B
330
1F
100
AcDbEntity
  8
layer 1
 62
   250
100
AcDbSpline
210
0.0
220
0.0
230
1.0
 70
    11
 71
     3
 72
    36
 73
    32
 74
     0
 42
0.0000000001
 43
0.0000000001
 12
1.0
 22
0.0
 32
0.0
 13
1.0
 23
0.0
 33
0.0
 40
0.0
 40
0.0
 40
0.0
 40
0.0
 40
0.1111111111111111
 40
0.1111111111111111
 40
0.1111111111111111
 40
0.1111111111111111
 40
0.2222222222222222
 40
0.2222222222222222
 40
0.2222222222222222
 40
0.2222222222222222
 40
0.3333333333333333
 40
0.3333333333333333
 40
0.3333333333333333
 40
0.3333333333333333
 40
0.4444444444444444
 40
0.4444444444444444
 40
0.4444444444444444
 40
0.4444444444444444
 40
0.5555555555555556
 40
0.5555555555555556
 40
0.5555555555555556
 40
0.5555555555555556
 40
0.6666666666666666
 40
0.6666666666666666
 40
0.6666666666666666
 40
0.6666666666666666
 40
0.7777777777777778
 40
0.7777777777777778
 40
0.7777777777777778
 40
0.7777777777777778
 40
1.0
 40
1.0
 40
1.0
 40
1.0
 10
-7.25715
 20
0.33981
 30
0.0
 10
-7.25715
 20
0.30739
 30
0.0
 10
-7.24661
 20
0.28088
 30
0.0
 10
-7.22585
 20
0.26028
 30
0.0
 10
-7.22585
 20
0.26028
 30
0.0
 10
-7.20492
 20
0.23968
 30
0.0
 10
-7.17778
 20
0.2293
 30
0.0
 10
-7.1444
 20
0.2293
 30
0.0
 10
-7.1444
 20
0.2293
 30
0.0
 10
-7.11198
 20
0.2293
 30
0.0
 10
-7.08531
 20
0.23952
 30
0.0
 10
-7.06455
 20
0.25996
 30
0.0
 10
-7.06455
 20
0.25996
 30
0.0
 10
-7.04379
 20
0.2804
 30
0.0
 10
-7.03357
 20
0.30548
 30
0.0
 10
-7.03357
 20
0.33502
 30
0.0
 10
-7.03357
 20
0.33502
 30
0.0
 10
-7.03357
 20
0.366
 30
0.0
 10
-7.04411
 20
0.39188
 30
0.0
 10
-7.06551
 20
0.41296
 30
0.0
 10
-7.06551
 20
0.41296
 30
0.0
 10
-7.08691
 20
0.43404
 30
0.0
 10
-7.11342
 20
0.44458
 30
0.0
 10
-7.14536
 20
0.44458
 30
0.0
 10
-7.14536
 20
0.44458
 30
0.0
 10
-7.17746
 20
0.44458
 30
0.0
 10
-7.20413
 20
0.4342
 30
0.0
 10
-7.22537
 20
0.41375
 30
0.0
 10
-7.22537
 20
0.41375
 30
0.0
 10
-7.24661
 20
0.39315
 30
0.0
 10
-7.25715
 20
0.3684
 30
0.0
 10
-7.25715
 20
0.33981
 30
0.0
  0
SPLINE
  5
5C
330
1F
100
AcDbEntity
  8
layer 1
 62
   250
100
AcDbSpline
210
0.0
220
0.0
230
1.0
 70
    11
 71
     3
 72
    40
 73
    36
 74
     0
 42
0.0000000001
 43
0.0000000001
 12
1.0
 22
0.0
 32
0.0
 13
1.0
 23
0.0
 33
0.0
 40
0.0
 40
0.0
 40
0.0
 40
0.0
 40
0.1
 40
0.1
 40
0.1
 40
0.1
 40
0.2
 40
0.2
 40
0.2
 40
0.2
 40
0.3
 40
0.3
 40
0.3
 40
0.3
 40
0.4
 40
0.4
 40
0.4
 40
0.4
 40
0.5
 40
0.5
 40
0.5
 40
0.5
 40
0.6
 40
0.6
 40
0.6
 40
0.6
 40
0.7
 40
0.7
 40
0.7
 40
0.7
 40
0.8
 40
0.8
 40
0.8
 40
0.8
 40
1.0
 40
1.0
 40
1.0
 40
1.0
 10
-7.2843
 20
0.02297
 30
0.0
 10
-7.2843
 20
-0.00099
 30
0.0
 10
-7.27855
 20
-0.0243
 30
0.0
 10
-7.26721
 20
-0.04666
 30
0.0
 10
-7.26721
 20
-0.04666
 30
0.0
 10
-7.25587
 20
-0.06918
 30
0.0
 10
-7.23894
 20
-0.08659
 30
0.0
 10
-7.21642
 20
-0.09888
 30
0.0
 10
-7.21642
 20
-0.09888
 30
0.0
 10
-7.19391
 20
-0.11118
 30
0.0
 10
-7.16979
 20
-0.11741
 30
0.0
 10
-7.14392
 20
-0.11741
 30
0.0
 10
-7.14392
 20
-0.11741
 30
0.0
 10
-7.10367
 20
-0.11741
 30
0.0
 10
-7.07046
 20
-0.10447
 30
0.0
 10
-7.04427
 20
-0.07844
 30
0.0
 10
-7.04427
 20
-0.07844
 30
0.0
 10
-7.01808
 20
-0.05257
 30
0.0
 10
-7.00498
 20
-0.01967
 30
0.0
 10
-7.00498
 20
0.02025
 30
0.0
 10
-7.00498
 20
0.02025
 30
0.0
 10
-7.00498
 20
0.06082
 30
0.0
 10
-7.01839
 20
0.09435
 30
0.0
 10
-7.04538
 20
0.12086
 30
0.0
 10
-7.04538
 20
0.12086
 30
0.0
 10
-7.07237
 20
0.14737
 30
0.0
 10
-7.10623
 20
0.16063
 30
0.0
 10
-7.14679
 20
0.16063
 30
0.0
 10
-7.14679
 20
0.16063
 30
0.0
 10
-7.1864
 20
0.16063
 30
0.0
 10
-7.21914
 20
0.14753
 30
0.0
 10
-7.24517
 20
0.12134
 30
0.0
 10
-7.24517
 20
0.12134
 30
0.0
 10
-7.2712
 20
0.09499
 30
0.0
 10
-7.2843
 20
0.06225
 30
0.0
 10
-7.2843
 20
0.02297
 30
0.0
  0
SPLINE
  5
5D
330
1F
100
AcDbEntity
  8
layer 1
 62
   250
100
AcDbSpline
210
0.0
220
0.0
230
1.0
 70
    11
 71
     3
 72
    64
 73
    60
 74
     0
 42
0.0000000001
 43
0.0000000001
 12
1.0
 22
0.0
 32
0.0
 13
1.0
 23
0.0
 33
0.0
 40
0.0
 40
0.0
 40
0.0
 40
0.0
 40
0.0625
 40
0.0625
 40
0.0625
 40
0.0625
 40
0.125
 40
0.125
 40
0.125
 40
0.125
 40
0.1875
 40
0.1875
 40
0.1875
 40
0.1875
 40
0.25
 40
0.25
 40
0.25
 40
0.25
 40
0.3125
 40
0.3125
 40
0.3125
 40
0.3125
 40
0.375
 40
0.375
 40
0.375
 40
0.375
 40
0.4375
 40
0.4375
 40
0.4375
 40
0.4375
 40
0.5
 40
0.5
 40
0.5
 40
0.5
 40
0.5625
 40
0.5625
 40
0.5625
 40
0.5625
 40
0.625
 40
0.625
 40
0.625
 40
0.625
 40
0.6875
 40
0.6875
 40
0.6875
 40
0.6875
 40
0.75
 40
0.75
 40
0.75
 40
0.75
 40
0.8125
 40
0.8125
 40
0.8125
 40
0.8125
 40
0.875
 40
0.875
 40
0.875
 40
0.875
 40
1.0
 40
1.0
 40
1.0
 40
1.0
 10
-6.75243
 20
-0.1749
 30
0.0
 10
-6.75243
 20
-0.1749
 30
0.0
 10
-6.75243
 20
0.51101
 30
0.0
 10
-6.75243
 20
0.51101
 30
0.0
 10
-6.75243
 20
0.51101
 30
0.0
 10
-6.75243
 20
0.51101
 30
0.0
 10
-6.61573
 20
0.51101
 30
0.0
 10
-6.61573
 20
0.51101
 30
0.0
 10
-6.61573
 20
0.51101
 30
0.0
 10
-6.61573
 20
0.51101
 30
0.0
 10
-6.45348
 20
0.02536
 30
0.0
 10
-6.45348
 20
0.02536
 30
0.0
 10
-6.45348
 20
0.02536
 30
0.0
 10
-6.43846
 20
-0.01983
 30
0.0
 10
-6.42744
 20
-0.05369
 30
0.0
 10
-6.42074
 20
-0.07621
 30
0.0
 10
-6.42074
 20
-0.07621
 30
0.0
 10
-6.41291
 20
-0.05129
 30
0.0
 10
-6.40077
 20
-0.01456
 30
0.0
 10
-6.38417
 20
0.03383
 30
0.0
 10
-6.38417
 20
0.03383
 30
0.0
 10
-6.38417
 20
0.03383
 30
0.0
 10
-6.21999
 20
0.51101
 30
0.0
 10
-6.21999
 20
0.51101
 30
0.0
 10
-6.21999
 20
0.51101
 30
0.0
 10
-6.21999
 20
0.51101
 30
0.0
 10
-6.09782
 20
0.51101
 30
0.0
 10
-6.09782
 20
0.51101
 30
0.0
 10
-6.09782
 20
0.51101
 30
0.0
 10
-6.09782
 20
0.51101
 30
0.0
 10
-6.09782
 20
-0.1749
 30
0.0
 10
-6.09782
 20
-0.1749
 30
0.0
 10
-6.09782
 20
-0.1749
 30
0.0
 10
-6.09782
 20
-0.1749
 30
0.0
 10
-6.18534
 20
-0.1749
 30
0.0
 10
-6.18534
 20
-0.1749
 30
0.0
 10
-6.18534
 20
-0.1749
 30
0.0
 10
-6.18534
 20
-0.1749
 30
0.0
 10
-6.18534
 20
0.39922
 30
0.0
 10
-6.18534
 20
0.39922
 30
0.0
 10
-6.18534
 20
0.39922
 30
0.0
 10
-6.18534
 20
0.39922
 30
0.0
 10
-6.38464
 20
-0.1749
 30
0.0
 10
-6.38464
 20
-0.1749
 30
0.0
 10
-6.38464
 20
-0.1749
 30
0.0
 10
-6.38464
 20
-0.1749
 30
0.0
 10
-6.46657
 20
-0.1749
 30
0.0
 10
-6.46657
 20
-0.1749
 30
0.0
 10
-6.46657
 20
-0.1749
 30
0.0
 10
-6.46657
 20
-0.1749
 30
0.0
 10
-6.66492
 20
0.40896
 30
0.0
 10
-6.66492
 20
0.40896
 30
0.0
 10
-6.66492
 20
0.40896
 30
0.0
 10
-6.66492
 20
0.40896
 30
0.0
 10
-6.66492
 20
-0.1749
 30
0.0
 10
-6.66492
 20
-0.1749
 30
0.0
 10
-6.66492
 20
-0.1749
 30
0.0
 10
-6.66492
 20
-0.1749
 30
0.0
 10
-6.75243
 20
-0.1749
 30
0.0
 10
-6.75243
 20
-0.1749
 30
0.0
  0
SPLINE
  5
5E
330
1F
100
AcDbEntity
  8
layer 1
 62
   250
100
AcDbSpline
210
0.0
220
0.0
230
1.0
 70
    11
 71
     3
 72
    64
 73
    60
 74
     0
 42
0.0000000001
 43
0.0000000001
 12
1.0
 22
0.0
 32
0.0
 13
1.0
 23
0.0
 33
0.0
 40
0.0
 40
0.0
 40
0.0
 40
0.0
 40
0.0625
 40
0.0625
 40
0.0625
 40
0.0625
 40
0.125
 40
0.125
 40
0.125
 40
0.125
 40
0.1875
 40
0.1875
 40
0.1875
 40
0.1875
 40
0.25
 40
0.25
 40
0.25
 40
0.25
 40
0.3125
 40
0.3125
 40
0.3125
 40
0.3125
 40
0.375
 40
0.375
 40
0.375
 40
0.375
 40
0.4375
 40
0.4375
 40
0.4375
 40
0.4375
 40
0.5
 40
0.5
 40
0.5
 40
0.5
 40
0.5625
 40
0.5625
 40
0.5625
 40
0.5625
 40
0.625
 40
0.625
 40
0.625
 40
0.625
 40
0.6875
 40
0.6875
 40
0.6875
 40
0.6875
 40
0.75
 40
0.75
 40
0.75
 40
0.75
 40
0.8125
 40
0.8125
 40
0.8125
 40
0.8125
 40
0.875
 40
0.875
 40
0.875
 40
0.875
 40
1.0
 40
1.0
 40
1.0
 40
1.0
 10
-5.90101
 20
-0.1749
 30
0.0
 10
-5.90101
 20
-0.1749
 30
0.0
 10
-5.90101
 20
0.51101
 30
0.0
 10
-5.90101
 20
0.51101
 30
0.0
 10
-5.90101
 20
0.51101
 30
0.0
 10
-5.90101
 20
0.51101
 30
0.0
 10
-5.76431
 20
0.51101
 30
0.0
 10
-5.76431
 20
0.51101
 30
0.0
 10
-5.76431
 20
0.51101
 30
0.0
 10
-5.76431
 20
0.51101
 30
0.0
 10
-5.60206
 20
0.02536
 30
0.0
 10
-5.60206
 20
0.02536
 30
0.0
 10
-5.60206
 20
0.02536
 30
0.0
 10
-5.58704
 20
-0.01983
 30
0.0
 10
-5.57602
 20
-0.05369
 30
0.0
 10
-5.56932
 20
-0.07621
 30
0.0
 10
-5.56932
 20
-0.07621
 30
0.0
 10
-5.56149
 20
-0.05129
 30
0.0
 10
-5.54935
 20
-0.01456
 30
0.0
 10
-5.53275
 20
0.03383
 30
0.0
 10
-5.53275
 20
0.03383
 30
0.0
 10
-5.53275
 20
0.03383
 30
0.0
 10
-5.36857
 20
0.51101
 30
0.0
 10
-5.36857
 20
0.51101
 30
0.0
 10
-5.36857
 20
0.51101
 30
0.0
 10
-5.36857
 20
0.51101
 30
0.0
 10
-5.2464
 20
0.51101
 30
0.0
 10
-5.2464
 20
0.51101
 30
0.0
 10
-5.2464
 20
0.51101
 30
0.0
 10
-5.2464
 20
0.51101
 30
0.0
 10
-5.2464
 20
-0.1749
 30
0.0
 10
-5.2464
 20
-0.1749
 30
0.0
 10
-5.2464
 20
-0.1749
 30
0.0
 10
-5.2464
 20
-0.1749
 30
0.0
 10
-5.33392
 20
-0.1749
 30
0.0
 10
-5.33392
 20
-0.1749
 30
0.0
 10
-5.33392
 20
-0.1749
 30
0.0
 10
-5.33392
 20
-0.1749
 30
0.0
 10
-5.33392
 20
0.39922
 30
0.0
 10
-5.33392
 20
0.39922
 30
0.0
 10
-5.33392
 20
0.39922
 30
0.0
 10
-5.33392
 20
0.39922
 30
0.0
 10
-5.53322
 20
-0.1749
 30
0.0
 10
-5.53322
 20
-0.1749
 30
0.0
 10
-5.53322
 20
-0.1749
 30
0.0
 10
-5.53322
 20
-0.1749
 30
0.0
 10
-5.61515
 20
-0.1749
 30
0.0
 10
-5.61515
 20
-0.1749
 30
0.0
 10
-5.61515
 20
-0.1749
 30
0.0
 10
-5.61515
 20
-0.1749
 30
0.0
 10
-5.8135
 20
0.40896
 30
0.0
 10
-5.8135
 20
0.40896
 30
0.0
 10
-5.8135
 20
0.40896
 30
0.0
 10
-5.8135
 20
0.40896
 30
0.0
 10
-5.8135
 20
-0.1749
 30
0.0
 10
-5.8135
 20
-0.1749
 30
0.0
 10
-5.8135
 20
-0.1749
 30
0.0
 10
-5.8135
 20
-0.1749
 30
0.0
 10
-5.90101
 20
-0.1749
 30
0.0
 10
-5.90101
 20
-0.1749
 30
0.0
  0
SPLINE
  5
5F
330
1F
100
AcDbEntity
  8
layer 1
 62
   250
100
AcDbSpline
210
0.0
220
0.0
230
1.0
 70
    11
 71
     3
 72
   124
 73
   120
 74
     0
 42
0.0000000001
 43
0.0000000001
 12
1.0
 22
0.0
 32
0.0
 13
1.0
 23
0.0
 33
0.0
 40
0.0
 40
0.0
 40
0.0
 40
0.0
 40
0.032258064516129
 40
0.032258064516129
 40
0.032258064516129
 40
0.032258064516129
 40
0.0645161290322581
 40
0.0645161290322581
 40
0.0645161290322581
 40
0.0645161290322581
 40
0.0967741935483871
 40
0.0967741935483871
 40
0.0967741935483871
 40
0.0967741935483871
 40
0.1290322580645161
 40
0.1290322580645161
 40
0.1290322580645161
 40
0.1290322580645161
 40
0.1612903225806452
 40
0.1612903225806452
 40
0.1612903225806452
 40
0.1612903225806452
 40
0.1935483870967742
 40
0.1935483870967742
 40
0.1935483870967742
 40
0.1935483870967742
 40
0.2258064516129032
 40
0.2258064516129032
 40
0.2258064516129032
 40
0.2258064516129032
 40
0.2580645161290323
 40
0.2580645161290323
 40
0.2580645161290323
 40
0.2580645161290323
 40
0.2903225806451613
 40
0.2903225806451613
 40
0.2903225806451613
 40
0.2903225806451613
 40
0.3225806451612903
 40
0.3225806451612903
 40
0.3225806451612903
 40
0.3225806451612903
 40
0.3548387096774194
 40
0.3548387096774194
 40
0.3548387096774194
 40
0.3548387096774194
 40
0.3870967741935484
 40
0.3870967741935484
 40
0.3870967741935484
 40
0.3870967741935484
 40
0.4193548387096774
 40
0.4193548387096774
 40
0.4193548387096774
 40
0.4193548387096774
 40
0.4516129032258064
 40
0.4516129032258064
 40
0.4516129032258064
 40
0.4516129032258064
 40
0.4838709677419355
 40
0.4838709677419355
 40
0.4838709677419355
 40
0.4838709677419355
 40
0.5161290322580645
 40
0.5161290322580645
 40
0.5161290322580645
 40
0.5161290322580645
 40
0.5483870967741935
 40
0.5483870967741935
 40
0.5483870967741935
 40
0.5483870967741935
 40
0.5806451612903226
 40
0.5806451612903226
 40
0.5806451612903226
 40
0.5806451612903226
 40
0.6129032258064516
 40
0.6129032258064516
 40
0.6129032258064516
 40
0.6129032258064516
 40
0.6451612903225806
 40
0.6451612903225806
 40
0.6451612903225806
 40
0.6451612903225806
 40
0.6774193548387096
 40
0.6774193548387096
 40
0.6774193548387096
 40
0.6774193548387096
 40
0.7096774193548387
 40
0.7096774193548387
 40
0.7096774193548387
 40
0.7096774193548387
 40
0.7419354838709677
 40
0.7419354838709677
 40
0.7419354838709677
 40
0.7419354838709677
 40
0.7741935483870968
 40
0.7741935483870968
 40
0.7741935483870968
 40
0.7741935483870968
 40
0.8064516129032258
 40
0.8064516129032258
 40
0.8064516129032258
 40
0.8064516129032258
 40
0.8387096774193549
 40
0.8387096774193549
 40
0.8387096774193549
 40
0.8387096774193549
 40
0.8709677419354839
 40
0.8709677419354839
 40
0.8709677419354839
 40
0.8709677419354839
 40
0.9032258064516129
 40
0.9032258064516129
 40
0.9032258064516129
 40
0.9032258064516129
 40
0.9354838709677419
 40
0.9354838709677419
 40
0.9354838709677419
 40
0.9354838709677419
 40
1.0
 40
1.0
 40
1.0
 40
1.0
 10
-2.42209
 20
5.60357
 30
0.0
 10
-2.42209
 20
5.60357
 30
0.0
 10
-2.33792
 20
5.61475
 30
0.0
 10
-2.33792
 20
5.61475
 30
0.0
 10
-2.33792
 20
5.61475
 30
0.0
 10
-2.32818
 20
5.567
 30
0.0
 10
-2.31173
 20
5.53266
 30
0.0
 10
-2.28858
 20
5.51158
 30
0.0
 10
-2.28858
 20
5.51158
 30
0.0
 10
-2.26526
 20
5.4905
 30
0.0
 10
-2.23699
 20
5.47996
 30
0.0
 10
-2.20362
 20
5.47996
 30
0.0
 10
-2.20362
 20
5.47996
 30
0.0
 10
-2.16401
 20
5.47996
 30
0.0
 10
-2.13047
 20
5.4937
 30
0.0
 10
-2.10316
 20
5.52116
 30
0.0
 10
-2.10316
 20
5.52116
 30
0.0
 10
-2.07602
 20
5.54863
 30
0.0
 10
-2.06228
 20
5.58265
 30
0.0
 10
-2.06228
 20
5.62321
 30
0.0
 10
-2.06228
 20
5.62321
 30
0.0
 10
-2.06228
 20
5.66186
 30
0.0
 10
-2.0749
 20
5.6938
 30
0.0
 10
-2.10013
 20
5.71887
 30
0.0
 10
-2.10013
 20
5.71887
 30
0.0
 10
-2.12552
 20
5.74395
 30
0.0
 10
-2.15762
 20
5.75656
 30
0.0
 10
-2.19659
 20
5.75656
 30
0.0
 10
-2.19659
 20
5.75656
 30
0.0
 10
-2.21256
 20
5.75656
 30
0.0
 10
-2.23236
 20
5.75337
 30
0.0
 10
-2.256
 20
5.74714
 30
0.0
 10
-2.256
 20
5.74714
 30
0.0
 10
-2.256
 20
5.74714
 30
0.0
 10
-2.24658
 20
5.82108
 30
0.0
 10
-2.24658
 20
5.82108
 30
0.0
 10
-2.24658
 20
5.82108
 30
0.0
 10
-2.24099
 20
5.82044
 30
0.0
 10
-2.23651
 20
5.82012
 30
0.0
 10
-2.233
 20
5.82012
 30
0.0
 10
-2.233
 20
5.82012
 30
0.0
 10
-2.19723
 20
5.82012
 30
0.0
 10
-2.16497
 20
5.82955
 30
0.0
 10
-2.13622
 20
5.84823
 30
0.0
 10
-2.13622
 20
5.84823
 30
0.0
 10
-2.10748
 20
5.86692
 30
0.0
 10
-2.0931
 20
5.89582
 30
0.0
 10
-2.0931
 20
5.93479
 30
0.0
 10
-2.0931
 20
5.93479
 30
0.0
 10
-2.0931
 20
5.96561
 30
0.0
 10
-2.10364
 20
5.99132
 30
0.0
 10
-2.12456
 20
6.01144
 30
0.0
 10
-2.12456
 20
6.01144
 30
0.0
 10
-2.14549
 20
6.03173
 30
0.0
 10
-2.17247
 20
6.04195
 30
0.0
 10
-2.20553
 20
6.04195
 30
0.0
 10
-2.20553
 20
6.04195
 30
0.0
 10
-2.23827
 20
6.04195
 30
0.0
 10
-2.26558
 20
6.03157
 30
0.0
 10
-2.2873
 20
6.01112
 30
0.0
 10
-2.2873
 20
6.01112
 30
0.0
 10
-2.30918
 20
5.99052
 30
0.0
 10
-2.32323
 20
5.95954
 30
0.0
 10
-2.32946
 20
5.91834
 30
0.0
 10
-2.32946
 20
5.91834
 30
0.0
 10
-2.32946
 20
5.91834
 30
0.0
 10
-2.41362
 20
5.93335
 30
0.0
 10
-2.41362
 20
5.93335
 30
0.0
 10
-2.41362
 20
5.93335
 30
0.0
 10
-2.4034
 20
5.98988
 30
0.0
 10
-2.37992
 20
6.03364
 30
0.0
 10
-2.34351
 20
6.06462
 30
0.0
 10
-2.34351
 20
6.06462
 30
0.0
 10
-2.30694
 20
6.09561
 30
0.0
 10
-2.26159
 20
6.11126
 30
0.0
 10
-2.20729
 20
6.11126
 30
0.0
 10
-2.20729
 20
6.11126
 30
0.0
 10
-2.16992
 20
6.11126
 30
0.0
 10
-2.13542
 20
6.10311
 30
0.0
 10
-2.10396
 20
6.08714
 30
0.0
 10
-2.10396
 20
6.08714
 30
0.0
 10
-2.0725
 20
6.07101
 30
0.0
 10
-2.04839
 20
6.04913
 30
0.0
 10
-2.03162
 20
6.02135
 30
0.0
 10
-2.03162
 20
6.02135
 30
0.0
 10
-2.01501
 20
5.99356
 30
0.0
 10
-2.00655
 20
5.96417
 30
0.0
 10
-2.00655
 20
5.93287
 30
0.0
 10
-2.00655
 20
5.93287
 30
0.0
 10
-2.00655
 20
5.90333
 30
0.0
 10
-2.01453
 20
5.87634
 30
0.0
 10
-2.0305
 20
5.8519
 30
0.0
 10
-2.0305
 20
5.8519
 30
0.0
 10
-2.04647
 20
5.82763
 30
0.0
 10
-2.06995
 20
5.80831
 30
0.0
 10
-2.10109
 20
5.79393
 30
0.0
 10
-2.10109
 20
5.79393
 30
0.0
 10
-2.06052
 20
5.78467
 30
0.0
 10
-2.02906
 20
5.76519
 30
0.0
 10
-2.00655
 20
5.73564
 30
0.0
 10
-2.00655
 20
5.73564
 30
0.0
 10
-1.98419
 20
5.70626
 30
0.0
 10
-1.97301
 20
5.66937
 30
0.0
 10
-1.97301
 20
5.62513
 30
0.0
 10
-1.97301
 20
5.62513
 30
0.0
 10
-1.97301
 20
5.56524
 30
0.0
 10
-1.99473
 20
5.51446
 30
0.0
 10
-2.03849
 20
5.47278
 30
0.0
 10
-2.03849
 20
5.47278
 30
0.0
 10
-2.08208
 20
5.43109
 30
0.0
 10
-2.13734
 20
5.41033
 30
0.0
 10
-2.2041
 20
5.41033
 30
0.0
 10
-2.2041
 20
5.41033
 30
0.0
 10
-2.2643
 20
5.41033
 30
0.0
 10
-2.31429
 20
5.42822
 30
0.0
 10
-2.35405
 20
5.46415
 30
0.0
 10
-2.35405
 20
5.46415
 30
0.0
 10
-2.39382
 20
5.49992
 30
0.0
 10
-2.4165
 20
5.5464
 30
0.0
 10
-2.42209
 20
5.60357
 30
0.0
  0
SPLINE
  5
60
330
1F
100
AcDbEntity
  8
layer 1
 62
   250
100
AcDbSpline
210
0.0
220
0.0
230
1.0
 70
    11
 71
     3
 72
    48
 73
    44
 74
     0
 42
0.0000000001
 43
0.0000000001
 12
1.0
 22
0.0
 32
0.0
 13
1.0
 23
0.0
 33
0.0
 40
0.0
 40
0.0
 40
0.0
 40
0.0
 40
0.0833333333333333
 40
0.0833333333333333
 40
0.0833333333333333
 40
0.0833333333333333
 40
0.1666666666666667
 40
0.1666666666666667
 40
0.1666666666666667
 40
0.1666666666666667
 40
0.25
 40
0.25
 40
0.25
 40
0.25
 40
0.3333333333333333
 40
0.3333333333333333
 40
0.3333333333333333
 40
0.3333333333333333
 40
0.4166666666666667
 40
0.4166666666666667
 40
0.4166666666666667
 40
0.4166666666666667
 40
0.5
 40
0.5
 40
0.5
 40
0.5
 40
0.5833333333333334
 40
0.5833333333333334
 40
0.5833333333333334
 40
0.5833333333333334
 40
0.6666666666666666
 40
0.6666666666666666
 40
0.6666666666666666
 40
0.6666666666666666
 40
0.75
 40
0.75
 40
0.75
 40
0.75
 40
0.8333333333333334
 40
0.8333333333333334
 40
0.8333333333333334
 40
0.8333333333333334
 40
1.0
 40
1.0
 40
1.0
 40
1.0
 10
-1.83082
 20
6.01847
 30
0.0
 10
-1.83082
 20
6.01847
 30
0.0
 10
-1.83082
 20
6.09944
 30
0.0
 10
-1.83082
 20
6.09944
 30
0.0
 10
-1.83082
 20
6.09944
 30
0.0
 10
-1.83082
 20
6.09944
 30
0.0
 10
-1.38685
 20
6.09944
 30
0.0
 10
-1.38685
 20
6.09944
 30
0.0
 10
-1.38685
 20
6.09944
 30
0.0
 10
-1.38685
 20
6.09944
 30
0.0
 10
-1.38685
 20
6.03396
 30
0.0
 10
-1.38685
 20
6.03396
 30
0.0
 10
-1.38685
 20
6.03396
 30
0.0
 10
-1.43045
 20
5.98749
 30
0.0
 10
-1.47373
 20
5.92568
 30
0.0
 10
-1.51669
 20
5.84871
 30
0.0
 10
-1.51669
 20
5.84871
 30
0.0
 10
-1.55948
 20
5.77173
 30
0.0
 10
-1.5927
 20
5.69236
 30
0.0
 10
-1.61602
 20
5.61108
 30
0.0
 10
-1.61602
 20
5.61108
 30
0.0
 10
-1.63295
 20
5.55358
 30
0.0
 10
-1.64365
 20
5.49082
 30
0.0
 10
-1.64828
 20
5.42247
 30
0.0
 10
-1.64828
 20
5.42247
 30
0.0
 10
-1.64828
 20
5.42247
 30
0.0
 10
-1.73484
 20
5.42247
 30
0.0
 10
-1.73484
 20
5.42247
 30
0.0
 10
-1.73484
 20
5.42247
 30
0.0
 10
-1.73388
 20
5.47645
 30
0.0
 10
-1.72334
 20
5.54161
 30
0.0
 10
-1.70306
 20
5.6181
 30
0.0
 10
-1.70306
 20
5.6181
 30
0.0
 10
-1.68277
 20
5.69444
 30
0.0
 10
-1.65371
 20
5.76822
 30
0.0
 10
-1.61586
 20
5.83913
 30
0.0
 10
-1.61586
 20
5.83913
 30
0.0
 10
-1.57785
 20
5.91003
 30
0.0
 10
-1.53761
 20
5.96992
 30
0.0
 10
-1.49481
 20
6.01847
 30
0.0
 10
-1.49481
 20
6.01847
 30
0.0
 10
-1.49481
 20
6.01847
 30
0.0
 10
-1.83082
 20
6.01847
 30
0.0
 10
-1.83082
 20
6.01847
 30
0.0
  0
SPLINE
  5
61
330
1F
100
AcDbEntity
  8
layer 1
 62
   250
100
AcDbSpline
210
0.0
220
0.0
230
1.0
 70
    11
 71
     3
 72
    68
 73
    64
 74
     0
 42
0.0000000001
 43
0.0000000001
 12
1.0
 22
0.0
 32
0.0
 13
1.0
 23
0.0
 33
0.0
 40
0.0
 40
0.0
 40
0.0
 40
0.0
 40
0.0588235294117647
 40
0.0588235294117647
 40
0.0588235294117647
 40
0.0588235294117647
 40
0.1176470588235294
 40
0.1176470588235294
 40
0.1176470588235294
 40
0.1176470588235294
 40
0.1764705882352941
 40
0.1764705882352941
 40
0.1764705882352941
 40
0.1764705882352941
 40
0.2352941176470588
 40
0.2352941176470588
 40
0.2352941176470588
 40
0.2352941176470588
 40
0.2941176470588235
 40
0.2941176470588235
 40
0.2941176470588235
 40
0.2941176470588235
 40
0.3529411764705883
 40
0.3529411764705883
 40
0.3529411764705883
 40
0.3529411764705883
 40
0.4117647058823529
 40
0.4117647058823529
 40
0.4117647058823529
 40
0.4117647058823529
 40
0.4705882352941176
 40
0.4705882352941176
 40
0.4705882352941176
 40
0.4705882352941176
 40
0.5294117647058824
 40
0.5294117647058824
 40
0.5294117647058824
 40
0.5294117647058824
 40
0.5882352941176471
 40
0.5882352941176471
 40
0.5882352941176471
 40
0.5882352941176471
 40
0.6470588235294118
 40
0.6470588235294118
 40
0.6470588235294118
 40
0.6470588235294118
 40
0.7058823529411765
 40
0.7058823529411765
 40
0.7058823529411765
 40
0.7058823529411765
 40
0.7647058823529411
 40
0.7647058823529411
 40
0.7647058823529411
 40
0.7647058823529411
 40
0.8235294117647058
 40
0.8235294117647058
 40
0.8235294117647058
 40
0.8235294117647058
 40
0.8823529411764706
 40
0.8823529411764706
 40
0.8823529411764706
 40
0.8823529411764706
 40
1.0
 40
1.0
 40
1.0
 40
1.0
 10
-1.12057
 20
5.79441
 30
0.0
 10
-1.15554
 20
5.80719
 30
0.0
 10
-1.18141
 20
5.82539
 30
0.0
 10
-1.19834
 20
5.84919
 30
0.0
 10
-1.19834
 20
5.84919
 30
0.0
 10
-1.21511
 20
5.87282
 30
0.0
 10
-1.22357
 20
5.90125
 30
0.0
 10
-1.22357
 20
5.93431
 30
0.0
 10
-1.22357
 20
5.93431
 30
0.0
 10
-1.22357
 20
5.98429
 30
0.0
 10
-1.20569
 20
6.02614
 30
0.0
 10
-1.16976
 20
6.06015
 30
0.0
 10
-1.16976
 20
6.06015
 30
0.0
 10
-1.13382
 20
6.09417
 30
0.0
 10
-1.08623
 20
6.11126
 30
0.0
 10
-1.02666
 20
6.11126
 30
0.0
 10
-1.02666
 20
6.11126
 30
0.0
 10
-0.96678
 20
6.11126
 30
0.0
 10
-0.91855
 20
6.09385
 30
0.0
 10
-0.88198
 20
6.05903
 30
0.0
 10
-0.88198
 20
6.05903
 30
0.0
 10
-0.84556
 20
6.02422
 30
0.0
 10
-0.82736
 20
5.9819
 30
0.0
 10
-0.82736
 20
5.93191
 30
0.0
 10
-0.82736
 20
5.93191
 30
0.0
 10
-0.82736
 20
5.90013
 30
0.0
 10
-0.83566
 20
5.8725
 30
0.0
 10
-0.85227
 20
5.84887
 30
0.0
 10
-0.85227
 20
5.84887
 30
0.0
 10
-0.86904
 20
5.82539
 30
0.0
 10
-0.89427
 20
5.80719
 30
0.0
 10
-0.92829
 20
5.79441
 30
0.0
 10
-0.92829
 20
5.79441
 30
0.0
 10
-0.88629
 20
5.78068
 30
0.0
 10
-0.85419
 20
5.75864
 30
0.0
 10
-0.83215
 20
5.72798
 30
0.0
 10
-0.83215
 20
5.72798
 30
0.0
 10
-0.81027
 20
5.69747
 30
0.0
 10
-0.79925
 20
5.6609
 30
0.0
 10
-0.79925
 20
5.61858
 30
0.0
 10
-0.79925
 20
5.61858
 30
0.0
 10
-0.79925
 20
5.55981
 30
0.0
 10
-0.82001
 20
5.51062
 30
0.0
 10
-0.86138
 20
5.4707
 30
0.0
 10
-0.86138
 20
5.4707
 30
0.0
 10
-0.9029
 20
5.43077
 30
0.0
 10
-0.95751
 20
5.41081
 30
0.0
 10
-1.02523
 20
5.41081
 30
0.0
 10
-1.02523
 20
5.41081
 30
0.0
 10
-1.09294
 20
5.41081
 30
0.0
 10
-1.1474
 20
5.43077
 30
0.0
 10
-1.18892
 20
5.47086
 30
0.0
 10
-1.18892
 20
5.47086
 30
0.0
 10
-1.23044
 20
5.51094
 30
0.0
 10
-1.2512
 20
5.56093
 30
0.0
 10
-1.2512
 20
5.62082
 30
0.0
 10
-1.2512
 20
5.62082
 30
0.0
 10
-1.2512
 20
5.66537
 30
0.0
 10
-1.23986
 20
5.70274
 30
0.0
 10
-1.21719
 20
5.73293
 30
0.0
 10
-1.21719
 20
5.73293
 30
0.0
 10
-1.19467
 20
5.76295
 30
0.0
 10
-1.16241
 20
5.78355
 30
0.0
 10
-1.12057
 20
5.79441
 30
0.0
  0
SPLINE
  5
62
330
1F
100
AcDbEntity
  8
layer 1
 62
   250
100
AcDbSpline
210
0.0
220
0.0
230
1.0
 70
    11
 71
     3
 72
    36
 73
    32
 74
     0
 42
0.0000000001
 43
0.0000000001
 12
1.0
 22
0.0
 32
0.0
 13
1.0
 23
0.0
 33
0.0
 40
0.0
 40
0.0
 40
0.0
 40
0.0
 40
0.1111111111111111
 40
0.1111111111111111
 40
0.1111111111111111
 40
0.1111111111111111
 40
0.2222222222222222
 40
0.2222222222222222
 40
0.2222222222222222
 40
0.2222222222222222
 40
0.3333333333333333
 40
0.3333333333333333
 40
0.3333333333333333
 40
0.3333333333333333
 40
0.4444444444444444
 40
0.4444444444444444
 40
0.4444444444444444
 40
0.4444444444444444
 40
0.5555555555555556
 40
0.5555555555555556
 40
0.5555555555555556
 40
0.5555555555555556
 40
0.6666666666666666
 40
0.6666666666666666
 40
0.6666666666666666
 40
0.6666666666666666
 40
0.7777777777777778
 40
0.7777777777777778
 40
0.7777777777777778
 40
0.7777777777777778
 40
1.0
 40
1.0
 40
1.0
 40
1.0
 10
-1.1375
 20
5.93718
 30
0.0
 10
-1.1375
 20
5.90476
 30
0.0
 10
-1.12696
 20
5.87825
 30
0.0
 10
-1.1062
 20
5.85765
 30
0.0
 10
-1.1062
 20
5.85765
 30
0.0
 10
-1.08527
 20
5.83705
 30
0.0
 10
-1.05813
 20
5.82667
 30
0.0
 10
-1.02475
 20
5.82667
 30
0.0
 10
-1.02475
 20
5.82667
 30
0.0
 10
-0.99233
 20
5.82667
 30
0.0
 10
-0.96566
 20
5.83689
 30
0.0
 10
-0.9449
 20
5.85733
 30
0.0
 10
-0.9449
 20
5.85733
 30
0.0
 10
-0.92414
 20
5.87777
 30
0.0
 10
-0.91392
 20
5.90285
 30
0.0
 10
-0.91392
 20
5.93239
 30
0.0
 10
-0.91392
 20
5.93239
 30
0.0
 10
-0.91392
 20
5.96337
 30
0.0
 10
-0.92446
 20
5.98925
 30
0.0
 10
-0.94586
 20
6.01033
 30
0.0
 10
-0.94586
 20
6.01033
 30
0.0
 10
-0.96726
 20
6.03141
 30
0.0
 10
-0.99377
 20
6.04195
 30
0.0
 10
-1.02571
 20
6.04195
 30
0.0
 10
-1.02571
 20
6.04195
 30
0.0
 10
-1.05781
 20
6.04195
 30
0.0
 10
-1.08448
 20
6.03157
 30
0.0
 10
-1.10572
 20
6.01112
 30
0.0
 10
-1.10572
 20
6.01112
 30
0.0
 10
-1.12696
 20
5.99052
 30
0.0
 10
-1.1375
 20
5.96577
 30
0.0
 10
-1.1375
 20
5.93718
 30
0.0
  0
SPLINE
  5
63
330
1F
100
AcDbEntity
  8
layer 1
 62
   250
100
AcDbSpline
210
0.0
220
0.0
230
1.0
 70
    11
 71
     3
 72
    40
 73
    36
 74
     0
 42
0.0000000001
 43
0.0000000001
 12
1.0
 22
0.0
 32
0.0
 13
1.0
 23
0.0
 33
0.0
 40
0.0
 40
0.0
 40
0.0
 40
0.0
 40
0.1
 40
0.1
 40
0.1
 40
0.1
 40
0.2
 40
0.2
 40
0.2
 40
0.2
 40
0.3
 40
0.3
 40
0.3
 40
0.3
 40
0.4
 40
0.4
 40
0.4
 40
0.4
 40
0.5
 40
0.5
 40
0.5
 40
0.5
 40
0.6
 40
0.6
 40
0.6
 40
0.6
 40
0.7
 40
0.7
 40
0.7
 40
0.7
 40
0.8
 40
0.8
 40
0.8
 40
0.8
 40
1.0
 40
1.0
 40
1.0
 40
1.0
 10
-1.16465
 20
5.62034
 30
0.0
 10
-1.16465
 20
5.59638
 30
0.0
 10
-1.1589
 20
5.57307
 30
0.0
 10
-1.14756
 20
5.55071
 30
0.0
 10
-1.14756
 20
5.55071
 30
0.0
 10
-1.13622
 20
5.52819
 30
0.0
 10
-1.11929
 20
5.51078
 30
0.0
 10
-1.09677
 20
5.49849
 30
0.0
 10
-1.09677
 20
5.49849
 30
0.0
 10
-1.07426
 20
5.48619
 30
0.0
 10
-1.05014
 20
5.47996
 30
0.0
 10
-1.02427
 20
5.47996
 30
0.0
 10
-1.02427
 20
5.47996
 30
0.0
 10
-0.98402
 20
5.47996
 30
0.0
 10
-0.95081
 20
5.4929
 30
0.0
 10
-0.92462
 20
5.51893
 30
0.0
 10
-0.92462
 20
5.51893
 30
0.0
 10
-0.89843
 20
5.5448
 30
0.0
 10
-0.88533
 20
5.5777
 30
0.0
 10
-0.88533
 20
5.61762
 30
0.0
 10
-0.88533
 20
5.61762
 30
0.0
 10
-0.88533
 20
5.65819
 30
0.0
 10
-0.89874
 20
5.69172
 30
0.0
 10
-0.92573
 20
5.71823
 30
0.0
 10
-0.92573
 20
5.71823
 30
0.0
 10
-0.95272
 20
5.74474
 30
0.0
 10
-0.98658
 20
5.758
 30
0.0
 10
-1.02714
 20
5.758
 30
0.0
 10
-1.02714
 20
5.758
 30
0.0
 10
-1.06675
 20
5.758
 30
0.0
 10
-1.09949
 20
5.7449
 30
0.0
 10
-1.12552
 20
5.71871
 30
0.0
 10
-1.12552
 20
5.71871
 30
0.0
 10
-1.15155
 20
5.69236
 30
0.0
 10
-1.16465
 20
5.65962
 30
0.0
 10
-1.16465
 20
5.62034
 30
0.0
  0
SPLINE
  5
64
330
1F
100
AcDbEntity
  8
layer 1
 62
   250
100
AcDbSpline
210
0.0
220
0.0
230
1.0
 70
    11
 71
     3
 72
    64
 73
    60
 74
     0
 42
0.0000000001
 43
0.0000000001
 12
1.0
 22
0.0
 32
0.0
 13
1.0
 23
0.0
 33
0.0
 40
0.0
 40
0.0
 40
0.0
 40
0.0
 40
0.0625
 40
0.0625
 40
0.0625
 40
0.0625
 40
0.125
 40
0.125
 40
0.125
 40
0.125
 40
0.1875
 40
0.1875
 40
0.1875
 40
0.1875
 40
0.25
 40
0.25
 40
0.25
 40
0.25
 40
0.3125
 40
0.3125
 40
0.3125
 40
0.3125
 40
0.375
 40
0.375
 40
0.375
 40
0.375
 40
0.4375
 40
0.4375
 40
0.4375
 40
0.4375
 40
0.5
 40
0.5
 40
0.5
 40
0.5
 40
0.5625
 40
0.5625
 40
0.5625
 40
0.5625
 40
0.625
 40
0.625
 40
0.625
 40
0.625
 40
0.6875
 40
0.6875
 40
0.6875
 40
0.6875
 40
0.75
 40
0.75
 40
0.75
 40
0.75
 40
0.8125
 40
0.8125
 40
0.8125
 40
0.8125
 40
0.875
 40
0.875
 40
0.875
 40
0.875
 40
1.0
 40
1.0
 40
1.0
 40
1.0
 10
-0.63278
 20
5.42247
 30
0.0
 10
-0.63278
 20
5.42247
 30
0.0
 10
-0.63278
 20
6.10838
 30
0.0
 10
-0.63278
 20
6.10838
 30
0.0
 10
-0.63278
 20
6.10838
 30
0.0
 10
-0.63278
 20
6.10838
 30
0.0
 10
-0.49608
 20
6.10838
 30
0.0
 10
-0.49608
 20
6.10838
 30
0.0
 10
-0.49608
 20
6.10838
 30
0.0
 10
-0.49608
 20
6.10838
 30
0.0
 10
-0.33383
 20
5.62273
 30
0.0
 10
-0.33383
 20
5.62273
 30
0.0
 10
-0.33383
 20
5.62273
 30
0.0
 10
-0.31881
 20
5.57754
 30
0.0
 10
-0.30779
 20
5.54368
 30
0.0
 10
-0.30109
 20
5.52116
 30
0.0
 10
-0.30109
 20
5.52116
 30
0.0
 10
-0.29326
 20
5.54608
 30
0.0
 10
-0.28112
 20
5.58281
 30
0.0
 10
-0.26452
 20
5.6312
 30
0.0
 10
-0.26452
 20
5.6312
 30
0.0
 10
-0.26452
 20
5.6312
 30
0.0
 10
-0.10034
 20
6.10838
 30
0.0
 10
-0.10034
 20
6.10838
 30
0.0
 10
-0.10034
 20
6.10838
 30
0.0
 10
-0.10034
 20
6.10838
 30
0.0
 10
0.02183
 20
6.10838
 30
0.0
 10
0.02183
 20
6.10838
 30
0.0
 10
0.02183
 20
6.10838
 30
0.0
 10
0.02183
 20
6.10838
 30
0.0
 10
0.02183
 20
5.42247
 30
0.0
 10
0.02183
 20
5.42247
 30
0.0
 10
0.02183
 20
5.42247
 30
0.0
 10
0.02183
 20
5.42247
 30
0.0
 10
-0.06569
 20
5.42247
 30
0.0
 10
-0.06569
 20
5.42247
 30
0.0
 10
-0.06569
 20
5.42247
 30
0.0
 10
-0.06569
 20
5.42247
 30
0.0
 10
-0.06569
 20
5.99659
 30
0.0
 10
-0.06569
 20
5.99659
 30
0.0
 10
-0.06569
 20
5.99659
 30
0.0
 10
-0.06569
 20
5.99659
 30
0.0
 10
-0.26499
 20
5.42247
 30
0.0
 10
-0.26499
 20
5.42247
 30
0.0
 10
-0.26499
 20
5.42247
 30
0.0
 10
-0.26499
 20
5.42247
 30
0.0
 10
-0.34692
 20
5.42247
 30
0.0
 10
-0.34692
 20
5.42247
 30
0.0
 10
-0.34692
 20
5.42247
 30
0.0
 10
-0.34692
 20
5.42247
 30
0.0
 10
-0.54527
 20
6.00633
 30
0.0
 10
-0.54527
 20
6.00633
 30
0.0
 10
-0.54527
 20
6.00633
 30
0.0
 10
-0.54527
 20
6.00633
 30
0.0
 10
-0.54527
 20
5.42247
 30
0.0
 10
-0.54527
 20
5.42247
 30
0.0
 10
-0.54527
 20
5.42247
 30
0.0
 10
-0.54527
 20
5.42247
 30
0.0
 10
-0.63278
 20
5.42247
 30
0.0
 10
-0.63278
 20
5.42247
 30
0.0
  0
SPLINE
  5
65
330
1F
100
AcDbEntity
  8
layer 1
 62
   250
100
AcDbSpline
210
0.0
220
0.0
230
1.0
 70
    11
 71
     3
 72
    64
 73
    60
 74
     0
 42
0.0000000001
 43
0.0000000001
 12
1.0
 22
0.0
 32
0.0
 13
1.0
 23
0.0
 33
0.0
 40
0.0
 40
0.0
 40
0.0
 40
0.0
 40
0.0625
 40
0.0625
 40
0.0625
 40
0.0625
 40
0.125
 40
0.125
 40
0.125
 40
0.125
 40
0.1875
 40
0.1875
 40
0.1875
 40
0.1875
 40
0.25
 40
0.25
 40
0.25
 40
0.25
 40
0.3125
 40
0.3125
 40
0.3125
 40
0.3125
 40
0.375
 40
0.375
 40
0.375
 40
0.375
 40
0.4375
 40
0.4375
 40
0.4375
 40
0.4375
 40
0.5
 40
0.5
 40
0.5
 40
0.5
 40
0.5625
 40
0.5625
 40
0.5625
 40
0.5625
 40
0.625
 40
0.625
 40
0.625
 40
0.625
 40
0.6875
 40
0.6875
 40
0.6875
 40
0.6875
 40
0.75
 40
0.75
 40
0.75
 40
0.75
 40
0.8125
 40
0.8125
 40
0.8125
 40
0.8125
 40
0.875
 40
0.875
 40
0.875
 40
0.875
 40
1.0
 40
1.0
 40
1.0
 40
1.0
 10
0.21864
 20
5.42247
 30
0.0
 10
0.21864
 20
5.42247
 30
0.0
 10
0.21864
 20
6.10838
 30
0.0
 10
0.21864
 20
6.10838
 30
0.0
 10
0.21864
 20
6.10838
 30
0.0
 10
0.21864
 20
6.10838
 30
0.0
 10
0.35534
 20
6.10838
 30
0.0
 10
0.35534
 20
6.10838
 30
0.0
 10
0.35534
 20
6.10838
 30
0.0
 10
0.35534
 20
6.10838
 30
0.0
 10
0.51759
 20
5.62273
 30
0.0
 10
0.51759
 20
5.62273
 30
0.0
 10
0.51759
 20
5.62273
 30
0.0
 10
0.53261
 20
5.57754
 30
0.0
 10
0.54363
 20
5.54368
 30
0.0
 10
0.55033
 20
5.52116
 30
0.0
 10
0.55033
 20
5.52116
 30
0.0
 10
0.55816
 20
5.54608
 30
0.0
 10
0.5703
 20
5.58281
 30
0.0
 10
0.5869
 20
5.6312
 30
0.0
 10
0.5869
 20
5.6312
 30
0.0
 10
0.5869
 20
5.6312
 30
0.0
 10
0.75108
 20
6.10838
 30
0.0
 10
0.75108
 20
6.10838
 30
0.0
 10
0.75108
 20
6.10838
 30
0.0
 10
0.75108
 20
6.10838
 30
0.0
 10
0.87325
 20
6.10838
 30
0.0
 10
0.87325
 20
6.10838
 30
0.0
 10
0.87325
 20
6.10838
 30
0.0
 10
0.87325
 20
6.10838
 30
0.0
 10
0.87325
 20
5.42247
 30
0.0
 10
0.87325
 20
5.42247
 30
0.0
 10
0.87325
 20
5.42247
 30
0.0
 10
0.87325
 20
5.42247
 30
0.0
 10
0.78573
 20
5.42247
 30
0.0
 10
0.78573
 20
5.42247
 30
0.0
 10
0.78573
 20
5.42247
 30
0.0
 10
0.78573
 20
5.42247
 30
0.0
 10
0.78573
 20
5.99659
 30
0.0
 10
0.78573
 20
5.99659
 30
0.0
 10
0.78573
 20
5.99659
 30
0.0
 10
0.78573
 20
5.99659
 30
0.0
 10
0.58643
 20
5.42247
 30
0.0
 10
0.58643
 20
5.42247
 30
0.0
 10
0.58643
 20
5.42247
 30
0.0
 10
0.58643
 20
5.42247
 30
0.0
 10
0.5045
 20
5.42247
 30
0.0
 10
0.5045
 20
5.42247
 30
0.0
 10
0.5045
 20
5.42247
 30
0.0
 10
0.5045
 20
5.42247
 30
0.0
 10
0.30615
 20
6.00633
 30
0.0
 10
0.30615
 20
6.00633
 30
0.0
 10
0.30615
 20
6.00633
 30
0.0
 10
0.30615
 20
6.00633
 30
0.0
 10
0.30615
 20
5.42247
 30
0.0
 10
0.30615
 20
5.42247
 30
0.0
 10
0.30615
 20
5.42247
 30
0.0
 10
0.30615
 20
5.42247
 30
0.0
 10
0.21864
 20
5.42247
 30
0.0
 10
0.21864
 20
5.42247
 30
0.0
  0
ENDSEC
  0
SECTION
  2
OBJECTS
  0
DICTIONARY
  5
C
330
0
100
AcDbDictionary
281
     1
  3
ACAD_GROUP
350
D
  3
ACAD_IMAGE_DICT
350
42
  3
ACAD_LAYOUT
350
1A
  3
ACAD_MATERIAL
350
3B
  3
ACAD_MLEADERSTYLE
350
87
  3
ACAD_MLINESTYLE
350
17
  3
ACAD_PLOTSETTINGS
350
19
  3
ACAD_PLOTSTYLENAME
350
E
  3
ACAD_TABLESTYLE
350
86
  3
ACAD_VISUALSTYLE
350
2A
  0
IMAGEDEF_REACTOR
  5
45
330
44
100
AcDbRasterImageDefReactor
 90
        2
330
44
  0
DICTIONARY
  5
D
102
{ACAD_REACTORS
330
C
102
}
330
C
100
AcDbDictionary
281
     1
  0
DICTIONARY
  5
42
102
{ACAD_REACTORS
330
C
102
}
330
C
100
AcDbDictionary
281
     1
  3
Image #1
350
43
  0
DICTIONARY
  5
1A
102
{ACAD_REACTORS
330
C
102
}
330
C
100
AcDbDictionary
281
     1
  3
Layout1
350
1E
  3
Layout2
350
26
  3
Model
350
22
  0
DICTIONARY
  5
3B
102
{ACAD_REACTORS
330
C
102
}
330
C
100
AcDbDictionary
281
     1
  3
ByBlock
350
3D
  3
ByLayer
350
3C
  3
Global
350
3E
  0
DICTIONARY
  5
87
102
{ACAD_REACTORS
330
C
102
}
330
C
100
AcDbDictionary
281
     1
  0
DICTIONARY
  5
17
102
{ACAD_REACTORS
330
C
102
}
330
C
100
AcDbDictionary
281
     1
  3
Standard
350
18
  0
DICTIONARY
  5
19
102
{ACAD_REACTORS
330
C
102
}
330
C
100
AcDbDictionary
281
     1
  0
ACDBDICTIONARYWDFLT
  5
E
102
{ACAD_REACTORS
330
C
102
}
330
C
100
AcDbDictionary
281
     1
  3
Normal
350
F
100
AcDbDictionaryWithDefault
340
F
  0
DICTIONARY
  5
86
102
{ACAD_REACTORS
330
C
102
}
330
C
100
AcDbDictionary
281
     1
  0
DICTIONARY
  5
2A
102
{ACAD_REACTORS
330
C
102
}
330
C
100
AcDbDictionary
281
     1
  3
2dWireframe
350
2F
  3
3D Hidden
350
31
  3
3dWireframe
350
30
  3
Basic
350
32
  3
Brighten
350
36
  3
ColorChange
350
3A
  3
Conceptual
350
34
  3
Dim
350
35
  3
Facepattern
350
39
  3
Flat
350
2B
  3
FlatWithEdges
350
2C
  3
Gouraud
350
2D
  3
GouraudWithEdges
350
2E
  3
Linepattern
350
38
  3
Realistic
350
33
  3
Thicken
350
37
  0
IMAGEDEF
  5
43
102
{ACAD_REACTORS
330
42
330
45
102
}
330
42
100
AcDbRasterImageDef
 90
        0
  1
C:\Documents and Settings\Administrator\桌面\开孔纸\开孔纸2200_1_ACD_0.jpg
 10
790.0
 20
730.0
 11
0.001265822784810127
 21
0.001265822784810127
280
     1
281
     5
  0
LAYOUT
  5
1E
102
{ACAD_REACTORS
330
1A
102
}
330
1A
100
AcDbPlotSettings
  1

  2
none_device
  4

  6

 40
0.0
 41
0.0
 42
0.0
 43
0.0
 44
0.0
 45
0.0
 46
0.0
 47
0.0
 48
0.0
 49
0.0
140
0.0
141
0.0
142
1.0
143
1.0
 70
   688
 72
     0
 73
     0
 74
     5
  7

 75
    16
 76
     0
 77
     2
 78
   300
147
1.0
148
0.0
149
0.0
100
AcDbLayout
  1
Layout1
 70
     1
 71
     1
 10
0.0
 20
0.0
 11
12.0
 21
9.0
 12
0.0
 22
0.0
 32
0.0
 14
1.000000000000000E+20
 24
1.000000000000000E+20
 34
1.000000000000000E+20
 15
-1.000000000000000E+20
 25
-1.000000000000000E+20
 35
-1.000000000000000E+20
146
0.0
 13
0.0
 23
0.0
 33
0.0
 16
1.0
 26
0.0
 36
0.0
 17
0.0
 27
1.0
 37
0.0
 76
     0
330
1B
  0
LAYOUT
  5
26
102
{ACAD_REACTORS
330
1A
102
}
330
1A
100
AcDbPlotSettings
  1

  2
none_device
  4

  6

 40
0.0
 41
0.0
 42
0.0
 43
0.0
 44
0.0
 45
0.0
 46
0.0
 47
0.0
 48
0.0
 49
0.0
140
0.0
141
0.0
142
1.0
143
1.0
 70
   688
 72
     0
 73
     0
 74
     5
  7

 75
    16
 76
     0
 77
     2
 78
   300
147
1.0
148
0.0
149
0.0
100
AcDbLayout
  1
Layout2
 70
     1
 71
     2
 10
0.0
 20
0.0
 11
0.0
 21
0.0
 12
0.0
 22
0.0
 32
0.0
 14
0.0
 24
0.0
 34
0.0
 15
0.0
 25
0.0
 35
0.0
146
0.0
 13
0.0
 23
0.0
 33
0.0
 16
1.0
 26
0.0
 36
0.0
 17
0.0
 27
1.0
 37
0.0
 76
     0
330
23
  0
LAYOUT
  5
22
102
{ACAD_REACTORS
330
1A
102
}
330
1A
100
AcDbPlotSettings
  1

  2
none_device
  4

  6

 40
0.0
 41
0.0
 42
0.0
 43
0.0
 44
0.0
 45
0.0
 46
0.0
 47
0.0
 48
0.0
 49
0.0
140
0.0
141
0.0
142
1.0
143
1.0
 70
  1712
 72
     0
 73
     0
 74
     0
  7

 75
     0
 76
     0
 77
     2
 78
   300
147
1.0
148
0.0
149
0.0
100
AcDbLayout
  1
Model
 70
     1
 71
     0
 10
0.0
 20
0.0
 11
12.0
 21
9.0
 12
0.0
 22
0.0
 32
0.0
 14
-19.8043
 24
-18.76613
 34
0.0
 15
18.11814
 25
19.12067
 35
0.0
146
0.0
 13
0.0
 23
0.0
 33
0.0
 16
1.0
 26
0.0
 36
0.0
 17
0.0
 27
1.0
 37
0.0
 76
     0
330
1F
331
29
  0
MATERIAL
  5
3D
102
{ACAD_REACTORS
330
3B
102
}
330
3B
100
AcDbMaterial
  1
ByBlock
 72
     1
 94
      127
  0
MATERIAL
  5
3C
102
{ACAD_REACTORS
330
3B
102
}
330
3B
100
AcDbMaterial
  1
ByLayer
 72
     1
 94
      127
  0
MATERIAL
  5
3E
102
{ACAD_REACTORS
330
3B
102
}
330
3B
100
AcDbMaterial
  1
Global
 72
     1
 94
      127
  0
MLINESTYLE
  5
18
102
{ACAD_REACTORS
330
17
102
}
330
17
100
AcDbMlineStyle
  2
Standard
 70
     0
  3

 62
   256
 51
90.0
 52
90.0
 71
     2
 49
0.5
 62
   256
  6
BYLAYER
 49
-0.5
 62
   256
  6
BYLAYER
  0
ACDBPLACEHOLDER
  5
F
102
{ACAD_REACTORS
330
E
102
}
330
E
  0
VISUALSTYLE
  5
2F
102
{ACAD_REACTORS
330
2A
102
}
102
{ACAD_XDICTIONARY
360
6E
102
}
330
2A
100
AcDbVisualStyle
  2
2dWireframe
 70
     4
 71
     0
 72
     2
 73
     0
 90
        0
 40
-0.6
 41
-30.0
 62
     5
 63
     7
421
 16777215
 74
     1
 91
        4
 64
     7
 65
   257
 75
     1
175
     1
 42
1.0
 92
        0
 66
   257
 43
1.0
 76
     1
 77
     6
 78
     2
 67
     7
 79
     5
170
     0
171
     0
290
     0
174
     0
 93
        1
 44
0.0
173
     0
291
     0
 45
0.0
  0
VISUALSTYLE
  5
31
102
{ACAD_REACTORS
330
2A
102
}
102
{ACAD_XDICTIONARY
360
72
102
}
330
2A
100
AcDbVisualStyle
  2
3D Hidden
 70
     6
 71
     1
 72
     2
 73
     2
 90
        0
 40
-0.6
 41
-30.0
 62
     5
 63
     7
421
 16777215
 74
     2
 91
        2
 64
     7
 65
   257
 75
     2
175
     1
 42
40.0
 92
        0
 66
   257
 43
1.0
 76
     1
 77
     6
 78
     2
 67
     7
 79
     3
170
     0
171
     0
290
     0
174
     0
 93
        1
 44
0.0
173
     0
291
     0
 45
0.0
  0
VISUALSTYLE
  5
30
102
{ACAD_REACTORS
330
2A
102
}
102
{ACAD_XDICTIONARY
360
70
102
}
330
2A
100
AcDbVisualStyle
  2
3dWireframe
 70
     5
 71
     0
 72
     2
 73
     0
 90
        0
 40
-0.6
 41
-30.0
 62
     5
 63
     7
421
 16777215
 74
     1
 91
        4
 64
     7
 65
   257
 75
     1
175
     1
 42
1.0
 92
        0
 66
   257
 43
1.0
 76
     1
 77
     6
 78
     2
 67
     7
 79
     5
170
     0
171
     0
290
     0
174
     0
 93
        1
 44
0.0
173
     0
291
     0
 45
0.0
  0
VISUALSTYLE
  5
32
102
{ACAD_REACTORS
330
2A
102
}
102
{ACAD_XDICTIONARY
360
74
102
}
330
2A
100
AcDbVisualStyle
  2
Basic
 70
     7
 71
     1
 72
     0
 73
     1
 90
        0
 40
-0.6
 41
-30.0
 62
     5
 63
     7
421
 16777215
 74
     0
 91
        4
 64
     7
 65
   257
 75
     1
175
     1
 42
1.0
 92
        8
 66
     7
 43
1.0
 76
     1
 77
     6
 78
     2
 67
     7
 79
     5
170
     0
171
     0
290
     0
174
     0
 93
        1
 44
0.0
173
     0
291
     1
 45
0.0
  0
VISUALSTYLE
  5
36
102
{ACAD_REACTORS
330
2A
102
}
102
{ACAD_XDICTIONARY
360
7C
102
}
330
2A
100
AcDbVisualStyle
  2
Brighten
 70
    12
 71
     2
 72
     2
 73
     0
 90
        0
 40
-0.6
 41
-30.0
 62
     5
 63
     7
421
 16777215
 74
     1
 91
        4
 64
     7
 65
   257
 75
     1
175
     1
 42
1.0
 92
        8
 66
     7
 43
1.0
 76
     1
 77
     6
 78
     2
 67
     7
 79
     5
170
     0
171
     0
290
     0
174
     0
 93
        1
 44
50.0
173
     0
291
     1
 45
0.0
  0
VISUALSTYLE
  5
3A
102
{ACAD_REACTORS
330
2A
102
}
102
{ACAD_XDICTIONARY
360
84
102
}
330
2A
100
AcDbVisualStyle
  2
ColorChange
 70
    16
 71
     2
 72
     2
 73
     3
 90
        0
 40
-0.6
 41
-30.0
 62
     5
 63
     8
421
  8421504
 74
     1
 91
        4
 64
     7
 65
   257
 75
     1
175
     1
 42
1.0
 92
        8
 66
     8
424
  8421504
 43
1.0
 76
     1
 77
     6
 78
     2
 67
     7
 79
     5
170
     0
171
     0
290
     0
174
     0
 93
        1
 44
0.0
173
     0
291
     1
 45
0.0
  0
VISUALSTYLE
  5
34
102
{ACAD_REACTORS
330
2A
102
}
102
{ACAD_XDICTIONARY
360
78
102
}
330
2A
100
AcDbVisualStyle
  2
Conceptual
 70
     9
 71
     3
 72
     2
 73
     0
 90
        0
 40
-0.6
 41
-30.0
 62
     5
 63
     7
421
 16777215
 74
     2
 91
        2
 64
     7
 65
   257
 75
     1
175
     1
 42
40.0
 92
        8
 66
     7
 43
1.0
 76
     1
 77
     6
 78
     2
 67
     7
 79
     3
170
     0
171
     0
290
     0
174
     0
 93
        1
 44
0.0
173
     0
291
     0
 45
0.0
  0
VISUALSTYLE
  5
35
102
{ACAD_REACTORS
330
2A
102
}
102
{ACAD_XDICTIONARY
360
7A
102
}
330
2A
100
AcDbVisualStyle
  2
Dim
 70
    11
 71
     2
 72
     2
 73
     0
 90
        0
 40
-0.6
 41
-30.0
 62
     5
 63
     7
421
 16777215
 74
     1
 91
        4
 64
     7
 65
   257
 75
     1
175
     1
 42
1.0
 92
        8
 66
     7
 43
1.0
 76
     1
 77
     6
 78
     2
 67
     7
 79
     5
170
     0
171
     0
290
     0
174
     0
 93
        1
 44
-50.0
173
     0
291
     1
 45
0.0
  0
VISUALSTYLE
  5
39
102
{ACAD_REACTORS
330
2A
102
}
102
{ACAD_XDICTIONARY
360
82
102
}
330
2A
100
AcDbVisualStyle
  2
Facepattern
 70
    15
 71
     2
 72
     2
 73
     0
 90
        0
 40
-0.6
 41
-30.0
 62
     5
 63
     7
421
 16777215
 74
     1
 91
        4
 64
     7
 65
   257
 75
     1
175
     1
 42
1.0
 92
        8
 66
     7
 43
1.0
 76
     1
 77
     6
 78
     2
 67
     7
 79
     5
170
     0
171
     0
290
     0
174
     0
 93
        1
 44
0.0
173
     0
291
     1
 45
0.0
  0
VISUALSTYLE
  5
2B
102
{ACAD_REACTORS
330
2A
102
}
102
{ACAD_XDICTIONARY
360
66
102
}
330
2A
100
AcDbVisualStyle
  2
Flat
 70
     0
 71
     2
 72
     1
 73
     1
 90
        2
 40
-0.6
 41
30.0
 62
     5
 63
     7
421
 16777215
 74
     0
 91
        4
 64
     7
 65
   257
 75
     1
175
     1
 42
1.0
 92
        8
 66
     7
 43
1.0
 76
     1
 77
     6
 78
     2
 67
     7
 79
     5
170
     0
171
     0
290
     0
174
     0
 93
       13
 44
0.0
173
     0
291
     1
 45
0.0
  0
VISUALSTYLE
  5
2C
102
{ACAD_REACTORS
330
2A
102
}
102
{ACAD_XDICTIONARY
360
68
102
}
330
2A
100
AcDbVisualStyle
  2
FlatWithEdges
 70
     1
 71
     2
 72
     1
 73
     1
 90
        2
 40
-0.6
 41
30.0
 62
     5
 63
     7
421
 16777215
 74
     1
 91
        4
 64
     7
 65
   257
 75
     1
175
     1
 42
1.0
 92
        0
 66
   257
 43
1.0
 76
     1
 77
     6
 78
     2
 67
     7
 79
     5
170
     0
171
     0
290
     0
174
     0
 93
       13
 44
0.0
173
     0
291
     1
 45
0.0
  0
VISUALSTYLE
  5
2D
102
{ACAD_REACTORS
330
2A
102
}
102
{ACAD_XDICTIONARY
360
6A
102
}
330
2A
100
AcDbVisualStyle
  2
Gouraud
 70
     2
 71
     2
 72
     2
 73
     1
 90
        2
 40
-0.6
 41
30.0
 62
     5
 63
     7
421
 16777215
 74
     0
 91
        4
 64
     7
 65
   257
 75
     1
175
     1
 42
1.0
 92
        0
 66
     7
 43
1.0
 76
     1
 77
     6
 78
     2
 67
     7
 79
     5
170
     0
171
     0
290
     0
174
     0
 93
       13
 44
0.0
173
     0
291
     1
 45
0.0
  0
VISUALSTYLE
  5
2E
102
{ACAD_REACTORS
330
2A
102
}
102
{ACAD_XDICTIONARY
360
6C
102
}
330
2A
100
AcDbVisualStyle
  2
GouraudWithEdges
 70
     3
 71
     2
 72
     2
 73
     1
 90
        2
 40
-0.6
 41
30.0
 62
     5
 63
     7
421
 16777215
 74
     1
 91
        4
 64
     7
 65
   257
 75
     1
175
     1
 42
1.0
 92
        0
 66
   257
 43
1.0
 76
     1
 77
     6
 78
     2
 67
     7
 79
     5
170
     0
171
     0
290
     0
174
     0
 93
       13
 44
0.0
173
     0
291
     1
 45
0.0
  0
VISUALSTYLE
  5
38
102
{ACAD_REACTORS
330
2A
102
}
102
{ACAD_XDICTIONARY
360
80
102
}
330
2A
100
AcDbVisualStyle
  2
Linepattern
 70
    14
 71
     2
 72
     2
 73
     0
 90
        0
 40
-0.6
 41
-30.0
 62
     5
 63
     7
421
 16777215
 74
     1
 91
        4
 64
     7
 65
   257
 75
     7
175
     7
 42
1.0
 92
        8
 66
     7
 43
1.0
 76
     1
 77
     6
 78
     2
 67
     7
 79
     5
170
     0
171
     0
290
     0
174
     0
 93
        1
 44
0.0
173
     0
291
     1
 45
0.0
  0
VISUALSTYLE
  5
33
102
{ACAD_REACTORS
330
2A
102
}
102
{ACAD_XDICTIONARY
360
76
102
}
330
2A
100
AcDbVisualStyle
  2
Realistic
 70
     8
 71
     2
 72
     2
 73
     0
 90
        0
 40
-0.6
 41
-30.0
 62
     5
 63
     7
421
 16777215
 74
     1
 91
        0
 64
     7
 65
   257
 75
     1
175
     1
 42
1.0
 92
        8
 66
     8
424
  7895160
 43
1.0
 76
     1
 77
     6
 78
     2
 67
     7
 79
     5
170
     0
171
     0
290
     0
174
     0
 93
       13
 44
0.0
173
     0
291
     0
 45
0.0
  0
VISUALSTYLE
  5
37
102
{ACAD_REACTORS
330
2A
102
}
102
{ACAD_XDICTIONARY
360
7E
102
}
330
2A
100
AcDbVisualStyle
  2
Thicken
 70
    13
 71
     2
 72
     2
 73
     0
 90
        0
 40
-0.6
 41
-30.0
 62
     5
 63
     7
421
 16777215
 74
     1
 91
        4
 64
     7
 65
   257
 75
     1
175
     1
 42
1.0
 92
       12
 66
     7
 43
1.0
 76
     1
 77
     6
 78
     2
 67
     7
 79
     5
170
     0
171
     0
290
     0
174
     0
 93
        1
 44
0.0
173
     0
291
     1
 45
0.0
  0
DICTIONARY
  5
6E
330
2F
100
AcDbDictionary
280
     1
281
     1
  3
ACAD_XREC_ROUNDTRIP
360
6F
  0
DICTIONARY
  5
72
330
31
100
AcDbDictionary
280
     1
281
     1
  3
ACAD_XREC_ROUNDTRIP
360
73
  0
DICTIONARY
  5
70
330
30
100
AcDbDictionary
280
     1
281
     1
  3
ACAD_XREC_ROUNDTRIP
360
71
  0
DICTIONARY
  5
74
330
32
100
AcDbDictionary
280
     1
281
     1
  3
ACAD_XREC_ROUNDTRIP
360
75
  0
DICTIONARY
  5
7C
330
36
100
AcDbDictionary
280
     1
281
     1
  3
ACAD_XREC_ROUNDTRIP
360
7D
  0
DICTIONARY
  5
84
330
3A
100
AcDbDictionary
280
     1
281
     1
  3
ACAD_XREC_ROUNDTRIP
360
85
  0
DICTIONARY
  5
78
330
34
100
AcDbDictionary
280
     1
281
     1
  3
ACAD_XREC_ROUNDTRIP
360
79
  0
DICTIONARY
  5
7A
330
35
100
AcDbDictionary
280
     1
281
     1
  3
ACAD_XREC_ROUNDTRIP
360
7B
  0
DICTIONARY
  5
82
330
39
100
AcDbDictionary
280
     1
281
     1
  3
ACAD_XREC_ROUNDTRIP
360
83
  0
DICTIONARY
  5
66
330
2B
100
AcDbDictionary
280
     1
281
     1
  3
ACAD_XREC_ROUNDTRIP
360
67
  0
DICTIONARY
  5
68
330
2C
100
AcDbDictionary
280
     1
281
     1
  3
ACAD_XREC_ROUNDTRIP
360
69
  0
DICTIONARY
  5
6A
330
2D
100
AcDbDictionary
280
     1
281
     1
  3
ACAD_XREC_ROUNDTRIP
360
6B
  0
DICTIONARY
  5
6C
330
2E
100
AcDbDictionary
280
     1
281
     1
  3
ACAD_XREC_ROUNDTRIP
360
6D
  0
DICTIONARY
  5
80
330
38
100
AcDbDictionary
280
     1
281
     1
  3
ACAD_XREC_ROUNDTRIP
360
81
  0
DICTIONARY
  5
76
330
33
100
AcDbDictionary
280
     1
281
     1
  3
ACAD_XREC_ROUNDTRIP
360
77
  0
DICTIONARY
  5
7E
330
37
100
AcDbDictionary
280
     1
281
     1
  3
ACAD_XREC_ROUNDTRIP
360
7F
  0
XRECORD
  5
6F
102
{ACAD_REACTORS
330
6E
102
}
330
6E
100
AcDbXrecord
280
     1
102
RTVSPropertyOp0
 70
     1
102
RTVSPropertyOp1
 70
     1
102
RTVSPropertyOp2
 70
     1
102
RTVSPropertyOp3
 70
     1
102
RTVSPropertyOp4
 70
     1
102
RTVSPropertyOp5
 70
     1
102
RTVSPropertyOp6
 70
     1
102
RTVSPropertyOp7
 70
     1
102
RTVSPropertyOp8
 70
     1
102
RTVSPropertyOp9
 70
     1
102
RTVSPropertyOp10
 70
     1
102
RTVSPropertyOp11
 70
     1
102
RTVSPropertyOp12
 70
     1
102
RTVSPropertyOp13
 70
     1
102
RTVSPropertyOp14
 70
     1
102
RTVSPropertyOp15
 70
     1
102
RTVSPropertyOp16
 70
     1
102
RTVSPropertyOp17
 70
     1
102
RTVSPropertyOp18
 70
     1
102
RTVSPropertyOp19
 70
     1
102
RTVSPropertyOp20
 70
     1
102
RTVSPropertyOp21
 70
     1
102
RTVSPropertyOp22
 70
     1
102
RTVSPropertyOp23
 70
     1
102
RTVSPropertyOp24
 70
     1
102
RTVSPropertyOp25
 70
     1
102
RTVSPropertyOp26
 70
     1
102
RTVSPropertyOp27
 70
     1
102
RTVSPropertyOp28
 70
     1
102
RTVSPropertyOp29
 70
     1
102
RTVSPropertyOp30
 70
     1
102
RTVSPropertyOp31
 70
     1
102
RTVSPropertyOp32
 70
     1
  0
XRECORD
  5
73
102
{ACAD_REACTORS
330
72
102
}
330
72
100
AcDbXrecord
280
     1
102
RTVSPropertyOp0
 70
     1
102
RTVSPropertyOp1
 70
     1
102
RTVSPropertyOp2
 70
     1
102
RTVSPropertyOp3
 70
     1
102
RTVSPropertyOp4
 70
     1
102
RTVSPropertyOp5
 70
     1
102
RTVSPropertyOp6
 70
     1
102
RTVSPropertyOp7
 70
     1
102
RTVSPropertyOp8
 70
     1
102
RTVSPropertyOp9
 70
     1
102
RTVSPropertyOp10
 70
     1
102
RTVSPropertyOp11
 70
     1
102
RTVSPropertyOp12
 70
     1
102
RTVSPropertyOp13
 70
     1
102
RTVSPropertyOp14
 70
     1
102
RTVSPropertyOp15
 70
     1
102
RTVSPropertyOp16
 70
     1
102
RTVSPropertyOp17
 70
     1
102
RTVSPropertyOp18
 70
     1
102
RTVSPropertyOp19
 70
     1
102
RTVSPropertyOp20
 70
     1
102
RTVSPropertyOp21
 70
     1
102
RTVSPropertyOp22
 70
     1
102
RTVSPropertyOp23
 70
     1
102
RTVSPropertyOp24
 70
     1
102
RTVSPropertyOp25
 70
     1
102
RTVSPropertyOp26
 70
     1
102
RTVSPropertyOp27
 70
     1
102
RTVSPropertyOp28
 70
     1
102
RTVSPropertyOp29
 70
     1
102
RTVSPropertyOp30
 70
     1
102
RTVSPropertyOp31
 70
     1
102
RTVSPropertyOp32
 70
     1
  0
XRECORD
  5
71
102
{ACAD_REACTORS
330
70
102
}
330
70
100
AcDbXrecord
280
     1
102
RTVSPropertyOp0
 70
     1
102
RTVSPropertyOp1
 70
     1
102
RTVSPropertyOp2
 70
     1
102
RTVSPropertyOp3
 70
     1
102
RTVSPropertyOp4
 70
     1
102
RTVSPropertyOp5
 70
     1
102
RTVSPropertyOp6
 70
     1
102
RTVSPropertyOp7
 70
     1
102
RTVSPropertyOp8
 70
     1
102
RTVSPropertyOp9
 70
     1
102
RTVSPropertyOp10
 70
     1
102
RTVSPropertyOp11
 70
     1
102
RTVSPropertyOp12
 70
     1
102
RTVSPropertyOp13
 70
     1
102
RTVSPropertyOp14
 70
     1
102
RTVSPropertyOp15
 70
     1
102
RTVSPropertyOp16
 70
     1
102
RTVSPropertyOp17
 70
     1
102
RTVSPropertyOp18
 70
     1
102
RTVSPropertyOp19
 70
     1
102
RTVSPropertyOp20
 70
     1
102
RTVSPropertyOp21
 70
     1
102
RTVSPropertyOp22
 70
     1
102
RTVSPropertyOp23
 70
     1
102
RTVSPropertyOp24
 70
     1
102
RTVSPropertyOp25
 70
     1
102
RTVSPropertyOp26
 70
     1
102
RTVSPropertyOp27
 70
     1
102
RTVSPropertyOp28
 70
     1
102
RTVSPropertyOp29
 70
     1
102
RTVSPropertyOp30
 70
     1
102
RTVSPropertyOp31
 70
     1
102
RTVSPropertyOp32
 70
     1
  0
XRECORD
  5
75
102
{ACAD_REACTORS
330
74
102
}
330
74
100
AcDbXrecord
280
     1
102
RTVSPropertyOp0
 70
     1
102
RTVSPropertyOp1
 70
     1
102
RTVSPropertyOp2
 70
     1
102
RTVSPropertyOp3
 70
     1
102
RTVSPropertyOp4
 70
     1
102
RTVSPropertyOp5
 70
     1
102
RTVSPropertyOp6
 70
     1
102
RTVSPropertyOp7
 70
     1
102
RTVSPropertyOp8
 70
     1
102
RTVSPropertyOp9
 70
     1
102
RTVSPropertyOp10
 70
     1
102
RTVSPropertyOp11
 70
     1
102
RTVSPropertyOp12
 70
     1
102
RTVSPropertyOp13
 70
     1
102
RTVSPropertyOp14
 70
     1
102
RTVSPropertyOp15
 70
     1
102
RTVSPropertyOp16
 70
     1
102
RTVSPropertyOp17
 70
     1
102
RTVSPropertyOp18
 70
     1
102
RTVSPropertyOp19
 70
     1
102
RTVSPropertyOp20
 70
     1
102
RTVSPropertyOp21
 70
     1
102
RTVSPropertyOp22
 70
     1
102
RTVSPropertyOp23
 70
     1
102
RTVSPropertyOp24
 70
     1
102
RTVSPropertyOp25
 70
     1
102
RTVSPropertyOp26
 70
     1
102
RTVSPropertyOp27
 70
     1
102
RTVSPropertyOp28
 70
     1
102
RTVSPropertyOp29
 70
     1
102
RTVSPropertyOp30
 70
     1
102
RTVSPropertyOp31
 70
     1
102
RTVSPropertyOp32
 70
     1
  0
XRECORD
  5
7D
102
{ACAD_REACTORS
330
7C
102
}
330
7C
100
AcDbXrecord
280
     1
102
RTVSPropertyOp0
 70
     1
102
RTVSPropertyOp1
 70
     1
102
RTVSPropertyOp2
 70
     1
102
RTVSPropertyOp3
 70
     1
102
RTVSPropertyOp4
 70
     1
102
RTVSPropertyOp5
 70
     1
102
RTVSPropertyOp6
 70
     1
102
RTVSPropertyOp7
 70
     1
102
RTVSPropertyOp8
 70
     1
102
RTVSPropertyOp9
 70
     1
102
RTVSPropertyOp10
 70
     1
102
RTVSPropertyOp11
 70
     1
102
RTVSPropertyOp12
 70
     1
102
RTVSPropertyOp13
 70
     1
102
RTVSPropertyOp14
 70
     1
102
RTVSPropertyOp15
 70
     1
102
RTVSPropertyOp16
 70
     1
102
RTVSPropertyOp17
 70
     1
102
RTVSPropertyOp18
 70
     1
102
RTVSPropertyOp19
 70
     1
102
RTVSPropertyOp20
 70
     1
102
RTVSPropertyOp21
 70
     1
102
RTVSPropertyOp22
 70
     1
102
RTVSPropertyOp23
 70
     1
102
RTVSPropertyOp24
 70
     1
102
RTVSPropertyOp25
 70
     1
102
RTVSPropertyOp26
 70
     1
102
RTVSPropertyOp27
 70
     1
102
RTVSPropertyOp28
 70
     1
102
RTVSPropertyOp29
 70
     1
102
RTVSPropertyOp30
 70
     1
102
RTVSPropertyOp31
 70
     1
102
RTVSPropertyOp32
 70
     1
  0
XRECORD
  5
85
102
{ACAD_REACTORS
330
84
102
}
330
84
100
AcDbXrecord
280
     1
102
RTVSPropertyOp0
 70
     1
102
RTVSPropertyOp1
 70
     1
102
RTVSPropertyOp2
 70
     1
102
RTVSPropertyOp3
 70
     1
102
RTVSPropertyOp4
 70
     1
102
RTVSPropertyOp5
 70
     1
102
RTVSPropertyOp6
 70
     1
102
RTVSPropertyOp7
 70
     1
102
RTVSPropertyOp8
 70
     1
102
RTVSPropertyOp9
 70
     1
102
RTVSPropertyOp10
 70
     1
102
RTVSPropertyOp11
 70
     1
102
RTVSPropertyOp12
 70
     1
102
RTVSPropertyOp13
 70
     1
102
RTVSPropertyOp14
 70
     1
102
RTVSPropertyOp15
 70
     1
102
RTVSPropertyOp16
 70
     1
102
RTVSPropertyOp17
 70
     1
102
RTVSPropertyOp18
 70
     1
102
RTVSPropertyOp19
 70
     1
102
RTVSPropertyOp20
 70
     1
102
RTVSPropertyOp21
 70
     1
102
RTVSPropertyOp22
 70
     1
102
RTVSPropertyOp23
 70
     1
102
RTVSPropertyOp24
 70
     1
102
RTVSPropertyOp25
 70
     1
102
RTVSPropertyOp26
 70
     1
102
RTVSPropertyOp27
 70
     1
102
RTVSPropertyOp28
 70
     1
102
RTVSPropertyOp29
 70
     1
102
RTVSPropertyOp30
 70
     1
102
RTVSPropertyOp31
 70
     1
102
RTVSPropertyOp32
 70
     1
  0
XRECORD
  5
79
102
{ACAD_REACTORS
330
78
102
}
330
78
100
AcDbXrecord
280
     1
102
RTVSPropertyOp0
 70
     1
102
RTVSPropertyOp1
 70
     1
102
RTVSPropertyOp2
 70
     1
102
RTVSPropertyOp3
 70
     1
102
RTVSPropertyOp4
 70
     1
102
RTVSPropertyOp5
 70
     1
102
RTVSPropertyOp6
 70
     1
102
RTVSPropertyOp7
 70
     1
102
RTVSPropertyOp8
 70
     1
102
RTVSPropertyOp9
 70
     1
102
RTVSPropertyOp10
 70
     1
102
RTVSPropertyOp11
 70
     1
102
RTVSPropertyOp12
 70
     1
102
RTVSPropertyOp13
 70
     1
102
RTVSPropertyOp14
 70
     1
102
RTVSPropertyOp15
 70
     1
102
RTVSPropertyOp16
 70
     1
102
RTVSPropertyOp17
 70
     1
102
RTVSPropertyOp18
 70
     1
102
RTVSPropertyOp19
 70
     1
102
RTVSPropertyOp20
 70
     1
102
RTVSPropertyOp21
 70
     1
102
RTVSPropertyOp22
 70
     1
102
RTVSPropertyOp23
 70
     1
102
RTVSPropertyOp24
 70
     1
102
RTVSPropertyOp25
 70
     1
102
RTVSPropertyOp26
 70
     1
102
RTVSPropertyOp27
 70
     1
102
RTVSPropertyOp28
 70
     1
102
RTVSPropertyOp29
 70
     1
102
RTVSPropertyOp30
 70
     1
102
RTVSPropertyOp31
 70
     1
102
RTVSPropertyOp32
 70
     1
  0
XRECORD
  5
7B
102
{ACAD_REACTORS
330
7A
102
}
330
7A
100
AcDbXrecord
280
     1
102
RTVSPropertyOp0
 70
     1
102
RTVSPropertyOp1
 70
     1
102
RTVSPropertyOp2
 70
     1
102
RTVSPropertyOp3
 70
     1
102
RTVSPropertyOp4
 70
     1
102
RTVSPropertyOp5
 70
     1
102
RTVSPropertyOp6
 70
     1
102
RTVSPropertyOp7
 70
     1
102
RTVSPropertyOp8
 70
     1
102
RTVSPropertyOp9
 70
     1
102
RTVSPropertyOp10
 70
     1
102
RTVSPropertyOp11
 70
     1
102
RTVSPropertyOp12
 70
     1
102
RTVSPropertyOp13
 70
     1
102
RTVSPropertyOp14
 70
     1
102
RTVSPropertyOp15
 70
     1
102
RTVSPropertyOp16
 70
     1
102
RTVSPropertyOp17
 70
     1
102
RTVSPropertyOp18
 70
     1
102
RTVSPropertyOp19
 70
     1
102
RTVSPropertyOp20
 70
     1
102
RTVSPropertyOp21
 70
     1
102
RTVSPropertyOp22
 70
     1
102
RTVSPropertyOp23
 70
     1
102
RTVSPropertyOp24
 70
     1
102
RTVSPropertyOp25
 70
     1
102
RTVSPropertyOp26
 70
     1
102
RTVSPropertyOp27
 70
     1
102
RTVSPropertyOp28
 70
     1
102
RTVSPropertyOp29
 70
     1
102
RTVSPropertyOp30
 70
     1
102
RTVSPropertyOp31
 70
     1
102
RTVSPropertyOp32
 70
     1
  0
XRECORD
  5
83
102
{ACAD_REACTORS
330
82
102
}
330
82
100
AcDbXrecord
280
     1
102
RTVSPropertyOp0
 70
     1
102
RTVSPropertyOp1
 70
     1
102
RTVSPropertyOp2
 70
     1
102
RTVSPropertyOp3
 70
     1
102
RTVSPropertyOp4
 70
     1
102
RTVSPropertyOp5
 70
     1
102
RTVSPropertyOp6
 70
     1
102
RTVSPropertyOp7
 70
     1
102
RTVSPropertyOp8
 70
     1
102
RTVSPropertyOp9
 70
     1
102
RTVSPropertyOp10
 70
     1
102
RTVSPropertyOp11
 70
     1
102
RTVSPropertyOp12
 70
     1
102
RTVSPropertyOp13
 70
     1
102
RTVSPropertyOp14
 70
     1
102
RTVSPropertyOp15
 70
     1
102
RTVSPropertyOp16
 70
     1
102
RTVSPropertyOp17
 70
     1
102
RTVSPropertyOp18
 70
     1
102
RTVSPropertyOp19
 70
     1
102
RTVSPropertyOp20
 70
     1
102
RTVSPropertyOp21
 70
     1
102
RTVSPropertyOp22
 70
     1
102
RTVSPropertyOp23
 70
     1
102
RTVSPropertyOp24
 70
     1
102
RTVSPropertyOp25
 70
     1
102
RTVSPropertyOp26
 70
     1
102
RTVSPropertyOp27
 70
     1
102
RTVSPropertyOp28
 70
     1
102
RTVSPropertyOp29
 70
     1
102
RTVSPropertyOp30
 70
     1
102
RTVSPropertyOp31
 70
     1
102
RTVSPropertyOp32
 70
     1
  0
XRECORD
  5
67
102
{ACAD_REACTORS
330
66
102
}
330
66
100
AcDbXrecord
280
     1
102
RTVSPropertyOp0
 70
     1
102
RTVSPropertyOp1
 70
     1
102
RTVSPropertyOp2
 70
     1
102
RTVSPropertyOp3
 70
     1
102
RTVSPropertyOp4
 70
     1
102
RTVSPropertyOp5
 70
     1
102
RTVSPropertyOp6
 70
     1
102
RTVSPropertyOp7
 70
     1
102
RTVSPropertyOp8
 70
     1
102
RTVSPropertyOp9
 70
     1
102
RTVSPropertyOp10
 70
     1
102
RTVSPropertyOp11
 70
     1
102
RTVSPropertyOp12
 70
     1
102
RTVSPropertyOp13
 70
     1
102
RTVSPropertyOp14
 70
     1
102
RTVSPropertyOp15
 70
     1
102
RTVSPropertyOp16
 70
     1
102
RTVSPropertyOp17
 70
     1
102
RTVSPropertyOp18
 70
     1
102
RTVSPropertyOp19
 70
     1
102
RTVSPropertyOp20
 70
     1
102
RTVSPropertyOp21
 70
     1
102
RTVSPropertyOp22
 70
     1
102
RTVSPropertyOp23
 70
     1
102
RTVSPropertyOp24
 70
     1
102
RTVSPropertyOp25
 70
     1
102
RTVSPropertyOp26
 70
     1
102
RTVSPropertyOp27
 70
     1
102
RTVSPropertyOp28
 70
     1
102
RTVSPropertyOp29
 70
     1
102
RTVSPropertyOp30
 70
     1
102
RTVSPropertyOp31
 70
     1
102
RTVSPropertyOp32
 70
     1
  0
XRECORD
  5
69
102
{ACAD_REACTORS
330
68
102
}
330
68
100
AcDbXrecord
280
     1
102
RTVSPropertyOp0
 70
     1
102
RTVSPropertyOp1
 70
     1
102
RTVSPropertyOp2
 70
     1
102
RTVSPropertyOp3
 70
     1
102
RTVSPropertyOp4
 70
     1
102
RTVSPropertyOp5
 70
     1
102
RTVSPropertyOp6
 70
     1
102
RTVSPropertyOp7
 70
     1
102
RTVSPropertyOp8
 70
     1
102
RTVSPropertyOp9
 70
     1
102
RTVSPropertyOp10
 70
     1
102
RTVSPropertyOp11
 70
     1
102
RTVSPropertyOp12
 70
     1
102
RTVSPropertyOp13
 70
     1
102
RTVSPropertyOp14
 70
     1
102
RTVSPropertyOp15
 70
     1
102
RTVSPropertyOp16
 70
     1
102
RTVSPropertyOp17
 70
     1
102
RTVSPropertyOp18
 70
     1
102
RTVSPropertyOp19
 70
     1
102
RTVSPropertyOp20
 70
     1
102
RTVSPropertyOp21
 70
     1
102
RTVSPropertyOp22
 70
     1
102
RTVSPropertyOp23
 70
     1
102
RTVSPropertyOp24
 70
     1
102
RTVSPropertyOp25
 70
     1
102
RTVSPropertyOp26
 70
     1
102
RTVSPropertyOp27
 70
     1
102
RTVSPropertyOp28
 70
     1
102
RTVSPropertyOp29
 70
     1
102
RTVSPropertyOp30
 70
     1
102
RTVSPropertyOp31
 70
     1
102
RTVSPropertyOp32
 70
     1
  0
XRECORD
  5
6B
102
{ACAD_REACTORS
330
6A
102
}
330
6A
100
AcDbXrecord
280
     1
102
RTVSPropertyOp0
 70
     1
102
RTVSPropertyOp1
 70
     1
102
RTVSPropertyOp2
 70
     1
102
RTVSPropertyOp3
 70
     1
102
RTVSPropertyOp4
 70
     1
102
RTVSPropertyOp5
 70
     1
102
RTVSPropertyOp6
 70
     1
102
RTVSPropertyOp7
 70
     1
102
RTVSPropertyOp8
 70
     1
102
RTVSPropertyOp9
 70
     1
102
RTVSPropertyOp10
 70
     1
102
RTVSPropertyOp11
 70
     1
102
RTVSPropertyOp12
 70
     1
102
RTVSPropertyOp13
 70
     1
102
RTVSPropertyOp14
 70
     1
102
RTVSPropertyOp15
 70
     1
102
RTVSPropertyOp16
 70
     1
102
RTVSPropertyOp17
 70
     1
102
RTVSPropertyOp18
 70
     1
102
RTVSPropertyOp19
 70
     1
102
RTVSPropertyOp20
 70
     1
102
RTVSPropertyOp21
 70
     1
102
RTVSPropertyOp22
 70
     1
102
RTVSPropertyOp23
 70
     1
102
RTVSPropertyOp24
 70
     1
102
RTVSPropertyOp25
 70
     1
102
RTVSPropertyOp26
 70
     1
102
RTVSPropertyOp27
 70
     1
102
RTVSPropertyOp28
 70
     1
102
RTVSPropertyOp29
 70
     1
102
RTVSPropertyOp30
 70
     1
102
RTVSPropertyOp31
 70
     1
102
RTVSPropertyOp32
 70
     1
  0
XRECORD
  5
6D
102
{ACAD_REACTORS
330
6C
102
}
330
6C
100
AcDbXrecord
280
     1
102
RTVSPropertyOp0
 70
     1
102
RTVSPropertyOp1
 70
     1
102
RTVSPropertyOp2
 70
     1
102
RTVSPropertyOp3
 70
     1
102
RTVSPropertyOp4
 70
     1
102
RTVSPropertyOp5
 70
     1
102
RTVSPropertyOp6
 70
     1
102
RTVSPropertyOp7
 70
     1
102
RTVSPropertyOp8
 70
     1
102
RTVSPropertyOp9
 70
     1
102
RTVSPropertyOp10
 70
     1
102
RTVSPropertyOp11
 70
     1
102
RTVSPropertyOp12
 70
     1
102
RTVSPropertyOp13
 70
     1
102
RTVSPropertyOp14
 70
     1
102
RTVSPropertyOp15
 70
     1
102
RTVSPropertyOp16
 70
     1
102
RTVSPropertyOp17
 70
     1
102
RTVSPropertyOp18
 70
     1
102
RTVSPropertyOp19
 70
     1
102
RTVSPropertyOp20
 70
     1
102
RTVSPropertyOp21
 70
     1
102
RTVSPropertyOp22
 70
     1
102
RTVSPropertyOp23
 70
     1
102
RTVSPropertyOp24
 70
     1
102
RTVSPropertyOp25
 70
     1
102
RTVSPropertyOp26
 70
     1
102
RTVSPropertyOp27
 70
     1
102
RTVSPropertyOp28
 70
     1
102
RTVSPropertyOp29
 70
     1
102
RTVSPropertyOp30
 70
     1
102
RTVSPropertyOp31
 70
     1
102
RTVSPropertyOp32
 70
     1
  0
XRECORD
  5
81
102
{ACAD_REACTORS
330
80
102
}
330
80
100
AcDbXrecord
280
     1
102
RTVSPropertyOp0
 70
     1
102
RTVSPropertyOp1
 70
     1
102
RTVSPropertyOp2
 70
     1
102
RTVSPropertyOp3
 70
     1
102
RTVSPropertyOp4
 70
     1
102
RTVSPropertyOp5
 70
     1
102
RTVSPropertyOp6
 70
     1
102
RTVSPropertyOp7
 70
     1
102
RTVSPropertyOp8
 70
     1
102
RTVSPropertyOp9
 70
     1
102
RTVSPropertyOp10
 70
     1
102
RTVSPropertyOp11
 70
     1
102
RTVSPropertyOp12
 70
     1
102
RTVSPropertyOp13
 70
     1
102
RTVSPropertyOp14
 70
     1
102
RTVSPropertyOp15
 70
     1
102
RTVSPropertyOp16
 70
     1
102
RTVSPropertyOp17
 70
     1
102
RTVSPropertyOp18
 70
     1
102
RTVSPropertyOp19
 70
     1
102
RTVSPropertyOp20
 70
     1
102
RTVSPropertyOp21
 70
     1
102
RTVSPropertyOp22
 70
     1
102
RTVSPropertyOp23
 70
     1
102
RTVSPropertyOp24
 70
     1
102
RTVSPropertyOp25
 70
     1
102
RTVSPropertyOp26
 70
     1
102
RTVSPropertyOp27
 70
     1
102
RTVSPropertyOp28
 70
     1
102
RTVSPropertyOp29
 70
     1
102
RTVSPropertyOp30
 70
     1
102
RTVSPropertyOp31
 70
     1
102
RTVSPropertyOp32
 70
     1
  0
XRECORD
  5
77
102
{ACAD_REACTORS
330
76
102
}
330
76
100
AcDbXrecord
280
     1
102
RTVSPropertyOp0
 70
     1
102
RTVSPropertyOp1
 70
     1
102
RTVSPropertyOp2
 70
     1
102
RTVSPropertyOp3
 70
     1
102
RTVSPropertyOp4
 70
     1
102
RTVSPropertyOp5
 70
     1
102
RTVSPropertyOp6
 70
     1
102
RTVSPropertyOp7
 70
     1
102
RTVSPropertyOp8
 70
     1
102
RTVSPropertyOp9
 70
     1
102
RTVSPropertyOp10
 70
     1
102
RTVSPropertyOp11
 70
     1
102
RTVSPropertyOp12
 70
     1
102
RTVSPropertyOp13
 70
     1
102
RTVSPropertyOp14
 70
     1
102
RTVSPropertyOp15
 70
     1
102
RTVSPropertyOp16
 70
     1
102
RTVSPropertyOp17
 70
     1
102
RTVSPropertyOp18
 70
     1
102
RTVSPropertyOp19
 70
     1
102
RTVSPropertyOp20
 70
     1
102
RTVSPropertyOp21
 70
     1
102
RTVSPropertyOp22
 70
     1
102
RTVSPropertyOp23
 70
     1
102
RTVSPropertyOp24
 70
     1
102
RTVSPropertyOp25
 70
     1
102
RTVSPropertyOp26
 70
     1
102
RTVSPropertyOp27
 70
     1
102
RTVSPropertyOp28
 70
     1
102
RTVSPropertyOp29
 70
     1
102
RTVSPropertyOp30
 70
     1
102
RTVSPropertyOp31
 70
     1
102
RTVSPropertyOp32
 70
     1
  0
XRECORD
  5
7F
102
{ACAD_REACTORS
330
7E
102
}
330
7E
100
AcDbXrecord
280
     1
102
RTVSPropertyOp0
 70
     1
102
RTVSPropertyOp1
 70
     1
102
RTVSPropertyOp2
 70
     1
102
RTVSPropertyOp3
 70
     1
102
RTVSPropertyOp4
 70
     1
102
RTVSPropertyOp5
 70
     1
102
RTVSPropertyOp6
 70
     1
102
RTVSPropertyOp7
 70
     1
102
RTVSPropertyOp8
 70
     1
102
RTVSPropertyOp9
 70
     1
102
RTVSPropertyOp10
 70
     1
102
RTVSPropertyOp11
 70
     1
102
RTVSPropertyOp12
 70
     1
102
RTVSPropertyOp13
 70
     1
102
RTVSPropertyOp14
 70
     1
102
RTVSPropertyOp15
 70
     1
102
RTVSPropertyOp16
 70
     1
102
RTVSPropertyOp17
 70
     1
102
RTVSPropertyOp18
 70
     1
102
RTVSPropertyOp19
 70
     1
102
RTVSPropertyOp20
 70
     1
102
RTVSPropertyOp21
 70
     1
102
RTVSPropertyOp22
 70
     1
102
RTVSPropertyOp23
 70
     1
102
RTVSPropertyOp24
 70
     1
102
RTVSPropertyOp25
 70
     1
102
RTVSPropertyOp26
 70
     1
102
RTVSPropertyOp27
 70
     1
102
RTVSPropertyOp28
 70
     1
102
RTVSPropertyOp29
 70
     1
102
RTVSPropertyOp30
 70
     1
102
RTVSPropertyOp31
 70
     1
102
RTVSPropertyOp32
 70
     1
  0
ENDSEC
  0
EOF
