  0
SECTION
  2
HEADER
  9
$ACADVER
  1
AC1021
  9
$ACADMAINTVER
 70
    25
  9
$DWGCODEPAGE
  3
ANSI_1252
  9
$INSBASE
 10
0.0
 20
0.0
 30
0.0
  9
$EXTMIN
 10
-12.60247
 20
-7.6522
 30
0.0
  9
$EXTMAX
 10
12.69788
 20
8.61258
 30
0.0
  9
$LIMMIN
 10
0.0
 20
0.0
  9
$LIMMAX
 10
12.0
 20
9.0
  9
$ORTHOMODE
 70
     0
  9
$REGENMODE
 70
     1
  9
$FILLMODE
 70
     1
  9
$QTEXTMODE
 70
     0
  9
$MIRRTEXT
 70
     1
  9
$LTSCALE
 40
1.0
  9
$ATTMODE
 70
     1
  9
$TEXTSIZE
 40
0.2
  9
$TRACEWID
 40
0.05
  9
$TEXTSTYLE
  7
Standard
  9
$CLAYER
  8
0
  9
$CELTYPE
  6
ByLayer
  9
$CECOLOR
 62
   256
  9
$CELTSCALE
 40
1.0
  9
$DISPSILH
 70
     0
  9
$DIMSCALE
 40
1.0
  9
$DIMASZ
 40
0.18
  9
$DIMEXO
 40
0.0625
  9
$DIMDLI
 40
0.38
  9
$DIMRND
 40
0.0
  9
$DIMDLE
 40
0.0
  9
$DIMEXE
 40
0.18
  9
$DIMTP
 40
0.0
  9
$DIMTM
 40
0.0
  9
$DIMTXT
 40
0.18
  9
$DIMCEN
 40
0.09
  9
$DIMTSZ
 40
0.0
  9
$DIMTOL
 70
     0
  9
$DIMLIM
 70
     0
  9
$DIMTIH
 70
     1
  9
$DIMTOH
 70
     1
  9
$DIMSE1
 70
     0
  9
$DIMSE2
 70
     0
  9
$DIMTAD
 70
     0
  9
$DIMZIN
 70
     0
  9
$DIMBLK
  1

  9
$DIMASO
 70
     1
  9
$DIMSHO
 70
     1
  9
$DIMPOST
  1

  9
$DIMAPOST
  1

  9
$DIMALT
 70
     0
  9
$DIMALTD
 70
     2
  9
$DIMALTF
 40
25.4
  9
$DIMLFAC
 40
1.0
  9
$DIMTOFL
 70
     0
  9
$DIMTVP
 40
0.0
  9
$DIMTIX
 70
     0
  9
$DIMSOXD
 70
     0
  9
$DIMSAH
 70
     0
  9
$DIMBLK1
  1

  9
$DIMBLK2
  1

  9
$DIMSTYLE
  2
Standard
  9
$DIMCLRD
 70
     0
  9
$DIMCLRE
 70
     0
  9
$DIMCLRT
 70
     0
  9
$DIMTFAC
 40
1.0
  9
$DIMGAP
 40
0.09
  9
$DIMJUST
 70
     0
  9
$DIMSD1
 70
     0
  9
$DIMSD2
 70
     0
  9
$DIMTOLJ
 70
     1
  9
$DIMTZIN
 70
     0
  9
$DIMALTZ
 70
     0
  9
$DIMALTTZ
 70
     0
  9
$DIMUPT
 70
     0
  9
$DIMDEC
 70
     4
  9
$DIMTDEC
 70
     4
  9
$DIMALTU
 70
     2
  9
$DIMALTTD
 70
     2
  9
$DIMTXSTY
  7
Standard
  9
$DIMAUNIT
 70
     0
  9
$DIMADEC
 70
     0
  9
$DIMALTRND
 40
0.0
  9
$DIMAZIN
 70
     0
  9
$DIMDSEP
 70
    46
  9
$DIMATFIT
 70
     3
  9
$DIMFRAC
 70
     0
  9
$DIMLDRBLK
  1

  9
$DIMLUNIT
 70
     2
  9
$DIMLWD
 70
    -2
  9
$DIMLWE
 70
    -2
  9
$DIMTMOVE
 70
     0
  9
$DIMFXL
 40
1.0
  9
$DIMFXLON
 70
     0
  9
$DIMJOGANG
 40
0.7853981633974483
  9
$DIMTFILL
 70
     0
  9
$DIMTFILLCLR
 70
     0
  9
$DIMARCSYM
 70
     0
  9
$DIMLTYPE
  6

  9
$DIMLTEX1
  6

  9
$DIMLTEX2
  6

  9
$LUNITS
 70
     2
  9
$LUPREC
 70
     4
  9
$SKETCHINC
 40
0.1
  9
$FILLETRAD
 40
0.5
  9
$AUNITS
 70
     0
  9
$AUPREC
 70
     0
  9
$MENU
  1
.
  9
$ELEVATION
 40
0.0
  9
$PELEVATION
 40
0.0
  9
$THICKNESS
 40
0.0
  9
$LIMCHECK
 70
     0
  9
$CHAMFERA
 40
0.5
  9
$CHAMFERB
 40
0.5
  9
$CHAMFERC
 40
1.0
  9
$CHAMFERD
 40
0.0
  9
$SKPOLY
 70
     0
  9
$TDCREATE
 40
2456231.960046389
  9
$TDUCREATE
 40
2456232.126713056
  9
$TDUPDATE
 40
2456231.960046447
  9
$TDUUPDATE
 40
2456232.126713113
  9
$TDINDWG
 40
0.0000000116
  9
$TDUSRTIMER
 40
0.0000000116
  9
$USRTIMER
 70
     1
  9
$ANGBASE
 50
0.0
  9
$ANGDIR
 70
     0
  9
$PDMODE
 70
     0
  9
$PDSIZE
 40
0.0
  9
$PLINEWID
 40
0.0
  9
$SPLFRAME
 70
     0
  9
$SPLINETYPE
 70
     6
  9
$SPLINESEGS
 70
     8
  9
$HANDSEED
  5
AC
  9
$SURFTAB1
 70
     6
  9
$SURFTAB2
 70
     6
  9
$SURFTYPE
 70
     6
  9
$SURFU
 70
     6
  9
$SURFV
 70
     6
  9
$UCSBASE
  2

  9
$UCSNAME
  2

  9
$UCSORG
 10
0.0
 20
0.0
 30
0.0
  9
$UCSXDIR
 10
1.0
 20
0.0
 30
0.0
  9
$UCSYDIR
 10
0.0
 20
1.0
 30
0.0
  9
$UCSORTHOREF
  2

  9
$UCSORTHOVIEW
 70
     0
  9
$UCSORGTOP
 10
0.0
 20
0.0
 30
0.0
  9
$UCSORGBOTTOM
 10
0.0
 20
0.0
 30
0.0
  9
$UCSORGLEFT
 10
0.0
 20
0.0
 30
0.0
  9
$UCSORGRIGHT
 10
0.0
 20
0.0
 30
0.0
  9
$UCSORGFRONT
 10
0.0
 20
0.0
 30
0.0
  9
$UCSORGBACK
 10
0.0
 20
0.0
 30
0.0
  9
$PUCSBASE
  2

  9
$PUCSNAME
  2

  9
$PUCSORG
 10
0.0
 20
0.0
 30
0.0
  9
$PUCSXDIR
 10
1.0
 20
0.0
 30
0.0
  9
$PUCSYDIR
 10
0.0
 20
1.0
 30
0.0
  9
$PUCSORTHOREF
  2

  9
$PUCSORTHOVIEW
 70
     0
  9
$PUCSORGTOP
 10
0.0
 20
0.0
 30
0.0
  9
$PUCSORGBOTTOM
 10
0.0
 20
0.0
 30
0.0
  9
$PUCSORGLEFT
 10
0.0
 20
0.0
 30
0.0
  9
$PUCSORGRIGHT
 10
0.0
 20
0.0
 30
0.0
  9
$PUCSORGFRONT
 10
0.0
 20
0.0
 30
0.0
  9
$PUCSORGBACK
 10
0.0
 20
0.0
 30
0.0
  9
$USERI1
 70
     0
  9
$USERI2
 70
     0
  9
$USERI3
 70
     0
  9
$USERI4
 70
     0
  9
$USERI5
 70
     0
  9
$USERR1
 40
0.0
  9
$USERR2
 40
0.0
  9
$USERR3
 40
0.0
  9
$USERR4
 40
0.0
  9
$USERR5
 40
0.0
  9
$WORLDVIEW
 70
     1
  9
$SHADEDGE
 70
     3
  9
$SHADEDIF
 70
    70
  9
$TILEMODE
 70
     1
  9
$MAXACTVP
 70
    64
  9
$PINSBASE
 10
0.0
 20
0.0
 30
0.0
  9
$PLIMCHECK
 70
     0
  9
$PEXTMIN
 10
1.000000000000000E+20
 20
1.000000000000000E+20
 30
1.000000000000000E+20
  9
$PEXTMAX
 10
-1.000000000000000E+20
 20
-1.000000000000000E+20
 30
-1.000000000000000E+20
  9
$PLIMMIN
 10
0.0
 20
0.0
  9
$PLIMMAX
 10
12.0
 20
9.0
  9
$UNITMODE
 70
     0
  9
$VISRETAIN
 70
     1
  9
$PLINEGEN
 70
     0
  9
$PSLTSCALE
 70
     1
  9
$TREEDEPTH
 70
  3020
  9
$CMLSTYLE
  2
Standard
  9
$CMLJUST
 70
     0
  9
$CMLSCALE
 40
1.0
  9
$PROXYGRAPHICS
 70
     1
  9
$MEASUREMENT
 70
     0
  9
$CELWEIGHT
370
    -1
  9
$ENDCAPS
280
     0
  9
$JOINSTYLE
280
     0
  9
$LWDISPLAY
290
     0
  9
$INSUNITS
 70
     5
  9
$HYPERLINKBASE
  1

  9
$STYLESHEET
  1

  9
$XEDIT
290
     1
  9
$CEPSNTYPE
380
     0
  9
$PSTYLEMODE
290
     1
  9
$FINGERPRINTGUID
  2
{DAA4BFA7-4C23-448F-B3CB-6656204CA3D3}
  9
$VERSIONGUID
  2
{FAEB1C32-E019-11D5-929B-00C0DF256EC4}
  9
$EXTNAMES
290
     1
  9
$PSVPSCALE
 40
0.0
  9
$OLESTARTUP
290
     0
  9
$SORTENTS
280
   127
  9
$INDEXCTL
280
     0
  9
$HIDETEXT
280
     1
  9
$XCLIPFRAME
290
     0
  9
$HALOGAP
280
     0
  9
$OBSCOLOR
 70
   257
  9
$OBSLTYPE
280
     0
  9
$INTERSECTIONDISPLAY
280
     0
  9
$INTERSECTIONCOLOR
 70
   257
  9
$DIMASSOC
280
     2
  9
$PROJECTNAME
  1

  9
$CAMERADISPLAY
290
     0
  9
$LENSLENGTH
 40
50.0
  9
$CAMERAHEIGHT
 40
0.0
  9
$STEPSPERSEC
 40
2.0
  9
$STEPSIZE
 40
6.0
  9
$3DDWFPREC
 40
2.0
  9
$PSOLWIDTH
 40
0.25
  9
$PSOLHEIGHT
 40
4.0
  9
$LOFTANG1
 40
1.570796326794897
  9
$LOFTANG2
 40
1.570796326794897
  9
$LOFTMAG1
 40
0.0
  9
$LOFTMAG2
 40
0.0
  9
$LOFTPARAM
 70
     7
  9
$LOFTNORMALS
280
     1
  9
$LATITUDE
 40
37.795
  9
$LONGITUDE
 40
-122.394
  9
$NORTHDIRECTION
 40
0.0
  9
$TIMEZONE
 70
 -8000
  9
$LIGHTGLYPHDISPLAY
280
     1
  9
$TILEMODELIGHTSYNCH
280
     1
  9
$SOLIDHIST
280
     1
  9
$SHOWHIST
280
     1
  9
$DWFFRAME
280
     2
  9
$DGNFRAME
280
     2
  9
$REALWORLDSCALE
290
     1
  9
$INTERFERECOLOR
 62
   256
  9
$CSHADOW
280
     0
  9
$SHADOWPLANELOCATION
 40
0.0
  0
ENDSEC
  0
SECTION
  2
CLASSES
  0
CLASS
  1
ACDBDICTIONARYWDFLT
  2
AcDbDictionaryWithDefault
  3
ObjectDBX Classes
 90
        0
 91
        4
280
     0
281
     0
  0
CLASS
  1
VISUALSTYLE
  2
AcDbVisualStyle
  3
ObjectDBX Classes
 90
     4095
 91
        4
280
     0
281
     0
  0
CLASS
  1
MATERIAL
  2
AcDbMaterial
  3
ObjectDBX Classes
 90
     1153
 91
        4
280
     0
281
     0
  0
ENDSEC
  0
SECTION
  2
TABLES
  0
TABLE
  2
VPORT
  5
8
330
0
100
AcDbSymbolTable
 70
     1
  0
VPORT
  5
29
330
8
100
AcDbSymbolTableRecord
100
AcDbViewportTableRecord
  2
*Active
 70
     0
 10
0.0
 20
0.0
 11
1.0
 21
1.0
 12
10.42990654205607
 22
4.5
 13
0.0
 23
0.0
 14
0.5
 24
0.5
 15
0.5
 25
0.5
 16
0.0
 26
0.0
 36
1.0
 17
0.0
 27
0.0
 37
0.0
 40
9.0
 41
1.972972972850329
 42
50.0
 43
0.0
 44
0.0
 50
0.0
 51
0.0
 71
     0
 72
   100
 73
     1
 74
     3
 75
     0
 76
     0
 77
     0
 78
     0
281
     0
 65
     1
110
0.0
120
0.0
130
0.0
111
1.0
121
0.0
131
0.0
112
0.0
122
1.0
132
0.0
 79
     0
146
0.0
 60
     3
 61
     5
292
     1
282
     1
141
0.0
142
0.0
 63
   250
  0
ENDTAB
  0
TABLE
  2
LTYPE
  5
5
330
0
100
AcDbSymbolTable
 70
     1
  0
LTYPE
  5
14
330
5
100
AcDbSymbolTableRecord
100
AcDbLinetypeTableRecord
  2
ByBlock
 70
     0
  3

 72
    65
 73
     0
 40
0.0
  0
LTYPE
  5
15
330
5
100
AcDbSymbolTableRecord
100
AcDbLinetypeTableRecord
  2
ByLayer
 70
     0
  3

 72
    65
 73
     0
 40
0.0
  0
LTYPE
  5
16
330
5
100
AcDbSymbolTableRecord
100
AcDbLinetypeTableRecord
  2
Continuous
 70
     0
  3
Solid line
 72
    65
 73
     0
 40
0.0
  0
ENDTAB
  0
TABLE
  2
LAYER
  5
2
330
0
100
AcDbSymbolTable
 70
     3
  0
LAYER
  5
10
330
2
100
AcDbSymbolTableRecord
100
AcDbLayerTableRecord
  2
0
 70
     0
 62
     7
  6
Continuous
370
    -3
390
F
347
3E
  0
LAYER
  5
40
330
2
100
AcDbSymbolTableRecord
100
AcDbLayerTableRecord
  2
Layer 1
 70
     0
 62
     7
  6
Continuous
370
    -3
390
F
347
3E
  0
LAYER
  5
5E
330
2
100
AcDbSymbolTableRecord
100
AcDbLayerTableRecord
  2
layer 2
 70
     0
 62
     7
  6
Continuous
370
    -3
390
F
347
3E
  0
ENDTAB
  0
TABLE
  2
STYLE
  5
3
330
0
100
AcDbSymbolTable
 70
     1
  0
STYLE
  5
11
330
3
100
AcDbSymbolTableRecord
100
AcDbTextStyleTableRecord
  2
Standard
 70
     0
 40
0.0
 41
1.0
 50
0.0
 71
     0
 42
0.2
  3
txt
  4

  0
ENDTAB
  0
TABLE
  2
VIEW
  5
6
330
0
100
AcDbSymbolTable
 70
     0
  0
ENDTAB
  0
TABLE
  2
UCS
  5
7
330
0
100
AcDbSymbolTable
 70
     0
  0
ENDTAB
  0
TABLE
  2
APPID
  5
9
330
0
100
AcDbSymbolTable
 70
     2
  0
APPID
  5
12
330
9
100
AcDbSymbolTableRecord
100
AcDbRegAppTableRecord
  2
ACAD
 70
     0
  0
APPID
  5
3F
330
9
100
AcDbSymbolTableRecord
100
AcDbRegAppTableRecord
  2
ODA
 70
     0
  0
ENDTAB
  0
TABLE
  2
DIMSTYLE
  5
A
330
0
100
AcDbSymbolTable
 70
     1
100
AcDbDimStyleTable
  0
DIMSTYLE
105
27
330
A
100
AcDbSymbolTableRecord
100
AcDbDimStyleTableRecord
  2
Standard
 70
     0
178
     0
340
11
  0
ENDTAB
  0
TABLE
  2
BLOCK_RECORD
  5
1
330
0
100
AcDbSymbolTable
 70
     1
  0
BLOCK_RECORD
  5
1F
330
1
100
AcDbSymbolTableRecord
100
AcDbBlockTableRecord
  2
*Model_Space
340
22
 70
     0
280
     1
281
     0
  0
BLOCK_RECORD
  5
1B
330
1
100
AcDbSymbolTableRecord
100
AcDbBlockTableRecord
  2
*Paper_Space
340
1E
 70
     0
280
     1
281
     0
  0
BLOCK_RECORD
  5
23
330
1
100
AcDbSymbolTableRecord
100
AcDbBlockTableRecord
  2
*Paper_Space0
340
26
 70
     0
280
     1
281
     0
  0
ENDTAB
  0
ENDSEC
  0
SECTION
  2
BLOCKS
  0
BLOCK
  5
20
330
1F
100
AcDbEntity
  8
0
100
AcDbBlockBegin
  2
*Model_Space
 70
     0
 10
0.0
 20
0.0
 30
0.0
  3
*Model_Space
  1

  0
ENDBLK
  5
21
330
1F
100
AcDbEntity
  8
0
100
AcDbBlockEnd
  0
BLOCK
  5
1C
330
1B
100
AcDbEntity
 67
     1
  8
0
100
AcDbBlockBegin
  2
*Paper_Space
 70
     0
 10
0.0
 20
0.0
 30
0.0
  3
*Paper_Space
  1

  0
ENDBLK
  5
1D
330
1B
100
AcDbEntity
 67
     1
  8
0
100
AcDbBlockEnd
  0
BLOCK
  5
24
330
23
100
AcDbEntity
  8
0
100
AcDbBlockBegin
  2
*Paper_Space0
 70
     0
 10
0.0
 20
0.0
 30
0.0
  3
*Paper_Space0
  1

  0
ENDBLK
  5
25
330
23
100
AcDbEntity
  8
0
100
AcDbBlockEnd
  0
ENDSEC
  0
SECTION
  2
ENTITIES
  0
SPLINE
  5
41
330
1F
100
AcDbEntity
  8
Layer 1
 62
   250
100
AcDbSpline
210
0.0
220
0.0
230
1.0
 70
    11
 71
     3
 72
    92
 73
    88
 74
     0
 42
0.0000000001
 43
0.0000000001
 12
1.0
 22
0.0
 32
0.0
 13
1.0
 23
0.0
 33
0.0
 40
0.0
 40
0.0
 40
0.0
 40
0.0
 40
0.0434782608695652
 40
0.0434782608695652
 40
0.0434782608695652
 40
0.0434782608695652
 40
0.0869565217391304
 40
0.0869565217391304
 40
0.0869565217391304
 40
0.0869565217391304
 40
0.1304347826086956
 40
0.1304347826086956
 40
0.1304347826086956
 40
0.1304347826086956
 40
0.1739130434782609
 40
0.1739130434782609
 40
0.1739130434782609
 40
0.1739130434782609
 40
0.2173913043478261
 40
0.2173913043478261
 40
0.2173913043478261
 40
0.2173913043478261
 40
0.2608695652173913
 40
0.2608695652173913
 40
0.2608695652173913
 40
0.2608695652173913
 40
0.3043478260869565
 40
0.3043478260869565
 40
0.3043478260869565
 40
0.3043478260869565
 40
0.3478260869565217
 40
0.3478260869565217
 40
0.3478260869565217
 40
0.3478260869565217
 40
0.391304347826087
 40
0.391304347826087
 40
0.391304347826087
 40
0.391304347826087
 40
0.4347826086956522
 40
0.4347826086956522
 40
0.4347826086956522
 40
0.4347826086956522
 40
0.4782608695652174
 40
0.4782608695652174
 40
0.4782608695652174
 40
0.4782608695652174
 40
0.5217391304347826
 40
0.5217391304347826
 40
0.5217391304347826
 40
0.5217391304347826
 40
0.5652173913043478
 40
0.5652173913043478
 40
0.5652173913043478
 40
0.5652173913043478
 40
0.6086956521739131
 40
0.6086956521739131
 40
0.6086956521739131
 40
0.6086956521739131
 40
0.6521739130434783
 40
0.6521739130434783
 40
0.6521739130434783
 40
0.6521739130434783
 40
0.6956521739130435
 40
0.6956521739130435
 40
0.6956521739130435
 40
0.6956521739130435
 40
0.7391304347826086
 40
0.7391304347826086
 40
0.7391304347826086
 40
0.7391304347826086
 40
0.782608695652174
 40
0.782608695652174
 40
0.782608695652174
 40
0.782608695652174
 40
0.8260869565217391
 40
0.8260869565217391
 40
0.8260869565217391
 40
0.8260869565217391
 40
0.8695652173913043
 40
0.8695652173913043
 40
0.8695652173913043
 40
0.8695652173913043
 40
0.9130434782608695
 40
0.9130434782608695
 40
0.9130434782608695
 40
0.9130434782608695
 40
1.0
 40
1.0
 40
1.0
 40
1.0
 10
-3.30158
 20
-7.57092
 30
0.0
 10
-3.30158
 20
-7.57092
 30
0.0
 10
-3.30158
 20
-7.64204
 30
0.0
 10
-3.30158
 20
-7.64204
 30
0.0
 10
-3.30158
 20
-7.64204
 30
0.0
 10
-3.30158
 20
-7.64204
 30
0.0
 10
-3.70291
 20
-7.64204
 30
0.0
 10
-3.70291
 20
-7.64204
 30
0.0
 10
-3.70291
 20
-7.64204
 30
0.0
 10
-3.70347
 20
-7.62412
 30
0.0
 10
-3.70051
 20
-7.6069
 30
0.0
 10
-3.69416
 20
-7.59025
 30
0.0
 10
-3.69416
 20
-7.59025
 30
0.0
 10
-3.68386
 20
-7.56302
 30
0.0
 10
-3.66735
 20
-7.53607
 30
0.0
 10
-3.64463
 20
-7.50968
 30
0.0
 10
-3.64463
 20
-7.50968
 30
0.0
 10
-3.62191
 20
-7.48329
 30
0.0
 10
-3.58945
 20
-7.45281
 30
0.0
 10
-3.54726
 20
-7.41824
 30
0.0
 10
-3.54726
 20
-7.41824
 30
0.0
 10
-3.48164
 20
-7.36419
 30
0.0
 10
-3.43705
 20
-7.32143
 30
0.0
 10
-3.41377
 20
-7.28983
 30
0.0
 10
-3.41377
 20
-7.28983
 30
0.0
 10
-3.39034
 20
-7.25822
 30
0.0
 10
-3.37863
 20
-7.2283
 30
0.0
 10
-3.37863
 20
-7.20008
 30
0.0
 10
-3.37863
 20
-7.20008
 30
0.0
 10
-3.37863
 20
-7.17059
 30
0.0
 10
-3.38922
 20
-7.14575
 30
0.0
 10
-3.41038
 20
-7.12543
 30
0.0
 10
-3.41038
 20
-7.12543
 30
0.0
 10
-3.43155
 20
-7.10525
 30
0.0
 10
-3.45921
 20
-7.09509
 30
0.0
 10
-3.49321
 20
-7.09509
 30
0.0
 10
-3.49321
 20
-7.09509
 30
0.0
 10
-3.5292
 20
-7.09509
 30
0.0
 10
-3.55798
 20
-7.10582
 30
0.0
 10
-3.57957
 20
-7.12726
 30
0.0
 10
-3.57957
 20
-7.12726
 30
0.0
 10
-3.60117
 20
-7.14857
 30
0.0
 10
-3.61203
 20
-7.17821
 30
0.0
 10
-3.61231
 20
-7.21616
 30
0.0
 10
-3.61231
 20
-7.21616
 30
0.0
 10
-3.61231
 20
-7.21616
 30
0.0
 10
-3.68851
 20
-7.20854
 30
0.0
 10
-3.68851
 20
-7.20854
 30
0.0
 10
-3.68851
 20
-7.20854
 30
0.0
 10
-3.68329
 20
-7.15154
 30
0.0
 10
-3.66354
 20
-7.10807
 30
0.0
 10
-3.62939
 20
-7.07816
 30
0.0
 10
-3.62939
 20
-7.07816
 30
0.0
 10
-3.5951
 20
-7.04824
 30
0.0
 10
-3.54924
 20
-7.03328
 30
0.0
 10
-3.49152
 20
-7.03328
 30
0.0
 10
-3.49152
 20
-7.03328
 30
0.0
 10
-3.43338
 20
-7.03328
 30
0.0
 10
-3.38724
 20
-7.04937
 30
0.0
 10
-3.35337
 20
-7.08169
 30
0.0
 10
-3.35337
 20
-7.08169
 30
0.0
 10
-3.31937
 20
-7.114
 30
0.0
 10
-3.30243
 20
-7.15408
 30
0.0
 10
-3.30243
 20
-7.20177
 30
0.0
 10
-3.30243
 20
-7.20177
 30
0.0
 10
-3.30243
 20
-7.22604
 30
0.0
 10
-3.30737
 20
-7.24989
 30
0.0
 10
-3.31739
 20
-7.27332
 30
0.0
 10
-3.31739
 20
-7.27332
 30
0.0
 10
-3.32727
 20
-7.29688
 30
0.0
 10
-3.34378
 20
-7.32158
 30
0.0
 10
-3.36678
 20
-7.34754
 30
0.0
 10
-3.36678
 20
-7.34754
 30
0.0
 10
-3.38992
 20
-7.37336
 30
0.0
 10
-3.42816
 20
-7.40906
 30
0.0
 10
-3.4815
 20
-7.45422
 30
0.0
 10
-3.4815
 20
-7.45422
 30
0.0
 10
-3.52623
 20
-7.49176
 30
0.0
 10
-3.55502
 20
-7.51716
 30
0.0
 10
-3.56772
 20
-7.53056
 30
0.0
 10
-3.56772
 20
-7.53056
 30
0.0
 10
-3.58042
 20
-7.54397
 30
0.0
 10
-3.59086
 20
-7.55737
 30
0.0
 10
-3.59919
 20
-7.57092
 30
0.0
 10
-3.59919
 20
-7.57092
 30
0.0
 10
-3.59919
 20
-7.57092
 30
0.0
 10
-3.30158
 20
-7.57092
 30
0.0
 10
-3.30158
 20
-7.57092
 30
0.0
  0
SPLINE
  5
42
330
1F
100
AcDbEntity
  8
Layer 1
 62
   250
100
AcDbSpline
210
0.0
220
0.0
230
1.0
 70
    11
 71
     3
 72
    52
 73
    48
 74
     0
 42
0.0000000001
 43
0.0000000001
 12
1.0
 22
0.0
 32
0.0
 13
1.0
 23
0.0
 33
0.0
 40
0.0
 40
0.0
 40
0.0
 40
0.0
 40
0.0769230769230769
 40
0.0769230769230769
 40
0.0769230769230769
 40
0.0769230769230769
 40
0.1538461538461539
 40
0.1538461538461539
 40
0.1538461538461539
 40
0.1538461538461539
 40
0.2307692307692308
 40
0.2307692307692308
 40
0.2307692307692308
 40
0.2307692307692308
 40
0.3076923076923077
 40
0.3076923076923077
 40
0.3076923076923077
 40
0.3076923076923077
 40
0.3846153846153846
 40
0.3846153846153846
 40
0.3846153846153846
 40
0.3846153846153846
 40
0.4615384615384616
 40
0.4615384615384616
 40
0.4615384615384616
 40
0.4615384615384616
 40
0.5384615384615384
 40
0.5384615384615384
 40
0.5384615384615384
 40
0.5384615384615384
 40
0.6153846153846154
 40
0.6153846153846154
 40
0.6153846153846154
 40
0.6153846153846154
 40
0.6923076923076923
 40
0.6923076923076923
 40
0.6923076923076923
 40
0.6923076923076923
 40
0.7692307692307693
 40
0.7692307692307693
 40
0.7692307692307693
 40
0.7692307692307693
 40
0.8461538461538461
 40
0.8461538461538461
 40
0.8461538461538461
 40
0.8461538461538461
 40
1.0
 40
1.0
 40
1.0
 40
1.0
 10
-3.22101
 20
-7.34288
 30
0.0
 10
-3.22101
 20
-7.27134
 30
0.0
 10
-3.21367
 20
-7.21348
 30
0.0
 10
-3.199
 20
-7.16974
 30
0.0
 10
-3.199
 20
-7.16974
 30
0.0
 10
-3.18418
 20
-7.12585
 30
0.0
 10
-3.16231
 20
-7.09213
 30
0.0
 10
-3.13324
 20
-7.06856
 30
0.0
 10
-3.13324
 20
-7.06856
 30
0.0
 10
-3.10431
 20
-7.045
 30
0.0
 10
-3.06776
 20
-7.03328
 30
0.0
 10
-3.02374
 20
-7.03328
 30
0.0
 10
-3.02374
 20
-7.03328
 30
0.0
 10
-2.99128
 20
-7.03328
 30
0.0
 10
-2.96278
 20
-7.03978
 30
0.0
 10
-2.93808
 20
-7.0529
 30
0.0
 10
-2.93808
 20
-7.0529
 30
0.0
 10
-2.91353
 20
-7.06602
 30
0.0
 10
-2.89321
 20
-7.08493
 30
0.0
 10
-2.8774
 20
-7.10963
 30
0.0
 10
-2.8774
 20
-7.10963
 30
0.0
 10
-2.8616
 20
-7.13418
 30
0.0
 10
-2.84918
 20
-7.16424
 30
0.0
 10
-2.84015
 20
-7.19965
 30
0.0
 10
-2.84015
 20
-7.19965
 30
0.0
 10
-2.83098
 20
-7.23507
 30
0.0
 10
-2.82646
 20
-7.28291
 30
0.0
 10
-2.82646
 20
-7.34288
 30
0.0
 10
-2.82646
 20
-7.34288
 30
0.0
 10
-2.82646
 20
-7.414
 30
0.0
 10
-2.8338
 20
-7.47158
 30
0.0
 10
-2.84833
 20
-7.51532
 30
0.0
 10
-2.84833
 20
-7.51532
 30
0.0
 10
-2.86287
 20
-7.55921
 30
0.0
 10
-2.88474
 20
-7.59293
 30
0.0
 10
-2.91381
 20
-7.61664
 30
0.0
 10
-2.91381
 20
-7.61664
 30
0.0
 10
-2.94274
 20
-7.64035
 30
0.0
 10
-2.97943
 20
-7.6522
 30
0.0
 10
-3.02374
 20
-7.6522
 30
0.0
 10
-3.02374
 20
-7.6522
 30
0.0
 10
-3.08201
 20
-7.6522
 30
0.0
 10
-3.12788
 20
-7.63146
 30
0.0
 10
-3.16118
 20
-7.58983
 30
0.0
 10
-3.16118
 20
-7.58983
 30
0.0
 10
-3.20111
 20
-7.53903
 30
0.0
 10
-3.22101
 20
-7.45676
 30
0.0
 10
-3.22101
 20
-7.34288
 30
0.0
  0
SPLINE
  5
43
330
1F
100
AcDbEntity
  8
Layer 1
 62
   250
100
AcDbSpline
210
0.0
220
0.0
230
1.0
 70
    11
 71
     3
 72
    36
 73
    32
 74
     0
 42
0.0000000001
 43
0.0000000001
 12
1.0
 22
0.0
 32
0.0
 13
1.0
 23
0.0
 33
0.0
 40
0.0
 40
0.0
 40
0.0
 40
0.0
 40
0.1111111111111111
 40
0.1111111111111111
 40
0.1111111111111111
 40
0.1111111111111111
 40
0.2222222222222222
 40
0.2222222222222222
 40
0.2222222222222222
 40
0.2222222222222222
 40
0.3333333333333333
 40
0.3333333333333333
 40
0.3333333333333333
 40
0.3333333333333333
 40
0.4444444444444444
 40
0.4444444444444444
 40
0.4444444444444444
 40
0.4444444444444444
 40
0.5555555555555556
 40
0.5555555555555556
 40
0.5555555555555556
 40
0.5555555555555556
 40
0.6666666666666666
 40
0.6666666666666666
 40
0.6666666666666666
 40
0.6666666666666666
 40
0.7777777777777778
 40
0.7777777777777778
 40
0.7777777777777778
 40
0.7777777777777778
 40
1.0
 40
1.0
 40
1.0
 40
1.0
 10
-3.14481
 20
-7.34317
 30
0.0
 10
-3.14481
 20
-7.44293
 30
0.0
 10
-3.13324
 20
-7.50925
 30
0.0
 10
-3.10995
 20
-7.54199
 30
0.0
 10
-3.10995
 20
-7.54199
 30
0.0
 10
-3.08667
 20
-7.57487
 30
0.0
 10
-3.05788
 20
-7.59124
 30
0.0
 10
-3.02374
 20
-7.59124
 30
0.0
 10
-3.02374
 20
-7.59124
 30
0.0
 10
-2.98959
 20
-7.59124
 30
0.0
 10
-2.9608
 20
-7.57473
 30
0.0
 10
-2.93752
 20
-7.54185
 30
0.0
 10
-2.93752
 20
-7.54185
 30
0.0
 10
-2.91423
 20
-7.50883
 30
0.0
 10
-2.90266
 20
-7.44265
 30
0.0
 10
-2.90266
 20
-7.34317
 30
0.0
 10
-2.90266
 20
-7.34317
 30
0.0
 10
-2.90266
 20
-7.2434
 30
0.0
 10
-2.91423
 20
-7.17708
 30
0.0
 10
-2.93752
 20
-7.14434
 30
0.0
 10
-2.93752
 20
-7.14434
 30
0.0
 10
-2.96066
 20
-7.11146
 30
0.0
 10
-2.98973
 20
-7.09509
 30
0.0
 10
-3.02458
 20
-7.09509
 30
0.0
 10
-3.02458
 20
-7.09509
 30
0.0
 10
-3.05873
 20
-7.09509
 30
0.0
 10
-3.08611
 20
-7.10963
 30
0.0
 10
-3.10657
 20
-7.13855
 30
0.0
 10
-3.10657
 20
-7.13855
 30
0.0
 10
-3.13211
 20
-7.17538
 30
0.0
 10
-3.14481
 20
-7.24368
 30
0.0
 10
-3.14481
 20
-7.34317
 30
0.0
  0
SPLINE
  5
44
330
1F
100
AcDbEntity
  8
Layer 1
 62
   250
100
AcDbSpline
210
0.0
220
0.0
230
1.0
 70
    11
 71
     3
 72
   124
 73
   120
 74
     0
 42
0.0000000001
 43
0.0000000001
 12
1.0
 22
0.0
 32
0.0
 13
1.0
 23
0.0
 33
0.0
 40
0.0
 40
0.0
 40
0.0
 40
0.0
 40
0.032258064516129
 40
0.032258064516129
 40
0.032258064516129
 40
0.032258064516129
 40
0.0645161290322581
 40
0.0645161290322581
 40
0.0645161290322581
 40
0.0645161290322581
 40
0.0967741935483871
 40
0.0967741935483871
 40
0.0967741935483871
 40
0.0967741935483871
 40
0.1290322580645161
 40
0.1290322580645161
 40
0.1290322580645161
 40
0.1290322580645161
 40
0.1612903225806452
 40
0.1612903225806452
 40
0.1612903225806452
 40
0.1612903225806452
 40
0.1935483870967742
 40
0.1935483870967742
 40
0.1935483870967742
 40
0.1935483870967742
 40
0.2258064516129032
 40
0.2258064516129032
 40
0.2258064516129032
 40
0.2258064516129032
 40
0.2580645161290323
 40
0.2580645161290323
 40
0.2580645161290323
 40
0.2580645161290323
 40
0.2903225806451613
 40
0.2903225806451613
 40
0.2903225806451613
 40
0.2903225806451613
 40
0.3225806451612903
 40
0.3225806451612903
 40
0.3225806451612903
 40
0.3225806451612903
 40
0.3548387096774194
 40
0.3548387096774194
 40
0.3548387096774194
 40
0.3548387096774194
 40
0.3870967741935484
 40
0.3870967741935484
 40
0.3870967741935484
 40
0.3870967741935484
 40
0.4193548387096774
 40
0.4193548387096774
 40
0.4193548387096774
 40
0.4193548387096774
 40
0.4516129032258064
 40
0.4516129032258064
 40
0.4516129032258064
 40
0.4516129032258064
 40
0.4838709677419355
 40
0.4838709677419355
 40
0.4838709677419355
 40
0.4838709677419355
 40
0.5161290322580645
 40
0.5161290322580645
 40
0.5161290322580645
 40
0.5161290322580645
 40
0.5483870967741935
 40
0.5483870967741935
 40
0.5483870967741935
 40
0.5483870967741935
 40
0.5806451612903226
 40
0.5806451612903226
 40
0.5806451612903226
 40
0.5806451612903226
 40
0.6129032258064516
 40
0.6129032258064516
 40
0.6129032258064516
 40
0.6129032258064516
 40
0.6451612903225806
 40
0.6451612903225806
 40
0.6451612903225806
 40
0.6451612903225806
 40
0.6774193548387096
 40
0.6774193548387096
 40
0.6774193548387096
 40
0.6774193548387096
 40
0.7096774193548387
 40
0.7096774193548387
 40
0.7096774193548387
 40
0.7096774193548387
 40
0.7419354838709677
 40
0.7419354838709677
 40
0.7419354838709677
 40
0.7419354838709677
 40
0.7741935483870968
 40
0.7741935483870968
 40
0.7741935483870968
 40
0.7741935483870968
 40
0.8064516129032258
 40
0.8064516129032258
 40
0.8064516129032258
 40
0.8064516129032258
 40
0.8387096774193549
 40
0.8387096774193549
 40
0.8387096774193549
 40
0.8387096774193549
 40
0.8709677419354839
 40
0.8709677419354839
 40
0.8709677419354839
 40
0.8709677419354839
 40
0.9032258064516129
 40
0.9032258064516129
 40
0.9032258064516129
 40
0.9032258064516129
 40
0.9354838709677419
 40
0.9354838709677419
 40
0.9354838709677419
 40
0.9354838709677419
 40
1.0
 40
1.0
 40
1.0
 40
1.0
 10
-2.75012
 20
-7.48117
 30
0.0
 10
-2.75012
 20
-7.48117
 30
0.0
 10
-2.67561
 20
-7.47101
 30
0.0
 10
-2.67561
 20
-7.47101
 30
0.0
 10
-2.67561
 20
-7.47101
 30
0.0
 10
-2.66701
 20
-7.51335
 30
0.0
 10
-2.65261
 20
-7.54383
 30
0.0
 10
-2.63215
 20
-7.56245
 30
0.0
 10
-2.63215
 20
-7.56245
 30
0.0
 10
-2.61169
 20
-7.58108
 30
0.0
 10
-2.58657
 20
-7.59039
 30
0.0
 10
-2.5568
 20
-7.59039
 30
0.0
 10
-2.5568
 20
-7.59039
 30
0.0
 10
-2.52152
 20
-7.59039
 30
0.0
 10
-2.49174
 20
-7.57826
 30
0.0
 10
-2.46776
 20
-7.55399
 30
0.0
 10
-2.46776
 20
-7.55399
 30
0.0
 10
-2.44377
 20
-7.52972
 30
0.0
 10
-2.43177
 20
-7.49966
 30
0.0
 10
-2.43177
 20
-7.46382
 30
0.0
 10
-2.43177
 20
-7.46382
 30
0.0
 10
-2.43177
 20
-7.42967
 30
0.0
 10
-2.44292
 20
-7.40144
 30
0.0
 10
-2.46536
 20
-7.37915
 30
0.0
 10
-2.46536
 20
-7.37915
 30
0.0
 10
-2.48765
 20
-7.35699
 30
0.0
 10
-2.51602
 20
-7.34585
 30
0.0
 10
-2.55059
 20
-7.34585
 30
0.0
 10
-2.55059
 20
-7.34585
 30
0.0
 10
-2.5647
 20
-7.34585
 30
0.0
 10
-2.5822
 20
-7.34867
 30
0.0
 10
-2.60322
 20
-7.35417
 30
0.0
 10
-2.60322
 20
-7.35417
 30
0.0
 10
-2.60322
 20
-7.35417
 30
0.0
 10
-2.5949
 20
-7.28898
 30
0.0
 10
-2.5949
 20
-7.28898
 30
0.0
 10
-2.5949
 20
-7.28898
 30
0.0
 10
-2.58996
 20
-7.28954
 30
0.0
 10
-2.58587
 20
-7.28983
 30
0.0
 10
-2.5829
 20
-7.28983
 30
0.0
 10
-2.5829
 20
-7.28983
 30
0.0
 10
-2.55101
 20
-7.28983
 30
0.0
 10
-2.52251
 20
-7.2815
 30
0.0
 10
-2.49697
 20
-7.26499
 30
0.0
 10
-2.49697
 20
-7.26499
 30
0.0
 10
-2.47157
 20
-7.24848
 30
0.0
 10
-2.45887
 20
-7.22308
 30
0.0
 10
-2.45887
 20
-7.18879
 30
0.0
 10
-2.45887
 20
-7.18879
 30
0.0
 10
-2.45887
 20
-7.16155
 30
0.0
 10
-2.46818
 20
-7.13898
 30
0.0
 10
-2.48666
 20
-7.12106
 30
0.0
 10
-2.48666
 20
-7.12106
 30
0.0
 10
-2.50515
 20
-7.10313
 30
0.0
 10
-2.529
 20
-7.09424
 30
0.0
 10
-2.55821
 20
-7.09424
 30
0.0
 10
-2.55821
 20
-7.09424
 30
0.0
 10
-2.58728
 20
-7.09424
 30
0.0
 10
-2.61141
 20
-7.10342
 30
0.0
 10
-2.63074
 20
-7.12176
 30
0.0
 10
-2.63074
 20
-7.12176
 30
0.0
 10
-2.65007
 20
-7.14011
 30
0.0
 10
-2.66249
 20
-7.16762
 30
0.0
 10
-2.66799
 20
-7.20431
 30
0.0
 10
-2.66799
 20
-7.20431
 30
0.0
 10
-2.66799
 20
-7.20431
 30
0.0
 10
-2.7425
 20
-7.19076
 30
0.0
 10
-2.7425
 20
-7.19076
 30
0.0
 10
-2.7425
 20
-7.19076
 30
0.0
 10
-2.73333
 20
-7.14081
 30
0.0
 10
-2.71273
 20
-7.10201
 30
0.0
 10
-2.68041
 20
-7.07449
 30
0.0
 10
-2.68041
 20
-7.07449
 30
0.0
 10
-2.64824
 20
-7.04697
 30
0.0
 10
-2.60802
 20
-7.03328
 30
0.0
 10
-2.56004
 20
-7.03328
 30
0.0
 10
-2.56004
 20
-7.03328
 30
0.0
 10
-2.52702
 20
-7.03328
 30
0.0
 10
-2.49654
 20
-7.04034
 30
0.0
 10
-2.46874
 20
-7.05459
 30
0.0
 10
-2.46874
 20
-7.05459
 30
0.0
 10
-2.4408
 20
-7.0687
 30
0.0
 10
-2.4195
 20
-7.08804
 30
0.0
 10
-2.40482
 20
-7.11245
 30
0.0
 10
-2.40482
 20
-7.11245
 30
0.0
 10
-2.39
 20
-7.137
 30
0.0
 10
-2.38267
 20
-7.16297
 30
0.0
 10
-2.38267
 20
-7.19048
 30
0.0
 10
-2.38267
 20
-7.19048
 30
0.0
 10
-2.38267
 20
-7.21659
 30
0.0
 10
-2.38972
 20
-7.2403
 30
0.0
 10
-2.40369
 20
-7.26174
 30
0.0
 10
-2.40369
 20
-7.26174
 30
0.0
 10
-2.4178
 20
-7.28319
 30
0.0
 10
-2.43869
 20
-7.30027
 30
0.0
 10
-2.4662
 20
-7.31297
 30
0.0
 10
-2.4662
 20
-7.31297
 30
0.0
 10
-2.43036
 20
-7.32115
 30
0.0
 10
-2.40256
 20
-7.33837
 30
0.0
 10
-2.38267
 20
-7.36447
 30
0.0
 10
-2.38267
 20
-7.36447
 30
0.0
 10
-2.36291
 20
-7.39044
 30
0.0
 10
-2.35303
 20
-7.42318
 30
0.0
 10
-2.35303
 20
-7.46226
 30
0.0
 10
-2.35303
 20
-7.46226
 30
0.0
 10
-2.35303
 20
-7.51518
 30
0.0
 10
-2.37236
 20
-7.5602
 30
0.0
 10
-2.41089
 20
-7.59703
 30
0.0
 10
-2.41089
 20
-7.59703
 30
0.0
 10
-2.44955
 20
-7.63386
 30
0.0
 10
-2.49838
 20
-7.6522
 30
0.0
 10
-2.55736
 20
-7.6522
 30
0.0
 10
-2.55736
 20
-7.6522
 30
0.0
 10
-2.61056
 20
-7.6522
 30
0.0
 10
-2.65473
 20
-7.63625
 30
0.0
 10
-2.68987
 20
-7.6045
 30
0.0
 10
-2.68987
 20
-7.6045
 30
0.0
 10
-2.72514
 20
-7.57275
 30
0.0
 10
-2.74518
 20
-7.53169
 30
0.0
 10
-2.75012
 20
-7.48117
 30
0.0
  0
SPLINE
  5
45
330
1F
100
AcDbEntity
  8
Layer 1
 62
   250
100
AcDbSpline
210
0.0
220
0.0
230
1.0
 70
    11
 71
     3
 72
    80
 73
    76
 74
     0
 42
0.0000000001
 43
0.0000000001
 12
1.0
 22
0.0
 32
0.0
 13
1.0
 23
0.0
 33
0.0
 40
0.0
 40
0.0
 40
0.0
 40
0.0
 40
0.05
 40
0.05
 40
0.05
 40
0.05
 40
0.1
 40
0.1
 40
0.1
 40
0.1
 40
0.15
 40
0.15
 40
0.15
 40
0.15
 40
0.2
 40
0.2
 40
0.2
 40
0.2
 40
0.25
 40
0.25
 40
0.25
 40
0.25
 40
0.3
 40
0.3
 40
0.3
 40
0.3
 40
0.35
 40
0.35
 40
0.35
 40
0.35
 40
0.4
 40
0.4
 40
0.4
 40
0.4
 40
0.45
 40
0.45
 40
0.45
 40
0.45
 40
0.5
 40
0.5
 40
0.5
 40
0.5
 40
0.55
 40
0.55
 40
0.55
 40
0.55
 40
0.6
 40
0.6
 40
0.6
 40
0.6
 40
0.65
 40
0.65
 40
0.65
 40
0.65
 40
0.7
 40
0.7
 40
0.7
 40
0.7
 40
0.75
 40
0.75
 40
0.75
 40
0.75
 40
0.8
 40
0.8
 40
0.8
 40
0.8
 40
0.85
 40
0.85
 40
0.85
 40
0.85
 40
0.9
 40
0.9
 40
0.9
 40
0.9
 40
1.0
 40
1.0
 40
1.0
 40
1.0
 10
-1.8923
 20
-7.18399
 30
0.0
 10
-1.8923
 20
-7.18399
 30
0.0
 10
-1.96596
 20
-7.18992
 30
0.0
 10
-1.96596
 20
-7.18992
 30
0.0
 10
-1.96596
 20
-7.18992
 30
0.0
 10
-1.97259
 20
-7.16071
 30
0.0
 10
-1.98205
 20
-7.1394
 30
0.0
 10
-1.99433
 20
-7.12614
 30
0.0
 10
-1.99433
 20
-7.12614
 30
0.0
 10
-2.0145
 20
-7.10483
 30
0.0
 10
-2.03948
 20
-7.09424
 30
0.0
 10
-2.06911
 20
-7.09424
 30
0.0
 10
-2.06911
 20
-7.09424
 30
0.0
 10
-2.09296
 20
-7.09424
 30
0.0
 10
-2.11413
 20
-7.10088
 30
0.0
 10
-2.13233
 20
-7.11414
 30
0.0
 10
-2.13233
 20
-7.11414
 30
0.0
 10
-2.15576
 20
-7.13122
 30
0.0
 10
-2.1741
 20
-7.15605
 30
0.0
 10
-2.18779
 20
-7.18879
 30
0.0
 10
-2.18779
 20
-7.18879
 30
0.0
 10
-2.20134
 20
-7.22167
 30
0.0
 10
-2.20839
 20
-7.26838
 30
0.0
 10
-2.20896
 20
-7.32891
 30
0.0
 10
-2.20896
 20
-7.32891
 30
0.0
 10
-2.19104
 20
-7.30168
 30
0.0
 10
-2.16902
 20
-7.28136
 30
0.0
 10
-2.14306
 20
-7.26824
 30
0.0
 10
-2.14306
 20
-7.26824
 30
0.0
 10
-2.11709
 20
-7.25497
 30
0.0
 10
-2.09
 20
-7.24834
 30
0.0
 10
-2.06149
 20
-7.24834
 30
0.0
 10
-2.06149
 20
-7.24834
 30
0.0
 10
-2.01182
 20
-7.24834
 30
0.0
 10
-1.96949
 20
-7.26668
 30
0.0
 10
-1.93449
 20
-7.30323
 30
0.0
 10
-1.93449
 20
-7.30323
 30
0.0
 10
-1.89964
 20
-7.33978
 30
0.0
 10
-1.88214
 20
-7.38691
 30
0.0
 10
-1.88214
 20
-7.44491
 30
0.0
 10
-1.88214
 20
-7.44491
 30
0.0
 10
-1.88214
 20
-7.48301
 30
0.0
 10
-1.89033
 20
-7.51829
 30
0.0
 10
-1.9067
 20
-7.55102
 30
0.0
 10
-1.9067
 20
-7.55102
 30
0.0
 10
-1.92321
 20
-7.58376
 30
0.0
 10
-1.94564
 20
-7.60874
 30
0.0
 10
-1.97443
 20
-7.62609
 30
0.0
 10
-1.97443
 20
-7.62609
 30
0.0
 10
-2.00307
 20
-7.64345
 30
0.0
 10
-2.03567
 20
-7.6522
 30
0.0
 10
-2.07208
 20
-7.6522
 30
0.0
 10
-2.07208
 20
-7.6522
 30
0.0
 10
-2.13403
 20
-7.6522
 30
0.0
 10
-2.18469
 20
-7.62934
 30
0.0
 10
-2.22391
 20
-7.58376
 30
0.0
 10
-2.22391
 20
-7.58376
 30
0.0
 10
-2.263
 20
-7.53818
 30
0.0
 10
-2.28262
 20
-7.46297
 30
0.0
 10
-2.28262
 20
-7.35826
 30
0.0
 10
-2.28262
 20
-7.35826
 30
0.0
 10
-2.28262
 20
-7.24114
 30
0.0
 10
-2.26089
 20
-7.15591
 30
0.0
 10
-2.21756
 20
-7.10271
 30
0.0
 10
-2.21756
 20
-7.10271
 30
0.0
 10
-2.17975
 20
-7.05643
 30
0.0
 10
-2.1288
 20
-7.03328
 30
0.0
 10
-2.0646
 20
-7.03328
 30
0.0
 10
-2.0646
 20
-7.03328
 30
0.0
 10
-2.0169
 20
-7.03328
 30
0.0
 10
-1.97767
 20
-7.04669
 30
0.0
 10
-1.94719
 20
-7.07336
 30
0.0
 10
-1.94719
 20
-7.07336
 30
0.0
 10
-1.91671
 20
-7.10003
 30
0.0
 10
-1.89837
 20
-7.13686
 30
0.0
 10
-1.8923
 20
-7.18399
 30
0.0
  0
SPLINE
  5
46
330
1F
100
AcDbEntity
  8
Layer 1
 62
   250
100
AcDbSpline
210
0.0
220
0.0
230
1.0
 70
    11
 71
     3
 72
    40
 73
    36
 74
     0
 42
0.0000000001
 43
0.0000000001
 12
1.0
 22
0.0
 32
0.0
 13
1.0
 23
0.0
 33
0.0
 40
0.0
 40
0.0
 40
0.0
 40
0.0
 40
0.1
 40
0.1
 40
0.1
 40
0.1
 40
0.2
 40
0.2
 40
0.2
 40
0.2
 40
0.3
 40
0.3
 40
0.3
 40
0.3
 40
0.4
 40
0.4
 40
0.4
 40
0.4
 40
0.5
 40
0.5
 40
0.5
 40
0.5
 40
0.6
 40
0.6
 40
0.6
 40
0.6
 40
0.7
 40
0.7
 40
0.7
 40
0.7
 40
0.8
 40
0.8
 40
0.8
 40
0.8
 40
1.0
 40
1.0
 40
1.0
 40
1.0
 10
-2.1971
 20
-7.44561
 30
0.0
 10
-2.1971
 20
-7.47129
 30
0.0
 10
-2.1916
 20
-7.49585
 30
0.0
 10
-2.18073
 20
-7.51927
 30
0.0
 10
-2.18073
 20
-7.51927
 30
0.0
 10
-2.16987
 20
-7.5427
 30
0.0
 10
-2.15463
 20
-7.56048
 30
0.0
 10
-2.1353
 20
-7.57275
 30
0.0
 10
-2.1353
 20
-7.57275
 30
0.0
 10
-2.11582
 20
-7.58503
 30
0.0
 10
-2.09522
 20
-7.59124
 30
0.0
 10
-2.07335
 20
-7.59124
 30
0.0
 10
-2.07335
 20
-7.59124
 30
0.0
 10
-2.0416
 20
-7.59124
 30
0.0
 10
-2.0145
 20
-7.57854
 30
0.0
 10
-1.99207
 20
-7.55314
 30
0.0
 10
-1.99207
 20
-7.55314
 30
0.0
 10
-1.96963
 20
-7.52774
 30
0.0
 10
-1.95834
 20
-7.49331
 30
0.0
 10
-1.95834
 20
-7.4497
 30
0.0
 10
-1.95834
 20
-7.4497
 30
0.0
 10
-1.95834
 20
-7.40779
 30
0.0
 10
-1.96949
 20
-7.37477
 30
0.0
 10
-1.99164
 20
-7.35064
 30
0.0
 10
-1.99164
 20
-7.35064
 30
0.0
 10
-2.0138
 20
-7.32651
 30
0.0
 10
-2.04202
 20
-7.31438
 30
0.0
 10
-2.07631
 20
-7.31438
 30
0.0
 10
-2.07631
 20
-7.31438
 30
0.0
 10
-2.1099
 20
-7.31438
 30
0.0
 10
-2.13854
 20
-7.32651
 30
0.0
 10
-2.16197
 20
-7.35064
 30
0.0
 10
-2.16197
 20
-7.35064
 30
0.0
 10
-2.18539
 20
-7.37477
 30
0.0
 10
-2.1971
 20
-7.40638
 30
0.0
 10
-2.1971
 20
-7.44561
 30
0.0
  0
SPLINE
  5
47
330
1F
100
AcDbEntity
  8
Layer 1
 62
   250
100
AcDbSpline
210
0.0
220
0.0
230
1.0
 70
    11
 71
     3
 72
    92
 73
    88
 74
     0
 42
0.0000000001
 43
0.0000000001
 12
1.0
 22
0.0
 32
0.0
 13
1.0
 23
0.0
 33
0.0
 40
0.0
 40
0.0
 40
0.0
 40
0.0
 40
0.0434782608695652
 40
0.0434782608695652
 40
0.0434782608695652
 40
0.0434782608695652
 40
0.0869565217391304
 40
0.0869565217391304
 40
0.0869565217391304
 40
0.0869565217391304
 40
0.1304347826086956
 40
0.1304347826086956
 40
0.1304347826086956
 40
0.1304347826086956
 40
0.1739130434782609
 40
0.1739130434782609
 40
0.1739130434782609
 40
0.1739130434782609
 40
0.2173913043478261
 40
0.2173913043478261
 40
0.2173913043478261
 40
0.2173913043478261
 40
0.2608695652173913
 40
0.2608695652173913
 40
0.2608695652173913
 40
0.2608695652173913
 40
0.3043478260869565
 40
0.3043478260869565
 40
0.3043478260869565
 40
0.3043478260869565
 40
0.3478260869565217
 40
0.3478260869565217
 40
0.3478260869565217
 40
0.3478260869565217
 40
0.391304347826087
 40
0.391304347826087
 40
0.391304347826087
 40
0.391304347826087
 40
0.4347826086956522
 40
0.4347826086956522
 40
0.4347826086956522
 40
0.4347826086956522
 40
0.4782608695652174
 40
0.4782608695652174
 40
0.4782608695652174
 40
0.4782608695652174
 40
0.5217391304347826
 40
0.5217391304347826
 40
0.5217391304347826
 40
0.5217391304347826
 40
0.5652173913043478
 40
0.5652173913043478
 40
0.5652173913043478
 40
0.5652173913043478
 40
0.6086956521739131
 40
0.6086956521739131
 40
0.6086956521739131
 40
0.6086956521739131
 40
0.6521739130434783
 40
0.6521739130434783
 40
0.6521739130434783
 40
0.6521739130434783
 40
0.6956521739130435
 40
0.6956521739130435
 40
0.6956521739130435
 40
0.6956521739130435
 40
0.7391304347826086
 40
0.7391304347826086
 40
0.7391304347826086
 40
0.7391304347826086
 40
0.782608695652174
 40
0.782608695652174
 40
0.782608695652174
 40
0.782608695652174
 40
0.8260869565217391
 40
0.8260869565217391
 40
0.8260869565217391
 40
0.8260869565217391
 40
0.8695652173913043
 40
0.8695652173913043
 40
0.8695652173913043
 40
0.8695652173913043
 40
0.9130434782608695
 40
0.9130434782608695
 40
0.9130434782608695
 40
0.9130434782608695
 40
1.0
 40
1.0
 40
1.0
 40
1.0
 10
-1.41802
 20
-7.57092
 30
0.0
 10
-1.41802
 20
-7.57092
 30
0.0
 10
-1.41802
 20
-7.64204
 30
0.0
 10
-1.41802
 20
-7.64204
 30
0.0
 10
-1.41802
 20
-7.64204
 30
0.0
 10
-1.41802
 20
-7.64204
 30
0.0
 10
-1.81935
 20
-7.64204
 30
0.0
 10
-1.81935
 20
-7.64204
 30
0.0
 10
-1.81935
 20
-7.64204
 30
0.0
 10
-1.81991
 20
-7.62412
 30
0.0
 10
-1.81695
 20
-7.6069
 30
0.0
 10
-1.8106
 20
-7.59025
 30
0.0
 10
-1.8106
 20
-7.59025
 30
0.0
 10
-1.8003
 20
-7.56302
 30
0.0
 10
-1.78379
 20
-7.53607
 30
0.0
 10
-1.76107
 20
-7.50968
 30
0.0
 10
-1.76107
 20
-7.50968
 30
0.0
 10
-1.73835
 20
-7.48329
 30
0.0
 10
-1.70589
 20
-7.45281
 30
0.0
 10
-1.6637
 20
-7.41824
 30
0.0
 10
-1.6637
 20
-7.41824
 30
0.0
 10
-1.59808
 20
-7.36419
 30
0.0
 10
-1.55349
 20
-7.32143
 30
0.0
 10
-1.53021
 20
-7.28983
 30
0.0
 10
-1.53021
 20
-7.28983
 30
0.0
 10
-1.50678
 20
-7.25822
 30
0.0
 10
-1.49507
 20
-7.2283
 30
0.0
 10
-1.49507
 20
-7.20008
 30
0.0
 10
-1.49507
 20
-7.20008
 30
0.0
 10
-1.49507
 20
-7.17059
 30
0.0
 10
-1.50566
 20
-7.14575
 30
0.0
 10
-1.52682
 20
-7.12543
 30
0.0
 10
-1.52682
 20
-7.12543
 30
0.0
 10
-1.54799
 20
-7.10525
 30
0.0
 10
-1.57565
 20
-7.09509
 30
0.0
 10
-1.60965
 20
-7.09509
 30
0.0
 10
-1.60965
 20
-7.09509
 30
0.0
 10
-1.64564
 20
-7.09509
 30
0.0
 10
-1.67442
 20
-7.10582
 30
0.0
 10
-1.69601
 20
-7.12726
 30
0.0
 10
-1.69601
 20
-7.12726
 30
0.0
 10
-1.71761
 20
-7.14857
 30
0.0
 10
-1.72847
 20
-7.17821
 30
0.0
 10
-1.72875
 20
-7.21616
 30
0.0
 10
-1.72875
 20
-7.21616
 30
0.0
 10
-1.72875
 20
-7.21616
 30
0.0
 10
-1.80495
 20
-7.20854
 30
0.0
 10
-1.80495
 20
-7.20854
 30
0.0
 10
-1.80495
 20
-7.20854
 30
0.0
 10
-1.79973
 20
-7.15154
 30
0.0
 10
-1.77998
 20
-7.10807
 30
0.0
 10
-1.74583
 20
-7.07816
 30
0.0
 10
-1.74583
 20
-7.07816
 30
0.0
 10
-1.71154
 20
-7.04824
 30
0.0
 10
-1.66568
 20
-7.03328
 30
0.0
 10
-1.60796
 20
-7.03328
 30
0.0
 10
-1.60796
 20
-7.03328
 30
0.0
 10
-1.54982
 20
-7.03328
 30
0.0
 10
-1.50368
 20
-7.04937
 30
0.0
 10
-1.46981
 20
-7.08169
 30
0.0
 10
-1.46981
 20
-7.08169
 30
0.0
 10
-1.43581
 20
-7.114
 30
0.0
 10
-1.41887
 20
-7.15408
 30
0.0
 10
-1.41887
 20
-7.20177
 30
0.0
 10
-1.41887
 20
-7.20177
 30
0.0
 10
-1.41887
 20
-7.22604
 30
0.0
 10
-1.42381
 20
-7.24989
 30
0.0
 10
-1.43383
 20
-7.27332
 30
0.0
 10
-1.43383
 20
-7.27332
 30
0.0
 10
-1.44371
 20
-7.29688
 30
0.0
 10
-1.46022
 20
-7.32158
 30
0.0
 10
-1.48322
 20
-7.34754
 30
0.0
 10
-1.48322
 20
-7.34754
 30
0.0
 10
-1.50636
 20
-7.37336
 30
0.0
 10
-1.5446
 20
-7.40906
 30
0.0
 10
-1.59794
 20
-7.45422
 30
0.0
 10
-1.59794
 20
-7.45422
 30
0.0
 10
-1.64267
 20
-7.49176
 30
0.0
 10
-1.67146
 20
-7.51716
 30
0.0
 10
-1.68416
 20
-7.53056
 30
0.0
 10
-1.68416
 20
-7.53056
 30
0.0
 10
-1.69686
 20
-7.54397
 30
0.0
 10
-1.7073
 20
-7.55737
 30
0.0
 10
-1.71563
 20
-7.57092
 30
0.0
 10
-1.71563
 20
-7.57092
 30
0.0
 10
-1.71563
 20
-7.57092
 30
0.0
 10
-1.41802
 20
-7.57092
 30
0.0
 10
-1.41802
 20
-7.57092
 30
0.0
  0
SPLINE
  5
48
330
1F
100
AcDbEntity
  8
Layer 1
 62
   250
100
AcDbSpline
210
0.0
220
0.0
230
1.0
 70
    11
 71
     3
 72
    48
 73
    44
 74
     0
 42
0.0000000001
 43
0.0000000001
 12
1.0
 22
0.0
 32
0.0
 13
1.0
 23
0.0
 33
0.0
 40
0.0
 40
0.0
 40
0.0
 40
0.0
 40
0.0833333333333333
 40
0.0833333333333333
 40
0.0833333333333333
 40
0.0833333333333333
 40
0.1666666666666667
 40
0.1666666666666667
 40
0.1666666666666667
 40
0.1666666666666667
 40
0.25
 40
0.25
 40
0.25
 40
0.25
 40
0.3333333333333333
 40
0.3333333333333333
 40
0.3333333333333333
 40
0.3333333333333333
 40
0.4166666666666667
 40
0.4166666666666667
 40
0.4166666666666667
 40
0.4166666666666667
 40
0.5
 40
0.5
 40
0.5
 40
0.5
 40
0.5833333333333334
 40
0.5833333333333334
 40
0.5833333333333334
 40
0.5833333333333334
 40
0.6666666666666666
 40
0.6666666666666666
 40
0.6666666666666666
 40
0.6666666666666666
 40
0.75
 40
0.75
 40
0.75
 40
0.75
 40
0.8333333333333334
 40
0.8333333333333334
 40
0.8333333333333334
 40
0.8333333333333334
 40
1.0
 40
1.0
 40
1.0
 40
1.0
 10
-1.09954
 20
-7.64204
 30
0.0
 10
-1.09954
 20
-7.64204
 30
0.0
 10
-1.09954
 20
-7.49726
 30
0.0
 10
-1.09954
 20
-7.49726
 30
0.0
 10
-1.09954
 20
-7.49726
 30
0.0
 10
-1.09954
 20
-7.49726
 30
0.0
 10
-1.36285
 20
-7.49726
 30
0.0
 10
-1.36285
 20
-7.49726
 30
0.0
 10
-1.36285
 20
-7.49726
 30
0.0
 10
-1.36285
 20
-7.49726
 30
0.0
 10
-1.36285
 20
-7.42868
 30
0.0
 10
-1.36285
 20
-7.42868
 30
0.0
 10
-1.36285
 20
-7.42868
 30
0.0
 10
-1.36285
 20
-7.42868
 30
0.0
 10
-1.08599
 20
-7.03582
 30
0.0
 10
-1.08599
 20
-7.03582
 30
0.0
 10
-1.08599
 20
-7.03582
 30
0.0
 10
-1.08599
 20
-7.03582
 30
0.0
 10
-1.02503
 20
-7.03582
 30
0.0
 10
-1.02503
 20
-7.03582
 30
0.0
 10
-1.02503
 20
-7.03582
 30
0.0
 10
-1.02503
 20
-7.03582
 30
0.0
 10
-1.02503
 20
-7.42868
 30
0.0
 10
-1.02503
 20
-7.42868
 30
0.0
 10
-1.02503
 20
-7.42868
 30
0.0
 10
-1.02503
 20
-7.42868
 30
0.0
 10
-0.9429
 20
-7.42868
 30
0.0
 10
-0.9429
 20
-7.42868
 30
0.0
 10
-0.9429
 20
-7.42868
 30
0.0
 10
-0.9429
 20
-7.42868
 30
0.0
 10
-0.9429
 20
-7.49726
 30
0.0
 10
-0.9429
 20
-7.49726
 30
0.0
 10
-0.9429
 20
-7.49726
 30
0.0
 10
-0.9429
 20
-7.49726
 30
0.0
 10
-1.02503
 20
-7.49726
 30
0.0
 10
-1.02503
 20
-7.49726
 30
0.0
 10
-1.02503
 20
-7.49726
 30
0.0
 10
-1.02503
 20
-7.49726
 30
0.0
 10
-1.02503
 20
-7.64204
 30
0.0
 10
-1.02503
 20
-7.64204
 30
0.0
 10
-1.02503
 20
-7.64204
 30
0.0
 10
-1.02503
 20
-7.64204
 30
0.0
 10
-1.09954
 20
-7.64204
 30
0.0
 10
-1.09954
 20
-7.64204
 30
0.0
  0
SPLINE
  5
49
330
1F
100
AcDbEntity
  8
Layer 1
 62
   250
100
AcDbSpline
210
0.0
220
0.0
230
1.0
 70
    11
 71
     3
 72
    16
 73
    12
 74
     0
 42
0.0000000001
 43
0.0000000001
 12
1.0
 22
0.0
 32
0.0
 13
1.0
 23
0.0
 33
0.0
 40
0.0
 40
0.0
 40
0.0
 40
0.0
 40
0.25
 40
0.25
 40
0.25
 40
0.25
 40
0.5
 40
0.5
 40
0.5
 40
0.5
 40
1.0
 40
1.0
 40
1.0
 40
1.0
 10
-1.09954
 20
-7.42868
 30
0.0
 10
-1.09954
 20
-7.42868
 30
0.0
 10
-1.09954
 20
-7.15591
 30
0.0
 10
-1.09954
 20
-7.15591
 30
0.0
 10
-1.09954
 20
-7.15591
 30
0.0
 10
-1.09954
 20
-7.15591
 30
0.0
 10
-1.28961
 20
-7.42868
 30
0.0
 10
-1.28961
 20
-7.42868
 30
0.0
 10
-1.28961
 20
-7.42868
 30
0.0
 10
-1.28961
 20
-7.42868
 30
0.0
 10
-1.09954
 20
-7.42868
 30
0.0
 10
-1.09954
 20
-7.42868
 30
0.0
  0
SPLINE
  5
4A
330
1F
100
AcDbEntity
  8
Layer 1
 62
   250
100
AcDbSpline
210
0.0
220
0.0
230
1.0
 70
    11
 71
     3
 72
    80
 73
    76
 74
     0
 42
0.0000000001
 43
0.0000000001
 12
1.0
 22
0.0
 32
0.0
 13
1.0
 23
0.0
 33
0.0
 40
0.0
 40
0.0
 40
0.0
 40
0.0
 40
0.05
 40
0.05
 40
0.05
 40
0.05
 40
0.1
 40
0.1
 40
0.1
 40
0.1
 40
0.15
 40
0.15
 40
0.15
 40
0.15
 40
0.2
 40
0.2
 40
0.2
 40
0.2
 40
0.25
 40
0.25
 40
0.25
 40
0.25
 40
0.3
 40
0.3
 40
0.3
 40
0.3
 40
0.35
 40
0.35
 40
0.35
 40
0.35
 40
0.4
 40
0.4
 40
0.4
 40
0.4
 40
0.45
 40
0.45
 40
0.45
 40
0.45
 40
0.5
 40
0.5
 40
0.5
 40
0.5
 40
0.55
 40
0.55
 40
0.55
 40
0.55
 40
0.6
 40
0.6
 40
0.6
 40
0.6
 40
0.65
 40
0.65
 40
0.65
 40
0.65
 40
0.7
 40
0.7
 40
0.7
 40
0.7
 40
0.75
 40
0.75
 40
0.75
 40
0.75
 40
0.8
 40
0.8
 40
0.8
 40
0.8
 40
0.85
 40
0.85
 40
0.85
 40
0.85
 40
0.9
 40
0.9
 40
0.9
 40
0.9
 40
1.0
 40
1.0
 40
1.0
 40
1.0
 10
-0.83523
 20
-7.64204
 30
0.0
 10
-0.83523
 20
-7.64204
 30
0.0
 10
-0.83523
 20
-7.03582
 30
0.0
 10
-0.83523
 20
-7.03582
 30
0.0
 10
-0.83523
 20
-7.03582
 30
0.0
 10
-0.83523
 20
-7.03582
 30
0.0
 10
-0.56656
 20
-7.03582
 30
0.0
 10
-0.56656
 20
-7.03582
 30
0.0
 10
-0.56656
 20
-7.03582
 30
0.0
 10
-0.51251
 20
-7.03582
 30
0.0
 10
-0.47145
 20
-7.04133
 30
0.0
 10
-0.44337
 20
-7.05219
 30
0.0
 10
-0.44337
 20
-7.05219
 30
0.0
 10
-0.41528
 20
-7.06306
 30
0.0
 10
-0.39285
 20
-7.08225
 30
0.0
 10
-0.37606
 20
-7.10977
 30
0.0
 10
-0.37606
 20
-7.10977
 30
0.0
 10
-0.35926
 20
-7.13728
 30
0.0
 10
-0.35094
 20
-7.16776
 30
0.0
 10
-0.35094
 20
-7.20107
 30
0.0
 10
-0.35094
 20
-7.20107
 30
0.0
 10
-0.35094
 20
-7.24411
 30
0.0
 10
-0.36491
 20
-7.28037
 30
0.0
 10
-0.39271
 20
-7.30986
 30
0.0
 10
-0.39271
 20
-7.30986
 30
0.0
 10
-0.42051
 20
-7.33936
 30
0.0
 10
-0.4634
 20
-7.35798
 30
0.0
 10
-0.52154
 20
-7.36603
 30
0.0
 10
-0.52154
 20
-7.36603
 30
0.0
 10
-0.50023
 20
-7.37619
 30
0.0
 10
-0.48415
 20
-7.38635
 30
0.0
 10
-0.47314
 20
-7.39622
 30
0.0
 10
-0.47314
 20
-7.39622
 30
0.0
 10
-0.44972
 20
-7.41767
 30
0.0
 10
-0.42756
 20
-7.44462
 30
0.0
 10
-0.40682
 20
-7.47694
 30
0.0
 10
-0.40682
 20
-7.47694
 30
0.0
 10
-0.40682
 20
-7.47694
 30
0.0
 10
-0.30197
 20
-7.64204
 30
0.0
 10
-0.30197
 20
-7.64204
 30
0.0
 10
-0.30197
 20
-7.64204
 30
0.0
 10
-0.30197
 20
-7.64204
 30
0.0
 10
-0.40216
 20
-7.64204
 30
0.0
 10
-0.40216
 20
-7.64204
 30
0.0
 10
-0.40216
 20
-7.64204
 30
0.0
 10
-0.40216
 20
-7.64204
 30
0.0
 10
-0.48231
 20
-7.51589
 30
0.0
 10
-0.48231
 20
-7.51589
 30
0.0
 10
-0.48231
 20
-7.51589
 30
0.0
 10
-0.5056
 20
-7.47934
 30
0.0
 10
-0.52493
 20
-7.45154
 30
0.0
 10
-0.54003
 20
-7.43221
 30
0.0
 10
-0.54003
 20
-7.43221
 30
0.0
 10
-0.55527
 20
-7.41287
 30
0.0
 10
-0.56881
 20
-7.39947
 30
0.0
 10
-0.58081
 20
-7.39171
 30
0.0
 10
-0.58081
 20
-7.39171
 30
0.0
 10
-0.59266
 20
-7.38409
 30
0.0
 10
-0.60494
 20
-7.37873
 30
0.0
 10
-0.61736
 20
-7.37562
 30
0.0
 10
-0.61736
 20
-7.37562
 30
0.0
 10
-0.62639
 20
-7.37379
 30
0.0
 10
-0.6412
 20
-7.3728
 30
0.0
 10
-0.66195
 20
-7.3728
 30
0.0
 10
-0.66195
 20
-7.3728
 30
0.0
 10
-0.66195
 20
-7.3728
 30
0.0
 10
-0.7548
 20
-7.3728
 30
0.0
 10
-0.7548
 20
-7.3728
 30
0.0
 10
-0.7548
 20
-7.3728
 30
0.0
 10
-0.7548
 20
-7.3728
 30
0.0
 10
-0.7548
 20
-7.64204
 30
0.0
 10
-0.7548
 20
-7.64204
 30
0.0
 10
-0.7548
 20
-7.64204
 30
0.0
 10
-0.7548
 20
-7.64204
 30
0.0
 10
-0.83523
 20
-7.64204
 30
0.0
 10
-0.83523
 20
-7.64204
 30
0.0
  0
SPLINE
  5
4B
330
1F
100
AcDbEntity
  8
Layer 1
 62
   250
100
AcDbSpline
210
0.0
220
0.0
230
1.0
 70
    11
 71
     3
 72
    36
 73
    32
 74
     0
 42
0.0000000001
 43
0.0000000001
 12
1.0
 22
0.0
 32
0.0
 13
1.0
 23
0.0
 33
0.0
 40
0.0
 40
0.0
 40
0.0
 40
0.0
 40
0.1111111111111111
 40
0.1111111111111111
 40
0.1111111111111111
 40
0.1111111111111111
 40
0.2222222222222222
 40
0.2222222222222222
 40
0.2222222222222222
 40
0.2222222222222222
 40
0.3333333333333333
 40
0.3333333333333333
 40
0.3333333333333333
 40
0.3333333333333333
 40
0.4444444444444444
 40
0.4444444444444444
 40
0.4444444444444444
 40
0.4444444444444444
 40
0.5555555555555556
 40
0.5555555555555556
 40
0.5555555555555556
 40
0.5555555555555556
 40
0.6666666666666666
 40
0.6666666666666666
 40
0.6666666666666666
 40
0.6666666666666666
 40
0.7777777777777778
 40
0.7777777777777778
 40
0.7777777777777778
 40
0.7777777777777778
 40
1.0
 40
1.0
 40
1.0
 40
1.0
 10
-0.7548
 20
-7.30337
 30
0.0
 10
-0.7548
 20
-7.30337
 30
0.0
 10
-0.58264
 20
-7.30337
 30
0.0
 10
-0.58264
 20
-7.30337
 30
0.0
 10
-0.58264
 20
-7.30337
 30
0.0
 10
-0.54595
 20
-7.30337
 30
0.0
 10
-0.51745
 20
-7.29956
 30
0.0
 10
-0.49685
 20
-7.29194
 30
0.0
 10
-0.49685
 20
-7.29194
 30
0.0
 10
-0.47624
 20
-7.28446
 30
0.0
 10
-0.46058
 20
-7.27233
 30
0.0
 10
-0.45
 20
-7.25554
 30
0.0
 10
-0.45
 20
-7.25554
 30
0.0
 10
-0.43927
 20
-7.23888
 30
0.0
 10
-0.43391
 20
-7.22082
 30
0.0
 10
-0.43391
 20
-7.20121
 30
0.0
 10
-0.43391
 20
-7.20121
 30
0.0
 10
-0.43391
 20
-7.17256
 30
0.0
 10
-0.44421
 20
-7.14885
 30
0.0
 10
-0.46496
 20
-7.13037
 30
0.0
 10
-0.46496
 20
-7.13037
 30
0.0
 10
-0.4857
 20
-7.11188
 30
0.0
 10
-0.51844
 20
-7.10271
 30
0.0
 10
-0.56317
 20
-7.10271
 30
0.0
 10
-0.56317
 20
-7.10271
 30
0.0
 10
-0.56317
 20
-7.10271
 30
0.0
 10
-0.7548
 20
-7.10271
 30
0.0
 10
-0.7548
 20
-7.10271
 30
0.0
 10
-0.7548
 20
-7.10271
 30
0.0
 10
-0.7548
 20
-7.10271
 30
0.0
 10
-0.7548
 20
-7.30337
 30
0.0
 10
-0.7548
 20
-7.30337
 30
0.0
  0
SPLINE
  5
4C
330
1F
100
AcDbEntity
  8
Layer 1
 62
   250
100
AcDbSpline
210
0.0
220
0.0
230
1.0
 70
    11
 71
     3
 72
    36
 73
    32
 74
     0
 42
0.0000000001
 43
0.0000000001
 12
1.0
 22
0.0
 32
0.0
 13
1.0
 23
0.0
 33
0.0
 40
0.0
 40
0.0
 40
0.0
 40
0.0
 40
0.1111111111111111
 40
0.1111111111111111
 40
0.1111111111111111
 40
0.1111111111111111
 40
0.2222222222222222
 40
0.2222222222222222
 40
0.2222222222222222
 40
0.2222222222222222
 40
0.3333333333333333
 40
0.3333333333333333
 40
0.3333333333333333
 40
0.3333333333333333
 40
0.4444444444444444
 40
0.4444444444444444
 40
0.4444444444444444
 40
0.4444444444444444
 40
0.5555555555555556
 40
0.5555555555555556
 40
0.5555555555555556
 40
0.5555555555555556
 40
0.6666666666666666
 40
0.6666666666666666
 40
0.6666666666666666
 40
0.6666666666666666
 40
0.7777777777777778
 40
0.7777777777777778
 40
0.7777777777777778
 40
0.7777777777777778
 40
1.0
 40
1.0
 40
1.0
 40
1.0
 10
0.1486
 20
-7.64204
 30
0.0
 10
0.1486
 20
-7.64204
 30
0.0
 10
0.1486
 20
-7.10694
 30
0.0
 10
0.1486
 20
-7.10694
 30
0.0
 10
0.1486
 20
-7.10694
 30
0.0
 10
0.1486
 20
-7.10694
 30
0.0
 10
-0.05122
 20
-7.10694
 30
0.0
 10
-0.05122
 20
-7.10694
 30
0.0
 10
-0.05122
 20
-7.10694
 30
0.0
 10
-0.05122
 20
-7.10694
 30
0.0
 10
-0.05122
 20
-7.03582
 30
0.0
 10
-0.05122
 20
-7.03582
 30
0.0
 10
-0.05122
 20
-7.03582
 30
0.0
 10
-0.05122
 20
-7.03582
 30
0.0
 10
0.42885
 20
-7.03582
 30
0.0
 10
0.42885
 20
-7.03582
 30
0.0
 10
0.42885
 20
-7.03582
 30
0.0
 10
0.42885
 20
-7.03582
 30
0.0
 10
0.42885
 20
-7.10694
 30
0.0
 10
0.42885
 20
-7.10694
 30
0.0
 10
0.42885
 20
-7.10694
 30
0.0
 10
0.42885
 20
-7.10694
 30
0.0
 10
0.22903
 20
-7.10694
 30
0.0
 10
0.22903
 20
-7.10694
 30
0.0
 10
0.22903
 20
-7.10694
 30
0.0
 10
0.22903
 20
-7.10694
 30
0.0
 10
0.22903
 20
-7.64204
 30
0.0
 10
0.22903
 20
-7.64204
 30
0.0
 10
0.22903
 20
-7.64204
 30
0.0
 10
0.22903
 20
-7.64204
 30
0.0
 10
0.1486
 20
-7.64204
 30
0.0
 10
0.1486
 20
-7.64204
 30
0.0
  0
SPLINE
  5
4D
330
1F
100
AcDbEntity
  8
Layer 1
 62
   250
100
AcDbSpline
210
0.0
220
0.0
230
1.0
 70
    11
 71
     3
 72
    52
 73
    48
 74
     0
 42
0.0000000001
 43
0.0000000001
 12
1.0
 22
0.0
 32
0.0
 13
1.0
 23
0.0
 33
0.0
 40
0.0
 40
0.0
 40
0.0
 40
0.0
 40
0.0769230769230769
 40
0.0769230769230769
 40
0.0769230769230769
 40
0.0769230769230769
 40
0.1538461538461539
 40
0.1538461538461539
 40
0.1538461538461539
 40
0.1538461538461539
 40
0.2307692307692308
 40
0.2307692307692308
 40
0.2307692307692308
 40
0.2307692307692308
 40
0.3076923076923077
 40
0.3076923076923077
 40
0.3076923076923077
 40
0.3076923076923077
 40
0.3846153846153846
 40
0.3846153846153846
 40
0.3846153846153846
 40
0.3846153846153846
 40
0.4615384615384616
 40
0.4615384615384616
 40
0.4615384615384616
 40
0.4615384615384616
 40
0.5384615384615384
 40
0.5384615384615384
 40
0.5384615384615384
 40
0.5384615384615384
 40
0.6153846153846154
 40
0.6153846153846154
 40
0.6153846153846154
 40
0.6153846153846154
 40
0.6923076923076923
 40
0.6923076923076923
 40
0.6923076923076923
 40
0.6923076923076923
 40
0.7692307692307693
 40
0.7692307692307693
 40
0.7692307692307693
 40
0.7692307692307693
 40
0.8461538461538461
 40
0.8461538461538461
 40
0.8461538461538461
 40
0.8461538461538461
 40
1.0
 40
1.0
 40
1.0
 40
1.0
 10
0.51337
 20
-7.64204
 30
0.0
 10
0.51337
 20
-7.64204
 30
0.0
 10
0.51337
 20
-7.03582
 30
0.0
 10
0.51337
 20
-7.03582
 30
0.0
 10
0.51337
 20
-7.03582
 30
0.0
 10
0.51337
 20
-7.03582
 30
0.0
 10
0.9511
 20
-7.03582
 30
0.0
 10
0.9511
 20
-7.03582
 30
0.0
 10
0.9511
 20
-7.03582
 30
0.0
 10
0.9511
 20
-7.03582
 30
0.0
 10
0.9511
 20
-7.10694
 30
0.0
 10
0.9511
 20
-7.10694
 30
0.0
 10
0.9511
 20
-7.10694
 30
0.0
 10
0.9511
 20
-7.10694
 30
0.0
 10
0.5938
 20
-7.10694
 30
0.0
 10
0.5938
 20
-7.10694
 30
0.0
 10
0.5938
 20
-7.10694
 30
0.0
 10
0.5938
 20
-7.10694
 30
0.0
 10
0.5938
 20
-7.29321
 30
0.0
 10
0.5938
 20
-7.29321
 30
0.0
 10
0.5938
 20
-7.29321
 30
0.0
 10
0.5938
 20
-7.29321
 30
0.0
 10
0.92824
 20
-7.29321
 30
0.0
 10
0.92824
 20
-7.29321
 30
0.0
 10
0.92824
 20
-7.29321
 30
0.0
 10
0.92824
 20
-7.29321
 30
0.0
 10
0.92824
 20
-7.36433
 30
0.0
 10
0.92824
 20
-7.36433
 30
0.0
 10
0.92824
 20
-7.36433
 30
0.0
 10
0.92824
 20
-7.36433
 30
0.0
 10
0.5938
 20
-7.36433
 30
0.0
 10
0.5938
 20
-7.36433
 30
0.0
 10
0.5938
 20
-7.36433
 30
0.0
 10
0.5938
 20
-7.36433
 30
0.0
 10
0.5938
 20
-7.57092
 30
0.0
 10
0.5938
 20
-7.57092
 30
0.0
 10
0.5938
 20
-7.57092
 30
0.0
 10
0.5938
 20
-7.57092
 30
0.0
 10
0.96549
 20
-7.57092
 30
0.0
 10
0.96549
 20
-7.57092
 30
0.0
 10
0.96549
 20
-7.57092
 30
0.0
 10
0.96549
 20
-7.57092
 30
0.0
 10
0.96549
 20
-7.64204
 30
0.0
 10
0.96549
 20
-7.64204
 30
0.0
 10
0.96549
 20
-7.64204
 30
0.0
 10
0.96549
 20
-7.64204
 30
0.0
 10
0.51337
 20
-7.64204
 30
0.0
 10
0.51337
 20
-7.64204
 30
0.0
  0
SPLINE
  5
4E
330
1F
100
AcDbEntity
  8
Layer 1
 62
   250
100
AcDbSpline
210
0.0
220
0.0
230
1.0
 70
    11
 71
     3
 72
    64
 73
    60
 74
     0
 42
0.0000000001
 43
0.0000000001
 12
1.0
 22
0.0
 32
0.0
 13
1.0
 23
0.0
 33
0.0
 40
0.0
 40
0.0
 40
0.0
 40
0.0
 40
0.0625
 40
0.0625
 40
0.0625
 40
0.0625
 40
0.125
 40
0.125
 40
0.125
 40
0.125
 40
0.1875
 40
0.1875
 40
0.1875
 40
0.1875
 40
0.25
 40
0.25
 40
0.25
 40
0.25
 40
0.3125
 40
0.3125
 40
0.3125
 40
0.3125
 40
0.375
 40
0.375
 40
0.375
 40
0.375
 40
0.4375
 40
0.4375
 40
0.4375
 40
0.4375
 40
0.5
 40
0.5
 40
0.5
 40
0.5
 40
0.5625
 40
0.5625
 40
0.5625
 40
0.5625
 40
0.625
 40
0.625
 40
0.625
 40
0.625
 40
0.6875
 40
0.6875
 40
0.6875
 40
0.6875
 40
0.75
 40
0.75
 40
0.75
 40
0.75
 40
0.8125
 40
0.8125
 40
0.8125
 40
0.8125
 40
0.875
 40
0.875
 40
0.875
 40
0.875
 40
1.0
 40
1.0
 40
1.0
 40
1.0
 10
1.07471
 20
-7.64204
 30
0.0
 10
1.07471
 20
-7.64204
 30
0.0
 10
1.07471
 20
-7.03582
 30
0.0
 10
1.07471
 20
-7.03582
 30
0.0
 10
1.07471
 20
-7.03582
 30
0.0
 10
1.07471
 20
-7.03582
 30
0.0
 10
1.19494
 20
-7.03582
 30
0.0
 10
1.19494
 20
-7.03582
 30
0.0
 10
1.19494
 20
-7.03582
 30
0.0
 10
1.19494
 20
-7.03582
 30
0.0
 10
1.33831
 20
-7.46494
 30
0.0
 10
1.33831
 20
-7.46494
 30
0.0
 10
1.33831
 20
-7.46494
 30
0.0
 10
1.35157
 20
-7.50488
 30
0.0
 10
1.36117
 20
-7.5348
 30
0.0
 10
1.36723
 20
-7.55469
 30
0.0
 10
1.36723
 20
-7.55469
 30
0.0
 10
1.37415
 20
-7.53268
 30
0.0
 10
1.38501
 20
-7.50022
 30
0.0
 10
1.39969
 20
-7.45747
 30
0.0
 10
1.39969
 20
-7.45747
 30
0.0
 10
1.39969
 20
-7.45747
 30
0.0
 10
1.5456
 20
-7.03582
 30
0.0
 10
1.5456
 20
-7.03582
 30
0.0
 10
1.5456
 20
-7.03582
 30
0.0
 10
1.5456
 20
-7.03582
 30
0.0
 10
1.65299
 20
-7.03582
 30
0.0
 10
1.65299
 20
-7.03582
 30
0.0
 10
1.65299
 20
-7.03582
 30
0.0
 10
1.65299
 20
-7.03582
 30
0.0
 10
1.65299
 20
-7.64204
 30
0.0
 10
1.65299
 20
-7.64204
 30
0.0
 10
1.65299
 20
-7.64204
 30
0.0
 10
1.65299
 20
-7.64204
 30
0.0
 10
1.57594
 20
-7.64204
 30
0.0
 10
1.57594
 20
-7.64204
 30
0.0
 10
1.57594
 20
-7.64204
 30
0.0
 10
1.57594
 20
-7.64204
 30
0.0
 10
1.57594
 20
-7.13488
 30
0.0
 10
1.57594
 20
-7.13488
 30
0.0
 10
1.57594
 20
-7.13488
 30
0.0
 10
1.57594
 20
-7.13488
 30
0.0
 10
1.39898
 20
-7.64204
 30
0.0
 10
1.39898
 20
-7.64204
 30
0.0
 10
1.39898
 20
-7.64204
 30
0.0
 10
1.39898
 20
-7.64204
 30
0.0
 10
1.32674
 20
-7.64204
 30
0.0
 10
1.32674
 20
-7.64204
 30
0.0
 10
1.32674
 20
-7.64204
 30
0.0
 10
1.32674
 20
-7.64204
 30
0.0
 10
1.15176
 20
-7.12557
 30
0.0
 10
1.15176
 20
-7.12557
 30
0.0
 10
1.15176
 20
-7.12557
 30
0.0
 10
1.15176
 20
-7.12557
 30
0.0
 10
1.15176
 20
-7.64204
 30
0.0
 10
1.15176
 20
-7.64204
 30
0.0
 10
1.15176
 20
-7.64204
 30
0.0
 10
1.15176
 20
-7.64204
 30
0.0
 10
1.07471
 20
-7.64204
 30
0.0
 10
1.07471
 20
-7.64204
 30
0.0
  0
SPLINE
  5
4F
330
1F
100
AcDbEntity
  8
Layer 1
 62
   250
100
AcDbSpline
210
0.0
220
0.0
230
1.0
 70
    11
 71
     3
 72
    48
 73
    44
 74
     0
 42
0.0000000001
 43
0.0000000001
 12
1.0
 22
0.0
 32
0.0
 13
1.0
 23
0.0
 33
0.0
 40
0.0
 40
0.0
 40
0.0
 40
0.0
 40
0.0833333333333333
 40
0.0833333333333333
 40
0.0833333333333333
 40
0.0833333333333333
 40
0.1666666666666667
 40
0.1666666666666667
 40
0.1666666666666667
 40
0.1666666666666667
 40
0.25
 40
0.25
 40
0.25
 40
0.25
 40
0.3333333333333333
 40
0.3333333333333333
 40
0.3333333333333333
 40
0.3333333333333333
 40
0.4166666666666667
 40
0.4166666666666667
 40
0.4166666666666667
 40
0.4166666666666667
 40
0.5
 40
0.5
 40
0.5
 40
0.5
 40
0.5833333333333334
 40
0.5833333333333334
 40
0.5833333333333334
 40
0.5833333333333334
 40
0.6666666666666666
 40
0.6666666666666666
 40
0.6666666666666666
 40
0.6666666666666666
 40
0.75
 40
0.75
 40
0.75
 40
0.75
 40
0.8333333333333334
 40
0.8333333333333334
 40
0.8333333333333334
 40
0.8333333333333334
 40
1.0
 40
1.0
 40
1.0
 40
1.0
 10
1.78168
 20
-7.64204
 30
0.0
 10
1.78168
 20
-7.64204
 30
0.0
 10
1.78168
 20
-7.03582
 30
0.0
 10
1.78168
 20
-7.03582
 30
0.0
 10
1.78168
 20
-7.03582
 30
0.0
 10
1.78168
 20
-7.03582
 30
0.0
 10
2.01057
 20
-7.03582
 30
0.0
 10
2.01057
 20
-7.03582
 30
0.0
 10
2.01057
 20
-7.03582
 30
0.0
 10
2.05078
 20
-7.03582
 30
0.0
 10
2.08155
 20
-7.0378
 30
0.0
 10
2.10285
 20
-7.04161
 30
0.0
 10
2.10285
 20
-7.04161
 30
0.0
 10
2.13263
 20
-7.04655
 30
0.0
 10
2.15761
 20
-7.056
 30
0.0
 10
2.17778
 20
-7.06983
 30
0.0
 10
2.17778
 20
-7.06983
 30
0.0
 10
2.19796
 20
-7.0838
 30
0.0
 10
2.21419
 20
-7.10328
 30
0.0
 10
2.22647
 20
-7.12825
 30
0.0
 10
2.22647
 20
-7.12825
 30
0.0
 10
2.23874
 20
-7.15323
 30
0.0
 10
2.24481
 20
-7.18075
 30
0.0
 10
2.24481
 20
-7.2108
 30
0.0
 10
2.24481
 20
-7.2108
 30
0.0
 10
2.24481
 20
-7.26217
 30
0.0
 10
2.22844
 20
-7.30577
 30
0.0
 10
2.19556
 20
-7.34133
 30
0.0
 10
2.19556
 20
-7.34133
 30
0.0
 10
2.16283
 20
-7.37703
 30
0.0
 10
2.10342
 20
-7.39481
 30
0.0
 10
2.01762
 20
-7.39481
 30
0.0
 10
2.01762
 20
-7.39481
 30
0.0
 10
2.01762
 20
-7.39481
 30
0.0
 10
1.86212
 20
-7.39481
 30
0.0
 10
1.86212
 20
-7.39481
 30
0.0
 10
1.86212
 20
-7.39481
 30
0.0
 10
1.86212
 20
-7.39481
 30
0.0
 10
1.86212
 20
-7.64204
 30
0.0
 10
1.86212
 20
-7.64204
 30
0.0
 10
1.86212
 20
-7.64204
 30
0.0
 10
1.86212
 20
-7.64204
 30
0.0
 10
1.78168
 20
-7.64204
 30
0.0
 10
1.78168
 20
-7.64204
 30
0.0
  0
SPLINE
  5
50
330
1F
100
AcDbEntity
  8
Layer 1
 62
   250
100
AcDbSpline
210
0.0
220
0.0
230
1.0
 70
    11
 71
     3
 72
    36
 73
    32
 74
     0
 42
0.0000000001
 43
0.0000000001
 12
1.0
 22
0.0
 32
0.0
 13
1.0
 23
0.0
 33
0.0
 40
0.0
 40
0.0
 40
0.0
 40
0.0
 40
0.1111111111111111
 40
0.1111111111111111
 40
0.1111111111111111
 40
0.1111111111111111
 40
0.2222222222222222
 40
0.2222222222222222
 40
0.2222222222222222
 40
0.2222222222222222
 40
0.3333333333333333
 40
0.3333333333333333
 40
0.3333333333333333
 40
0.3333333333333333
 40
0.4444444444444444
 40
0.4444444444444444
 40
0.4444444444444444
 40
0.4444444444444444
 40
0.5555555555555556
 40
0.5555555555555556
 40
0.5555555555555556
 40
0.5555555555555556
 40
0.6666666666666666
 40
0.6666666666666666
 40
0.6666666666666666
 40
0.6666666666666666
 40
0.7777777777777778
 40
0.7777777777777778
 40
0.7777777777777778
 40
0.7777777777777778
 40
1.0
 40
1.0
 40
1.0
 40
1.0
 10
1.86212
 20
-7.32369
 30
0.0
 10
1.86212
 20
-7.32369
 30
0.0
 10
2.01875
 20
-7.32369
 30
0.0
 10
2.01875
 20
-7.32369
 30
0.0
 10
2.01875
 20
-7.32369
 30
0.0
 10
2.07068
 20
-7.32369
 30
0.0
 10
2.10737
 20
-7.3141
 30
0.0
 10
2.12924
 20
-7.29476
 30
0.0
 10
2.12924
 20
-7.29476
 30
0.0
 10
2.15097
 20
-7.27543
 30
0.0
 10
2.16184
 20
-7.24834
 30
0.0
 10
2.16184
 20
-7.2132
 30
0.0
 10
2.16184
 20
-7.2132
 30
0.0
 10
2.16184
 20
-7.18794
 30
0.0
 10
2.15549
 20
-7.16621
 30
0.0
 10
2.14265
 20
-7.14815
 30
0.0
 10
2.14265
 20
-7.14815
 30
0.0
 10
2.12981
 20
-7.13009
 30
0.0
 10
2.11287
 20
-7.11809
 30
0.0
 10
2.09199
 20
-7.11231
 30
0.0
 10
2.09199
 20
-7.11231
 30
0.0
 10
2.07844
 20
-7.10878
 30
0.0
 10
2.05346
 20
-7.10694
 30
0.0
 10
2.0172
 20
-7.10694
 30
0.0
 10
2.0172
 20
-7.10694
 30
0.0
 10
2.0172
 20
-7.10694
 30
0.0
 10
1.86212
 20
-7.10694
 30
0.0
 10
1.86212
 20
-7.10694
 30
0.0
 10
1.86212
 20
-7.10694
 30
0.0
 10
1.86212
 20
-7.10694
 30
0.0
 10
1.86212
 20
-7.32369
 30
0.0
 10
1.86212
 20
-7.32369
 30
0.0
  0
SPLINE
  5
51
330
1F
100
AcDbEntity
  8
Layer 1
 62
   250
100
AcDbSpline
210
0.0
220
0.0
230
1.0
 70
    11
 71
     3
 72
    28
 73
    24
 74
     0
 42
0.0000000001
 43
0.0000000001
 12
1.0
 22
0.0
 32
0.0
 13
1.0
 23
0.0
 33
0.0
 40
0.0
 40
0.0
 40
0.0
 40
0.0
 40
0.1428571428571428
 40
0.1428571428571428
 40
0.1428571428571428
 40
0.1428571428571428
 40
0.2857142857142857
 40
0.2857142857142857
 40
0.2857142857142857
 40
0.2857142857142857
 40
0.4285714285714285
 40
0.4285714285714285
 40
0.4285714285714285
 40
0.4285714285714285
 40
0.5714285714285714
 40
0.5714285714285714
 40
0.5714285714285714
 40
0.5714285714285714
 40
0.7142857142857143
 40
0.7142857142857143
 40
0.7142857142857143
 40
0.7142857142857143
 40
1.0
 40
1.0
 40
1.0
 40
1.0
 10
2.34303
 20
-7.64204
 30
0.0
 10
2.34303
 20
-7.64204
 30
0.0
 10
2.34303
 20
-7.03582
 30
0.0
 10
2.34303
 20
-7.03582
 30
0.0
 10
2.34303
 20
-7.03582
 30
0.0
 10
2.34303
 20
-7.03582
 30
0.0
 10
2.42346
 20
-7.03582
 30
0.0
 10
2.42346
 20
-7.03582
 30
0.0
 10
2.42346
 20
-7.03582
 30
0.0
 10
2.42346
 20
-7.03582
 30
0.0
 10
2.42346
 20
-7.57092
 30
0.0
 10
2.42346
 20
-7.57092
 30
0.0
 10
2.42346
 20
-7.57092
 30
0.0
 10
2.42346
 20
-7.57092
 30
0.0
 10
2.72149
 20
-7.57092
 30
0.0
 10
2.72149
 20
-7.57092
 30
0.0
 10
2.72149
 20
-7.57092
 30
0.0
 10
2.72149
 20
-7.57092
 30
0.0
 10
2.72149
 20
-7.64204
 30
0.0
 10
2.72149
 20
-7.64204
 30
0.0
 10
2.72149
 20
-7.64204
 30
0.0
 10
2.72149
 20
-7.64204
 30
0.0
 10
2.34303
 20
-7.64204
 30
0.0
 10
2.34303
 20
-7.64204
 30
0.0
  0
SPLINE
  5
52
330
1F
100
AcDbEntity
  8
Layer 1
 62
   250
100
AcDbSpline
210
0.0
220
0.0
230
1.0
 70
    11
 71
     3
 72
    36
 73
    32
 74
     0
 42
0.0000000001
 43
0.0000000001
 12
1.0
 22
0.0
 32
0.0
 13
1.0
 23
0.0
 33
0.0
 40
0.0
 40
0.0
 40
0.0
 40
0.0
 40
0.1111111111111111
 40
0.1111111111111111
 40
0.1111111111111111
 40
0.1111111111111111
 40
0.2222222222222222
 40
0.2222222222222222
 40
0.2222222222222222
 40
0.2222222222222222
 40
0.3333333333333333
 40
0.3333333333333333
 40
0.3333333333333333
 40
0.3333333333333333
 40
0.4444444444444444
 40
0.4444444444444444
 40
0.4444444444444444
 40
0.4444444444444444
 40
0.5555555555555556
 40
0.5555555555555556
 40
0.5555555555555556
 40
0.5555555555555556
 40
0.6666666666666666
 40
0.6666666666666666
 40
0.6666666666666666
 40
0.6666666666666666
 40
0.7777777777777778
 40
0.7777777777777778
 40
0.7777777777777778
 40
0.7777777777777778
 40
1.0
 40
1.0
 40
1.0
 40
1.0
 10
2.75084
 20
-7.64204
 30
0.0
 10
2.75084
 20
-7.64204
 30
0.0
 10
2.98339
 20
-7.03582
 30
0.0
 10
2.98339
 20
-7.03582
 30
0.0
 10
2.98339
 20
-7.03582
 30
0.0
 10
2.98339
 20
-7.03582
 30
0.0
 10
3.07159
 20
-7.03582
 30
0.0
 10
3.07159
 20
-7.03582
 30
0.0
 10
3.07159
 20
-7.03582
 30
0.0
 10
3.07159
 20
-7.03582
 30
0.0
 10
3.31839
 20
-7.64204
 30
0.0
 10
3.31839
 20
-7.64204
 30
0.0
 10
3.31839
 20
-7.64204
 30
0.0
 10
3.31839
 20
-7.64204
 30
0.0
 10
3.22709
 20
-7.64204
 30
0.0
 10
3.22709
 20
-7.64204
 30
0.0
 10
3.22709
 20
-7.64204
 30
0.0
 10
3.22709
 20
-7.64204
 30
0.0
 10
3.15696
 20
-7.45831
 30
0.0
 10
3.15696
 20
-7.45831
 30
0.0
 10
3.15696
 20
-7.45831
 30
0.0
 10
3.15696
 20
-7.45831
 30
0.0
 10
2.90169
 20
-7.45831
 30
0.0
 10
2.90169
 20
-7.45831
 30
0.0
 10
2.90169
 20
-7.45831
 30
0.0
 10
2.90169
 20
-7.45831
 30
0.0
 10
2.83593
 20
-7.64204
 30
0.0
 10
2.83593
 20
-7.64204
 30
0.0
 10
2.83593
 20
-7.64204
 30
0.0
 10
2.83593
 20
-7.64204
 30
0.0
 10
2.75084
 20
-7.64204
 30
0.0
 10
2.75084
 20
-7.64204
 30
0.0
  0
SPLINE
  5
53
330
1F
100
AcDbEntity
  8
Layer 1
 62
   250
100
AcDbSpline
210
0.0
220
0.0
230
1.0
 70
    11
 71
     3
 72
    24
 73
    20
 74
     0
 42
0.0000000001
 43
0.0000000001
 12
1.0
 22
0.0
 32
0.0
 13
1.0
 23
0.0
 33
0.0
 40
0.0
 40
0.0
 40
0.0
 40
0.0
 40
0.1666666666666667
 40
0.1666666666666667
 40
0.1666666666666667
 40
0.1666666666666667
 40
0.3333333333333333
 40
0.3333333333333333
 40
0.3333333333333333
 40
0.3333333333333333
 40
0.5
 40
0.5
 40
0.5
 40
0.5
 40
0.6666666666666666
 40
0.6666666666666666
 40
0.6666666666666666
 40
0.6666666666666666
 40
1.0
 40
1.0
 40
1.0
 40
1.0
 10
2.92525
 20
-7.39312
 30
0.0
 10
2.92525
 20
-7.39312
 30
0.0
 10
3.13184
 20
-7.39312
 30
0.0
 10
3.13184
 20
-7.39312
 30
0.0
 10
3.13184
 20
-7.39312
 30
0.0
 10
3.13184
 20
-7.39312
 30
0.0
 10
3.06862
 20
-7.22506
 30
0.0
 10
3.06862
 20
-7.22506
 30
0.0
 10
3.06862
 20
-7.22506
 30
0.0
 10
3.04957
 20
-7.17397
 30
0.0
 10
3.03518
 20
-7.13178
 30
0.0
 10
3.02516
 20
-7.09848
 30
0.0
 10
3.02516
 20
-7.09848
 30
0.0
 10
3.01684
 20
-7.13799
 30
0.0
 10
3.00569
 20
-7.17679
 30
0.0
 10
2.99172
 20
-7.21518
 30
0.0
 10
2.99172
 20
-7.21518
 30
0.0
 10
2.99172
 20
-7.21518
 30
0.0
 10
2.92525
 20
-7.39312
 30
0.0
 10
2.92525
 20
-7.39312
 30
0.0
  0
SPLINE
  5
54
330
1F
100
AcDbEntity
  8
Layer 1
 62
   250
100
AcDbSpline
210
0.0
220
0.0
230
1.0
 70
    11
 71
     3
 72
    36
 73
    32
 74
     0
 42
0.0000000001
 43
0.0000000001
 12
1.0
 22
0.0
 32
0.0
 13
1.0
 23
0.0
 33
0.0
 40
0.0
 40
0.0
 40
0.0
 40
0.0
 40
0.1111111111111111
 40
0.1111111111111111
 40
0.1111111111111111
 40
0.1111111111111111
 40
0.2222222222222222
 40
0.2222222222222222
 40
0.2222222222222222
 40
0.2222222222222222
 40
0.3333333333333333
 40
0.3333333333333333
 40
0.3333333333333333
 40
0.3333333333333333
 40
0.4444444444444444
 40
0.4444444444444444
 40
0.4444444444444444
 40
0.4444444444444444
 40
0.5555555555555556
 40
0.5555555555555556
 40
0.5555555555555556
 40
0.5555555555555556
 40
0.6666666666666666
 40
0.6666666666666666
 40
0.6666666666666666
 40
0.6666666666666666
 40
0.7777777777777778
 40
0.7777777777777778
 40
0.7777777777777778
 40
0.7777777777777778
 40
1.0
 40
1.0
 40
1.0
 40
1.0
 10
3.47334
 20
-7.64204
 30
0.0
 10
3.47334
 20
-7.64204
 30
0.0
 10
3.47334
 20
-7.10694
 30
0.0
 10
3.47334
 20
-7.10694
 30
0.0
 10
3.47334
 20
-7.10694
 30
0.0
 10
3.47334
 20
-7.10694
 30
0.0
 10
3.27352
 20
-7.10694
 30
0.0
 10
3.27352
 20
-7.10694
 30
0.0
 10
3.27352
 20
-7.10694
 30
0.0
 10
3.27352
 20
-7.10694
 30
0.0
 10
3.27352
 20
-7.03582
 30
0.0
 10
3.27352
 20
-7.03582
 30
0.0
 10
3.27352
 20
-7.03582
 30
0.0
 10
3.27352
 20
-7.03582
 30
0.0
 10
3.75359
 20
-7.03582
 30
0.0
 10
3.75359
 20
-7.03582
 30
0.0
 10
3.75359
 20
-7.03582
 30
0.0
 10
3.75359
 20
-7.03582
 30
0.0
 10
3.75359
 20
-7.10694
 30
0.0
 10
3.75359
 20
-7.10694
 30
0.0
 10
3.75359
 20
-7.10694
 30
0.0
 10
3.75359
 20
-7.10694
 30
0.0
 10
3.55377
 20
-7.10694
 30
0.0
 10
3.55377
 20
-7.10694
 30
0.0
 10
3.55377
 20
-7.10694
 30
0.0
 10
3.55377
 20
-7.10694
 30
0.0
 10
3.55377
 20
-7.64204
 30
0.0
 10
3.55377
 20
-7.64204
 30
0.0
 10
3.55377
 20
-7.64204
 30
0.0
 10
3.55377
 20
-7.64204
 30
0.0
 10
3.47334
 20
-7.64204
 30
0.0
 10
3.47334
 20
-7.64204
 30
0.0
  0
SPLINE
  5
55
330
1F
100
AcDbEntity
  8
Layer 1
 62
   250
100
AcDbSpline
210
0.0
220
0.0
230
1.0
 70
    11
 71
     3
 72
    52
 73
    48
 74
     0
 42
0.0000000001
 43
0.0000000001
 12
1.0
 22
0.0
 32
0.0
 13
1.0
 23
0.0
 33
0.0
 40
0.0
 40
0.0
 40
0.0
 40
0.0
 40
0.0769230769230769
 40
0.0769230769230769
 40
0.0769230769230769
 40
0.0769230769230769
 40
0.1538461538461539
 40
0.1538461538461539
 40
0.1538461538461539
 40
0.1538461538461539
 40
0.2307692307692308
 40
0.2307692307692308
 40
0.2307692307692308
 40
0.2307692307692308
 40
0.3076923076923077
 40
0.3076923076923077
 40
0.3076923076923077
 40
0.3076923076923077
 40
0.3846153846153846
 40
0.3846153846153846
 40
0.3846153846153846
 40
0.3846153846153846
 40
0.4615384615384616
 40
0.4615384615384616
 40
0.4615384615384616
 40
0.4615384615384616
 40
0.5384615384615384
 40
0.5384615384615384
 40
0.5384615384615384
 40
0.5384615384615384
 40
0.6153846153846154
 40
0.6153846153846154
 40
0.6153846153846154
 40
0.6153846153846154
 40
0.6923076923076923
 40
0.6923076923076923
 40
0.6923076923076923
 40
0.6923076923076923
 40
0.7692307692307693
 40
0.7692307692307693
 40
0.7692307692307693
 40
0.7692307692307693
 40
0.8461538461538461
 40
0.8461538461538461
 40
0.8461538461538461
 40
0.8461538461538461
 40
1.0
 40
1.0
 40
1.0
 40
1.0
 10
3.83811
 20
-7.64204
 30
0.0
 10
3.83811
 20
-7.64204
 30
0.0
 10
3.83811
 20
-7.03582
 30
0.0
 10
3.83811
 20
-7.03582
 30
0.0
 10
3.83811
 20
-7.03582
 30
0.0
 10
3.83811
 20
-7.03582
 30
0.0
 10
4.27584
 20
-7.03582
 30
0.0
 10
4.27584
 20
-7.03582
 30
0.0
 10
4.27584
 20
-7.03582
 30
0.0
 10
4.27584
 20
-7.03582
 30
0.0
 10
4.27584
 20
-7.10694
 30
0.0
 10
4.27584
 20
-7.10694
 30
0.0
 10
4.27584
 20
-7.10694
 30
0.0
 10
4.27584
 20
-7.10694
 30
0.0
 10
3.91854
 20
-7.10694
 30
0.0
 10
3.91854
 20
-7.10694
 30
0.0
 10
3.91854
 20
-7.10694
 30
0.0
 10
3.91854
 20
-7.10694
 30
0.0
 10
3.91854
 20
-7.29321
 30
0.0
 10
3.91854
 20
-7.29321
 30
0.0
 10
3.91854
 20
-7.29321
 30
0.0
 10
3.91854
 20
-7.29321
 30
0.0
 10
4.25298
 20
-7.29321
 30
0.0
 10
4.25298
 20
-7.29321
 30
0.0
 10
4.25298
 20
-7.29321
 30
0.0
 10
4.25298
 20
-7.29321
 30
0.0
 10
4.25298
 20
-7.36433
 30
0.0
 10
4.25298
 20
-7.36433
 30
0.0
 10
4.25298
 20
-7.36433
 30
0.0
 10
4.25298
 20
-7.36433
 30
0.0
 10
3.91854
 20
-7.36433
 30
0.0
 10
3.91854
 20
-7.36433
 30
0.0
 10
3.91854
 20
-7.36433
 30
0.0
 10
3.91854
 20
-7.36433
 30
0.0
 10
3.91854
 20
-7.57092
 30
0.0
 10
3.91854
 20
-7.57092
 30
0.0
 10
3.91854
 20
-7.57092
 30
0.0
 10
3.91854
 20
-7.57092
 30
0.0
 10
4.29023
 20
-7.57092
 30
0.0
 10
4.29023
 20
-7.57092
 30
0.0
 10
4.29023
 20
-7.57092
 30
0.0
 10
4.29023
 20
-7.57092
 30
0.0
 10
4.29023
 20
-7.64204
 30
0.0
 10
4.29023
 20
-7.64204
 30
0.0
 10
4.29023
 20
-7.64204
 30
0.0
 10
4.29023
 20
-7.64204
 30
0.0
 10
3.83811
 20
-7.64204
 30
0.0
 10
3.83811
 20
-7.64204
 30
0.0
  0
SPLINE
  5
56
330
1F
100
AcDbEntity
  8
Layer 1
 62
     3
370
     9
100
AcDbSpline
210
0.0
220
0.0
230
1.0
 70
    24
 71
     3
 72
     8
 73
     4
 74
     0
 42
0.0000000001
 43
0.0000000001
 12
1.0
 22
0.0
 32
0.0
 13
1.0
 23
0.0
 33
0.0
 40
0.0
 40
0.0
 40
0.0
 40
0.0
 40
1.0
 40
1.0
 40
1.0
 40
1.0
 10
-10.38314
 20
-4.75441
 30
0.0
 10
-10.38314
 20
-4.75441
 30
0.0
 10
10.55218
 20
-4.75441
 30
0.0
 10
10.55218
 20
-4.75441
 30
0.0
  0
SPLINE
  5
57
330
1F
100
AcDbEntity
  8
Layer 1
 62
     3
370
     9
100
AcDbSpline
210
0.0
220
0.0
230
1.0
 70
    24
 71
     3
 72
     8
 73
     4
 74
     0
 42
0.0000000001
 43
0.0000000001
 12
1.0
 22
0.0
 32
0.0
 13
1.0
 23
0.0
 33
0.0
 40
0.0
 40
0.0
 40
0.0
 40
0.0
 40
1.0
 40
1.0
 40
1.0
 40
1.0
 10
10.55218
 20
6.71207
 30
0.0
 10
10.55218
 20
6.71207
 30
0.0
 10
-10.38314
 20
6.71207
 30
0.0
 10
-10.38314
 20
6.71207
 30
0.0
  0
SPLINE
  5
58
330
1F
100
AcDbEntity
  8
Layer 1
 62
     3
370
     9
100
AcDbSpline
210
0.0
220
0.0
230
1.0
 70
    24
 71
     3
 72
     8
 73
     4
 74
     0
 42
0.0000000001
 43
0.0000000001
 12
1.0
 22
0.0
 32
0.0
 13
1.0
 23
0.0
 33
0.0
 40
0.0
 40
0.0
 40
0.0
 40
0.0
 40
1.0
 40
1.0
 40
1.0
 40
1.0
 10
-10.66529
 20
6.42991
 30
0.0
 10
-10.66529
 20
6.42991
 30
0.0
 10
-10.66529
 20
-4.47226
 30
0.0
 10
-10.66529
 20
-4.47226
 30
0.0
  0
SPLINE
  5
59
330
1F
100
AcDbEntity
  8
Layer 1
 62
     3
370
     9
100
AcDbSpline
210
0.0
220
0.0
230
1.0
 70
     8
 71
     3
 72
    12
 73
     8
 74
     0
 42
0.0000000001
 43
0.0000000001
 12
1.0
 22
0.0
 32
0.0
 13
1.0
 23
0.0
 33
0.0
 40
0.0
 40
0.0
 40
0.0
 40
0.0
 40
0.3333333333333333
 40
0.3333333333333333
 40
0.3333333333333333
 40
0.3333333333333333
 40
1.0
 40
1.0
 40
1.0
 40
1.0
 10
-10.38314
 20
6.71207
 30
0.0
 10
-10.45797
 20
6.71207
 30
0.0
 10
-10.52973
 20
6.68233
 30
0.0
 10
-10.58265
 20
6.62942
 30
0.0
 10
-10.58265
 20
6.62942
 30
0.0
 10
-10.63557
 20
6.5765
 30
0.0
 10
-10.66529
 20
6.50474
 30
0.0
 10
-10.66529
 20
6.42991
 30
0.0
  0
SPLINE
  5
5A
330
1F
100
AcDbEntity
  8
Layer 1
 62
     3
370
     9
100
AcDbSpline
210
0.0
220
0.0
230
1.0
 70
     8
 71
     3
 72
    12
 73
     8
 74
     0
 42
0.0000000001
 43
0.0000000001
 12
1.0
 22
0.0
 32
0.0
 13
1.0
 23
0.0
 33
0.0
 40
0.0
 40
0.0
 40
0.0
 40
0.0
 40
0.3333333333333333
 40
0.3333333333333333
 40
0.3333333333333333
 40
0.3333333333333333
 40
1.0
 40
1.0
 40
1.0
 40
1.0
 10
-10.66529
 20
-4.47226
 30
0.0
 10
-10.66529
 20
-4.54708
 30
0.0
 10
-10.63557
 20
-4.61886
 30
0.0
 10
-10.58265
 20
-4.67176
 30
0.0
 10
-10.58265
 20
-4.67176
 30
0.0
 10
-10.52973
 20
-4.72468
 30
0.0
 10
-10.45797
 20
-4.75441
 30
0.0
 10
-10.38314
 20
-4.75441
 30
0.0
  0
SPLINE
  5
5B
330
1F
100
AcDbEntity
  8
Layer 1
 62
     3
370
     9
100
AcDbSpline
210
0.0
220
0.0
230
1.0
 70
    24
 71
     3
 72
     8
 73
     4
 74
     0
 42
0.0000000001
 43
0.0000000001
 12
1.0
 22
0.0
 32
0.0
 13
1.0
 23
0.0
 33
0.0
 40
0.0
 40
0.0
 40
0.0
 40
0.0
 40
1.0
 40
1.0
 40
1.0
 40
1.0
 10
10.83432
 20
6.42991
 30
0.0
 10
10.83432
 20
6.42991
 30
0.0
 10
10.83432
 20
-4.47226
 30
0.0
 10
10.83432
 20
-4.47226
 30
0.0
  0
SPLINE
  5
5C
330
1F
100
AcDbEntity
  8
Layer 1
 62
     3
370
     9
100
AcDbSpline
210
0.0
220
0.0
230
1.0
 70
     8
 71
     3
 72
    12
 73
     8
 74
     0
 42
0.0000000001
 43
0.0000000001
 12
1.0
 22
0.0
 32
0.0
 13
1.0
 23
0.0
 33
0.0
 40
0.0
 40
0.0
 40
0.0
 40
0.0
 40
0.3333333333333333
 40
0.3333333333333333
 40
0.3333333333333333
 40
0.3333333333333333
 40
1.0
 40
1.0
 40
1.0
 40
1.0
 10
10.83432
 20
6.42991
 30
0.0
 10
10.83432
 20
6.50474
 30
0.0
 10
10.8046
 20
6.5765
 30
0.0
 10
10.75169
 20
6.62942
 30
0.0
 10
10.75169
 20
6.62942
 30
0.0
 10
10.69877
 20
6.68233
 30
0.0
 10
10.62701
 20
6.71207
 30
0.0
 10
10.55218
 20
6.71207
 30
0.0
  0
SPLINE
  5
5D
330
1F
100
AcDbEntity
  8
Layer 1
 62
     3
370
     9
100
AcDbSpline
210
0.0
220
0.0
230
1.0
 70
     8
 71
     3
 72
     8
 73
     4
 74
     0
 42
0.0000000001
 43
0.0000000001
 12
1.0
 22
0.0
 32
0.0
 13
1.0
 23
0.0
 33
0.0
 40
0.0
 40
0.0
 40
0.0
 40
0.0
 40
1.0
 40
1.0
 40
1.0
 40
1.0
 10
10.55218
 20
-4.75441
 30
0.0
 10
10.708
 20
-4.75441
 30
0.0
 10
10.83432
 20
-4.62808
 30
0.0
 10
10.83432
 20
-4.47226
 30
0.0
  0
SPLINE
  5
5F
330
1F
100
AcDbEntity
  8
layer 2
 62
     1
370
     0
100
AcDbSpline
210
0.0
220
0.0
230
1.0
 70
    24
 71
     3
 72
     8
 73
     4
 74
     0
 42
0.0000000001
 43
0.0000000001
 12
1.0
 22
0.0
 32
0.0
 13
1.0
 23
0.0
 33
0.0
 40
0.0
 40
0.0
 40
0.0
 40
0.0
 40
1.0
 40
1.0
 40
1.0
 40
1.0
 10
-10.66529
 20
6.57098
 30
0.0
 10
-10.66529
 20
6.57098
 30
0.0
 10
-10.66529
 20
8.28022
 30
0.0
 10
-10.66529
 20
8.28022
 30
0.0
  0
SPLINE
  5
60
330
1F
100
AcDbEntity
  8
layer 2
 62
     1
370
     0
100
AcDbSpline
210
0.0
220
0.0
230
1.0
 70
    24
 71
     3
 72
     8
 73
     4
 74
     0
 42
0.0000000001
 43
0.0000000001
 12
1.0
 22
0.0
 32
0.0
 13
1.0
 23
0.0
 33
0.0
 40
0.0
 40
0.0
 40
0.0
 40
0.0
 40
1.0
 40
1.0
 40
1.0
 40
1.0
 10
10.83432
 20
6.57098
 30
0.0
 10
10.83432
 20
6.57098
 30
0.0
 10
10.83432
 20
8.28022
 30
0.0
 10
10.83432
 20
8.28022
 30
0.0
  0
SPLINE
  5
61
330
1F
100
AcDbEntity
  8
layer 2
 62
     1
370
     0
100
AcDbSpline
210
0.0
220
0.0
230
1.0
 70
    24
 71
     3
 72
     8
 73
     4
 74
     0
 42
0.0000000001
 43
0.0000000001
 12
1.0
 22
0.0
 32
0.0
 13
1.0
 23
0.0
 33
0.0
 40
0.0
 40
0.0
 40
0.0
 40
0.0
 40
1.0
 40
1.0
 40
1.0
 40
1.0
 10
-10.10099
 20
7.99807
 30
0.0
 10
-10.10099
 20
7.99807
 30
0.0
 10
10.27003
 20
7.99807
 30
0.0
 10
10.27003
 20
7.99807
 30
0.0
  0
SPLINE
  5
62
330
1F
100
AcDbEntity
  8
layer 2
 62
     1
100
AcDbSpline
210
0.0
220
0.0
230
1.0
 70
    27
 71
     3
 72
    12
 73
     8
 74
     0
 42
0.0000000001
 43
0.0000000001
 12
1.0
 22
0.0
 32
0.0
 13
1.0
 23
0.0
 33
0.0
 40
0.0
 40
0.0
 40
0.0
 40
0.0
 40
0.3333333333333333
 40
0.3333333333333333
 40
0.3333333333333333
 40
0.3333333333333333
 40
1.0
 40
1.0
 40
1.0
 40
1.0
 10
-10.10099
 20
8.09212
 30
0.0
 10
-10.10099
 20
8.09212
 30
0.0
 10
-10.66529
 20
7.99807
 30
0.0
 10
-10.66529
 20
7.99807
 30
0.0
 10
-10.66529
 20
7.99807
 30
0.0
 10
-10.66529
 20
7.99807
 30
0.0
 10
-10.10099
 20
8.09212
 30
0.0
 10
-10.10099
 20
8.09212
 30
0.0
  0
SPLINE
  5
63
330
1F
100
AcDbEntity
  8
layer 2
 62
     1
100
AcDbSpline
210
0.0
220
0.0
230
1.0
 70
     8
 71
     3
 72
    12
 73
     8
 74
     0
 42
0.0000000001
 43
0.0000000001
 12
1.0
 22
0.0
 32
0.0
 13
1.0
 23
0.0
 33
0.0
 40
0.0
 40
0.0
 40
0.0
 40
0.0
 40
0.3333333333333333
 40
0.3333333333333333
 40
0.3333333333333333
 40
0.3333333333333333
 40
1.0
 40
1.0
 40
1.0
 40
1.0
 10
-10.66529
 20
7.99807
 30
0.0
 10
-10.66529
 20
7.99807
 30
0.0
 10
-10.10099
 20
7.90403
 30
0.0
 10
-10.10099
 20
7.90403
 30
0.0
 10
-10.10099
 20
7.90403
 30
0.0
 10
-10.10099
 20
7.90403
 30
0.0
 10
-10.10099
 20
8.09212
 30
0.0
 10
-10.10099
 20
8.09212
 30
0.0
  0
SPLINE
  5
64
330
1F
100
AcDbEntity
  8
layer 2
 62
     1
370
     9
100
AcDbSpline
210
0.0
220
0.0
230
1.0
 70
    24
 71
     3
 72
     8
 73
     4
 74
     0
 42
0.0000000001
 43
0.0000000001
 12
1.0
 22
0.0
 32
0.0
 13
1.0
 23
0.0
 33
0.0
 40
0.0
 40
0.0
 40
0.0
 40
0.0
 40
1.0
 40
1.0
 40
1.0
 40
1.0
 10
-10.10099
 20
8.09212
 30
0.0
 10
-10.10099
 20
8.09212
 30
0.0
 10
-10.66529
 20
7.99807
 30
0.0
 10
-10.66529
 20
7.99807
 30
0.0
  0
SPLINE
  5
65
330
1F
100
AcDbEntity
  8
layer 2
 62
     1
370
     9
100
AcDbSpline
210
0.0
220
0.0
230
1.0
 70
     8
 71
     3
 72
    12
 73
     8
 74
     0
 42
0.0000000001
 43
0.0000000001
 12
1.0
 22
0.0
 32
0.0
 13
1.0
 23
0.0
 33
0.0
 40
0.0
 40
0.0
 40
0.0
 40
0.0
 40
0.3333333333333333
 40
0.3333333333333333
 40
0.3333333333333333
 40
0.3333333333333333
 40
1.0
 40
1.0
 40
1.0
 40
1.0
 10
-10.66529
 20
7.99807
 30
0.0
 10
-10.66529
 20
7.99807
 30
0.0
 10
-10.10099
 20
7.90403
 30
0.0
 10
-10.10099
 20
7.90403
 30
0.0
 10
-10.10099
 20
7.90403
 30
0.0
 10
-10.10099
 20
7.90403
 30
0.0
 10
-10.10099
 20
8.09212
 30
0.0
 10
-10.10099
 20
8.09212
 30
0.0
  0
SPLINE
  5
66
330
1F
100
AcDbEntity
  8
layer 2
 62
     1
100
AcDbSpline
210
0.0
220
0.0
230
1.0
 70
    27
 71
     3
 72
    12
 73
     8
 74
     0
 42
0.0000000001
 43
0.0000000001
 12
1.0
 22
0.0
 32
0.0
 13
1.0
 23
0.0
 33
0.0
 40
0.0
 40
0.0
 40
0.0
 40
0.0
 40
0.3333333333333333
 40
0.3333333333333333
 40
0.3333333333333333
 40
0.3333333333333333
 40
1.0
 40
1.0
 40
1.0
 40
1.0
 10
10.27003
 20
8.09212
 30
0.0
 10
10.27003
 20
8.09212
 30
0.0
 10
10.83432
 20
7.99807
 30
0.0
 10
10.83432
 20
7.99807
 30
0.0
 10
10.83432
 20
7.99807
 30
0.0
 10
10.83432
 20
7.99807
 30
0.0
 10
10.27003
 20
8.09212
 30
0.0
 10
10.27003
 20
8.09212
 30
0.0
  0
SPLINE
  5
67
330
1F
100
AcDbEntity
  8
layer 2
 62
     1
100
AcDbSpline
210
0.0
220
0.0
230
1.0
 70
     8
 71
     3
 72
    12
 73
     8
 74
     0
 42
0.0000000001
 43
0.0000000001
 12
1.0
 22
0.0
 32
0.0
 13
1.0
 23
0.0
 33
0.0
 40
0.0
 40
0.0
 40
0.0
 40
0.0
 40
0.3333333333333333
 40
0.3333333333333333
 40
0.3333333333333333
 40
0.3333333333333333
 40
1.0
 40
1.0
 40
1.0
 40
1.0
 10
10.83432
 20
7.99807
 30
0.0
 10
10.83432
 20
7.99807
 30
0.0
 10
10.27003
 20
7.90403
 30
0.0
 10
10.27003
 20
7.90403
 30
0.0
 10
10.27003
 20
7.90403
 30
0.0
 10
10.27003
 20
7.90403
 30
0.0
 10
10.27003
 20
8.09212
 30
0.0
 10
10.27003
 20
8.09212
 30
0.0
  0
SPLINE
  5
68
330
1F
100
AcDbEntity
  8
layer 2
 62
     1
370
     9
100
AcDbSpline
210
0.0
220
0.0
230
1.0
 70
    24
 71
     3
 72
     8
 73
     4
 74
     0
 42
0.0000000001
 43
0.0000000001
 12
1.0
 22
0.0
 32
0.0
 13
1.0
 23
0.0
 33
0.0
 40
0.0
 40
0.0
 40
0.0
 40
0.0
 40
1.0
 40
1.0
 40
1.0
 40
1.0
 10
10.27003
 20
8.09212
 30
0.0
 10
10.27003
 20
8.09212
 30
0.0
 10
10.83432
 20
7.99807
 30
0.0
 10
10.83432
 20
7.99807
 30
0.0
  0
SPLINE
  5
69
330
1F
100
AcDbEntity
  8
layer 2
 62
     1
370
     9
100
AcDbSpline
210
0.0
220
0.0
230
1.0
 70
     8
 71
     3
 72
    12
 73
     8
 74
     0
 42
0.0000000001
 43
0.0000000001
 12
1.0
 22
0.0
 32
0.0
 13
1.0
 23
0.0
 33
0.0
 40
0.0
 40
0.0
 40
0.0
 40
0.0
 40
0.3333333333333333
 40
0.3333333333333333
 40
0.3333333333333333
 40
0.3333333333333333
 40
1.0
 40
1.0
 40
1.0
 40
1.0
 10
10.83432
 20
7.99807
 30
0.0
 10
10.83432
 20
7.99807
 30
0.0
 10
10.27003
 20
7.90403
 30
0.0
 10
10.27003
 20
7.90403
 30
0.0
 10
10.27003
 20
7.90403
 30
0.0
 10
10.27003
 20
7.90403
 30
0.0
 10
10.27003
 20
8.09212
 30
0.0
 10
10.27003
 20
8.09212
 30
0.0
  0
SPLINE
  5
6A
330
1F
100
AcDbEntity
  8
layer 2
 62
     1
100
AcDbSpline
210
0.0
220
0.0
230
1.0
 70
    11
 71
     3
 72
   124
 73
   120
 74
     0
 42
0.0000000001
 43
0.0000000001
 12
1.0
 22
0.0
 32
0.0
 13
1.0
 23
0.0
 33
0.0
 40
0.0
 40
0.0
 40
0.0
 40
0.0
 40
0.032258064516129
 40
0.032258064516129
 40
0.032258064516129
 40
0.032258064516129
 40
0.0645161290322581
 40
0.0645161290322581
 40
0.0645161290322581
 40
0.0645161290322581
 40
0.0967741935483871
 40
0.0967741935483871
 40
0.0967741935483871
 40
0.0967741935483871
 40
0.1290322580645161
 40
0.1290322580645161
 40
0.1290322580645161
 40
0.1290322580645161
 40
0.1612903225806452
 40
0.1612903225806452
 40
0.1612903225806452
 40
0.1612903225806452
 40
0.1935483870967742
 40
0.1935483870967742
 40
0.1935483870967742
 40
0.1935483870967742
 40
0.2258064516129032
 40
0.2258064516129032
 40
0.2258064516129032
 40
0.2258064516129032
 40
0.2580645161290323
 40
0.2580645161290323
 40
0.2580645161290323
 40
0.2580645161290323
 40
0.2903225806451613
 40
0.2903225806451613
 40
0.2903225806451613
 40
0.2903225806451613
 40
0.3225806451612903
 40
0.3225806451612903
 40
0.3225806451612903
 40
0.3225806451612903
 40
0.3548387096774194
 40
0.3548387096774194
 40
0.3548387096774194
 40
0.3548387096774194
 40
0.3870967741935484
 40
0.3870967741935484
 40
0.3870967741935484
 40
0.3870967741935484
 40
0.4193548387096774
 40
0.4193548387096774
 40
0.4193548387096774
 40
0.4193548387096774
 40
0.4516129032258064
 40
0.4516129032258064
 40
0.4516129032258064
 40
0.4516129032258064
 40
0.4838709677419355
 40
0.4838709677419355
 40
0.4838709677419355
 40
0.4838709677419355
 40
0.5161290322580645
 40
0.5161290322580645
 40
0.5161290322580645
 40
0.5161290322580645
 40
0.5483870967741935
 40
0.5483870967741935
 40
0.5483870967741935
 40
0.5483870967741935
 40
0.5806451612903226
 40
0.5806451612903226
 40
0.5806451612903226
 40
0.5806451612903226
 40
0.6129032258064516
 40
0.6129032258064516
 40
0.6129032258064516
 40
0.6129032258064516
 40
0.6451612903225806
 40
0.6451612903225806
 40
0.6451612903225806
 40
0.6451612903225806
 40
0.6774193548387096
 40
0.6774193548387096
 40
0.6774193548387096
 40
0.6774193548387096
 40
0.7096774193548387
 40
0.7096774193548387
 40
0.7096774193548387
 40
0.7096774193548387
 40
0.7419354838709677
 40
0.7419354838709677
 40
0.7419354838709677
 40
0.7419354838709677
 40
0.7741935483870968
 40
0.7741935483870968
 40
0.7741935483870968
 40
0.7741935483870968
 40
0.8064516129032258
 40
0.8064516129032258
 40
0.8064516129032258
 40
0.8064516129032258
 40
0.8387096774193549
 40
0.8387096774193549
 40
0.8387096774193549
 40
0.8387096774193549
 40
0.8709677419354839
 40
0.8709677419354839
 40
0.8709677419354839
 40
0.8709677419354839
 40
0.9032258064516129
 40
0.9032258064516129
 40
0.9032258064516129
 40
0.9032258064516129
 40
0.9354838709677419
 40
0.9354838709677419
 40
0.9354838709677419
 40
0.9354838709677419
 40
1.0
 40
1.0
 40
1.0
 40
1.0
 10
-0.27457
 20
8.33794
 30
0.0
 10
-0.27457
 20
8.33794
 30
0.0
 10
-0.22887
 20
8.34418
 30
0.0
 10
-0.22887
 20
8.34418
 30
0.0
 10
-0.22887
 20
8.34418
 30
0.0
 10
-0.2236
 20
8.31822
 30
0.0
 10
-0.21478
 20
8.29952
 30
0.0
 10
-0.20223
 20
8.28811
 30
0.0
 10
-0.20223
 20
8.28811
 30
0.0
 10
-0.18968
 20
8.27668
 30
0.0
 10
-0.17428
 20
8.27098
 30
0.0
 10
-0.15603
 20
8.27098
 30
0.0
 10
-0.15603
 20
8.27098
 30
0.0
 10
-0.1344
 20
8.27098
 30
0.0
 10
-0.11613
 20
8.27842
 30
0.0
 10
-0.10142
 20
8.2933
 30
0.0
 10
-0.10142
 20
8.2933
 30
0.0
 10
-0.08672
 20
8.30817
 30
0.0
 10
-0.07935
 20
8.32661
 30
0.0
 10
-0.07935
 20
8.34858
 30
0.0
 10
-0.07935
 20
8.34858
 30
0.0
 10
-0.07935
 20
8.36953
 30
0.0
 10
-0.08619
 20
8.38683
 30
0.0
 10
-0.09996
 20
8.40051
 30
0.0
 10
-0.09996
 20
8.40051
 30
0.0
 10
-0.11362
 20
8.41409
 30
0.0
 10
-0.13102
 20
8.42093
 30
0.0
 10
-0.15221
 20
8.42093
 30
0.0
 10
-0.15221
 20
8.42093
 30
0.0
 10
-0.16087
 20
8.42093
 30
0.0
 10
-0.1716
 20
8.41919
 30
0.0
 10
-0.1845
 20
8.41581
 30
0.0
 10
-0.1845
 20
8.41581
 30
0.0
 10
-0.1845
 20
8.41581
 30
0.0
 10
-0.17938
 20
8.45578
 30
0.0
 10
-0.17938
 20
8.45578
 30
0.0
 10
-0.17938
 20
8.45578
 30
0.0
 10
-0.17636
 20
8.45544
 30
0.0
 10
-0.17384
 20
8.45527
 30
0.0
 10
-0.17203
 20
8.45527
 30
0.0
 10
-0.17203
 20
8.45527
 30
0.0
 10
-0.15248
 20
8.45527
 30
0.0
 10
-0.135
 20
8.46037
 30
0.0
 10
-0.11934
 20
8.4705
 30
0.0
 10
-0.11934
 20
8.4705
 30
0.0
 10
-0.10376
 20
8.48062
 30
0.0
 10
-0.09598
 20
8.49619
 30
0.0
 10
-0.09598
 20
8.51722
 30
0.0
 10
-0.09598
 20
8.51722
 30
0.0
 10
-0.09598
 20
8.53392
 30
0.0
 10
-0.10168
 20
8.54776
 30
0.0
 10
-0.11302
 20
8.55876
 30
0.0
 10
-0.11302
 20
8.55876
 30
0.0
 10
-0.12435
 20
8.56975
 30
0.0
 10
-0.13897
 20
8.57519
 30
0.0
 10
-0.15688
 20
8.57519
 30
0.0
 10
-0.15688
 20
8.57519
 30
0.0
 10
-0.17471
 20
8.57519
 30
0.0
 10
-0.1895
 20
8.56958
 30
0.0
 10
-0.20137
 20
8.55832
 30
0.0
 10
-0.20137
 20
8.55832
 30
0.0
 10
-0.21321
 20
8.54708
 30
0.0
 10
-0.22083
 20
8.5302
 30
0.0
 10
-0.22421
 20
8.50771
 30
0.0
 10
-0.22421
 20
8.50771
 30
0.0
 10
-0.22421
 20
8.50771
 30
0.0
 10
-0.26988
 20
8.51601
 30
0.0
 10
-0.26988
 20
8.51601
 30
0.0
 10
-0.26988
 20
8.51601
 30
0.0
 10
-0.26427
 20
8.54665
 30
0.0
 10
-0.25163
 20
8.57043
 30
0.0
 10
-0.23182
 20
8.5873
 30
0.0
 10
-0.23182
 20
8.5873
 30
0.0
 10
-0.2121
 20
8.60419
 30
0.0
 10
-0.18743
 20
8.61258
 30
0.0
 10
-0.15801
 20
8.61258
 30
0.0
 10
-0.15801
 20
8.61258
 30
0.0
 10
-0.13776
 20
8.61258
 30
0.0
 10
-0.11908
 20
8.60825
 30
0.0
 10
-0.10204
 20
8.5995
 30
0.0
 10
-0.10204
 20
8.5995
 30
0.0
 10
-0.08491
 20
8.59085
 30
0.0
 10
-0.07183
 20
8.57901
 30
0.0
 10
-0.06284
 20
8.56403
 30
0.0
 10
-0.06284
 20
8.56403
 30
0.0
 10
-0.05376
 20
8.54897
 30
0.0
 10
-0.04926
 20
8.53306
 30
0.0
 10
-0.04926
 20
8.51618
 30
0.0
 10
-0.04926
 20
8.51618
 30
0.0
 10
-0.04926
 20
8.50018
 30
0.0
 10
-0.05357
 20
8.48565
 30
0.0
 10
-0.06214
 20
8.4725
 30
0.0
 10
-0.06214
 20
8.4725
 30
0.0
 10
-0.0708
 20
8.45934
 30
0.0
 10
-0.0836
 20
8.44887
 30
0.0
 10
-0.10047
 20
8.44109
 30
0.0
 10
-0.10047
 20
8.44109
 30
0.0
 10
-0.0785
 20
8.43606
 30
0.0
 10
-0.06145
 20
8.4255
 30
0.0
 10
-0.04926
 20
8.4095
 30
0.0
 10
-0.04926
 20
8.4095
 30
0.0
 10
-0.03713
 20
8.39358
 30
0.0
 10
-0.03109
 20
8.37351
 30
0.0
 10
-0.03109
 20
8.34954
 30
0.0
 10
-0.03109
 20
8.34954
 30
0.0
 10
-0.03109
 20
8.31709
 30
0.0
 10
-0.04293
 20
8.28949
 30
0.0
 10
-0.06656
 20
8.26691
 30
0.0
 10
-0.06656
 20
8.26691
 30
0.0
 10
-0.09027
 20
8.24432
 30
0.0
 10
-0.1202
 20
8.23308
 30
0.0
 10
-0.15637
 20
8.23308
 30
0.0
 10
-0.15637
 20
8.23308
 30
0.0
 10
-0.18899
 20
8.23308
 30
0.0
 10
-0.21607
 20
8.24285
 30
0.0
 10
-0.23762
 20
8.26232
 30
0.0
 10
-0.23762
 20
8.26232
 30
0.0
 10
-0.25925
 20
8.28178
 30
0.0
 10
-0.27153
 20
8.30696
 30
0.0
 10
-0.27457
 20
8.33794
 30
0.0
  0
SPLINE
  5
6B
330
1F
100
AcDbEntity
  8
layer 2
 62
     1
100
AcDbSpline
210
0.0
220
0.0
230
1.0
 70
    11
 71
     3
 72
    52
 73
    48
 74
     0
 42
0.0000000001
 43
0.0000000001
 12
1.0
 22
0.0
 32
0.0
 13
1.0
 23
0.0
 33
0.0
 40
0.0
 40
0.0
 40
0.0
 40
0.0
 40
0.0769230769230769
 40
0.0769230769230769
 40
0.0769230769230769
 40
0.0769230769230769
 40
0.1538461538461539
 40
0.1538461538461539
 40
0.1538461538461539
 40
0.1538461538461539
 40
0.2307692307692308
 40
0.2307692307692308
 40
0.2307692307692308
 40
0.2307692307692308
 40
0.3076923076923077
 40
0.3076923076923077
 40
0.3076923076923077
 40
0.3076923076923077
 40
0.3846153846153846
 40
0.3846153846153846
 40
0.3846153846153846
 40
0.3846153846153846
 40
0.4615384615384616
 40
0.4615384615384616
 40
0.4615384615384616
 40
0.4615384615384616
 40
0.5384615384615384
 40
0.5384615384615384
 40
0.5384615384615384
 40
0.5384615384615384
 40
0.6153846153846154
 40
0.6153846153846154
 40
0.6153846153846154
 40
0.6153846153846154
 40
0.6923076923076923
 40
0.6923076923076923
 40
0.6923076923076923
 40
0.6923076923076923
 40
0.7692307692307693
 40
0.7692307692307693
 40
0.7692307692307693
 40
0.7692307692307693
 40
0.8461538461538461
 40
0.8461538461538461
 40
0.8461538461538461
 40
0.8461538461538461
 40
1.0
 40
1.0
 40
1.0
 40
1.0
 10
0.01417
 20
8.42274
 30
0.0
 10
0.01417
 20
8.46661
 30
0.0
 10
0.01867
 20
8.50208
 30
0.0
 10
0.02766
 20
8.52891
 30
0.0
 10
0.02766
 20
8.52891
 30
0.0
 10
0.03675
 20
8.55581
 30
0.0
 10
0.05016
 20
8.57649
 30
0.0
 10
0.06799
 20
8.59095
 30
0.0
 10
0.06799
 20
8.59095
 30
0.0
 10
0.08573
 20
8.6054
 30
0.0
 10
0.10814
 20
8.61258
 30
0.0
 10
0.13513
 20
8.61258
 30
0.0
 10
0.13513
 20
8.61258
 30
0.0
 10
0.15504
 20
8.61258
 30
0.0
 10
0.17251
 20
8.60859
 30
0.0
 10
0.18766
 20
8.60054
 30
0.0
 10
0.18766
 20
8.60054
 30
0.0
 10
0.20272
 20
8.5925
 30
0.0
 10
0.21517
 20
8.58091
 30
0.0
 10
0.22486
 20
8.56576
 30
0.0
 10
0.22486
 20
8.56576
 30
0.0
 10
0.23455
 20
8.55071
 30
0.0
 10
0.24216
 20
8.53227
 30
0.0
 10
0.2477
 20
8.51057
 30
0.0
 10
0.2477
 20
8.51057
 30
0.0
 10
0.25333
 20
8.48884
 30
0.0
 10
0.2561
 20
8.45951
 30
0.0
 10
0.2561
 20
8.42274
 30
0.0
 10
0.2561
 20
8.42274
 30
0.0
 10
0.2561
 20
8.37913
 30
0.0
 10
0.25159
 20
8.34382
 30
0.0
 10
0.24269
 20
8.31701
 30
0.0
 10
0.24269
 20
8.31701
 30
0.0
 10
0.23378
 20
8.29009
 30
0.0
 10
0.22036
 20
8.26941
 30
0.0
 10
0.20253
 20
8.25488
 30
0.0
 10
0.20253
 20
8.25488
 30
0.0
 10
0.18479
 20
8.24034
 30
0.0
 10
0.1623
 20
8.23308
 30
0.0
 10
0.13513
 20
8.23308
 30
0.0
 10
0.13513
 20
8.23308
 30
0.0
 10
0.09941
 20
8.23308
 30
0.0
 10
0.07128
 20
8.2458
 30
0.0
 10
0.05086
 20
8.27132
 30
0.0
 10
0.05086
 20
8.27132
 30
0.0
 10
0.02638
 20
8.30247
 30
0.0
 10
0.01417
 20
8.35291
 30
0.0
 10
0.01417
 20
8.42274
 30
0.0
  0
SPLINE
  5
6C
330
1F
100
AcDbEntity
  8
layer 2
 62
     1
100
AcDbSpline
210
0.0
220
0.0
230
1.0
 70
    11
 71
     3
 72
    36
 73
    32
 74
     0
 42
0.0000000001
 43
0.0000000001
 12
1.0
 22
0.0
 32
0.0
 13
1.0
 23
0.0
 33
0.0
 40
0.0
 40
0.0
 40
0.0
 40
0.0
 40
0.1111111111111111
 40
0.1111111111111111
 40
0.1111111111111111
 40
0.1111111111111111
 40
0.2222222222222222
 40
0.2222222222222222
 40
0.2222222222222222
 40
0.2222222222222222
 40
0.3333333333333333
 40
0.3333333333333333
 40
0.3333333333333333
 40
0.3333333333333333
 40
0.4444444444444444
 40
0.4444444444444444
 40
0.4444444444444444
 40
0.4444444444444444
 40
0.5555555555555556
 40
0.5555555555555556
 40
0.5555555555555556
 40
0.5555555555555556
 40
0.6666666666666666
 40
0.6666666666666666
 40
0.6666666666666666
 40
0.6666666666666666
 40
0.7777777777777778
 40
0.7777777777777778
 40
0.7777777777777778
 40
0.7777777777777778
 40
1.0
 40
1.0
 40
1.0
 40
1.0
 10
0.06089
 20
8.42257
 30
0.0
 10
0.06089
 20
8.36139
 30
0.0
 10
0.06799
 20
8.32072
 30
0.0
 10
0.08227
 20
8.30065
 30
0.0
 10
0.08227
 20
8.30065
 30
0.0
 10
0.09654
 20
8.2805
 30
0.0
 10
0.1142
 20
8.27045
 30
0.0
 10
0.13513
 20
8.27045
 30
0.0
 10
0.13513
 20
8.27045
 30
0.0
 10
0.15608
 20
8.27045
 30
0.0
 10
0.17372
 20
8.28057
 30
0.0
 10
0.188
 20
8.30073
 30
0.0
 10
0.188
 20
8.30073
 30
0.0
 10
0.20228
 20
8.32098
 30
0.0
 10
0.20937
 20
8.36156
 30
0.0
 10
0.20937
 20
8.42257
 30
0.0
 10
0.20937
 20
8.42257
 30
0.0
 10
0.20937
 20
8.48374
 30
0.0
 10
0.20228
 20
8.52441
 30
0.0
 10
0.188
 20
8.54448
 30
0.0
 10
0.188
 20
8.54448
 30
0.0
 10
0.17382
 20
8.56465
 30
0.0
 10
0.15599
 20
8.57468
 30
0.0
 10
0.13462
 20
8.57468
 30
0.0
 10
0.13462
 20
8.57468
 30
0.0
 10
0.11367
 20
8.57468
 30
0.0
 10
0.09689
 20
8.56576
 30
0.0
 10
0.08435
 20
8.54803
 30
0.0
 10
0.08435
 20
8.54803
 30
0.0
 10
0.06869
 20
8.52545
 30
0.0
 10
0.06089
 20
8.48357
 30
0.0
 10
0.06089
 20
8.42257
 30
0.0
  0
SPLINE
  5
6D
330
1F
100
AcDbEntity
  8
layer 2
 62
     1
100
AcDbSpline
210
0.0
220
0.0
230
1.0
 70
    11
 71
     3
 72
    28
 73
    24
 74
     0
 42
0.0000000001
 43
0.0000000001
 12
1.0
 22
0.0
 32
0.0
 13
1.0
 23
0.0
 33
0.0
 40
0.0
 40
0.0
 40
0.0
 40
0.0
 40
0.1428571428571428
 40
0.1428571428571428
 40
0.1428571428571428
 40
0.1428571428571428
 40
0.2857142857142857
 40
0.2857142857142857
 40
0.2857142857142857
 40
0.2857142857142857
 40
0.4285714285714285
 40
0.4285714285714285
 40
0.4285714285714285
 40
0.4285714285714285
 40
0.5714285714285714
 40
0.5714285714285714
 40
0.5714285714285714
 40
0.5714285714285714
 40
0.7142857142857143
 40
0.7142857142857143
 40
0.7142857142857143
 40
0.7142857142857143
 40
1.0
 40
1.0
 40
1.0
 40
1.0
 10
0.31761
 20
8.47968
 30
0.0
 10
0.31761
 20
8.47968
 30
0.0
 10
0.30498
 20
8.55027
 30
0.0
 10
0.30498
 20
8.55027
 30
0.0
 10
0.30498
 20
8.55027
 30
0.0
 10
0.30498
 20
8.55027
 30
0.0
 10
0.30498
 20
8.61102
 30
0.0
 10
0.30498
 20
8.61102
 30
0.0
 10
0.30498
 20
8.61102
 30
0.0
 10
0.30498
 20
8.61102
 30
0.0
 10
0.3569
 20
8.61102
 30
0.0
 10
0.3569
 20
8.61102
 30
0.0
 10
0.3569
 20
8.61102
 30
0.0
 10
0.3569
 20
8.61102
 30
0.0
 10
0.3569
 20
8.55027
 30
0.0
 10
0.3569
 20
8.55027
 30
0.0
 10
0.3569
 20
8.55027
 30
0.0
 10
0.3569
 20
8.55027
 30
0.0
 10
0.34548
 20
8.47968
 30
0.0
 10
0.34548
 20
8.47968
 30
0.0
 10
0.34548
 20
8.47968
 30
0.0
 10
0.34548
 20
8.47968
 30
0.0
 10
0.31761
 20
8.47968
 30
0.0
 10
0.31761
 20
8.47968
 30
0.0
  0
SPLINE
  5
6E
330
1F
100
AcDbEntity
  8
layer 2
 62
     1
100
AcDbSpline
210
0.0
220
0.0
230
1.0
 70
    11
 71
     3
 72
    28
 73
    24
 74
     0
 42
0.0000000001
 43
0.0000000001
 12
1.0
 22
0.0
 32
0.0
 13
1.0
 23
0.0
 33
0.0
 40
0.0
 40
0.0
 40
0.0
 40
0.0
 40
0.1428571428571428
 40
0.1428571428571428
 40
0.1428571428571428
 40
0.1428571428571428
 40
0.2857142857142857
 40
0.2857142857142857
 40
0.2857142857142857
 40
0.2857142857142857
 40
0.4285714285714285
 40
0.4285714285714285
 40
0.4285714285714285
 40
0.4285714285714285
 40
0.5714285714285714
 40
0.5714285714285714
 40
0.5714285714285714
 40
0.5714285714285714
 40
0.7142857142857143
 40
0.7142857142857143
 40
0.7142857142857143
 40
0.7142857142857143
 40
1.0
 40
1.0
 40
1.0
 40
1.0
 10
0.40147
 20
8.47968
 30
0.0
 10
0.40147
 20
8.47968
 30
0.0
 10
0.38909
 20
8.55027
 30
0.0
 10
0.38909
 20
8.55027
 30
0.0
 10
0.38909
 20
8.55027
 30
0.0
 10
0.38909
 20
8.55027
 30
0.0
 10
0.38909
 20
8.61102
 30
0.0
 10
0.38909
 20
8.61102
 30
0.0
 10
0.38909
 20
8.61102
 30
0.0
 10
0.38909
 20
8.61102
 30
0.0
 10
0.44101
 20
8.61102
 30
0.0
 10
0.44101
 20
8.61102
 30
0.0
 10
0.44101
 20
8.61102
 30
0.0
 10
0.44101
 20
8.61102
 30
0.0
 10
0.44101
 20
8.55027
 30
0.0
 10
0.44101
 20
8.55027
 30
0.0
 10
0.44101
 20
8.55027
 30
0.0
 10
0.44101
 20
8.55027
 30
0.0
 10
0.4288
 20
8.47968
 30
0.0
 10
0.4288
 20
8.47968
 30
0.0
 10
0.4288
 20
8.47968
 30
0.0
 10
0.4288
 20
8.47968
 30
0.0
 10
0.40147
 20
8.47968
 30
0.0
 10
0.40147
 20
8.47968
 30
0.0
  0
SPLINE
  5
6F
330
1F
100
AcDbEntity
  8
layer 2
 62
     1
370
     0
100
AcDbSpline
210
0.0
220
0.0
230
1.0
 70
    24
 71
     3
 72
     8
 73
     4
 74
     0
 42
0.0000000001
 43
0.0000000001
 12
1.0
 22
0.0
 32
0.0
 13
1.0
 23
0.0
 33
0.0
 40
0.0
 40
0.0
 40
0.0
 40
0.0
 40
1.0
 40
1.0
 40
1.0
 40
1.0
 10
10.69325
 20
6.71207
 30
0.0
 10
10.69325
 20
6.71207
 30
0.0
 10
12.69788
 20
6.71207
 30
0.0
 10
12.69788
 20
6.71207
 30
0.0
  0
SPLINE
  5
70
330
1F
100
AcDbEntity
  8
layer 2
 62
     1
370
     0
100
AcDbSpline
210
0.0
220
0.0
230
1.0
 70
    24
 71
     3
 72
     8
 73
     4
 74
     0
 42
0.0000000001
 43
0.0000000001
 12
1.0
 22
0.0
 32
0.0
 13
1.0
 23
0.0
 33
0.0
 40
0.0
 40
0.0
 40
0.0
 40
0.0
 40
1.0
 40
1.0
 40
1.0
 40
1.0
 10
10.69325
 20
-4.75441
 30
0.0
 10
10.69325
 20
-4.75441
 30
0.0
 10
12.69788
 20
-4.75441
 30
0.0
 10
12.69788
 20
-4.75441
 30
0.0
  0
SPLINE
  5
71
330
1F
100
AcDbEntity
  8
layer 2
 62
     1
370
     0
100
AcDbSpline
210
0.0
220
0.0
230
1.0
 70
    24
 71
     3
 72
     8
 73
     4
 74
     0
 42
0.0000000001
 43
0.0000000001
 12
1.0
 22
0.0
 32
0.0
 13
1.0
 23
0.0
 33
0.0
 40
0.0
 40
0.0
 40
0.0
 40
0.0
 40
1.0
 40
1.0
 40
1.0
 40
1.0
 10
12.41574
 20
6.14776
 30
0.0
 10
12.41574
 20
6.14776
 30
0.0
 10
12.41574
 20
-4.1901
 30
0.0
 10
12.41574
 20
-4.1901
 30
0.0
  0
SPLINE
  5
72
330
1F
100
AcDbEntity
  8
layer 2
 62
     1
100
AcDbSpline
210
0.0
220
0.0
230
1.0
 70
    27
 71
     3
 72
    12
 73
     8
 74
     0
 42
0.0000000001
 43
0.0000000001
 12
1.0
 22
0.0
 32
0.0
 13
1.0
 23
0.0
 33
0.0
 40
0.0
 40
0.0
 40
0.0
 40
0.0
 40
0.3333333333333333
 40
0.3333333333333333
 40
0.3333333333333333
 40
0.3333333333333333
 40
1.0
 40
1.0
 40
1.0
 40
1.0
 10
12.32169
 20
6.14776
 30
0.0
 10
12.32169
 20
6.14776
 30
0.0
 10
12.41574
 20
6.71207
 30
0.0
 10
12.41574
 20
6.71207
 30
0.0
 10
12.41574
 20
6.71207
 30
0.0
 10
12.41574
 20
6.71207
 30
0.0
 10
12.32169
 20
6.14776
 30
0.0
 10
12.32169
 20
6.14776
 30
0.0
  0
SPLINE
  5
73
330
1F
100
AcDbEntity
  8
layer 2
 62
     1
100
AcDbSpline
210
0.0
220
0.0
230
1.0
 70
     8
 71
     3
 72
    12
 73
     8
 74
     0
 42
0.0000000001
 43
0.0000000001
 12
1.0
 22
0.0
 32
0.0
 13
1.0
 23
0.0
 33
0.0
 40
0.0
 40
0.0
 40
0.0
 40
0.0
 40
0.3333333333333333
 40
0.3333333333333333
 40
0.3333333333333333
 40
0.3333333333333333
 40
1.0
 40
1.0
 40
1.0
 40
1.0
 10
12.41574
 20
6.71207
 30
0.0
 10
12.41574
 20
6.71207
 30
0.0
 10
12.50978
 20
6.14776
 30
0.0
 10
12.50978
 20
6.14776
 30
0.0
 10
12.50978
 20
6.14776
 30
0.0
 10
12.50978
 20
6.14776
 30
0.0
 10
12.32169
 20
6.14776
 30
0.0
 10
12.32169
 20
6.14776
 30
0.0
  0
SPLINE
  5
74
330
1F
100
AcDbEntity
  8
layer 2
 62
     1
370
     9
100
AcDbSpline
210
0.0
220
0.0
230
1.0
 70
    24
 71
     3
 72
     8
 73
     4
 74
     0
 42
0.0000000001
 43
0.0000000001
 12
1.0
 22
0.0
 32
0.0
 13
1.0
 23
0.0
 33
0.0
 40
0.0
 40
0.0
 40
0.0
 40
0.0
 40
1.0
 40
1.0
 40
1.0
 40
1.0
 10
12.32169
 20
6.14776
 30
0.0
 10
12.32169
 20
6.14776
 30
0.0
 10
12.41574
 20
6.71207
 30
0.0
 10
12.41574
 20
6.71207
 30
0.0
  0
SPLINE
  5
75
330
1F
100
AcDbEntity
  8
layer 2
 62
     1
370
     9
100
AcDbSpline
210
0.0
220
0.0
230
1.0
 70
     8
 71
     3
 72
    12
 73
     8
 74
     0
 42
0.0000000001
 43
0.0000000001
 12
1.0
 22
0.0
 32
0.0
 13
1.0
 23
0.0
 33
0.0
 40
0.0
 40
0.0
 40
0.0
 40
0.0
 40
0.3333333333333333
 40
0.3333333333333333
 40
0.3333333333333333
 40
0.3333333333333333
 40
1.0
 40
1.0
 40
1.0
 40
1.0
 10
12.41574
 20
6.71207
 30
0.0
 10
12.41574
 20
6.71207
 30
0.0
 10
12.50978
 20
6.14776
 30
0.0
 10
12.50978
 20
6.14776
 30
0.0
 10
12.50978
 20
6.14776
 30
0.0
 10
12.50978
 20
6.14776
 30
0.0
 10
12.32169
 20
6.14776
 30
0.0
 10
12.32169
 20
6.14776
 30
0.0
  0
SPLINE
  5
76
330
1F
100
AcDbEntity
  8
layer 2
 62
     1
100
AcDbSpline
210
0.0
220
0.0
230
1.0
 70
    27
 71
     3
 72
    12
 73
     8
 74
     0
 42
0.0000000001
 43
0.0000000001
 12
1.0
 22
0.0
 32
0.0
 13
1.0
 23
0.0
 33
0.0
 40
0.0
 40
0.0
 40
0.0
 40
0.0
 40
0.3333333333333333
 40
0.3333333333333333
 40
0.3333333333333333
 40
0.3333333333333333
 40
1.0
 40
1.0
 40
1.0
 40
1.0
 10
12.32169
 20
-4.1901
 30
0.0
 10
12.32169
 20
-4.1901
 30
0.0
 10
12.41574
 20
-4.75441
 30
0.0
 10
12.41574
 20
-4.75441
 30
0.0
 10
12.41574
 20
-4.75441
 30
0.0
 10
12.41574
 20
-4.75441
 30
0.0
 10
12.32169
 20
-4.1901
 30
0.0
 10
12.32169
 20
-4.1901
 30
0.0
  0
SPLINE
  5
77
330
1F
100
AcDbEntity
  8
layer 2
 62
     1
100
AcDbSpline
210
0.0
220
0.0
230
1.0
 70
     8
 71
     3
 72
    12
 73
     8
 74
     0
 42
0.0000000001
 43
0.0000000001
 12
1.0
 22
0.0
 32
0.0
 13
1.0
 23
0.0
 33
0.0
 40
0.0
 40
0.0
 40
0.0
 40
0.0
 40
0.3333333333333333
 40
0.3333333333333333
 40
0.3333333333333333
 40
0.3333333333333333
 40
1.0
 40
1.0
 40
1.0
 40
1.0
 10
12.41574
 20
-4.75441
 30
0.0
 10
12.41574
 20
-4.75441
 30
0.0
 10
12.50978
 20
-4.1901
 30
0.0
 10
12.50978
 20
-4.1901
 30
0.0
 10
12.50978
 20
-4.1901
 30
0.0
 10
12.50978
 20
-4.1901
 30
0.0
 10
12.32169
 20
-4.1901
 30
0.0
 10
12.32169
 20
-4.1901
 30
0.0
  0
SPLINE
  5
78
330
1F
100
AcDbEntity
  8
layer 2
 62
     1
370
     9
100
AcDbSpline
210
0.0
220
0.0
230
1.0
 70
    24
 71
     3
 72
     8
 73
     4
 74
     0
 42
0.0000000001
 43
0.0000000001
 12
1.0
 22
0.0
 32
0.0
 13
1.0
 23
0.0
 33
0.0
 40
0.0
 40
0.0
 40
0.0
 40
0.0
 40
1.0
 40
1.0
 40
1.0
 40
1.0
 10
12.32169
 20
-4.1901
 30
0.0
 10
12.32169
 20
-4.1901
 30
0.0
 10
12.41574
 20
-4.75441
 30
0.0
 10
12.41574
 20
-4.75441
 30
0.0
  0
SPLINE
  5
79
330
1F
100
AcDbEntity
  8
layer 2
 62
     1
370
     9
100
AcDbSpline
210
0.0
220
0.0
230
1.0
 70
     8
 71
     3
 72
    12
 73
     8
 74
     0
 42
0.0000000001
 43
0.0000000001
 12
1.0
 22
0.0
 32
0.0
 13
1.0
 23
0.0
 33
0.0
 40
0.0
 40
0.0
 40
0.0
 40
0.0
 40
0.3333333333333333
 40
0.3333333333333333
 40
0.3333333333333333
 40
0.3333333333333333
 40
1.0
 40
1.0
 40
1.0
 40
1.0
 10
12.41574
 20
-4.75441
 30
0.0
 10
12.41574
 20
-4.75441
 30
0.0
 10
12.50978
 20
-4.1901
 30
0.0
 10
12.50978
 20
-4.1901
 30
0.0
 10
12.50978
 20
-4.1901
 30
0.0
 10
12.50978
 20
-4.1901
 30
0.0
 10
12.32169
 20
-4.1901
 30
0.0
 10
12.32169
 20
-4.1901
 30
0.0
  0
SPLINE
  5
7A
330
1F
100
AcDbEntity
  8
layer 2
 62
     1
100
AcDbSpline
210
0.0
220
0.0
230
1.0
 70
    11
 71
     3
 72
    40
 73
    36
 74
     0
 42
0.0000000001
 43
0.0000000001
 12
1.0
 22
0.0
 32
0.0
 13
1.0
 23
0.0
 33
0.0
 40
0.0
 40
0.0
 40
0.0
 40
0.0
 40
0.1
 40
0.1
 40
0.1
 40
0.1
 40
0.2
 40
0.2
 40
0.2
 40
0.2
 40
0.3
 40
0.3
 40
0.3
 40
0.3
 40
0.4
 40
0.4
 40
0.4
 40
0.4
 40
0.5
 40
0.5
 40
0.5
 40
0.5
 40
0.6
 40
0.6
 40
0.6
 40
0.6
 40
0.7
 40
0.7
 40
0.7
 40
0.7
 40
0.8
 40
0.8
 40
0.8
 40
0.8
 40
1.0
 40
1.0
 40
1.0
 40
1.0
 10
12.17451
 20
1.92825
 30
0.0
 10
12.17451
 20
1.92825
 30
0.0
 10
12.17451
 20
1.88258
 30
0.0
 10
12.17451
 20
1.88258
 30
0.0
 10
12.17451
 20
1.88258
 30
0.0
 10
12.17451
 20
1.88258
 30
0.0
 10
11.88362
 20
1.88258
 30
0.0
 10
11.88362
 20
1.88258
 30
0.0
 10
11.88362
 20
1.88258
 30
0.0
 10
11.89416
 20
1.87158
 30
0.0
 10
11.90464
 20
1.85713
 30
0.0
 10
11.91511
 20
1.8393
 30
0.0
 10
11.91511
 20
1.8393
 30
0.0
 10
11.92557
 20
1.82148
 30
0.0
 10
11.93345
 20
1.80539
 30
0.0
 10
11.93864
 20
1.7912
 30
0.0
 10
11.93864
 20
1.7912
 30
0.0
 10
11.93864
 20
1.7912
 30
0.0
 10
11.89452
 20
1.7912
 30
0.0
 10
11.89452
 20
1.7912
 30
0.0
 10
11.89452
 20
1.7912
 30
0.0
 10
11.88258
 20
1.81672
 30
0.0
 10
11.86803
 20
1.83905
 30
0.0
 10
11.8509
 20
1.85817
 30
0.0
 10
11.8509
 20
1.85817
 30
0.0
 10
11.83386
 20
1.87729
 30
0.0
 10
11.81733
 20
1.89087
 30
0.0
 10
11.80124
 20
1.89884
 30
0.0
 10
11.80124
 20
1.89884
 30
0.0
 10
11.80124
 20
1.89884
 30
0.0
 10
11.80124
 20
1.92825
 30
0.0
 10
11.80124
 20
1.92825
 30
0.0
 10
11.80124
 20
1.92825
 30
0.0
 10
11.80124
 20
1.92825
 30
0.0
 10
12.17451
 20
1.92825
 30
0.0
 10
12.17451
 20
1.92825
 30
0.0
  0
SPLINE
  5
7B
330
1F
100
AcDbEntity
  8
layer 2
 62
     1
100
AcDbSpline
210
0.0
220
0.0
230
1.0
 70
    11
 71
     3
 72
    80
 73
    76
 74
     0
 42
0.0000000001
 43
0.0000000001
 12
1.0
 22
0.0
 32
0.0
 13
1.0
 23
0.0
 33
0.0
 40
0.0
 40
0.0
 40
0.0
 40
0.0
 40
0.05
 40
0.05
 40
0.05
 40
0.05
 40
0.1
 40
0.1
 40
0.1
 40
0.1
 40
0.15
 40
0.15
 40
0.15
 40
0.15
 40
0.2
 40
0.2
 40
0.2
 40
0.2
 40
0.25
 40
0.25
 40
0.25
 40
0.25
 40
0.3
 40
0.3
 40
0.3
 40
0.3
 40
0.35
 40
0.35
 40
0.35
 40
0.35
 40
0.4
 40
0.4
 40
0.4
 40
0.4
 40
0.45
 40
0.45
 40
0.45
 40
0.45
 40
0.5
 40
0.5
 40
0.5
 40
0.5
 40
0.55
 40
0.55
 40
0.55
 40
0.55
 40
0.6
 40
0.6
 40
0.6
 40
0.6
 40
0.65
 40
0.65
 40
0.65
 40
0.65
 40
0.7
 40
0.7
 40
0.7
 40
0.7
 40
0.75
 40
0.75
 40
0.75
 40
0.75
 40
0.8
 40
0.8
 40
0.8
 40
0.8
 40
0.85
 40
0.85
 40
0.85
 40
0.85
 40
0.9
 40
0.9
 40
0.9
 40
0.9
 40
1.0
 40
1.0
 40
1.0
 40
1.0
 10
11.89365
 20
2.28292
 30
0.0
 10
11.89365
 20
2.28292
 30
0.0
 10
11.89728
 20
2.23776
 30
0.0
 10
11.89728
 20
2.23776
 30
0.0
 10
11.89728
 20
2.23776
 30
0.0
 10
11.87937
 20
2.2337
 30
0.0
 10
11.8663
 20
2.2279
 30
0.0
 10
11.85817
 20
2.22036
 30
0.0
 10
11.85817
 20
2.22036
 30
0.0
 10
11.8451
 20
2.20799
 30
0.0
 10
11.83862
 20
2.19268
 30
0.0
 10
11.83862
 20
2.17451
 30
0.0
 10
11.83862
 20
2.17451
 30
0.0
 10
11.83862
 20
2.15989
 30
0.0
 10
11.84268
 20
2.14691
 30
0.0
 10
11.85082
 20
2.13575
 30
0.0
 10
11.85082
 20
2.13575
 30
0.0
 10
11.86129
 20
2.12137
 30
0.0
 10
11.87651
 20
2.11013
 30
0.0
 10
11.89659
 20
2.10174
 30
0.0
 10
11.89659
 20
2.10174
 30
0.0
 10
11.91675
 20
2.09343
 30
0.0
 10
11.94539
 20
2.08911
 30
0.0
 10
11.98251
 20
2.08877
 30
0.0
 10
11.98251
 20
2.08877
 30
0.0
 10
11.96581
 20
2.09974
 30
0.0
 10
11.95334
 20
2.11325
 30
0.0
 10
11.9453
 20
2.12917
 30
0.0
 10
11.9453
 20
2.12917
 30
0.0
 10
11.93717
 20
2.14508
 30
0.0
 10
11.93311
 20
2.1617
 30
0.0
 10
11.93311
 20
2.17918
 30
0.0
 10
11.93311
 20
2.17918
 30
0.0
 10
11.93311
 20
2.20963
 30
0.0
 10
11.94435
 20
2.23559
 30
0.0
 10
11.96676
 20
2.25705
 30
0.0
 10
11.96676
 20
2.25705
 30
0.0
 10
11.98918
 20
2.27843
 30
0.0
 10
12.01808
 20
2.28916
 30
0.0
 10
12.05363
 20
2.28916
 30
0.0
 10
12.05363
 20
2.28916
 30
0.0
 10
12.077
 20
2.28916
 30
0.0
 10
12.09863
 20
2.28413
 30
0.0
 10
12.11869
 20
2.2741
 30
0.0
 10
12.11869
 20
2.2741
 30
0.0
 10
12.13877
 20
2.26398
 30
0.0
 10
12.15409
 20
2.25021
 30
0.0
 10
12.16473
 20
2.23256
 30
0.0
 10
12.16473
 20
2.23256
 30
0.0
 10
12.17538
 20
2.215
 30
0.0
 10
12.18073
 20
2.19501
 30
0.0
 10
12.18073
 20
2.1727
 30
0.0
 10
12.18073
 20
2.1727
 30
0.0
 10
12.18073
 20
2.13471
 30
0.0
 10
12.16671
 20
2.10364
 30
0.0
 10
12.13877
 20
2.07959
 30
0.0
 10
12.13877
 20
2.07959
 30
0.0
 10
12.11082
 20
2.05562
 30
0.0
 10
12.0647
 20
2.0436
 30
0.0
 10
12.00051
 20
2.0436
 30
0.0
 10
12.00051
 20
2.0436
 30
0.0
 10
11.92869
 20
2.0436
 30
0.0
 10
11.87642
 20
2.05692
 30
0.0
 10
11.84381
 20
2.08348
 30
0.0
 10
11.84381
 20
2.08348
 30
0.0
 10
11.81542
 20
2.10668
 30
0.0
 10
11.80124
 20
2.1379
 30
0.0
 10
11.80124
 20
2.17727
 30
0.0
 10
11.80124
 20
2.17727
 30
0.0
 10
11.80124
 20
2.20651
 30
0.0
 10
11.80945
 20
2.23058
 30
0.0
 10
11.82581
 20
2.24926
 30
0.0
 10
11.82581
 20
2.24926
 30
0.0
 10
11.84217
 20
2.26796
 30
0.0
 10
11.86475
 20
2.2792
 30
0.0
 10
11.89365
 20
2.28292
 30
0.0
  0
SPLINE
  5
7C
330
1F
100
AcDbEntity
  8
layer 2
 62
     1
100
AcDbSpline
210
0.0
220
0.0
230
1.0
 70
    11
 71
     3
 72
    40
 73
    36
 74
     0
 42
0.0000000001
 43
0.0000000001
 12
1.0
 22
0.0
 32
0.0
 13
1.0
 23
0.0
 33
0.0
 40
0.0
 40
0.0
 40
0.0
 40
0.0
 40
0.1
 40
0.1
 40
0.1
 40
0.1
 40
0.2
 40
0.2
 40
0.2
 40
0.2
 40
0.3
 40
0.3
 40
0.3
 40
0.3
 40
0.4
 40
0.4
 40
0.4
 40
0.4
 40
0.5
 40
0.5
 40
0.5
 40
0.5
 40
0.6
 40
0.6
 40
0.6
 40
0.6
 40
0.7
 40
0.7
 40
0.7
 40
0.7
 40
0.8
 40
0.8
 40
0.8
 40
0.8
 40
1.0
 40
1.0
 40
1.0
 40
1.0
 10
12.05407
 20
2.09602
 30
0.0
 10
12.0698
 20
2.09602
 30
0.0
 10
12.08486
 20
2.0994
 30
0.0
 10
12.09923
 20
2.10607
 30
0.0
 10
12.09923
 20
2.10607
 30
0.0
 10
12.11359
 20
2.11272
 30
0.0
 10
12.12449
 20
2.12207
 30
0.0
 10
12.13203
 20
2.13393
 30
0.0
 10
12.13203
 20
2.13393
 30
0.0
 10
12.13955
 20
2.14587
 30
0.0
 10
12.14336
 20
2.15849
 30
0.0
 10
12.14336
 20
2.17191
 30
0.0
 10
12.14336
 20
2.17191
 30
0.0
 10
12.14336
 20
2.19138
 30
0.0
 10
12.13558
 20
2.20799
 30
0.0
 10
12.12
 20
2.22176
 30
0.0
 10
12.12
 20
2.22176
 30
0.0
 10
12.10443
 20
2.23551
 30
0.0
 10
12.08331
 20
2.24242
 30
0.0
 10
12.05658
 20
2.24242
 30
0.0
 10
12.05658
 20
2.24242
 30
0.0
 10
12.03087
 20
2.24242
 30
0.0
 10
12.01062
 20
2.23559
 30
0.0
 10
11.99583
 20
2.222
 30
0.0
 10
11.99583
 20
2.222
 30
0.0
 10
11.98104
 20
2.20842
 30
0.0
 10
11.97359
 20
2.19112
 30
0.0
 10
11.97359
 20
2.17009
 30
0.0
 10
11.97359
 20
2.17009
 30
0.0
 10
11.97359
 20
2.1495
 30
0.0
 10
11.98104
 20
2.13193
 30
0.0
 10
11.99583
 20
2.11758
 30
0.0
 10
11.99583
 20
2.11758
 30
0.0
 10
12.01062
 20
2.1032
 30
0.0
 10
12.03002
 20
2.09602
 30
0.0
 10
12.05407
 20
2.09602
 30
0.0
  0
SPLINE
  5
7D
330
1F
100
AcDbEntity
  8
layer 2
 62
     1
100
AcDbSpline
210
0.0
220
0.0
230
1.0
 70
    11
 71
     3
 72
    28
 73
    24
 74
     0
 42
0.0000000001
 43
0.0000000001
 12
1.0
 22
0.0
 32
0.0
 13
1.0
 23
0.0
 33
0.0
 40
0.0
 40
0.0
 40
0.0
 40
0.0
 40
0.1428571428571428
 40
0.1428571428571428
 40
0.1428571428571428
 40
0.1428571428571428
 40
0.2857142857142857
 40
0.2857142857142857
 40
0.2857142857142857
 40
0.2857142857142857
 40
0.4285714285714285
 40
0.4285714285714285
 40
0.4285714285714285
 40
0.4285714285714285
 40
0.5714285714285714
 40
0.5714285714285714
 40
0.5714285714285714
 40
0.5714285714285714
 40
0.7142857142857143
 40
0.7142857142857143
 40
0.7142857142857143
 40
0.7142857142857143
 40
1.0
 40
1.0
 40
1.0
 40
1.0
 10
11.93415
 20
2.34912
 30
0.0
 10
11.93415
 20
2.34912
 30
0.0
 10
11.86354
 20
2.33648
 30
0.0
 10
11.86354
 20
2.33648
 30
0.0
 10
11.86354
 20
2.33648
 30
0.0
 10
11.86354
 20
2.33648
 30
0.0
 10
11.8028
 20
2.33648
 30
0.0
 10
11.8028
 20
2.33648
 30
0.0
 10
11.8028
 20
2.33648
 30
0.0
 10
11.8028
 20
2.33648
 30
0.0
 10
11.8028
 20
2.38839
 30
0.0
 10
11.8028
 20
2.38839
 30
0.0
 10
11.8028
 20
2.38839
 30
0.0
 10
11.8028
 20
2.38839
 30
0.0
 10
11.86354
 20
2.38839
 30
0.0
 10
11.86354
 20
2.38839
 30
0.0
 10
11.86354
 20
2.38839
 30
0.0
 10
11.86354
 20
2.38839
 30
0.0
 10
11.93415
 20
2.37698
 30
0.0
 10
11.93415
 20
2.37698
 30
0.0
 10
11.93415
 20
2.37698
 30
0.0
 10
11.93415
 20
2.37698
 30
0.0
 10
11.93415
 20
2.34912
 30
0.0
 10
11.93415
 20
2.34912
 30
0.0
  0
SPLINE
  5
7E
330
1F
100
AcDbEntity
  8
layer 2
 62
     1
100
AcDbSpline
210
0.0
220
0.0
230
1.0
 70
    11
 71
     3
 72
    28
 73
    24
 74
     0
 42
0.0000000001
 43
0.0000000001
 12
1.0
 22
0.0
 32
0.0
 13
1.0
 23
0.0
 33
0.0
 40
0.0
 40
0.0
 40
0.0
 40
0.0
 40
0.1428571428571428
 40
0.1428571428571428
 40
0.1428571428571428
 40
0.1428571428571428
 40
0.2857142857142857
 40
0.2857142857142857
 40
0.2857142857142857
 40
0.2857142857142857
 40
0.4285714285714285
 40
0.4285714285714285
 40
0.4285714285714285
 40
0.4285714285714285
 40
0.5714285714285714
 40
0.5714285714285714
 40
0.5714285714285714
 40
0.5714285714285714
 40
0.7142857142857143
 40
0.7142857142857143
 40
0.7142857142857143
 40
0.7142857142857143
 40
1.0
 40
1.0
 40
1.0
 40
1.0
 10
11.93415
 20
2.43295
 30
0.0
 10
11.93415
 20
2.43295
 30
0.0
 10
11.86354
 20
2.42058
 30
0.0
 10
11.86354
 20
2.42058
 30
0.0
 10
11.86354
 20
2.42058
 30
0.0
 10
11.86354
 20
2.42058
 30
0.0
 10
11.8028
 20
2.42058
 30
0.0
 10
11.8028
 20
2.42058
 30
0.0
 10
11.8028
 20
2.42058
 30
0.0
 10
11.8028
 20
2.42058
 30
0.0
 10
11.8028
 20
2.47249
 30
0.0
 10
11.8028
 20
2.47249
 30
0.0
 10
11.8028
 20
2.47249
 30
0.0
 10
11.8028
 20
2.47249
 30
0.0
 10
11.86354
 20
2.47249
 30
0.0
 10
11.86354
 20
2.47249
 30
0.0
 10
11.86354
 20
2.47249
 30
0.0
 10
11.86354
 20
2.47249
 30
0.0
 10
11.93415
 20
2.46031
 30
0.0
 10
11.93415
 20
2.46031
 30
0.0
 10
11.93415
 20
2.46031
 30
0.0
 10
11.93415
 20
2.46031
 30
0.0
 10
11.93415
 20
2.43295
 30
0.0
 10
11.93415
 20
2.43295
 30
0.0
  0
SPLINE
  5
7F
330
1F
100
AcDbEntity
  8
layer 2
 62
     1
370
     0
100
AcDbSpline
210
0.0
220
0.0
230
1.0
 70
    24
 71
     3
 72
     8
 73
     4
 74
     0
 42
0.0000000001
 43
0.0000000001
 12
1.0
 22
0.0
 32
0.0
 13
1.0
 23
0.0
 33
0.0
 40
0.0
 40
0.0
 40
0.0
 40
0.0
 40
1.0
 40
1.0
 40
1.0
 40
1.0
 10
-12.60196
 20
-5.78172
 30
0.0
 10
-12.60196
 20
-5.78172
 30
0.0
 10
-10.9177
 20
-4.78774
 30
0.0
 10
-10.9177
 20
-4.78774
 30
0.0
  0
SPLINE
  5
80
330
1F
100
AcDbEntity
  8
layer 2
 62
     1
100
AcDbSpline
210
0.0
220
0.0
230
1.0
 70
    11
 71
     3
 72
    80
 73
    76
 74
     0
 42
0.0000000001
 43
0.0000000001
 12
1.0
 22
0.0
 32
0.0
 13
1.0
 23
0.0
 33
0.0
 40
0.0
 40
0.0
 40
0.0
 40
0.0
 40
0.05
 40
0.05
 40
0.05
 40
0.05
 40
0.1
 40
0.1
 40
0.1
 40
0.1
 40
0.15
 40
0.15
 40
0.15
 40
0.15
 40
0.2
 40
0.2
 40
0.2
 40
0.2
 40
0.25
 40
0.25
 40
0.25
 40
0.25
 40
0.3
 40
0.3
 40
0.3
 40
0.3
 40
0.35
 40
0.35
 40
0.35
 40
0.35
 40
0.4
 40
0.4
 40
0.4
 40
0.4
 40
0.45
 40
0.45
 40
0.45
 40
0.45
 40
0.5
 40
0.5
 40
0.5
 40
0.5
 40
0.55
 40
0.55
 40
0.55
 40
0.55
 40
0.6
 40
0.6
 40
0.6
 40
0.6
 40
0.65
 40
0.65
 40
0.65
 40
0.65
 40
0.7
 40
0.7
 40
0.7
 40
0.7
 40
0.75
 40
0.75
 40
0.75
 40
0.75
 40
0.8
 40
0.8
 40
0.8
 40
0.8
 40
0.85
 40
0.85
 40
0.85
 40
0.85
 40
0.9
 40
0.9
 40
0.9
 40
0.9
 40
1.0
 40
1.0
 40
1.0
 40
1.0
 10
-12.37789
 20
-4.70834
 30
0.0
 10
-12.37789
 20
-4.70834
 30
0.0
 10
-12.56681
 20
-4.38822
 30
0.0
 10
-12.56681
 20
-4.38822
 30
0.0
 10
-12.56681
 20
-4.38822
 30
0.0
 10
-12.56681
 20
-4.38822
 30
0.0
 10
-12.42494
 20
-4.30449
 30
0.0
 10
-12.42494
 20
-4.30449
 30
0.0
 10
-12.42494
 20
-4.30449
 30
0.0
 10
-12.39639
 20
-4.28765
 30
0.0
 10
-12.37299
 20
-4.27776
 30
0.0
 10
-12.35477
 20
-4.27475
 30
0.0
 10
-12.35477
 20
-4.27475
 30
0.0
 10
-12.33657
 20
-4.27172
 30
0.0
 10
-12.31874
 20
-4.27487
 30
0.0
 10
-12.3013
 20
-4.28418
 30
0.0
 10
-12.3013
 20
-4.28418
 30
0.0
 10
-12.28385
 20
-4.29346
 30
0.0
 10
-12.26996
 20
-4.30697
 30
0.0
 10
-12.25957
 20
-4.32455
 30
0.0
 10
-12.25957
 20
-4.32455
 30
0.0
 10
-12.24616
 20
-4.34728
 30
0.0
 10
-12.24224
 20
-4.37079
 30
0.0
 10
-12.24772
 20
-4.39502
 30
0.0
 10
-12.24772
 20
-4.39502
 30
0.0
 10
-12.25321
 20
-4.41926
 30
0.0
 10
-12.27007
 20
-4.44247
 30
0.0
 10
-12.29826
 20
-4.46483
 30
0.0
 10
-12.29826
 20
-4.46483
 30
0.0
 10
-12.28384
 20
-4.46356
 30
0.0
 10
-12.27218
 20
-4.4639
 30
0.0
 10
-12.26329
 20
-4.4657
 30
0.0
 10
-12.26329
 20
-4.4657
 30
0.0
 10
-12.24424
 20
-4.46971
 30
0.0
 10
-12.22414
 20
-4.47705
 30
0.0
 10
-12.20312
 20
-4.48765
 30
0.0
 10
-12.20312
 20
-4.48765
 30
0.0
 10
-12.20312
 20
-4.48765
 30
0.0
 10
-12.0963
 20
-4.54215
 30
0.0
 10
-12.0963
 20
-4.54215
 30
0.0
 10
-12.0963
 20
-4.54215
 30
0.0
 10
-12.0963
 20
-4.54215
 30
0.0
 10
-12.1492
 20
-4.57338
 30
0.0
 10
-12.1492
 20
-4.57338
 30
0.0
 10
-12.1492
 20
-4.57338
 30
0.0
 10
-12.1492
 20
-4.57338
 30
0.0
 10
-12.23084
 20
-4.53173
 30
0.0
 10
-12.23084
 20
-4.53173
 30
0.0
 10
-12.23084
 20
-4.53173
 30
0.0
 10
-12.25453
 20
-4.5197
 30
0.0
 10
-12.2734
 20
-4.51105
 30
0.0
 10
-12.2874
 20
-4.50555
 30
0.0
 10
-12.2874
 20
-4.50555
 30
0.0
 10
-12.30147
 20
-4.50007
 30
0.0
 10
-12.3128
 20
-4.49722
 30
0.0
 10
-12.32155
 20
-4.49686
 30
0.0
 10
-12.32155
 20
-4.49686
 30
0.0
 10
-12.33018
 20
-4.49654
 30
0.0
 10
-12.33834
 20
-4.49753
 30
0.0
 10
-12.34587
 20
-4.49976
 30
0.0
 10
-12.34587
 20
-4.49976
 30
0.0
 10
-12.35121
 20
-4.50161
 30
0.0
 10
-12.35933
 20
-4.5057
 30
0.0
 10
-12.37029
 20
-4.51217
 30
0.0
 10
-12.37029
 20
-4.51217
 30
0.0
 10
-12.37029
 20
-4.51217
 30
0.0
 10
-12.41932
 20
-4.5411
 30
0.0
 10
-12.41932
 20
-4.5411
 30
0.0
 10
-12.41932
 20
-4.5411
 30
0.0
 10
-12.41932
 20
-4.5411
 30
0.0
 10
-12.33542
 20
-4.68328
 30
0.0
 10
-12.33542
 20
-4.68328
 30
0.0
 10
-12.33542
 20
-4.68328
 30
0.0
 10
-12.33542
 20
-4.68328
 30
0.0
 10
-12.37789
 20
-4.70834
 30
0.0
 10
-12.37789
 20
-4.70834
 30
0.0
  0
SPLINE
  5
81
330
1F
100
AcDbEntity
  8
layer 2
 62
     1
100
AcDbSpline
210
0.0
220
0.0
230
1.0
 70
    11
 71
     3
 72
    36
 73
    32
 74
     0
 42
0.0000000001
 43
0.0000000001
 12
1.0
 22
0.0
 32
0.0
 13
1.0
 23
0.0
 33
0.0
 40
0.0
 40
0.0
 40
0.0
 40
0.0
 40
0.1111111111111111
 40
0.1111111111111111
 40
0.1111111111111111
 40
0.1111111111111111
 40
0.2222222222222222
 40
0.2222222222222222
 40
0.2222222222222222
 40
0.2222222222222222
 40
0.3333333333333333
 40
0.3333333333333333
 40
0.3333333333333333
 40
0.3333333333333333
 40
0.4444444444444444
 40
0.4444444444444444
 40
0.4444444444444444
 40
0.4444444444444444
 40
0.5555555555555556
 40
0.5555555555555556
 40
0.5555555555555556
 40
0.5555555555555556
 40
0.6666666666666666
 40
0.6666666666666666
 40
0.6666666666666666
 40
0.6666666666666666
 40
0.7777777777777778
 40
0.7777777777777778
 40
0.7777777777777778
 40
0.7777777777777778
 40
1.0
 40
1.0
 40
1.0
 40
1.0
 10
-12.44095
 20
-4.50444
 30
0.0
 10
-12.44095
 20
-4.50444
 30
0.0
 10
-12.35004
 20
-4.45078
 30
0.0
 10
-12.35004
 20
-4.45078
 30
0.0
 10
-12.35004
 20
-4.45078
 30
0.0
 10
-12.33068
 20
-4.43935
 30
0.0
 10
-12.31682
 20
-4.42845
 30
0.0
 10
-12.3083
 20
-4.41802
 30
0.0
 10
-12.3083
 20
-4.41802
 30
0.0
 10
-12.29976
 20
-4.40764
 30
0.0
 10
-12.29526
 20
-4.39636
 30
0.0
 10
-12.29491
 20
-4.38418
 30
0.0
 10
-12.29491
 20
-4.38418
 30
0.0
 10
-12.29444
 20
-4.37204
 30
0.0
 10
-12.29723
 20
-4.36085
 30
0.0
 10
-12.30334
 20
-4.35049
 30
0.0
 10
-12.30334
 20
-4.35049
 30
0.0
 10
-12.31227
 20
-4.33536
 30
0.0
 10
-12.32511
 20
-4.32606
 30
0.0
 10
-12.34183
 20
-4.32275
 30
0.0
 10
-12.34183
 20
-4.32275
 30
0.0
 10
-12.35854
 20
-4.31945
 30
0.0
 10
-12.37868
 20
-4.32481
 30
0.0
 10
-12.4023
 20
-4.33875
 30
0.0
 10
-12.4023
 20
-4.33875
 30
0.0
 10
-12.4023
 20
-4.33875
 30
0.0
 10
-12.5035
 20
-4.39848
 30
0.0
 10
-12.5035
 20
-4.39848
 30
0.0
 10
-12.5035
 20
-4.39848
 30
0.0
 10
-12.5035
 20
-4.39848
 30
0.0
 10
-12.44095
 20
-4.50444
 30
0.0
 10
-12.44095
 20
-4.50444
 30
0.0
  0
SPLINE
  5
82
330
1F
100
AcDbEntity
  8
layer 2
 62
     1
100
AcDbSpline
210
0.0
220
0.0
230
1.0
 70
    11
 71
     3
 72
    40
 73
    36
 74
     0
 42
0.0000000001
 43
0.0000000001
 12
1.0
 22
0.0
 32
0.0
 13
1.0
 23
0.0
 33
0.0
 40
0.0
 40
0.0
 40
0.0
 40
0.0
 40
0.1
 40
0.1
 40
0.1
 40
0.1
 40
0.2
 40
0.2
 40
0.2
 40
0.2
 40
0.3
 40
0.3
 40
0.3
 40
0.3
 40
0.4
 40
0.4
 40
0.4
 40
0.4
 40
0.5
 40
0.5
 40
0.5
 40
0.5
 40
0.6
 40
0.6
 40
0.6
 40
0.6
 40
0.7
 40
0.7
 40
0.7
 40
0.7
 40
0.8
 40
0.8
 40
0.8
 40
0.8
 40
1.0
 40
1.0
 40
1.0
 40
1.0
 10
-11.92402
 20
-4.44048
 30
0.0
 10
-11.92402
 20
-4.44048
 30
0.0
 10
-11.96336
 20
-4.4637
 30
0.0
 10
-11.96336
 20
-4.4637
 30
0.0
 10
-11.96336
 20
-4.4637
 30
0.0
 10
-11.96336
 20
-4.4637
 30
0.0
 10
-12.1112
 20
-4.21318
 30
0.0
 10
-12.1112
 20
-4.21318
 30
0.0
 10
-12.1112
 20
-4.21318
 30
0.0
 10
-12.11531
 20
-4.22786
 30
0.0
 10
-12.12243
 20
-4.24422
 30
0.0
 10
-12.13246
 20
-4.26228
 30
0.0
 10
-12.13246
 20
-4.26228
 30
0.0
 10
-12.14249
 20
-4.28036
 30
0.0
 10
-12.15234
 20
-4.29532
 30
0.0
 10
-12.16192
 20
-4.30701
 30
0.0
 10
-12.16192
 20
-4.30701
 30
0.0
 10
-12.16192
 20
-4.30701
 30
0.0
 10
-12.18435
 20
-4.26901
 30
0.0
 10
-12.18435
 20
-4.26901
 30
0.0
 10
-12.18435
 20
-4.26901
 30
0.0
 10
-12.16845
 20
-4.24575
 30
0.0
 10
-12.1566
 20
-4.22189
 30
0.0
 10
-12.14885
 20
-4.19741
 30
0.0
 10
-12.14885
 20
-4.19741
 30
0.0
 10
-12.14103
 20
-4.17302
 30
0.0
 10
-12.13773
 20
-4.15187
 30
0.0
 10
-12.13906
 20
-4.13397
 30
0.0
 10
-12.13906
 20
-4.13397
 30
0.0
 10
-12.13906
 20
-4.13397
 30
0.0
 10
-12.11373
 20
-4.11901
 30
0.0
 10
-12.11373
 20
-4.11901
 30
0.0
 10
-12.11373
 20
-4.11901
 30
0.0
 10
-12.11373
 20
-4.11901
 30
0.0
 10
-11.92402
 20
-4.44048
 30
0.0
 10
-11.92402
 20
-4.44048
 30
0.0
  0
SPLINE
  5
83
330
1F
100
AcDbEntity
  8
layer 2
 62
     1
100
AcDbSpline
210
0.0
220
0.0
230
1.0
 70
    11
 71
     3
 72
    52
 73
    48
 74
     0
 42
0.0000000001
 43
0.0000000001
 12
1.0
 22
0.0
 32
0.0
 13
1.0
 23
0.0
 33
0.0
 40
0.0
 40
0.0
 40
0.0
 40
0.0
 40
0.0769230769230769
 40
0.0769230769230769
 40
0.0769230769230769
 40
0.0769230769230769
 40
0.1538461538461539
 40
0.1538461538461539
 40
0.1538461538461539
 40
0.1538461538461539
 40
0.2307692307692308
 40
0.2307692307692308
 40
0.2307692307692308
 40
0.2307692307692308
 40
0.3076923076923077
 40
0.3076923076923077
 40
0.3076923076923077
 40
0.3076923076923077
 40
0.3846153846153846
 40
0.3846153846153846
 40
0.3846153846153846
 40
0.3846153846153846
 40
0.4615384615384616
 40
0.4615384615384616
 40
0.4615384615384616
 40
0.4615384615384616
 40
0.5384615384615384
 40
0.5384615384615384
 40
0.5384615384615384
 40
0.5384615384615384
 40
0.6153846153846154
 40
0.6153846153846154
 40
0.6153846153846154
 40
0.6153846153846154
 40
0.6923076923076923
 40
0.6923076923076923
 40
0.6923076923076923
 40
0.6923076923076923
 40
0.7692307692307693
 40
0.7692307692307693
 40
0.7692307692307693
 40
0.7692307692307693
 40
0.8461538461538461
 40
0.8461538461538461
 40
0.8461538461538461
 40
0.8461538461538461
 40
1.0
 40
1.0
 40
1.0
 40
1.0
 10
-11.91613
 20
-4.22284
 30
0.0
 10
-11.93842
 20
-4.18505
 30
0.0
 10
-11.95258
 20
-4.15221
 30
0.0
 10
-11.95846
 20
-4.12455
 30
0.0
 10
-11.95846
 20
-4.12455
 30
0.0
 10
-11.9643
 20
-4.09675
 30
0.0
 10
-11.96326
 20
-4.07212
 30
0.0
 10
-11.95526
 20
-4.05062
 30
0.0
 10
-11.95526
 20
-4.05062
 30
0.0
 10
-11.94734
 20
-4.02916
 30
0.0
 10
-11.93168
 20
-4.01159
 30
0.0
 10
-11.90844
 20
-3.99787
 30
0.0
 10
-11.90844
 20
-3.99787
 30
0.0
 10
-11.8913
 20
-3.98774
 30
0.0
 10
-11.87422
 20
-3.9823
 30
0.0
 10
-11.85708
 20
-3.98153
 30
0.0
 10
-11.85708
 20
-3.98153
 30
0.0
 10
-11.84003
 20
-3.98081
 30
0.0
 10
-11.8234
 20
-3.98446
 30
0.0
 10
-11.80737
 20
-3.99258
 30
0.0
 10
-11.80737
 20
-3.99258
 30
0.0
 10
-11.79137
 20
-4.00061
 30
0.0
 10
-11.77545
 20
-4.01261
 30
0.0
 10
-11.75965
 20
-4.02851
 30
0.0
 10
-11.75965
 20
-4.02851
 30
0.0
 10
-11.74375
 20
-4.04435
 30
0.0
 10
-11.72646
 20
-4.0682
 30
0.0
 10
-11.70778
 20
-4.09988
 30
0.0
 10
-11.70778
 20
-4.09988
 30
0.0
 10
-11.68561
 20
-4.13743
 30
0.0
 10
-11.67154
 20
-4.17012
 30
0.0
 10
-11.66559
 20
-4.19775
 30
0.0
 10
-11.66559
 20
-4.19775
 30
0.0
 10
-11.65959
 20
-4.22546
 30
0.0
 10
-11.66063
 20
-4.25008
 30
0.0
 10
-11.66858
 20
-4.27166
 30
0.0
 10
-11.66858
 20
-4.27166
 30
0.0
 10
-11.67648
 20
-4.29318
 30
0.0
 10
-11.69215
 20
-4.31088
 30
0.0
 10
-11.71555
 20
-4.32469
 30
0.0
 10
-11.71555
 20
-4.32469
 30
0.0
 10
-11.74633
 20
-4.34285
 30
0.0
 10
-11.77701
 20
-4.3462
 30
0.0
 10
-11.80757
 20
-4.33458
 30
0.0
 10
-11.80757
 20
-4.33458
 30
0.0
 10
-11.84449
 20
-4.32021
 30
0.0
 10
-11.88063
 20
-4.28297
 30
0.0
 10
-11.91613
 20
-4.22284
 30
0.0
  0
SPLINE
  5
84
330
1F
100
AcDbEntity
  8
layer 2
 62
     1
100
AcDbSpline
210
0.0
220
0.0
230
1.0
 70
    11
 71
     3
 72
    36
 73
    32
 74
     0
 42
0.0000000001
 43
0.0000000001
 12
1.0
 22
0.0
 32
0.0
 13
1.0
 23
0.0
 33
0.0
 40
0.0
 40
0.0
 40
0.0
 40
0.0
 40
0.1111111111111111
 40
0.1111111111111111
 40
0.1111111111111111
 40
0.1111111111111111
 40
0.2222222222222222
 40
0.2222222222222222
 40
0.2222222222222222
 40
0.2222222222222222
 40
0.3333333333333333
 40
0.3333333333333333
 40
0.3333333333333333
 40
0.3333333333333333
 40
0.4444444444444444
 40
0.4444444444444444
 40
0.4444444444444444
 40
0.4444444444444444
 40
0.5555555555555556
 40
0.5555555555555556
 40
0.5555555555555556
 40
0.5555555555555556
 40
0.6666666666666666
 40
0.6666666666666666
 40
0.6666666666666666
 40
0.6666666666666666
 40
0.7777777777777778
 40
0.7777777777777778
 40
0.7777777777777778
 40
0.7777777777777778
 40
1.0
 40
1.0
 40
1.0
 40
1.0
 10
-11.8758
 20
-4.19924
 30
0.0
 10
-11.84471
 20
-4.25191
 30
0.0
 10
-11.81792
 20
-4.28334
 30
0.0
 10
-11.79543
 20
-4.29337
 30
0.0
 10
-11.79543
 20
-4.29337
 30
0.0
 10
-11.77289
 20
-4.30346
 30
0.0
 10
-11.75258
 20
-4.30314
 30
0.0
 10
-11.73454
 20
-4.2925
 30
0.0
 10
-11.73454
 20
-4.2925
 30
0.0
 10
-11.71653
 20
-4.28186
 30
0.0
 10
-11.70646
 20
-4.26417
 30
0.0
 10
-11.70442
 20
-4.23955
 30
0.0
 10
-11.70442
 20
-4.23955
 30
0.0
 10
-11.70242
 20
-4.21487
 30
0.0
 10
-11.71693
 20
-4.1763
 30
0.0
 10
-11.74792
 20
-4.12377
 30
0.0
 10
-11.74792
 20
-4.12377
 30
0.0
 10
-11.77901
 20
-4.07108
 30
0.0
 10
-11.80581
 20
-4.03967
 30
0.0
 10
-11.82829
 20
-4.02964
 30
0.0
 10
-11.82829
 20
-4.02964
 30
0.0
 10
-11.85076
 20
-4.01948
 30
0.0
 10
-11.87121
 20
-4.0199
 30
0.0
 10
-11.88961
 20
-4.03077
 30
0.0
 10
-11.88961
 20
-4.03077
 30
0.0
 10
-11.90765
 20
-4.04141
 30
0.0
 10
-11.91758
 20
-4.05761
 30
0.0
 10
-11.91937
 20
-4.07927
 30
0.0
 10
-11.91937
 20
-4.07927
 30
0.0
 10
-11.92138
 20
-4.10667
 30
0.0
 10
-11.90679
 20
-4.1467
 30
0.0
 10
-11.8758
 20
-4.19924
 30
0.0
  0
SPLINE
  5
85
330
1F
100
AcDbEntity
  8
layer 2
 62
     1
370
     0
100
AcDbSpline
210
0.0
220
0.0
230
1.0
 70
    24
 71
     3
 72
     8
 73
     4
 74
     0
 42
0.0000000001
 43
0.0000000001
 12
1.0
 22
0.0
 32
0.0
 13
1.0
 23
0.0
 33
0.0
 40
0.0
 40
0.0
 40
0.0
 40
0.0
 40
1.0
 40
1.0
 40
1.0
 40
1.0
 10
-10.38314
 20
-4.47226
 30
0.0
 10
-10.38314
 20
-4.47226
 30
0.0
 10
-10.62613
 20
-4.61566
 30
0.0
 10
-10.62613
 20
-4.61566
 30
0.0
  0
SPLINE
  5
86
330
1F
100
AcDbEntity
  8
layer 2
 62
     1
100
AcDbSpline
210
0.0
220
0.0
230
1.0
 70
    27
 71
     3
 72
    12
 73
     8
 74
     0
 42
0.0000000001
 43
0.0000000001
 12
1.0
 22
0.0
 32
0.0
 13
1.0
 23
0.0
 33
0.0
 40
0.0
 40
0.0
 40
0.0
 40
0.0
 40
0.3333333333333333
 40
0.3333333333333333
 40
0.3333333333333333
 40
0.3333333333333333
 40
1.0
 40
1.0
 40
1.0
 40
1.0
 10
-10.94639
 20
-4.73913
 30
0.0
 10
-10.94639
 20
-4.73913
 30
0.0
 10
-10.62613
 20
-4.61566
 30
0.0
 10
-10.62613
 20
-4.61566
 30
0.0
 10
-10.62613
 20
-4.61566
 30
0.0
 10
-10.62613
 20
-4.61566
 30
0.0
 10
-10.94639
 20
-4.73913
 30
0.0
 10
-10.94639
 20
-4.73913
 30
0.0
  0
SPLINE
  5
87
330
1F
100
AcDbEntity
  8
layer 2
 62
     1
100
AcDbSpline
210
0.0
220
0.0
230
1.0
 70
     8
 71
     3
 72
    12
 73
     8
 74
     0
 42
0.0000000001
 43
0.0000000001
 12
1.0
 22
0.0
 32
0.0
 13
1.0
 23
0.0
 33
0.0
 40
0.0
 40
0.0
 40
0.0
 40
0.0
 40
0.3333333333333333
 40
0.3333333333333333
 40
0.3333333333333333
 40
0.3333333333333333
 40
1.0
 40
1.0
 40
1.0
 40
1.0
 10
-10.62613
 20
-4.61566
 30
0.0
 10
-10.62613
 20
-4.61566
 30
0.0
 10
-10.88904
 20
-4.83634
 30
0.0
 10
-10.88904
 20
-4.83634
 30
0.0
 10
-10.88904
 20
-4.83634
 30
0.0
 10
-10.88904
 20
-4.83634
 30
0.0
 10
-10.94639
 20
-4.73913
 30
0.0
 10
-10.94639
 20
-4.73913
 30
0.0
  0
SPLINE
  5
88
330
1F
100
AcDbEntity
  8
layer 2
 62
     1
370
     9
100
AcDbSpline
210
0.0
220
0.0
230
1.0
 70
    24
 71
     3
 72
     8
 73
     4
 74
     0
 42
0.0000000001
 43
0.0000000001
 12
1.0
 22
0.0
 32
0.0
 13
1.0
 23
0.0
 33
0.0
 40
0.0
 40
0.0
 40
0.0
 40
0.0
 40
1.0
 40
1.0
 40
1.0
 40
1.0
 10
-10.94639
 20
-4.73913
 30
0.0
 10
-10.94639
 20
-4.73913
 30
0.0
 10
-10.62613
 20
-4.61566
 30
0.0
 10
-10.62613
 20
-4.61566
 30
0.0
  0
SPLINE
  5
89
330
1F
100
AcDbEntity
  8
layer 2
 62
     1
370
     9
100
AcDbSpline
210
0.0
220
0.0
230
1.0
 70
     8
 71
     3
 72
    12
 73
     8
 74
     0
 42
0.0000000001
 43
0.0000000001
 12
1.0
 22
0.0
 32
0.0
 13
1.0
 23
0.0
 33
0.0
 40
0.0
 40
0.0
 40
0.0
 40
0.0
 40
0.3333333333333333
 40
0.3333333333333333
 40
0.3333333333333333
 40
0.3333333333333333
 40
1.0
 40
1.0
 40
1.0
 40
1.0
 10
-10.62613
 20
-4.61566
 30
0.0
 10
-10.62613
 20
-4.61566
 30
0.0
 10
-10.88904
 20
-4.83634
 30
0.0
 10
-10.88904
 20
-4.83634
 30
0.0
 10
-10.88904
 20
-4.83634
 30
0.0
 10
-10.88904
 20
-4.83634
 30
0.0
 10
-10.94639
 20
-4.73913
 30
0.0
 10
-10.94639
 20
-4.73913
 30
0.0
  0
ENDSEC
  0
SECTION
  2
OBJECTS
  0
DICTIONARY
  5
C
330
0
100
AcDbDictionary
281
     1
  3
ACAD_GROUP
350
D
  3
ACAD_LAYOUT
350
1A
  3
ACAD_MATERIAL
350
3B
  3
ACAD_MLEADERSTYLE
350
AB
  3
ACAD_MLINESTYLE
350
17
  3
ACAD_PLOTSETTINGS
350
19
  3
ACAD_PLOTSTYLENAME
350
E
  3
ACAD_TABLESTYLE
350
AA
  3
ACAD_VISUALSTYLE
350
2A
  0
DICTIONARY
  5
D
102
{ACAD_REACTORS
330
C
102
}
330
C
100
AcDbDictionary
281
     1
  0
DICTIONARY
  5
1A
102
{ACAD_REACTORS
330
C
102
}
330
C
100
AcDbDictionary
281
     1
  3
Layout1
350
1E
  3
Layout2
350
26
  3
Model
350
22
  0
DICTIONARY
  5
3B
102
{ACAD_REACTORS
330
C
102
}
330
C
100
AcDbDictionary
281
     1
  3
ByBlock
350
3D
  3
ByLayer
350
3C
  3
Global
350
3E
  0
DICTIONARY
  5
AB
102
{ACAD_REACTORS
330
C
102
}
330
C
100
AcDbDictionary
281
     1
  0
DICTIONARY
  5
17
102
{ACAD_REACTORS
330
C
102
}
330
C
100
AcDbDictionary
281
     1
  3
Standard
350
18
  0
DICTIONARY
  5
19
102
{ACAD_REACTORS
330
C
102
}
330
C
100
AcDbDictionary
281
     1
  0
ACDBDICTIONARYWDFLT
  5
E
102
{ACAD_REACTORS
330
C
102
}
330
C
100
AcDbDictionary
281
     1
  3
Normal
350
F
100
AcDbDictionaryWithDefault
340
F
  0
DICTIONARY
  5
AA
102
{ACAD_REACTORS
330
C
102
}
330
C
100
AcDbDictionary
281
     1
  0
DICTIONARY
  5
2A
102
{ACAD_REACTORS
330
C
102
}
330
C
100
AcDbDictionary
281
     1
  3
2dWireframe
350
2F
  3
3D Hidden
350
31
  3
3dWireframe
350
30
  3
Basic
350
32
  3
Brighten
350
36
  3
ColorChange
350
3A
  3
Conceptual
350
34
  3
Dim
350
35
  3
Facepattern
350
39
  3
Flat
350
2B
  3
FlatWithEdges
350
2C
  3
Gouraud
350
2D
  3
GouraudWithEdges
350
2E
  3
Linepattern
350
38
  3
Realistic
350
33
  3
Thicken
350
37
  0
LAYOUT
  5
1E
102
{ACAD_REACTORS
330
1A
102
}
330
1A
100
AcDbPlotSettings
  1

  2
none_device
  4

  6

 40
0.0
 41
0.0
 42
0.0
 43
0.0
 44
0.0
 45
0.0
 46
0.0
 47
0.0
 48
0.0
 49
0.0
140
0.0
141
0.0
142
1.0
143
1.0
 70
   688
 72
     0
 73
     0
 74
     5
  7

 75
    16
 76
     0
 77
     2
 78
   300
147
1.0
148
0.0
149
0.0
100
AcDbLayout
  1
Layout1
 70
     1
 71
     1
 10
0.0
 20
0.0
 11
12.0
 21
9.0
 12
0.0
 22
0.0
 32
0.0
 14
1.000000000000000E+20
 24
1.000000000000000E+20
 34
1.000000000000000E+20
 15
-1.000000000000000E+20
 25
-1.000000000000000E+20
 35
-1.000000000000000E+20
146
0.0
 13
0.0
 23
0.0
 33
0.0
 16
1.0
 26
0.0
 36
0.0
 17
0.0
 27
1.0
 37
0.0
 76
     0
330
1B
  0
LAYOUT
  5
26
102
{ACAD_REACTORS
330
1A
102
}
330
1A
100
AcDbPlotSettings
  1

  2
none_device
  4

  6

 40
0.0
 41
0.0
 42
0.0
 43
0.0
 44
0.0
 45
0.0
 46
0.0
 47
0.0
 48
0.0
 49
0.0
140
0.0
141
0.0
142
1.0
143
1.0
 70
   688
 72
     0
 73
     0
 74
     5
  7

 75
    16
 76
     0
 77
     2
 78
   300
147
1.0
148
0.0
149
0.0
100
AcDbLayout
  1
Layout2
 70
     1
 71
     2
 10
0.0
 20
0.0
 11
0.0
 21
0.0
 12
0.0
 22
0.0
 32
0.0
 14
0.0
 24
0.0
 34
0.0
 15
0.0
 25
0.0
 35
0.0
146
0.0
 13
0.0
 23
0.0
 33
0.0
 16
1.0
 26
0.0
 36
0.0
 17
0.0
 27
1.0
 37
0.0
 76
     0
330
23
  0
LAYOUT
  5
22
102
{ACAD_REACTORS
330
1A
102
}
330
1A
100
AcDbPlotSettings
  1

  2
none_device
  4

  6

 40
0.0
 41
0.0
 42
0.0
 43
0.0
 44
0.0
 45
0.0
 46
0.0
 47
0.0
 48
0.0
 49
0.0
140
0.0
141
0.0
142
1.0
143
1.0
 70
  1712
 72
     0
 73
     0
 74
     0
  7

 75
     0
 76
     0
 77
     2
 78
   300
147
1.0
148
0.0
149
0.0
100
AcDbLayout
  1
Model
 70
     1
 71
     0
 10
0.0
 20
0.0
 11
12.0
 21
9.0
 12
0.0
 22
0.0
 32
0.0
 14
-12.60247
 24
-7.6522
 34
0.0
 15
12.69788
 25
8.61258
 35
0.0
146
0.0
 13
0.0
 23
0.0
 33
0.0
 16
1.0
 26
0.0
 36
0.0
 17
0.0
 27
1.0
 37
0.0
 76
     0
330
1F
331
29
  0
MATERIAL
  5
3D
102
{ACAD_REACTORS
330
3B
102
}
330
3B
100
AcDbMaterial
  1
ByBlock
 72
     1
 94
      127
  0
MATERIAL
  5
3C
102
{ACAD_REACTORS
330
3B
102
}
330
3B
100
AcDbMaterial
  1
ByLayer
 72
     1
 94
      127
  0
MATERIAL
  5
3E
102
{ACAD_REACTORS
330
3B
102
}
330
3B
100
AcDbMaterial
  1
Global
 72
     1
 94
      127
  0
MLINESTYLE
  5
18
102
{ACAD_REACTORS
330
17
102
}
330
17
100
AcDbMlineStyle
  2
Standard
 70
     0
  3

 62
   256
 51
90.0
 52
90.0
 71
     2
 49
0.5
 62
   256
  6
BYLAYER
 49
-0.5
 62
   256
  6
BYLAYER
  0
ACDBPLACEHOLDER
  5
F
102
{ACAD_REACTORS
330
E
102
}
330
E
  0
VISUALSTYLE
  5
2F
102
{ACAD_REACTORS
330
2A
102
}
102
{ACAD_XDICTIONARY
360
92
102
}
330
2A
100
AcDbVisualStyle
  2
2dWireframe
 70
     4
 71
     0
 72
     2
 73
     0
 90
        0
 40
-0.6
 41
-30.0
 62
     5
 63
     7
421
 16777215
 74
     1
 91
        4
 64
     7
 65
   257
 75
     1
175
     1
 42
1.0
 92
        0
 66
   257
 43
1.0
 76
     1
 77
     6
 78
     2
 67
     7
 79
     5
170
     0
171
     0
290
     0
174
     0
 93
        1
 44
0.0
173
     0
291
     0
 45
0.0
  0
VISUALSTYLE
  5
31
102
{ACAD_REACTORS
330
2A
102
}
102
{ACAD_XDICTIONARY
360
96
102
}
330
2A
100
AcDbVisualStyle
  2
3D Hidden
 70
     6
 71
     1
 72
     2
 73
     2
 90
        0
 40
-0.6
 41
-30.0
 62
     5
 63
     7
421
 16777215
 74
     2
 91
        2
 64
     7
 65
   257
 75
     2
175
     1
 42
40.0
 92
        0
 66
   257
 43
1.0
 76
     1
 77
     6
 78
     2
 67
     7
 79
     3
170
     0
171
     0
290
     0
174
     0
 93
        1
 44
0.0
173
     0
291
     0
 45
0.0
  0
VISUALSTYLE
  5
30
102
{ACAD_REACTORS
330
2A
102
}
102
{ACAD_XDICTIONARY
360
94
102
}
330
2A
100
AcDbVisualStyle
  2
3dWireframe
 70
     5
 71
     0
 72
     2
 73
     0
 90
        0
 40
-0.6
 41
-30.0
 62
     5
 63
     7
421
 16777215
 74
     1
 91
        4
 64
     7
 65
   257
 75
     1
175
     1
 42
1.0
 92
        0
 66
   257
 43
1.0
 76
     1
 77
     6
 78
     2
 67
     7
 79
     5
170
     0
171
     0
290
     0
174
     0
 93
        1
 44
0.0
173
     0
291
     0
 45
0.0
  0
VISUALSTYLE
  5
32
102
{ACAD_REACTORS
330
2A
102
}
102
{ACAD_XDICTIONARY
360
98
102
}
330
2A
100
AcDbVisualStyle
  2
Basic
 70
     7
 71
     1
 72
     0
 73
     1
 90
        0
 40
-0.6
 41
-30.0
 62
     5
 63
     7
421
 16777215
 74
     0
 91
        4
 64
     7
 65
   257
 75
     1
175
     1
 42
1.0
 92
        8
 66
     7
 43
1.0
 76
     1
 77
     6
 78
     2
 67
     7
 79
     5
170
     0
171
     0
290
     0
174
     0
 93
        1
 44
0.0
173
     0
291
     1
 45
0.0
  0
VISUALSTYLE
  5
36
102
{ACAD_REACTORS
330
2A
102
}
102
{ACAD_XDICTIONARY
360
A0
102
}
330
2A
100
AcDbVisualStyle
  2
Brighten
 70
    12
 71
     2
 72
     2
 73
     0
 90
        0
 40
-0.6
 41
-30.0
 62
     5
 63
     7
421
 16777215
 74
     1
 91
        4
 64
     7
 65
   257
 75
     1
175
     1
 42
1.0
 92
        8
 66
     7
 43
1.0
 76
     1
 77
     6
 78
     2
 67
     7
 79
     5
170
     0
171
     0
290
     0
174
     0
 93
        1
 44
50.0
173
     0
291
     1
 45
0.0
  0
VISUALSTYLE
  5
3A
102
{ACAD_REACTORS
330
2A
102
}
102
{ACAD_XDICTIONARY
360
A8
102
}
330
2A
100
AcDbVisualStyle
  2
ColorChange
 70
    16
 71
     2
 72
     2
 73
     3
 90
        0
 40
-0.6
 41
-30.0
 62
     5
 63
     8
421
  8421504
 74
     1
 91
        4
 64
     7
 65
   257
 75
     1
175
     1
 42
1.0
 92
        8
 66
     8
424
  8421504
 43
1.0
 76
     1
 77
     6
 78
     2
 67
     7
 79
     5
170
     0
171
     0
290
     0
174
     0
 93
        1
 44
0.0
173
     0
291
     1
 45
0.0
  0
VISUALSTYLE
  5
34
102
{ACAD_REACTORS
330
2A
102
}
102
{ACAD_XDICTIONARY
360
9C
102
}
330
2A
100
AcDbVisualStyle
  2
Conceptual
 70
     9
 71
     3
 72
     2
 73
     0
 90
        0
 40
-0.6
 41
-30.0
 62
     5
 63
     7
421
 16777215
 74
     2
 91
        2
 64
     7
 65
   257
 75
     1
175
     1
 42
40.0
 92
        8
 66
     7
 43
1.0
 76
     1
 77
     6
 78
     2
 67
     7
 79
     3
170
     0
171
     0
290
     0
174
     0
 93
        1
 44
0.0
173
     0
291
     0
 45
0.0
  0
VISUALSTYLE
  5
35
102
{ACAD_REACTORS
330
2A
102
}
102
{ACAD_XDICTIONARY
360
9E
102
}
330
2A
100
AcDbVisualStyle
  2
Dim
 70
    11
 71
     2
 72
     2
 73
     0
 90
        0
 40
-0.6
 41
-30.0
 62
     5
 63
     7
421
 16777215
 74
     1
 91
        4
 64
     7
 65
   257
 75
     1
175
     1
 42
1.0
 92
        8
 66
     7
 43
1.0
 76
     1
 77
     6
 78
     2
 67
     7
 79
     5
170
     0
171
     0
290
     0
174
     0
 93
        1
 44
-50.0
173
     0
291
     1
 45
0.0
  0
VISUALSTYLE
  5
39
102
{ACAD_REACTORS
330
2A
102
}
102
{ACAD_XDICTIONARY
360
A6
102
}
330
2A
100
AcDbVisualStyle
  2
Facepattern
 70
    15
 71
     2
 72
     2
 73
     0
 90
        0
 40
-0.6
 41
-30.0
 62
     5
 63
     7
421
 16777215
 74
     1
 91
        4
 64
     7
 65
   257
 75
     1
175
     1
 42
1.0
 92
        8
 66
     7
 43
1.0
 76
     1
 77
     6
 78
     2
 67
     7
 79
     5
170
     0
171
     0
290
     0
174
     0
 93
        1
 44
0.0
173
     0
291
     1
 45
0.0
  0
VISUALSTYLE
  5
2B
102
{ACAD_REACTORS
330
2A
102
}
102
{ACAD_XDICTIONARY
360
8A
102
}
330
2A
100
AcDbVisualStyle
  2
Flat
 70
     0
 71
     2
 72
     1
 73
     1
 90
        2
 40
-0.6
 41
30.0
 62
     5
 63
     7
421
 16777215
 74
     0
 91
        4
 64
     7
 65
   257
 75
     1
175
     1
 42
1.0
 92
        8
 66
     7
 43
1.0
 76
     1
 77
     6
 78
     2
 67
     7
 79
     5
170
     0
171
     0
290
     0
174
     0
 93
       13
 44
0.0
173
     0
291
     1
 45
0.0
  0
VISUALSTYLE
  5
2C
102
{ACAD_REACTORS
330
2A
102
}
102
{ACAD_XDICTIONARY
360
8C
102
}
330
2A
100
AcDbVisualStyle
  2
FlatWithEdges
 70
     1
 71
     2
 72
     1
 73
     1
 90
        2
 40
-0.6
 41
30.0
 62
     5
 63
     7
421
 16777215
 74
     1
 91
        4
 64
     7
 65
   257
 75
     1
175
     1
 42
1.0
 92
        0
 66
   257
 43
1.0
 76
     1
 77
     6
 78
     2
 67
     7
 79
     5
170
     0
171
     0
290
     0
174
     0
 93
       13
 44
0.0
173
     0
291
     1
 45
0.0
  0
VISUALSTYLE
  5
2D
102
{ACAD_REACTORS
330
2A
102
}
102
{ACAD_XDICTIONARY
360
8E
102
}
330
2A
100
AcDbVisualStyle
  2
Gouraud
 70
     2
 71
     2
 72
     2
 73
     1
 90
        2
 40
-0.6
 41
30.0
 62
     5
 63
     7
421
 16777215
 74
     0
 91
        4
 64
     7
 65
   257
 75
     1
175
     1
 42
1.0
 92
        0
 66
     7
 43
1.0
 76
     1
 77
     6
 78
     2
 67
     7
 79
     5
170
     0
171
     0
290
     0
174
     0
 93
       13
 44
0.0
173
     0
291
     1
 45
0.0
  0
VISUALSTYLE
  5
2E
102
{ACAD_REACTORS
330
2A
102
}
102
{ACAD_XDICTIONARY
360
90
102
}
330
2A
100
AcDbVisualStyle
  2
GouraudWithEdges
 70
     3
 71
     2
 72
     2
 73
     1
 90
        2
 40
-0.6
 41
30.0
 62
     5
 63
     7
421
 16777215
 74
     1
 91
        4
 64
     7
 65
   257
 75
     1
175
     1
 42
1.0
 92
        0
 66
   257
 43
1.0
 76
     1
 77
     6
 78
     2
 67
     7
 79
     5
170
     0
171
     0
290
     0
174
     0
 93
       13
 44
0.0
173
     0
291
     1
 45
0.0
  0
VISUALSTYLE
  5
38
102
{ACAD_REACTORS
330
2A
102
}
102
{ACAD_XDICTIONARY
360
A4
102
}
330
2A
100
AcDbVisualStyle
  2
Linepattern
 70
    14
 71
     2
 72
     2
 73
     0
 90
        0
 40
-0.6
 41
-30.0
 62
     5
 63
     7
421
 16777215
 74
     1
 91
        4
 64
     7
 65
   257
 75
     7
175
     7
 42
1.0
 92
        8
 66
     7
 43
1.0
 76
     1
 77
     6
 78
     2
 67
     7
 79
     5
170
     0
171
     0
290
     0
174
     0
 93
        1
 44
0.0
173
     0
291
     1
 45
0.0
  0
VISUALSTYLE
  5
33
102
{ACAD_REACTORS
330
2A
102
}
102
{ACAD_XDICTIONARY
360
9A
102
}
330
2A
100
AcDbVisualStyle
  2
Realistic
 70
     8
 71
     2
 72
     2
 73
     0
 90
        0
 40
-0.6
 41
-30.0
 62
     5
 63
     7
421
 16777215
 74
     1
 91
        0
 64
     7
 65
   257
 75
     1
175
     1
 42
1.0
 92
        8
 66
     8
424
  7895160
 43
1.0
 76
     1
 77
     6
 78
     2
 67
     7
 79
     5
170
     0
171
     0
290
     0
174
     0
 93
       13
 44
0.0
173
     0
291
     0
 45
0.0
  0
VISUALSTYLE
  5
37
102
{ACAD_REACTORS
330
2A
102
}
102
{ACAD_XDICTIONARY
360
A2
102
}
330
2A
100
AcDbVisualStyle
  2
Thicken
 70
    13
 71
     2
 72
     2
 73
     0
 90
        0
 40
-0.6
 41
-30.0
 62
     5
 63
     7
421
 16777215
 74
     1
 91
        4
 64
     7
 65
   257
 75
     1
175
     1
 42
1.0
 92
       12
 66
     7
 43
1.0
 76
     1
 77
     6
 78
     2
 67
     7
 79
     5
170
     0
171
     0
290
     0
174
     0
 93
        1
 44
0.0
173
     0
291
     1
 45
0.0
  0
DICTIONARY
  5
92
330
2F
100
AcDbDictionary
280
     1
281
     1
  3
ACAD_XREC_ROUNDTRIP
360
93
  0
DICTIONARY
  5
96
330
31
100
AcDbDictionary
280
     1
281
     1
  3
ACAD_XREC_ROUNDTRIP
360
97
  0
DICTIONARY
  5
94
330
30
100
AcDbDictionary
280
     1
281
     1
  3
ACAD_XREC_ROUNDTRIP
360
95
  0
DICTIONARY
  5
98
330
32
100
AcDbDictionary
280
     1
281
     1
  3
ACAD_XREC_ROUNDTRIP
360
99
  0
DICTIONARY
  5
A0
330
36
100
AcDbDictionary
280
     1
281
     1
  3
ACAD_XREC_ROUNDTRIP
360
A1
  0
DICTIONARY
  5
A8
330
3A
100
AcDbDictionary
280
     1
281
     1
  3
ACAD_XREC_ROUNDTRIP
360
A9
  0
DICTIONARY
  5
9C
330
34
100
AcDbDictionary
280
     1
281
     1
  3
ACAD_XREC_ROUNDTRIP
360
9D
  0
DICTIONARY
  5
9E
330
35
100
AcDbDictionary
280
     1
281
     1
  3
ACAD_XREC_ROUNDTRIP
360
9F
  0
DICTIONARY
  5
A6
330
39
100
AcDbDictionary
280
     1
281
     1
  3
ACAD_XREC_ROUNDTRIP
360
A7
  0
DICTIONARY
  5
8A
330
2B
100
AcDbDictionary
280
     1
281
     1
  3
ACAD_XREC_ROUNDTRIP
360
8B
  0
DICTIONARY
  5
8C
330
2C
100
AcDbDictionary
280
     1
281
     1
  3
ACAD_XREC_ROUNDTRIP
360
8D
  0
DICTIONARY
  5
8E
330
2D
100
AcDbDictionary
280
     1
281
     1
  3
ACAD_XREC_ROUNDTRIP
360
8F
  0
DICTIONARY
  5
90
330
2E
100
AcDbDictionary
280
     1
281
     1
  3
ACAD_XREC_ROUNDTRIP
360
91
  0
DICTIONARY
  5
A4
330
38
100
AcDbDictionary
280
     1
281
     1
  3
ACAD_XREC_ROUNDTRIP
360
A5
  0
DICTIONARY
  5
9A
330
33
100
AcDbDictionary
280
     1
281
     1
  3
ACAD_XREC_ROUNDTRIP
360
9B
  0
DICTIONARY
  5
A2
330
37
100
AcDbDictionary
280
     1
281
     1
  3
ACAD_XREC_ROUNDTRIP
360
A3
  0
XRECORD
  5
93
102
{ACAD_REACTORS
330
92
102
}
330
92
100
AcDbXrecord
280
     1
102
RTVSPropertyOp0
 70
     1
102
RTVSPropertyOp1
 70
     1
102
RTVSPropertyOp2
 70
     1
102
RTVSPropertyOp3
 70
     1
102
RTVSPropertyOp4
 70
     1
102
RTVSPropertyOp5
 70
     1
102
RTVSPropertyOp6
 70
     1
102
RTVSPropertyOp7
 70
     1
102
RTVSPropertyOp8
 70
     1
102
RTVSPropertyOp9
 70
     1
102
RTVSPropertyOp10
 70
     1
102
RTVSPropertyOp11
 70
     1
102
RTVSPropertyOp12
 70
     1
102
RTVSPropertyOp13
 70
     1
102
RTVSPropertyOp14
 70
     1
102
RTVSPropertyOp15
 70
     1
102
RTVSPropertyOp16
 70
     1
102
RTVSPropertyOp17
 70
     1
102
RTVSPropertyOp18
 70
     1
102
RTVSPropertyOp19
 70
     1
102
RTVSPropertyOp20
 70
     1
102
RTVSPropertyOp21
 70
     1
102
RTVSPropertyOp22
 70
     1
102
RTVSPropertyOp23
 70
     1
102
RTVSPropertyOp24
 70
     1
102
RTVSPropertyOp25
 70
     1
102
RTVSPropertyOp26
 70
     1
102
RTVSPropertyOp27
 70
     1
102
RTVSPropertyOp28
 70
     1
102
RTVSPropertyOp29
 70
     1
102
RTVSPropertyOp30
 70
     1
102
RTVSPropertyOp31
 70
     1
102
RTVSPropertyOp32
 70
     1
  0
XRECORD
  5
97
102
{ACAD_REACTORS
330
96
102
}
330
96
100
AcDbXrecord
280
     1
102
RTVSPropertyOp0
 70
     1
102
RTVSPropertyOp1
 70
     1
102
RTVSPropertyOp2
 70
     1
102
RTVSPropertyOp3
 70
     1
102
RTVSPropertyOp4
 70
     1
102
RTVSPropertyOp5
 70
     1
102
RTVSPropertyOp6
 70
     1
102
RTVSPropertyOp7
 70
     1
102
RTVSPropertyOp8
 70
     1
102
RTVSPropertyOp9
 70
     1
102
RTVSPropertyOp10
 70
     1
102
RTVSPropertyOp11
 70
     1
102
RTVSPropertyOp12
 70
     1
102
RTVSPropertyOp13
 70
     1
102
RTVSPropertyOp14
 70
     1
102
RTVSPropertyOp15
 70
     1
102
RTVSPropertyOp16
 70
     1
102
RTVSPropertyOp17
 70
     1
102
RTVSPropertyOp18
 70
     1
102
RTVSPropertyOp19
 70
     1
102
RTVSPropertyOp20
 70
     1
102
RTVSPropertyOp21
 70
     1
102
RTVSPropertyOp22
 70
     1
102
RTVSPropertyOp23
 70
     1
102
RTVSPropertyOp24
 70
     1
102
RTVSPropertyOp25
 70
     1
102
RTVSPropertyOp26
 70
     1
102
RTVSPropertyOp27
 70
     1
102
RTVSPropertyOp28
 70
     1
102
RTVSPropertyOp29
 70
     1
102
RTVSPropertyOp30
 70
     1
102
RTVSPropertyOp31
 70
     1
102
RTVSPropertyOp32
 70
     1
  0
XRECORD
  5
95
102
{ACAD_REACTORS
330
94
102
}
330
94
100
AcDbXrecord
280
     1
102
RTVSPropertyOp0
 70
     1
102
RTVSPropertyOp1
 70
     1
102
RTVSPropertyOp2
 70
     1
102
RTVSPropertyOp3
 70
     1
102
RTVSPropertyOp4
 70
     1
102
RTVSPropertyOp5
 70
     1
102
RTVSPropertyOp6
 70
     1
102
RTVSPropertyOp7
 70
     1
102
RTVSPropertyOp8
 70
     1
102
RTVSPropertyOp9
 70
     1
102
RTVSPropertyOp10
 70
     1
102
RTVSPropertyOp11
 70
     1
102
RTVSPropertyOp12
 70
     1
102
RTVSPropertyOp13
 70
     1
102
RTVSPropertyOp14
 70
     1
102
RTVSPropertyOp15
 70
     1
102
RTVSPropertyOp16
 70
     1
102
RTVSPropertyOp17
 70
     1
102
RTVSPropertyOp18
 70
     1
102
RTVSPropertyOp19
 70
     1
102
RTVSPropertyOp20
 70
     1
102
RTVSPropertyOp21
 70
     1
102
RTVSPropertyOp22
 70
     1
102
RTVSPropertyOp23
 70
     1
102
RTVSPropertyOp24
 70
     1
102
RTVSPropertyOp25
 70
     1
102
RTVSPropertyOp26
 70
     1
102
RTVSPropertyOp27
 70
     1
102
RTVSPropertyOp28
 70
     1
102
RTVSPropertyOp29
 70
     1
102
RTVSPropertyOp30
 70
     1
102
RTVSPropertyOp31
 70
     1
102
RTVSPropertyOp32
 70
     1
  0
XRECORD
  5
99
102
{ACAD_REACTORS
330
98
102
}
330
98
100
AcDbXrecord
280
     1
102
RTVSPropertyOp0
 70
     1
102
RTVSPropertyOp1
 70
     1
102
RTVSPropertyOp2
 70
     1
102
RTVSPropertyOp3
 70
     1
102
RTVSPropertyOp4
 70
     1
102
RTVSPropertyOp5
 70
     1
102
RTVSPropertyOp6
 70
     1
102
RTVSPropertyOp7
 70
     1
102
RTVSPropertyOp8
 70
     1
102
RTVSPropertyOp9
 70
     1
102
RTVSPropertyOp10
 70
     1
102
RTVSPropertyOp11
 70
     1
102
RTVSPropertyOp12
 70
     1
102
RTVSPropertyOp13
 70
     1
102
RTVSPropertyOp14
 70
     1
102
RTVSPropertyOp15
 70
     1
102
RTVSPropertyOp16
 70
     1
102
RTVSPropertyOp17
 70
     1
102
RTVSPropertyOp18
 70
     1
102
RTVSPropertyOp19
 70
     1
102
RTVSPropertyOp20
 70
     1
102
RTVSPropertyOp21
 70
     1
102
RTVSPropertyOp22
 70
     1
102
RTVSPropertyOp23
 70
     1
102
RTVSPropertyOp24
 70
     1
102
RTVSPropertyOp25
 70
     1
102
RTVSPropertyOp26
 70
     1
102
RTVSPropertyOp27
 70
     1
102
RTVSPropertyOp28
 70
     1
102
RTVSPropertyOp29
 70
     1
102
RTVSPropertyOp30
 70
     1
102
RTVSPropertyOp31
 70
     1
102
RTVSPropertyOp32
 70
     1
  0
XRECORD
  5
A1
102
{ACAD_REACTORS
330
A0
102
}
330
A0
100
AcDbXrecord
280
     1
102
RTVSPropertyOp0
 70
     1
102
RTVSPropertyOp1
 70
     1
102
RTVSPropertyOp2
 70
     1
102
RTVSPropertyOp3
 70
     1
102
RTVSPropertyOp4
 70
     1
102
RTVSPropertyOp5
 70
     1
102
RTVSPropertyOp6
 70
     1
102
RTVSPropertyOp7
 70
     1
102
RTVSPropertyOp8
 70
     1
102
RTVSPropertyOp9
 70
     1
102
RTVSPropertyOp10
 70
     1
102
RTVSPropertyOp11
 70
     1
102
RTVSPropertyOp12
 70
     1
102
RTVSPropertyOp13
 70
     1
102
RTVSPropertyOp14
 70
     1
102
RTVSPropertyOp15
 70
     1
102
RTVSPropertyOp16
 70
     1
102
RTVSPropertyOp17
 70
     1
102
RTVSPropertyOp18
 70
     1
102
RTVSPropertyOp19
 70
     1
102
RTVSPropertyOp20
 70
     1
102
RTVSPropertyOp21
 70
     1
102
RTVSPropertyOp22
 70
     1
102
RTVSPropertyOp23
 70
     1
102
RTVSPropertyOp24
 70
     1
102
RTVSPropertyOp25
 70
     1
102
RTVSPropertyOp26
 70
     1
102
RTVSPropertyOp27
 70
     1
102
RTVSPropertyOp28
 70
     1
102
RTVSPropertyOp29
 70
     1
102
RTVSPropertyOp30
 70
     1
102
RTVSPropertyOp31
 70
     1
102
RTVSPropertyOp32
 70
     1
  0
XRECORD
  5
A9
102
{ACAD_REACTORS
330
A8
102
}
330
A8
100
AcDbXrecord
280
     1
102
RTVSPropertyOp0
 70
     1
102
RTVSPropertyOp1
 70
     1
102
RTVSPropertyOp2
 70
     1
102
RTVSPropertyOp3
 70
     1
102
RTVSPropertyOp4
 70
     1
102
RTVSPropertyOp5
 70
     1
102
RTVSPropertyOp6
 70
     1
102
RTVSPropertyOp7
 70
     1
102
RTVSPropertyOp8
 70
     1
102
RTVSPropertyOp9
 70
     1
102
RTVSPropertyOp10
 70
     1
102
RTVSPropertyOp11
 70
     1
102
RTVSPropertyOp12
 70
     1
102
RTVSPropertyOp13
 70
     1
102
RTVSPropertyOp14
 70
     1
102
RTVSPropertyOp15
 70
     1
102
RTVSPropertyOp16
 70
     1
102
RTVSPropertyOp17
 70
     1
102
RTVSPropertyOp18
 70
     1
102
RTVSPropertyOp19
 70
     1
102
RTVSPropertyOp20
 70
     1
102
RTVSPropertyOp21
 70
     1
102
RTVSPropertyOp22
 70
     1
102
RTVSPropertyOp23
 70
     1
102
RTVSPropertyOp24
 70
     1
102
RTVSPropertyOp25
 70
     1
102
RTVSPropertyOp26
 70
     1
102
RTVSPropertyOp27
 70
     1
102
RTVSPropertyOp28
 70
     1
102
RTVSPropertyOp29
 70
     1
102
RTVSPropertyOp30
 70
     1
102
RTVSPropertyOp31
 70
     1
102
RTVSPropertyOp32
 70
     1
  0
XRECORD
  5
9D
102
{ACAD_REACTORS
330
9C
102
}
330
9C
100
AcDbXrecord
280
     1
102
RTVSPropertyOp0
 70
     1
102
RTVSPropertyOp1
 70
     1
102
RTVSPropertyOp2
 70
     1
102
RTVSPropertyOp3
 70
     1
102
RTVSPropertyOp4
 70
     1
102
RTVSPropertyOp5
 70
     1
102
RTVSPropertyOp6
 70
     1
102
RTVSPropertyOp7
 70
     1
102
RTVSPropertyOp8
 70
     1
102
RTVSPropertyOp9
 70
     1
102
RTVSPropertyOp10
 70
     1
102
RTVSPropertyOp11
 70
     1
102
RTVSPropertyOp12
 70
     1
102
RTVSPropertyOp13
 70
     1
102
RTVSPropertyOp14
 70
     1
102
RTVSPropertyOp15
 70
     1
102
RTVSPropertyOp16
 70
     1
102
RTVSPropertyOp17
 70
     1
102
RTVSPropertyOp18
 70
     1
102
RTVSPropertyOp19
 70
     1
102
RTVSPropertyOp20
 70
     1
102
RTVSPropertyOp21
 70
     1
102
RTVSPropertyOp22
 70
     1
102
RTVSPropertyOp23
 70
     1
102
RTVSPropertyOp24
 70
     1
102
RTVSPropertyOp25
 70
     1
102
RTVSPropertyOp26
 70
     1
102
RTVSPropertyOp27
 70
     1
102
RTVSPropertyOp28
 70
     1
102
RTVSPropertyOp29
 70
     1
102
RTVSPropertyOp30
 70
     1
102
RTVSPropertyOp31
 70
     1
102
RTVSPropertyOp32
 70
     1
  0
XRECORD
  5
9F
102
{ACAD_REACTORS
330
9E
102
}
330
9E
100
AcDbXrecord
280
     1
102
RTVSPropertyOp0
 70
     1
102
RTVSPropertyOp1
 70
     1
102
RTVSPropertyOp2
 70
     1
102
RTVSPropertyOp3
 70
     1
102
RTVSPropertyOp4
 70
     1
102
RTVSPropertyOp5
 70
     1
102
RTVSPropertyOp6
 70
     1
102
RTVSPropertyOp7
 70
     1
102
RTVSPropertyOp8
 70
     1
102
RTVSPropertyOp9
 70
     1
102
RTVSPropertyOp10
 70
     1
102
RTVSPropertyOp11
 70
     1
102
RTVSPropertyOp12
 70
     1
102
RTVSPropertyOp13
 70
     1
102
RTVSPropertyOp14
 70
     1
102
RTVSPropertyOp15
 70
     1
102
RTVSPropertyOp16
 70
     1
102
RTVSPropertyOp17
 70
     1
102
RTVSPropertyOp18
 70
     1
102
RTVSPropertyOp19
 70
     1
102
RTVSPropertyOp20
 70
     1
102
RTVSPropertyOp21
 70
     1
102
RTVSPropertyOp22
 70
     1
102
RTVSPropertyOp23
 70
     1
102
RTVSPropertyOp24
 70
     1
102
RTVSPropertyOp25
 70
     1
102
RTVSPropertyOp26
 70
     1
102
RTVSPropertyOp27
 70
     1
102
RTVSPropertyOp28
 70
     1
102
RTVSPropertyOp29
 70
     1
102
RTVSPropertyOp30
 70
     1
102
RTVSPropertyOp31
 70
     1
102
RTVSPropertyOp32
 70
     1
  0
XRECORD
  5
A7
102
{ACAD_REACTORS
330
A6
102
}
330
A6
100
AcDbXrecord
280
     1
102
RTVSPropertyOp0
 70
     1
102
RTVSPropertyOp1
 70
     1
102
RTVSPropertyOp2
 70
     1
102
RTVSPropertyOp3
 70
     1
102
RTVSPropertyOp4
 70
     1
102
RTVSPropertyOp5
 70
     1
102
RTVSPropertyOp6
 70
     1
102
RTVSPropertyOp7
 70
     1
102
RTVSPropertyOp8
 70
     1
102
RTVSPropertyOp9
 70
     1
102
RTVSPropertyOp10
 70
     1
102
RTVSPropertyOp11
 70
     1
102
RTVSPropertyOp12
 70
     1
102
RTVSPropertyOp13
 70
     1
102
RTVSPropertyOp14
 70
     1
102
RTVSPropertyOp15
 70
     1
102
RTVSPropertyOp16
 70
     1
102
RTVSPropertyOp17
 70
     1
102
RTVSPropertyOp18
 70
     1
102
RTVSPropertyOp19
 70
     1
102
RTVSPropertyOp20
 70
     1
102
RTVSPropertyOp21
 70
     1
102
RTVSPropertyOp22
 70
     1
102
RTVSPropertyOp23
 70
     1
102
RTVSPropertyOp24
 70
     1
102
RTVSPropertyOp25
 70
     1
102
RTVSPropertyOp26
 70
     1
102
RTVSPropertyOp27
 70
     1
102
RTVSPropertyOp28
 70
     1
102
RTVSPropertyOp29
 70
     1
102
RTVSPropertyOp30
 70
     1
102
RTVSPropertyOp31
 70
     1
102
RTVSPropertyOp32
 70
     1
  0
XRECORD
  5
8B
102
{ACAD_REACTORS
330
8A
102
}
330
8A
100
AcDbXrecord
280
     1
102
RTVSPropertyOp0
 70
     1
102
RTVSPropertyOp1
 70
     1
102
RTVSPropertyOp2
 70
     1
102
RTVSPropertyOp3
 70
     1
102
RTVSPropertyOp4
 70
     1
102
RTVSPropertyOp5
 70
     1
102
RTVSPropertyOp6
 70
     1
102
RTVSPropertyOp7
 70
     1
102
RTVSPropertyOp8
 70
     1
102
RTVSPropertyOp9
 70
     1
102
RTVSPropertyOp10
 70
     1
102
RTVSPropertyOp11
 70
     1
102
RTVSPropertyOp12
 70
     1
102
RTVSPropertyOp13
 70
     1
102
RTVSPropertyOp14
 70
     1
102
RTVSPropertyOp15
 70
     1
102
RTVSPropertyOp16
 70
     1
102
RTVSPropertyOp17
 70
     1
102
RTVSPropertyOp18
 70
     1
102
RTVSPropertyOp19
 70
     1
102
RTVSPropertyOp20
 70
     1
102
RTVSPropertyOp21
 70
     1
102
RTVSPropertyOp22
 70
     1
102
RTVSPropertyOp23
 70
     1
102
RTVSPropertyOp24
 70
     1
102
RTVSPropertyOp25
 70
     1
102
RTVSPropertyOp26
 70
     1
102
RTVSPropertyOp27
 70
     1
102
RTVSPropertyOp28
 70
     1
102
RTVSPropertyOp29
 70
     1
102
RTVSPropertyOp30
 70
     1
102
RTVSPropertyOp31
 70
     1
102
RTVSPropertyOp32
 70
     1
  0
XRECORD
  5
8D
102
{ACAD_REACTORS
330
8C
102
}
330
8C
100
AcDbXrecord
280
     1
102
RTVSPropertyOp0
 70
     1
102
RTVSPropertyOp1
 70
     1
102
RTVSPropertyOp2
 70
     1
102
RTVSPropertyOp3
 70
     1
102
RTVSPropertyOp4
 70
     1
102
RTVSPropertyOp5
 70
     1
102
RTVSPropertyOp6
 70
     1
102
RTVSPropertyOp7
 70
     1
102
RTVSPropertyOp8
 70
     1
102
RTVSPropertyOp9
 70
     1
102
RTVSPropertyOp10
 70
     1
102
RTVSPropertyOp11
 70
     1
102
RTVSPropertyOp12
 70
     1
102
RTVSPropertyOp13
 70
     1
102
RTVSPropertyOp14
 70
     1
102
RTVSPropertyOp15
 70
     1
102
RTVSPropertyOp16
 70
     1
102
RTVSPropertyOp17
 70
     1
102
RTVSPropertyOp18
 70
     1
102
RTVSPropertyOp19
 70
     1
102
RTVSPropertyOp20
 70
     1
102
RTVSPropertyOp21
 70
     1
102
RTVSPropertyOp22
 70
     1
102
RTVSPropertyOp23
 70
     1
102
RTVSPropertyOp24
 70
     1
102
RTVSPropertyOp25
 70
     1
102
RTVSPropertyOp26
 70
     1
102
RTVSPropertyOp27
 70
     1
102
RTVSPropertyOp28
 70
     1
102
RTVSPropertyOp29
 70
     1
102
RTVSPropertyOp30
 70
     1
102
RTVSPropertyOp31
 70
     1
102
RTVSPropertyOp32
 70
     1
  0
XRECORD
  5
8F
102
{ACAD_REACTORS
330
8E
102
}
330
8E
100
AcDbXrecord
280
     1
102
RTVSPropertyOp0
 70
     1
102
RTVSPropertyOp1
 70
     1
102
RTVSPropertyOp2
 70
     1
102
RTVSPropertyOp3
 70
     1
102
RTVSPropertyOp4
 70
     1
102
RTVSPropertyOp5
 70
     1
102
RTVSPropertyOp6
 70
     1
102
RTVSPropertyOp7
 70
     1
102
RTVSPropertyOp8
 70
     1
102
RTVSPropertyOp9
 70
     1
102
RTVSPropertyOp10
 70
     1
102
RTVSPropertyOp11
 70
     1
102
RTVSPropertyOp12
 70
     1
102
RTVSPropertyOp13
 70
     1
102
RTVSPropertyOp14
 70
     1
102
RTVSPropertyOp15
 70
     1
102
RTVSPropertyOp16
 70
     1
102
RTVSPropertyOp17
 70
     1
102
RTVSPropertyOp18
 70
     1
102
RTVSPropertyOp19
 70
     1
102
RTVSPropertyOp20
 70
     1
102
RTVSPropertyOp21
 70
     1
102
RTVSPropertyOp22
 70
     1
102
RTVSPropertyOp23
 70
     1
102
RTVSPropertyOp24
 70
     1
102
RTVSPropertyOp25
 70
     1
102
RTVSPropertyOp26
 70
     1
102
RTVSPropertyOp27
 70
     1
102
RTVSPropertyOp28
 70
     1
102
RTVSPropertyOp29
 70
     1
102
RTVSPropertyOp30
 70
     1
102
RTVSPropertyOp31
 70
     1
102
RTVSPropertyOp32
 70
     1
  0
XRECORD
  5
91
102
{ACAD_REACTORS
330
90
102
}
330
90
100
AcDbXrecord
280
     1
102
RTVSPropertyOp0
 70
     1
102
RTVSPropertyOp1
 70
     1
102
RTVSPropertyOp2
 70
     1
102
RTVSPropertyOp3
 70
     1
102
RTVSPropertyOp4
 70
     1
102
RTVSPropertyOp5
 70
     1
102
RTVSPropertyOp6
 70
     1
102
RTVSPropertyOp7
 70
     1
102
RTVSPropertyOp8
 70
     1
102
RTVSPropertyOp9
 70
     1
102
RTVSPropertyOp10
 70
     1
102
RTVSPropertyOp11
 70
     1
102
RTVSPropertyOp12
 70
     1
102
RTVSPropertyOp13
 70
     1
102
RTVSPropertyOp14
 70
     1
102
RTVSPropertyOp15
 70
     1
102
RTVSPropertyOp16
 70
     1
102
RTVSPropertyOp17
 70
     1
102
RTVSPropertyOp18
 70
     1
102
RTVSPropertyOp19
 70
     1
102
RTVSPropertyOp20
 70
     1
102
RTVSPropertyOp21
 70
     1
102
RTVSPropertyOp22
 70
     1
102
RTVSPropertyOp23
 70
     1
102
RTVSPropertyOp24
 70
     1
102
RTVSPropertyOp25
 70
     1
102
RTVSPropertyOp26
 70
     1
102
RTVSPropertyOp27
 70
     1
102
RTVSPropertyOp28
 70
     1
102
RTVSPropertyOp29
 70
     1
102
RTVSPropertyOp30
 70
     1
102
RTVSPropertyOp31
 70
     1
102
RTVSPropertyOp32
 70
     1
  0
XRECORD
  5
A5
102
{ACAD_REACTORS
330
A4
102
}
330
A4
100
AcDbXrecord
280
     1
102
RTVSPropertyOp0
 70
     1
102
RTVSPropertyOp1
 70
     1
102
RTVSPropertyOp2
 70
     1
102
RTVSPropertyOp3
 70
     1
102
RTVSPropertyOp4
 70
     1
102
RTVSPropertyOp5
 70
     1
102
RTVSPropertyOp6
 70
     1
102
RTVSPropertyOp7
 70
     1
102
RTVSPropertyOp8
 70
     1
102
RTVSPropertyOp9
 70
     1
102
RTVSPropertyOp10
 70
     1
102
RTVSPropertyOp11
 70
     1
102
RTVSPropertyOp12
 70
     1
102
RTVSPropertyOp13
 70
     1
102
RTVSPropertyOp14
 70
     1
102
RTVSPropertyOp15
 70
     1
102
RTVSPropertyOp16
 70
     1
102
RTVSPropertyOp17
 70
     1
102
RTVSPropertyOp18
 70
     1
102
RTVSPropertyOp19
 70
     1
102
RTVSPropertyOp20
 70
     1
102
RTVSPropertyOp21
 70
     1
102
RTVSPropertyOp22
 70
     1
102
RTVSPropertyOp23
 70
     1
102
RTVSPropertyOp24
 70
     1
102
RTVSPropertyOp25
 70
     1
102
RTVSPropertyOp26
 70
     1
102
RTVSPropertyOp27
 70
     1
102
RTVSPropertyOp28
 70
     1
102
RTVSPropertyOp29
 70
     1
102
RTVSPropertyOp30
 70
     1
102
RTVSPropertyOp31
 70
     1
102
RTVSPropertyOp32
 70
     1
  0
XRECORD
  5
9B
102
{ACAD_REACTORS
330
9A
102
}
330
9A
100
AcDbXrecord
280
     1
102
RTVSPropertyOp0
 70
     1
102
RTVSPropertyOp1
 70
     1
102
RTVSPropertyOp2
 70
     1
102
RTVSPropertyOp3
 70
     1
102
RTVSPropertyOp4
 70
     1
102
RTVSPropertyOp5
 70
     1
102
RTVSPropertyOp6
 70
     1
102
RTVSPropertyOp7
 70
     1
102
RTVSPropertyOp8
 70
     1
102
RTVSPropertyOp9
 70
     1
102
RTVSPropertyOp10
 70
     1
102
RTVSPropertyOp11
 70
     1
102
RTVSPropertyOp12
 70
     1
102
RTVSPropertyOp13
 70
     1
102
RTVSPropertyOp14
 70
     1
102
RTVSPropertyOp15
 70
     1
102
RTVSPropertyOp16
 70
     1
102
RTVSPropertyOp17
 70
     1
102
RTVSPropertyOp18
 70
     1
102
RTVSPropertyOp19
 70
     1
102
RTVSPropertyOp20
 70
     1
102
RTVSPropertyOp21
 70
     1
102
RTVSPropertyOp22
 70
     1
102
RTVSPropertyOp23
 70
     1
102
RTVSPropertyOp24
 70
     1
102
RTVSPropertyOp25
 70
     1
102
RTVSPropertyOp26
 70
     1
102
RTVSPropertyOp27
 70
     1
102
RTVSPropertyOp28
 70
     1
102
RTVSPropertyOp29
 70
     1
102
RTVSPropertyOp30
 70
     1
102
RTVSPropertyOp31
 70
     1
102
RTVSPropertyOp32
 70
     1
  0
XRECORD
  5
A3
102
{ACAD_REACTORS
330
A2
102
}
330
A2
100
AcDbXrecord
280
     1
102
RTVSPropertyOp0
 70
     1
102
RTVSPropertyOp1
 70
     1
102
RTVSPropertyOp2
 70
     1
102
RTVSPropertyOp3
 70
     1
102
RTVSPropertyOp4
 70
     1
102
RTVSPropertyOp5
 70
     1
102
RTVSPropertyOp6
 70
     1
102
RTVSPropertyOp7
 70
     1
102
RTVSPropertyOp8
 70
     1
102
RTVSPropertyOp9
 70
     1
102
RTVSPropertyOp10
 70
     1
102
RTVSPropertyOp11
 70
     1
102
RTVSPropertyOp12
 70
     1
102
RTVSPropertyOp13
 70
     1
102
RTVSPropertyOp14
 70
     1
102
RTVSPropertyOp15
 70
     1
102
RTVSPropertyOp16
 70
     1
102
RTVSPropertyOp17
 70
     1
102
RTVSPropertyOp18
 70
     1
102
RTVSPropertyOp19
 70
     1
102
RTVSPropertyOp20
 70
     1
102
RTVSPropertyOp21
 70
     1
102
RTVSPropertyOp22
 70
     1
102
RTVSPropertyOp23
 70
     1
102
RTVSPropertyOp24
 70
     1
102
RTVSPropertyOp25
 70
     1
102
RTVSPropertyOp26
 70
     1
102
RTVSPropertyOp27
 70
     1
102
RTVSPropertyOp28
 70
     1
102
RTVSPropertyOp29
 70
     1
102
RTVSPropertyOp30
 70
     1
102
RTVSPropertyOp31
 70
     1
102
RTVSPropertyOp32
 70
     1
  0
ENDSEC
  0
EOF
