  0
SECTION
  2
HEADER
  9
$ACADVER
  1
AC1021
  9
$ACADMAINTVER
 70
    25
  9
$DWGCODEPAGE
  3
ANSI_1252
  9
$INSBASE
 10
0.0
 20
0.0
 30
0.0
  9
$EXTMIN
 10
-12.55613
 20
-7.51648
 30
0.0
  9
$EXTMAX
 10
11.52321
 20
7.86455
 30
0.0
  9
$LIMMIN
 10
0.0
 20
0.0
  9
$LIMMAX
 10
12.0
 20
9.0
  9
$ORTHOMODE
 70
     0
  9
$REGENMODE
 70
     1
  9
$FILLMODE
 70
     1
  9
$QTEXTMODE
 70
     0
  9
$MIRRTEXT
 70
     1
  9
$LTSCALE
 40
1.0
  9
$ATTMODE
 70
     1
  9
$TEXTSIZE
 40
0.2
  9
$TRACEWID
 40
0.05
  9
$TEXTSTYLE
  7
Standard
  9
$CLAYER
  8
0
  9
$CELTYPE
  6
ByLayer
  9
$CECOLOR
 62
   256
  9
$CELTSCALE
 40
1.0
  9
$DISPSILH
 70
     0
  9
$DIMSCALE
 40
1.0
  9
$DIMASZ
 40
0.18
  9
$DIMEXO
 40
0.0625
  9
$DIMDLI
 40
0.38
  9
$DIMRND
 40
0.0
  9
$DIMDLE
 40
0.0
  9
$DIMEXE
 40
0.18
  9
$DIMTP
 40
0.0
  9
$DIMTM
 40
0.0
  9
$DIMTXT
 40
0.18
  9
$DIMCEN
 40
0.09
  9
$DIMTSZ
 40
0.0
  9
$DIMTOL
 70
     0
  9
$DIMLIM
 70
     0
  9
$DIMTIH
 70
     1
  9
$DIMTOH
 70
     1
  9
$DIMSE1
 70
     0
  9
$DIMSE2
 70
     0
  9
$DIMTAD
 70
     0
  9
$DIMZIN
 70
     0
  9
$DIMBLK
  1

  9
$DIMASO
 70
     1
  9
$DIMSHO
 70
     1
  9
$DIMPOST
  1

  9
$DIMAPOST
  1

  9
$DIMALT
 70
     0
  9
$DIMALTD
 70
     2
  9
$DIMALTF
 40
25.4
  9
$DIMLFAC
 40
1.0
  9
$DIMTOFL
 70
     0
  9
$DIMTVP
 40
0.0
  9
$DIMTIX
 70
     0
  9
$DIMSOXD
 70
     0
  9
$DIMSAH
 70
     0
  9
$DIMBLK1
  1

  9
$DIMBLK2
  1

  9
$DIMSTYLE
  2
Standard
  9
$DIMCLRD
 70
     0
  9
$DIMCLRE
 70
     0
  9
$DIMCLRT
 70
     0
  9
$DIMTFAC
 40
1.0
  9
$DIMGAP
 40
0.09
  9
$DIMJUST
 70
     0
  9
$DIMSD1
 70
     0
  9
$DIMSD2
 70
     0
  9
$DIMTOLJ
 70
     1
  9
$DIMTZIN
 70
     0
  9
$DIMALTZ
 70
     0
  9
$DIMALTTZ
 70
     0
  9
$DIMUPT
 70
     0
  9
$DIMDEC
 70
     4
  9
$DIMTDEC
 70
     4
  9
$DIMALTU
 70
     2
  9
$DIMALTTD
 70
     2
  9
$DIMTXSTY
  7
Standard
  9
$DIMAUNIT
 70
     0
  9
$DIMADEC
 70
     0
  9
$DIMALTRND
 40
0.0
  9
$DIMAZIN
 70
     0
  9
$DIMDSEP
 70
    46
  9
$DIMATFIT
 70
     3
  9
$DIMFRAC
 70
     0
  9
$DIMLDRBLK
  1

  9
$DIMLUNIT
 70
     2
  9
$DIMLWD
 70
    -2
  9
$DIMLWE
 70
    -2
  9
$DIMTMOVE
 70
     0
  9
$DIMFXL
 40
1.0
  9
$DIMFXLON
 70
     0
  9
$DIMJOGANG
 40
0.7853981633974483
  9
$DIMTFILL
 70
     0
  9
$DIMTFILLCLR
 70
     0
  9
$DIMARCSYM
 70
     0
  9
$DIMLTYPE
  6

  9
$DIMLTEX1
  6

  9
$DIMLTEX2
  6

  9
$LUNITS
 70
     2
  9
$LUPREC
 70
     4
  9
$SKETCHINC
 40
0.1
  9
$FILLETRAD
 40
0.5
  9
$AUNITS
 70
     0
  9
$AUPREC
 70
     0
  9
$MENU
  1
.
  9
$ELEVATION
 40
0.0
  9
$PELEVATION
 40
0.0
  9
$THICKNESS
 40
0.0
  9
$LIMCHECK
 70
     0
  9
$CHAMFERA
 40
0.5
  9
$CHAMFERB
 40
0.5
  9
$CHAMFERC
 40
1.0
  9
$CHAMFERD
 40
0.0
  9
$SKPOLY
 70
     0
  9
$TDCREATE
 40
2456231.950199132
  9
$TDUCREATE
 40
2456232.116865799
  9
$TDUPDATE
 40
2456231.950199213
  9
$TDUUPDATE
 40
2456232.11686588
  9
$TDINDWG
 40
0.0000000116
  9
$TDUSRTIMER
 40
0.0000000116
  9
$USRTIMER
 70
     1
  9
$ANGBASE
 50
0.0
  9
$ANGDIR
 70
     0
  9
$PDMODE
 70
     0
  9
$PDSIZE
 40
0.0
  9
$PLINEWID
 40
0.0
  9
$SPLFRAME
 70
     0
  9
$SPLINETYPE
 70
     6
  9
$SPLINESEGS
 70
     8
  9
$HANDSEED
  5
A6
  9
$SURFTAB1
 70
     6
  9
$SURFTAB2
 70
     6
  9
$SURFTYPE
 70
     6
  9
$SURFU
 70
     6
  9
$SURFV
 70
     6
  9
$UCSBASE
  2

  9
$UCSNAME
  2

  9
$UCSORG
 10
0.0
 20
0.0
 30
0.0
  9
$UCSXDIR
 10
1.0
 20
0.0
 30
0.0
  9
$UCSYDIR
 10
0.0
 20
1.0
 30
0.0
  9
$UCSORTHOREF
  2

  9
$UCSORTHOVIEW
 70
     0
  9
$UCSORGTOP
 10
0.0
 20
0.0
 30
0.0
  9
$UCSORGBOTTOM
 10
0.0
 20
0.0
 30
0.0
  9
$UCSORGLEFT
 10
0.0
 20
0.0
 30
0.0
  9
$UCSORGRIGHT
 10
0.0
 20
0.0
 30
0.0
  9
$UCSORGFRONT
 10
0.0
 20
0.0
 30
0.0
  9
$UCSORGBACK
 10
0.0
 20
0.0
 30
0.0
  9
$PUCSBASE
  2

  9
$PUCSNAME
  2

  9
$PUCSORG
 10
0.0
 20
0.0
 30
0.0
  9
$PUCSXDIR
 10
1.0
 20
0.0
 30
0.0
  9
$PUCSYDIR
 10
0.0
 20
1.0
 30
0.0
  9
$PUCSORTHOREF
  2

  9
$PUCSORTHOVIEW
 70
     0
  9
$PUCSORGTOP
 10
0.0
 20
0.0
 30
0.0
  9
$PUCSORGBOTTOM
 10
0.0
 20
0.0
 30
0.0
  9
$PUCSORGLEFT
 10
0.0
 20
0.0
 30
0.0
  9
$PUCSORGRIGHT
 10
0.0
 20
0.0
 30
0.0
  9
$PUCSORGFRONT
 10
0.0
 20
0.0
 30
0.0
  9
$PUCSORGBACK
 10
0.0
 20
0.0
 30
0.0
  9
$USERI1
 70
     0
  9
$USERI2
 70
     0
  9
$USERI3
 70
     0
  9
$USERI4
 70
     0
  9
$USERI5
 70
     0
  9
$USERR1
 40
0.0
  9
$USERR2
 40
0.0
  9
$USERR3
 40
0.0
  9
$USERR4
 40
0.0
  9
$USERR5
 40
0.0
  9
$WORLDVIEW
 70
     1
  9
$SHADEDGE
 70
     3
  9
$SHADEDIF
 70
    70
  9
$TILEMODE
 70
     1
  9
$MAXACTVP
 70
    64
  9
$PINSBASE
 10
0.0
 20
0.0
 30
0.0
  9
$PLIMCHECK
 70
     0
  9
$PEXTMIN
 10
1.000000000000000E+20
 20
1.000000000000000E+20
 30
1.000000000000000E+20
  9
$PEXTMAX
 10
-1.000000000000000E+20
 20
-1.000000000000000E+20
 30
-1.000000000000000E+20
  9
$PLIMMIN
 10
0.0
 20
0.0
  9
$PLIMMAX
 10
12.0
 20
9.0
  9
$UNITMODE
 70
     0
  9
$VISRETAIN
 70
     1
  9
$PLINEGEN
 70
     0
  9
$PSLTSCALE
 70
     1
  9
$TREEDEPTH
 70
  3020
  9
$CMLSTYLE
  2
Standard
  9
$CMLJUST
 70
     0
  9
$CMLSCALE
 40
1.0
  9
$PROXYGRAPHICS
 70
     1
  9
$MEASUREMENT
 70
     0
  9
$CELWEIGHT
370
    -1
  9
$ENDCAPS
280
     0
  9
$JOINSTYLE
280
     0
  9
$LWDISPLAY
290
     0
  9
$INSUNITS
 70
     5
  9
$HYPERLINKBASE
  1

  9
$STYLESHEET
  1

  9
$XEDIT
290
     1
  9
$CEPSNTYPE
380
     0
  9
$PSTYLEMODE
290
     1
  9
$FINGERPRINTGUID
  2
{69C11C6A-7918-4E61-B25E-7D47AF267563}
  9
$VERSIONGUID
  2
{FAEB1C32-E019-11D5-929B-00C0DF256EC4}
  9
$EXTNAMES
290
     1
  9
$PSVPSCALE
 40
0.0
  9
$OLESTARTUP
290
     0
  9
$SORTENTS
280
   127
  9
$INDEXCTL
280
     0
  9
$HIDETEXT
280
     1
  9
$XCLIPFRAME
290
     0
  9
$HALOGAP
280
     0
  9
$OBSCOLOR
 70
   257
  9
$OBSLTYPE
280
     0
  9
$INTERSECTIONDISPLAY
280
     0
  9
$INTERSECTIONCOLOR
 70
   257
  9
$DIMASSOC
280
     2
  9
$PROJECTNAME
  1

  9
$CAMERADISPLAY
290
     0
  9
$LENSLENGTH
 40
50.0
  9
$CAMERAHEIGHT
 40
0.0
  9
$STEPSPERSEC
 40
2.0
  9
$STEPSIZE
 40
6.0
  9
$3DDWFPREC
 40
2.0
  9
$PSOLWIDTH
 40
0.25
  9
$PSOLHEIGHT
 40
4.0
  9
$LOFTANG1
 40
1.570796326794897
  9
$LOFTANG2
 40
1.570796326794897
  9
$LOFTMAG1
 40
0.0
  9
$LOFTMAG2
 40
0.0
  9
$LOFTPARAM
 70
     7
  9
$LOFTNORMALS
280
     1
  9
$LATITUDE
 40
37.795
  9
$LONGITUDE
 40
-122.394
  9
$NORTHDIRECTION
 40
0.0
  9
$TIMEZONE
 70
 -8000
  9
$LIGHTGLYPHDISPLAY
280
     1
  9
$TILEMODELIGHTSYNCH
280
     1
  9
$SOLIDHIST
280
     1
  9
$SHOWHIST
280
     1
  9
$DWFFRAME
280
     2
  9
$DGNFRAME
280
     2
  9
$REALWORLDSCALE
290
     1
  9
$INTERFERECOLOR
 62
   256
  9
$CSHADOW
280
     0
  9
$SHADOWPLANELOCATION
 40
0.0
  0
ENDSEC
  0
SECTION
  2
CLASSES
  0
CLASS
  1
ACDBDICTIONARYWDFLT
  2
AcDbDictionaryWithDefault
  3
ObjectDBX Classes
 90
        0
 91
        4
280
     0
281
     0
  0
CLASS
  1
VISUALSTYLE
  2
AcDbVisualStyle
  3
ObjectDBX Classes
 90
     4095
 91
        4
280
     0
281
     0
  0
CLASS
  1
MATERIAL
  2
AcDbMaterial
  3
ObjectDBX Classes
 90
     1153
 91
        4
280
     0
281
     0
  0
ENDSEC
  0
SECTION
  2
TABLES
  0
TABLE
  2
VPORT
  5
8
330
0
100
AcDbSymbolTable
 70
     1
  0
VPORT
  5
29
330
8
100
AcDbSymbolTableRecord
100
AcDbViewportTableRecord
  2
*Active
 70
     0
 10
0.0
 20
0.0
 11
1.0
 21
1.0
 12
10.42990654205607
 22
4.5
 13
0.0
 23
0.0
 14
0.5
 24
0.5
 15
0.5
 25
0.5
 16
0.0
 26
0.0
 36
1.0
 17
0.0
 27
0.0
 37
0.0
 40
9.0
 41
1.972972972850329
 42
50.0
 43
0.0
 44
0.0
 50
0.0
 51
0.0
 71
     0
 72
   100
 73
     1
 74
     3
 75
     0
 76
     0
 77
     0
 78
     0
281
     0
 65
     1
110
0.0
120
0.0
130
0.0
111
1.0
121
0.0
131
0.0
112
0.0
122
1.0
132
0.0
 79
     0
146
0.0
 60
     3
 61
     5
292
     1
282
     1
141
0.0
142
0.0
 63
   250
  0
ENDTAB
  0
TABLE
  2
LTYPE
  5
5
330
0
100
AcDbSymbolTable
 70
     1
  0
LTYPE
  5
14
330
5
100
AcDbSymbolTableRecord
100
AcDbLinetypeTableRecord
  2
ByBlock
 70
     0
  3

 72
    65
 73
     0
 40
0.0
  0
LTYPE
  5
15
330
5
100
AcDbSymbolTableRecord
100
AcDbLinetypeTableRecord
  2
ByLayer
 70
     0
  3

 72
    65
 73
     0
 40
0.0
  0
LTYPE
  5
16
330
5
100
AcDbSymbolTableRecord
100
AcDbLinetypeTableRecord
  2
Continuous
 70
     0
  3
Solid line
 72
    65
 73
     0
 40
0.0
  0
ENDTAB
  0
TABLE
  2
LAYER
  5
2
330
0
100
AcDbSymbolTable
 70
     3
  0
LAYER
  5
10
330
2
100
AcDbSymbolTableRecord
100
AcDbLayerTableRecord
  2
0
 70
     0
 62
     7
  6
Continuous
370
    -3
390
F
347
3E
  0
LAYER
  5
40
330
2
100
AcDbSymbolTableRecord
100
AcDbLayerTableRecord
  2
Layer 1
 70
     0
 62
     7
  6
Continuous
370
    -3
390
F
347
3E
  0
LAYER
  5
58
330
2
100
AcDbSymbolTableRecord
100
AcDbLayerTableRecord
  2
layer 2
 70
     0
 62
     7
  6
Continuous
370
    -3
390
F
347
3E
  0
ENDTAB
  0
TABLE
  2
STYLE
  5
3
330
0
100
AcDbSymbolTable
 70
     1
  0
STYLE
  5
11
330
3
100
AcDbSymbolTableRecord
100
AcDbTextStyleTableRecord
  2
Standard
 70
     0
 40
0.0
 41
1.0
 50
0.0
 71
     0
 42
0.2
  3
txt
  4

  0
ENDTAB
  0
TABLE
  2
VIEW
  5
6
330
0
100
AcDbSymbolTable
 70
     0
  0
ENDTAB
  0
TABLE
  2
UCS
  5
7
330
0
100
AcDbSymbolTable
 70
     0
  0
ENDTAB
  0
TABLE
  2
APPID
  5
9
330
0
100
AcDbSymbolTable
 70
     2
  0
APPID
  5
12
330
9
100
AcDbSymbolTableRecord
100
AcDbRegAppTableRecord
  2
ACAD
 70
     0
  0
APPID
  5
3F
330
9
100
AcDbSymbolTableRecord
100
AcDbRegAppTableRecord
  2
ODA
 70
     0
  0
ENDTAB
  0
TABLE
  2
DIMSTYLE
  5
A
330
0
100
AcDbSymbolTable
 70
     1
100
AcDbDimStyleTable
  0
DIMSTYLE
105
27
330
A
100
AcDbSymbolTableRecord
100
AcDbDimStyleTableRecord
  2
Standard
 70
     0
178
     0
340
11
  0
ENDTAB
  0
TABLE
  2
BLOCK_RECORD
  5
1
330
0
100
AcDbSymbolTable
 70
     1
  0
BLOCK_RECORD
  5
1F
330
1
100
AcDbSymbolTableRecord
100
AcDbBlockTableRecord
  2
*Model_Space
340
22
 70
     0
280
     1
281
     0
  0
BLOCK_RECORD
  5
1B
330
1
100
AcDbSymbolTableRecord
100
AcDbBlockTableRecord
  2
*Paper_Space
340
1E
 70
     0
280
     1
281
     0
  0
BLOCK_RECORD
  5
23
330
1
100
AcDbSymbolTableRecord
100
AcDbBlockTableRecord
  2
*Paper_Space0
340
26
 70
     0
280
     1
281
     0
  0
ENDTAB
  0
ENDSEC
  0
SECTION
  2
BLOCKS
  0
BLOCK
  5
20
330
1F
100
AcDbEntity
  8
0
100
AcDbBlockBegin
  2
*Model_Space
 70
     0
 10
0.0
 20
0.0
 30
0.0
  3
*Model_Space
  1

  0
ENDBLK
  5
21
330
1F
100
AcDbEntity
  8
0
100
AcDbBlockEnd
  0
BLOCK
  5
1C
330
1B
100
AcDbEntity
 67
     1
  8
0
100
AcDbBlockBegin
  2
*Paper_Space
 70
     0
 10
0.0
 20
0.0
 30
0.0
  3
*Paper_Space
  1

  0
ENDBLK
  5
1D
330
1B
100
AcDbEntity
 67
     1
  8
0
100
AcDbBlockEnd
  0
BLOCK
  5
24
330
23
100
AcDbEntity
  8
0
100
AcDbBlockBegin
  2
*Paper_Space0
 70
     0
 10
0.0
 20
0.0
 30
0.0
  3
*Paper_Space0
  1

  0
ENDBLK
  5
25
330
23
100
AcDbEntity
  8
0
100
AcDbBlockEnd
  0
ENDSEC
  0
SECTION
  2
ENTITIES
  0
SPLINE
  5
41
330
1F
100
AcDbEntity
  8
Layer 1
 62
   250
100
AcDbSpline
210
0.0
220
0.0
230
1.0
 70
    11
 71
     3
 72
    92
 73
    88
 74
     0
 42
0.0000000001
 43
0.0000000001
 12
1.0
 22
0.0
 32
0.0
 13
1.0
 23
0.0
 33
0.0
 40
0.0
 40
0.0
 40
0.0
 40
0.0
 40
0.0434782608695652
 40
0.0434782608695652
 40
0.0434782608695652
 40
0.0434782608695652
 40
0.0869565217391304
 40
0.0869565217391304
 40
0.0869565217391304
 40
0.0869565217391304
 40
0.1304347826086956
 40
0.1304347826086956
 40
0.1304347826086956
 40
0.1304347826086956
 40
0.1739130434782609
 40
0.1739130434782609
 40
0.1739130434782609
 40
0.1739130434782609
 40
0.2173913043478261
 40
0.2173913043478261
 40
0.2173913043478261
 40
0.2173913043478261
 40
0.2608695652173913
 40
0.2608695652173913
 40
0.2608695652173913
 40
0.2608695652173913
 40
0.3043478260869565
 40
0.3043478260869565
 40
0.3043478260869565
 40
0.3043478260869565
 40
0.3478260869565217
 40
0.3478260869565217
 40
0.3478260869565217
 40
0.3478260869565217
 40
0.391304347826087
 40
0.391304347826087
 40
0.391304347826087
 40
0.391304347826087
 40
0.4347826086956522
 40
0.4347826086956522
 40
0.4347826086956522
 40
0.4347826086956522
 40
0.4782608695652174
 40
0.4782608695652174
 40
0.4782608695652174
 40
0.4782608695652174
 40
0.5217391304347826
 40
0.5217391304347826
 40
0.5217391304347826
 40
0.5217391304347826
 40
0.5652173913043478
 40
0.5652173913043478
 40
0.5652173913043478
 40
0.5652173913043478
 40
0.6086956521739131
 40
0.6086956521739131
 40
0.6086956521739131
 40
0.6086956521739131
 40
0.6521739130434783
 40
0.6521739130434783
 40
0.6521739130434783
 40
0.6521739130434783
 40
0.6956521739130435
 40
0.6956521739130435
 40
0.6956521739130435
 40
0.6956521739130435
 40
0.7391304347826086
 40
0.7391304347826086
 40
0.7391304347826086
 40
0.7391304347826086
 40
0.782608695652174
 40
0.782608695652174
 40
0.782608695652174
 40
0.782608695652174
 40
0.8260869565217391
 40
0.8260869565217391
 40
0.8260869565217391
 40
0.8260869565217391
 40
0.8695652173913043
 40
0.8695652173913043
 40
0.8695652173913043
 40
0.8695652173913043
 40
0.9130434782608695
 40
0.9130434782608695
 40
0.9130434782608695
 40
0.9130434782608695
 40
1.0
 40
1.0
 40
1.0
 40
1.0
 10
-4.25533
 20
-7.4352
 30
0.0
 10
-4.25533
 20
-7.4352
 30
0.0
 10
-4.25533
 20
-7.50632
 30
0.0
 10
-4.25533
 20
-7.50632
 30
0.0
 10
-4.25533
 20
-7.50632
 30
0.0
 10
-4.25533
 20
-7.50632
 30
0.0
 10
-4.65666
 20
-7.50632
 30
0.0
 10
-4.65666
 20
-7.50632
 30
0.0
 10
-4.65666
 20
-7.50632
 30
0.0
 10
-4.65722
 20
-7.4884
 30
0.0
 10
-4.65426
 20
-7.47118
 30
0.0
 10
-4.64791
 20
-7.45453
 30
0.0
 10
-4.64791
 20
-7.45453
 30
0.0
 10
-4.63761
 20
-7.4273
 30
0.0
 10
-4.6211
 20
-7.40035
 30
0.0
 10
-4.59838
 20
-7.37396
 30
0.0
 10
-4.59838
 20
-7.37396
 30
0.0
 10
-4.57566
 20
-7.34757
 30
0.0
 10
-4.5432
 20
-7.31709
 30
0.0
 10
-4.50101
 20
-7.28252
 30
0.0
 10
-4.50101
 20
-7.28252
 30
0.0
 10
-4.43539
 20
-7.22847
 30
0.0
 10
-4.3908
 20
-7.18571
 30
0.0
 10
-4.36752
 20
-7.15411
 30
0.0
 10
-4.36752
 20
-7.15411
 30
0.0
 10
-4.34409
 20
-7.1225
 30
0.0
 10
-4.33238
 20
-7.09258
 30
0.0
 10
-4.33238
 20
-7.06436
 30
0.0
 10
-4.33238
 20
-7.06436
 30
0.0
 10
-4.33238
 20
-7.03487
 30
0.0
 10
-4.34297
 20
-7.01003
 30
0.0
 10
-4.36413
 20
-6.98971
 30
0.0
 10
-4.36413
 20
-6.98971
 30
0.0
 10
-4.3853
 20
-6.96953
 30
0.0
 10
-4.41296
 20
-6.95937
 30
0.0
 10
-4.44696
 20
-6.95937
 30
0.0
 10
-4.44696
 20
-6.95937
 30
0.0
 10
-4.48295
 20
-6.95937
 30
0.0
 10
-4.51173
 20
-6.9701
 30
0.0
 10
-4.53332
 20
-6.99154
 30
0.0
 10
-4.53332
 20
-6.99154
 30
0.0
 10
-4.55492
 20
-7.01285
 30
0.0
 10
-4.56578
 20
-7.04249
 30
0.0
 10
-4.56606
 20
-7.08044
 30
0.0
 10
-4.56606
 20
-7.08044
 30
0.0
 10
-4.56606
 20
-7.08044
 30
0.0
 10
-4.64226
 20
-7.07282
 30
0.0
 10
-4.64226
 20
-7.07282
 30
0.0
 10
-4.64226
 20
-7.07282
 30
0.0
 10
-4.63704
 20
-7.01582
 30
0.0
 10
-4.61729
 20
-6.97235
 30
0.0
 10
-4.58314
 20
-6.94244
 30
0.0
 10
-4.58314
 20
-6.94244
 30
0.0
 10
-4.54885
 20
-6.91252
 30
0.0
 10
-4.50299
 20
-6.89756
 30
0.0
 10
-4.44527
 20
-6.89756
 30
0.0
 10
-4.44527
 20
-6.89756
 30
0.0
 10
-4.38713
 20
-6.89756
 30
0.0
 10
-4.34099
 20
-6.91365
 30
0.0
 10
-4.30712
 20
-6.94597
 30
0.0
 10
-4.30712
 20
-6.94597
 30
0.0
 10
-4.27312
 20
-6.97828
 30
0.0
 10
-4.25618
 20
-7.01836
 30
0.0
 10
-4.25618
 20
-7.06605
 30
0.0
 10
-4.25618
 20
-7.06605
 30
0.0
 10
-4.25618
 20
-7.09032
 30
0.0
 10
-4.26112
 20
-7.11417
 30
0.0
 10
-4.27114
 20
-7.1376
 30
0.0
 10
-4.27114
 20
-7.1376
 30
0.0
 10
-4.28102
 20
-7.16116
 30
0.0
 10
-4.29753
 20
-7.18586
 30
0.0
 10
-4.32053
 20
-7.21182
 30
0.0
 10
-4.32053
 20
-7.21182
 30
0.0
 10
-4.34367
 20
-7.23764
 30
0.0
 10
-4.38191
 20
-7.27334
 30
0.0
 10
-4.43525
 20
-7.3185
 30
0.0
 10
-4.43525
 20
-7.3185
 30
0.0
 10
-4.47998
 20
-7.35604
 30
0.0
 10
-4.50877
 20
-7.38144
 30
0.0
 10
-4.52147
 20
-7.39484
 30
0.0
 10
-4.52147
 20
-7.39484
 30
0.0
 10
-4.53417
 20
-7.40825
 30
0.0
 10
-4.54461
 20
-7.42165
 30
0.0
 10
-4.55294
 20
-7.4352
 30
0.0
 10
-4.55294
 20
-7.4352
 30
0.0
 10
-4.55294
 20
-7.4352
 30
0.0
 10
-4.25533
 20
-7.4352
 30
0.0
 10
-4.25533
 20
-7.4352
 30
0.0
  0
SPLINE
  5
42
330
1F
100
AcDbEntity
  8
Layer 1
 62
   250
100
AcDbSpline
210
0.0
220
0.0
230
1.0
 70
    11
 71
     3
 72
    52
 73
    48
 74
     0
 42
0.0000000001
 43
0.0000000001
 12
1.0
 22
0.0
 32
0.0
 13
1.0
 23
0.0
 33
0.0
 40
0.0
 40
0.0
 40
0.0
 40
0.0
 40
0.0769230769230769
 40
0.0769230769230769
 40
0.0769230769230769
 40
0.0769230769230769
 40
0.1538461538461539
 40
0.1538461538461539
 40
0.1538461538461539
 40
0.1538461538461539
 40
0.2307692307692308
 40
0.2307692307692308
 40
0.2307692307692308
 40
0.2307692307692308
 40
0.3076923076923077
 40
0.3076923076923077
 40
0.3076923076923077
 40
0.3076923076923077
 40
0.3846153846153846
 40
0.3846153846153846
 40
0.3846153846153846
 40
0.3846153846153846
 40
0.4615384615384616
 40
0.4615384615384616
 40
0.4615384615384616
 40
0.4615384615384616
 40
0.5384615384615384
 40
0.5384615384615384
 40
0.5384615384615384
 40
0.5384615384615384
 40
0.6153846153846154
 40
0.6153846153846154
 40
0.6153846153846154
 40
0.6153846153846154
 40
0.6923076923076923
 40
0.6923076923076923
 40
0.6923076923076923
 40
0.6923076923076923
 40
0.7692307692307693
 40
0.7692307692307693
 40
0.7692307692307693
 40
0.7692307692307693
 40
0.8461538461538461
 40
0.8461538461538461
 40
0.8461538461538461
 40
0.8461538461538461
 40
1.0
 40
1.0
 40
1.0
 40
1.0
 10
-4.17476
 20
-7.20716
 30
0.0
 10
-4.17476
 20
-7.13562
 30
0.0
 10
-4.16742
 20
-7.07776
 30
0.0
 10
-4.15275
 20
-7.03402
 30
0.0
 10
-4.15275
 20
-7.03402
 30
0.0
 10
-4.13793
 20
-6.99013
 30
0.0
 10
-4.11606
 20
-6.95641
 30
0.0
 10
-4.08699
 20
-6.93284
 30
0.0
 10
-4.08699
 20
-6.93284
 30
0.0
 10
-4.05806
 20
-6.90928
 30
0.0
 10
-4.02151
 20
-6.89756
 30
0.0
 10
-3.97749
 20
-6.89756
 30
0.0
 10
-3.97749
 20
-6.89756
 30
0.0
 10
-3.94503
 20
-6.89756
 30
0.0
 10
-3.91653
 20
-6.90406
 30
0.0
 10
-3.89183
 20
-6.91718
 30
0.0
 10
-3.89183
 20
-6.91718
 30
0.0
 10
-3.86728
 20
-6.9303
 30
0.0
 10
-3.84696
 20
-6.94921
 30
0.0
 10
-3.83115
 20
-6.97391
 30
0.0
 10
-3.83115
 20
-6.97391
 30
0.0
 10
-3.81535
 20
-6.99846
 30
0.0
 10
-3.80293
 20
-7.02852
 30
0.0
 10
-3.7939
 20
-7.06393
 30
0.0
 10
-3.7939
 20
-7.06393
 30
0.0
 10
-3.78473
 20
-7.09935
 30
0.0
 10
-3.78021
 20
-7.14719
 30
0.0
 10
-3.78021
 20
-7.20716
 30
0.0
 10
-3.78021
 20
-7.20716
 30
0.0
 10
-3.78021
 20
-7.27828
 30
0.0
 10
-3.78755
 20
-7.33586
 30
0.0
 10
-3.80208
 20
-7.3796
 30
0.0
 10
-3.80208
 20
-7.3796
 30
0.0
 10
-3.81662
 20
-7.42349
 30
0.0
 10
-3.83849
 20
-7.45721
 30
0.0
 10
-3.86756
 20
-7.48092
 30
0.0
 10
-3.86756
 20
-7.48092
 30
0.0
 10
-3.89649
 20
-7.50463
 30
0.0
 10
-3.93318
 20
-7.51648
 30
0.0
 10
-3.97749
 20
-7.51648
 30
0.0
 10
-3.97749
 20
-7.51648
 30
0.0
 10
-4.03576
 20
-7.51648
 30
0.0
 10
-4.08163
 20
-7.49574
 30
0.0
 10
-4.11493
 20
-7.45411
 30
0.0
 10
-4.11493
 20
-7.45411
 30
0.0
 10
-4.15486
 20
-7.40331
 30
0.0
 10
-4.17476
 20
-7.32104
 30
0.0
 10
-4.17476
 20
-7.20716
 30
0.0
  0
SPLINE
  5
43
330
1F
100
AcDbEntity
  8
Layer 1
 62
   250
100
AcDbSpline
210
0.0
220
0.0
230
1.0
 70
    11
 71
     3
 72
    36
 73
    32
 74
     0
 42
0.0000000001
 43
0.0000000001
 12
1.0
 22
0.0
 32
0.0
 13
1.0
 23
0.0
 33
0.0
 40
0.0
 40
0.0
 40
0.0
 40
0.0
 40
0.1111111111111111
 40
0.1111111111111111
 40
0.1111111111111111
 40
0.1111111111111111
 40
0.2222222222222222
 40
0.2222222222222222
 40
0.2222222222222222
 40
0.2222222222222222
 40
0.3333333333333333
 40
0.3333333333333333
 40
0.3333333333333333
 40
0.3333333333333333
 40
0.4444444444444444
 40
0.4444444444444444
 40
0.4444444444444444
 40
0.4444444444444444
 40
0.5555555555555556
 40
0.5555555555555556
 40
0.5555555555555556
 40
0.5555555555555556
 40
0.6666666666666666
 40
0.6666666666666666
 40
0.6666666666666666
 40
0.6666666666666666
 40
0.7777777777777778
 40
0.7777777777777778
 40
0.7777777777777778
 40
0.7777777777777778
 40
1.0
 40
1.0
 40
1.0
 40
1.0
 10
-4.09856
 20
-7.20745
 30
0.0
 10
-4.09856
 20
-7.30721
 30
0.0
 10
-4.08699
 20
-7.37353
 30
0.0
 10
-4.0637
 20
-7.40627
 30
0.0
 10
-4.0637
 20
-7.40627
 30
0.0
 10
-4.04042
 20
-7.43915
 30
0.0
 10
-4.01163
 20
-7.45552
 30
0.0
 10
-3.97749
 20
-7.45552
 30
0.0
 10
-3.97749
 20
-7.45552
 30
0.0
 10
-3.94334
 20
-7.45552
 30
0.0
 10
-3.91455
 20
-7.43901
 30
0.0
 10
-3.89127
 20
-7.40613
 30
0.0
 10
-3.89127
 20
-7.40613
 30
0.0
 10
-3.86798
 20
-7.37311
 30
0.0
 10
-3.85641
 20
-7.30693
 30
0.0
 10
-3.85641
 20
-7.20745
 30
0.0
 10
-3.85641
 20
-7.20745
 30
0.0
 10
-3.85641
 20
-7.10768
 30
0.0
 10
-3.86798
 20
-7.04136
 30
0.0
 10
-3.89127
 20
-7.00862
 30
0.0
 10
-3.89127
 20
-7.00862
 30
0.0
 10
-3.91441
 20
-6.97574
 30
0.0
 10
-3.94348
 20
-6.95937
 30
0.0
 10
-3.97833
 20
-6.95937
 30
0.0
 10
-3.97833
 20
-6.95937
 30
0.0
 10
-4.01248
 20
-6.95937
 30
0.0
 10
-4.03986
 20
-6.97391
 30
0.0
 10
-4.06032
 20
-7.00283
 30
0.0
 10
-4.06032
 20
-7.00283
 30
0.0
 10
-4.08586
 20
-7.03966
 30
0.0
 10
-4.09856
 20
-7.10796
 30
0.0
 10
-4.09856
 20
-7.20745
 30
0.0
  0
SPLINE
  5
44
330
1F
100
AcDbEntity
  8
Layer 1
 62
   250
100
AcDbSpline
210
0.0
220
0.0
230
1.0
 70
    11
 71
     3
 72
   124
 73
   120
 74
     0
 42
0.0000000001
 43
0.0000000001
 12
1.0
 22
0.0
 32
0.0
 13
1.0
 23
0.0
 33
0.0
 40
0.0
 40
0.0
 40
0.0
 40
0.0
 40
0.032258064516129
 40
0.032258064516129
 40
0.032258064516129
 40
0.032258064516129
 40
0.0645161290322581
 40
0.0645161290322581
 40
0.0645161290322581
 40
0.0645161290322581
 40
0.0967741935483871
 40
0.0967741935483871
 40
0.0967741935483871
 40
0.0967741935483871
 40
0.1290322580645161
 40
0.1290322580645161
 40
0.1290322580645161
 40
0.1290322580645161
 40
0.1612903225806452
 40
0.1612903225806452
 40
0.1612903225806452
 40
0.1612903225806452
 40
0.1935483870967742
 40
0.1935483870967742
 40
0.1935483870967742
 40
0.1935483870967742
 40
0.2258064516129032
 40
0.2258064516129032
 40
0.2258064516129032
 40
0.2258064516129032
 40
0.2580645161290323
 40
0.2580645161290323
 40
0.2580645161290323
 40
0.2580645161290323
 40
0.2903225806451613
 40
0.2903225806451613
 40
0.2903225806451613
 40
0.2903225806451613
 40
0.3225806451612903
 40
0.3225806451612903
 40
0.3225806451612903
 40
0.3225806451612903
 40
0.3548387096774194
 40
0.3548387096774194
 40
0.3548387096774194
 40
0.3548387096774194
 40
0.3870967741935484
 40
0.3870967741935484
 40
0.3870967741935484
 40
0.3870967741935484
 40
0.4193548387096774
 40
0.4193548387096774
 40
0.4193548387096774
 40
0.4193548387096774
 40
0.4516129032258064
 40
0.4516129032258064
 40
0.4516129032258064
 40
0.4516129032258064
 40
0.4838709677419355
 40
0.4838709677419355
 40
0.4838709677419355
 40
0.4838709677419355
 40
0.5161290322580645
 40
0.5161290322580645
 40
0.5161290322580645
 40
0.5161290322580645
 40
0.5483870967741935
 40
0.5483870967741935
 40
0.5483870967741935
 40
0.5483870967741935
 40
0.5806451612903226
 40
0.5806451612903226
 40
0.5806451612903226
 40
0.5806451612903226
 40
0.6129032258064516
 40
0.6129032258064516
 40
0.6129032258064516
 40
0.6129032258064516
 40
0.6451612903225806
 40
0.6451612903225806
 40
0.6451612903225806
 40
0.6451612903225806
 40
0.6774193548387096
 40
0.6774193548387096
 40
0.6774193548387096
 40
0.6774193548387096
 40
0.7096774193548387
 40
0.7096774193548387
 40
0.7096774193548387
 40
0.7096774193548387
 40
0.7419354838709677
 40
0.7419354838709677
 40
0.7419354838709677
 40
0.7419354838709677
 40
0.7741935483870968
 40
0.7741935483870968
 40
0.7741935483870968
 40
0.7741935483870968
 40
0.8064516129032258
 40
0.8064516129032258
 40
0.8064516129032258
 40
0.8064516129032258
 40
0.8387096774193549
 40
0.8387096774193549
 40
0.8387096774193549
 40
0.8387096774193549
 40
0.8709677419354839
 40
0.8709677419354839
 40
0.8709677419354839
 40
0.8709677419354839
 40
0.9032258064516129
 40
0.9032258064516129
 40
0.9032258064516129
 40
0.9032258064516129
 40
0.9354838709677419
 40
0.9354838709677419
 40
0.9354838709677419
 40
0.9354838709677419
 40
1.0
 40
1.0
 40
1.0
 40
1.0
 10
-3.70387
 20
-7.34545
 30
0.0
 10
-3.70387
 20
-7.34545
 30
0.0
 10
-3.62936
 20
-7.33529
 30
0.0
 10
-3.62936
 20
-7.33529
 30
0.0
 10
-3.62936
 20
-7.33529
 30
0.0
 10
-3.62076
 20
-7.37763
 30
0.0
 10
-3.60636
 20
-7.40811
 30
0.0
 10
-3.5859
 20
-7.42673
 30
0.0
 10
-3.5859
 20
-7.42673
 30
0.0
 10
-3.56544
 20
-7.44536
 30
0.0
 10
-3.54032
 20
-7.45467
 30
0.0
 10
-3.51055
 20
-7.45467
 30
0.0
 10
-3.51055
 20
-7.45467
 30
0.0
 10
-3.47527
 20
-7.45467
 30
0.0
 10
-3.44549
 20
-7.44254
 30
0.0
 10
-3.42151
 20
-7.41827
 30
0.0
 10
-3.42151
 20
-7.41827
 30
0.0
 10
-3.39752
 20
-7.394
 30
0.0
 10
-3.38552
 20
-7.36394
 30
0.0
 10
-3.38552
 20
-7.3281
 30
0.0
 10
-3.38552
 20
-7.3281
 30
0.0
 10
-3.38552
 20
-7.29395
 30
0.0
 10
-3.39667
 20
-7.26572
 30
0.0
 10
-3.41911
 20
-7.24343
 30
0.0
 10
-3.41911
 20
-7.24343
 30
0.0
 10
-3.4414
 20
-7.22127
 30
0.0
 10
-3.46977
 20
-7.21013
 30
0.0
 10
-3.50434
 20
-7.21013
 30
0.0
 10
-3.50434
 20
-7.21013
 30
0.0
 10
-3.51845
 20
-7.21013
 30
0.0
 10
-3.53595
 20
-7.21295
 30
0.0
 10
-3.55697
 20
-7.21845
 30
0.0
 10
-3.55697
 20
-7.21845
 30
0.0
 10
-3.55697
 20
-7.21845
 30
0.0
 10
-3.54865
 20
-7.15326
 30
0.0
 10
-3.54865
 20
-7.15326
 30
0.0
 10
-3.54865
 20
-7.15326
 30
0.0
 10
-3.54371
 20
-7.15382
 30
0.0
 10
-3.53962
 20
-7.15411
 30
0.0
 10
-3.53665
 20
-7.15411
 30
0.0
 10
-3.53665
 20
-7.15411
 30
0.0
 10
-3.50476
 20
-7.15411
 30
0.0
 10
-3.47626
 20
-7.14578
 30
0.0
 10
-3.45072
 20
-7.12927
 30
0.0
 10
-3.45072
 20
-7.12927
 30
0.0
 10
-3.42532
 20
-7.11276
 30
0.0
 10
-3.41262
 20
-7.08736
 30
0.0
 10
-3.41262
 20
-7.05307
 30
0.0
 10
-3.41262
 20
-7.05307
 30
0.0
 10
-3.41262
 20
-7.02583
 30
0.0
 10
-3.42193
 20
-7.00326
 30
0.0
 10
-3.44041
 20
-6.98534
 30
0.0
 10
-3.44041
 20
-6.98534
 30
0.0
 10
-3.4589
 20
-6.96741
 30
0.0
 10
-3.48275
 20
-6.95852
 30
0.0
 10
-3.51196
 20
-6.95852
 30
0.0
 10
-3.51196
 20
-6.95852
 30
0.0
 10
-3.54103
 20
-6.95852
 30
0.0
 10
-3.56516
 20
-6.9677
 30
0.0
 10
-3.58449
 20
-6.98604
 30
0.0
 10
-3.58449
 20
-6.98604
 30
0.0
 10
-3.60382
 20
-7.00439
 30
0.0
 10
-3.61624
 20
-7.0319
 30
0.0
 10
-3.62174
 20
-7.06859
 30
0.0
 10
-3.62174
 20
-7.06859
 30
0.0
 10
-3.62174
 20
-7.06859
 30
0.0
 10
-3.69625
 20
-7.05504
 30
0.0
 10
-3.69625
 20
-7.05504
 30
0.0
 10
-3.69625
 20
-7.05504
 30
0.0
 10
-3.68708
 20
-7.00509
 30
0.0
 10
-3.66648
 20
-6.96629
 30
0.0
 10
-3.63416
 20
-6.93877
 30
0.0
 10
-3.63416
 20
-6.93877
 30
0.0
 10
-3.60199
 20
-6.91125
 30
0.0
 10
-3.56177
 20
-6.89756
 30
0.0
 10
-3.51379
 20
-6.89756
 30
0.0
 10
-3.51379
 20
-6.89756
 30
0.0
 10
-3.48077
 20
-6.89756
 30
0.0
 10
-3.45029
 20
-6.90462
 30
0.0
 10
-3.42249
 20
-6.91887
 30
0.0
 10
-3.42249
 20
-6.91887
 30
0.0
 10
-3.39455
 20
-6.93298
 30
0.0
 10
-3.37325
 20
-6.95232
 30
0.0
 10
-3.35857
 20
-6.97673
 30
0.0
 10
-3.35857
 20
-6.97673
 30
0.0
 10
-3.34375
 20
-7.00128
 30
0.0
 10
-3.33642
 20
-7.02725
 30
0.0
 10
-3.33642
 20
-7.05476
 30
0.0
 10
-3.33642
 20
-7.05476
 30
0.0
 10
-3.33642
 20
-7.08087
 30
0.0
 10
-3.34347
 20
-7.10458
 30
0.0
 10
-3.35744
 20
-7.12602
 30
0.0
 10
-3.35744
 20
-7.12602
 30
0.0
 10
-3.37155
 20
-7.14747
 30
0.0
 10
-3.39244
 20
-7.16455
 30
0.0
 10
-3.41995
 20
-7.17725
 30
0.0
 10
-3.41995
 20
-7.17725
 30
0.0
 10
-3.38411
 20
-7.18543
 30
0.0
 10
-3.35631
 20
-7.20265
 30
0.0
 10
-3.33642
 20
-7.22875
 30
0.0
 10
-3.33642
 20
-7.22875
 30
0.0
 10
-3.31666
 20
-7.25472
 30
0.0
 10
-3.30678
 20
-7.28746
 30
0.0
 10
-3.30678
 20
-7.32654
 30
0.0
 10
-3.30678
 20
-7.32654
 30
0.0
 10
-3.30678
 20
-7.37946
 30
0.0
 10
-3.32611
 20
-7.42448
 30
0.0
 10
-3.36464
 20
-7.46131
 30
0.0
 10
-3.36464
 20
-7.46131
 30
0.0
 10
-3.4033
 20
-7.49814
 30
0.0
 10
-3.45213
 20
-7.51648
 30
0.0
 10
-3.51111
 20
-7.51648
 30
0.0
 10
-3.51111
 20
-7.51648
 30
0.0
 10
-3.56431
 20
-7.51648
 30
0.0
 10
-3.60848
 20
-7.50053
 30
0.0
 10
-3.64362
 20
-7.46878
 30
0.0
 10
-3.64362
 20
-7.46878
 30
0.0
 10
-3.67889
 20
-7.43703
 30
0.0
 10
-3.69893
 20
-7.39597
 30
0.0
 10
-3.70387
 20
-7.34545
 30
0.0
  0
SPLINE
  5
45
330
1F
100
AcDbEntity
  8
Layer 1
 62
   250
100
AcDbSpline
210
0.0
220
0.0
230
1.0
 70
    11
 71
     3
 72
   124
 73
   120
 74
     0
 42
0.0000000001
 43
0.0000000001
 12
1.0
 22
0.0
 32
0.0
 13
1.0
 23
0.0
 33
0.0
 40
0.0
 40
0.0
 40
0.0
 40
0.0
 40
0.032258064516129
 40
0.032258064516129
 40
0.032258064516129
 40
0.032258064516129
 40
0.0645161290322581
 40
0.0645161290322581
 40
0.0645161290322581
 40
0.0645161290322581
 40
0.0967741935483871
 40
0.0967741935483871
 40
0.0967741935483871
 40
0.0967741935483871
 40
0.1290322580645161
 40
0.1290322580645161
 40
0.1290322580645161
 40
0.1290322580645161
 40
0.1612903225806452
 40
0.1612903225806452
 40
0.1612903225806452
 40
0.1612903225806452
 40
0.1935483870967742
 40
0.1935483870967742
 40
0.1935483870967742
 40
0.1935483870967742
 40
0.2258064516129032
 40
0.2258064516129032
 40
0.2258064516129032
 40
0.2258064516129032
 40
0.2580645161290323
 40
0.2580645161290323
 40
0.2580645161290323
 40
0.2580645161290323
 40
0.2903225806451613
 40
0.2903225806451613
 40
0.2903225806451613
 40
0.2903225806451613
 40
0.3225806451612903
 40
0.3225806451612903
 40
0.3225806451612903
 40
0.3225806451612903
 40
0.3548387096774194
 40
0.3548387096774194
 40
0.3548387096774194
 40
0.3548387096774194
 40
0.3870967741935484
 40
0.3870967741935484
 40
0.3870967741935484
 40
0.3870967741935484
 40
0.4193548387096774
 40
0.4193548387096774
 40
0.4193548387096774
 40
0.4193548387096774
 40
0.4516129032258064
 40
0.4516129032258064
 40
0.4516129032258064
 40
0.4516129032258064
 40
0.4838709677419355
 40
0.4838709677419355
 40
0.4838709677419355
 40
0.4838709677419355
 40
0.5161290322580645
 40
0.5161290322580645
 40
0.5161290322580645
 40
0.5161290322580645
 40
0.5483870967741935
 40
0.5483870967741935
 40
0.5483870967741935
 40
0.5483870967741935
 40
0.5806451612903226
 40
0.5806451612903226
 40
0.5806451612903226
 40
0.5806451612903226
 40
0.6129032258064516
 40
0.6129032258064516
 40
0.6129032258064516
 40
0.6129032258064516
 40
0.6451612903225806
 40
0.6451612903225806
 40
0.6451612903225806
 40
0.6451612903225806
 40
0.6774193548387096
 40
0.6774193548387096
 40
0.6774193548387096
 40
0.6774193548387096
 40
0.7096774193548387
 40
0.7096774193548387
 40
0.7096774193548387
 40
0.7096774193548387
 40
0.7419354838709677
 40
0.7419354838709677
 40
0.7419354838709677
 40
0.7419354838709677
 40
0.7741935483870968
 40
0.7741935483870968
 40
0.7741935483870968
 40
0.7741935483870968
 40
0.8064516129032258
 40
0.8064516129032258
 40
0.8064516129032258
 40
0.8064516129032258
 40
0.8387096774193549
 40
0.8387096774193549
 40
0.8387096774193549
 40
0.8387096774193549
 40
0.8709677419354839
 40
0.8709677419354839
 40
0.8709677419354839
 40
0.8709677419354839
 40
0.9032258064516129
 40
0.9032258064516129
 40
0.9032258064516129
 40
0.9032258064516129
 40
0.9354838709677419
 40
0.9354838709677419
 40
0.9354838709677419
 40
0.9354838709677419
 40
1.0
 40
1.0
 40
1.0
 40
1.0
 10
-3.23298
 20
-7.34545
 30
0.0
 10
-3.23298
 20
-7.34545
 30
0.0
 10
-3.15847
 20
-7.33529
 30
0.0
 10
-3.15847
 20
-7.33529
 30
0.0
 10
-3.15847
 20
-7.33529
 30
0.0
 10
-3.14987
 20
-7.37763
 30
0.0
 10
-3.13547
 20
-7.40811
 30
0.0
 10
-3.11501
 20
-7.42673
 30
0.0
 10
-3.11501
 20
-7.42673
 30
0.0
 10
-3.09455
 20
-7.44536
 30
0.0
 10
-3.06943
 20
-7.45467
 30
0.0
 10
-3.03966
 20
-7.45467
 30
0.0
 10
-3.03966
 20
-7.45467
 30
0.0
 10
-3.00438
 20
-7.45467
 30
0.0
 10
-2.9746
 20
-7.44254
 30
0.0
 10
-2.95062
 20
-7.41827
 30
0.0
 10
-2.95062
 20
-7.41827
 30
0.0
 10
-2.92663
 20
-7.394
 30
0.0
 10
-2.91463
 20
-7.36394
 30
0.0
 10
-2.91463
 20
-7.3281
 30
0.0
 10
-2.91463
 20
-7.3281
 30
0.0
 10
-2.91463
 20
-7.29395
 30
0.0
 10
-2.92578
 20
-7.26572
 30
0.0
 10
-2.94822
 20
-7.24343
 30
0.0
 10
-2.94822
 20
-7.24343
 30
0.0
 10
-2.97051
 20
-7.22127
 30
0.0
 10
-2.99888
 20
-7.21013
 30
0.0
 10
-3.03345
 20
-7.21013
 30
0.0
 10
-3.03345
 20
-7.21013
 30
0.0
 10
-3.04756
 20
-7.21013
 30
0.0
 10
-3.06506
 20
-7.21295
 30
0.0
 10
-3.08608
 20
-7.21845
 30
0.0
 10
-3.08608
 20
-7.21845
 30
0.0
 10
-3.08608
 20
-7.21845
 30
0.0
 10
-3.07776
 20
-7.15326
 30
0.0
 10
-3.07776
 20
-7.15326
 30
0.0
 10
-3.07776
 20
-7.15326
 30
0.0
 10
-3.07282
 20
-7.15382
 30
0.0
 10
-3.06873
 20
-7.15411
 30
0.0
 10
-3.06576
 20
-7.15411
 30
0.0
 10
-3.06576
 20
-7.15411
 30
0.0
 10
-3.03387
 20
-7.15411
 30
0.0
 10
-3.00537
 20
-7.14578
 30
0.0
 10
-2.97983
 20
-7.12927
 30
0.0
 10
-2.97983
 20
-7.12927
 30
0.0
 10
-2.95443
 20
-7.11276
 30
0.0
 10
-2.94173
 20
-7.08736
 30
0.0
 10
-2.94173
 20
-7.05307
 30
0.0
 10
-2.94173
 20
-7.05307
 30
0.0
 10
-2.94173
 20
-7.02583
 30
0.0
 10
-2.95104
 20
-7.00326
 30
0.0
 10
-2.96952
 20
-6.98534
 30
0.0
 10
-2.96952
 20
-6.98534
 30
0.0
 10
-2.98801
 20
-6.96741
 30
0.0
 10
-3.01186
 20
-6.95852
 30
0.0
 10
-3.04107
 20
-6.95852
 30
0.0
 10
-3.04107
 20
-6.95852
 30
0.0
 10
-3.07014
 20
-6.95852
 30
0.0
 10
-3.09427
 20
-6.9677
 30
0.0
 10
-3.1136
 20
-6.98604
 30
0.0
 10
-3.1136
 20
-6.98604
 30
0.0
 10
-3.13293
 20
-7.00439
 30
0.0
 10
-3.14535
 20
-7.0319
 30
0.0
 10
-3.15085
 20
-7.06859
 30
0.0
 10
-3.15085
 20
-7.06859
 30
0.0
 10
-3.15085
 20
-7.06859
 30
0.0
 10
-3.22536
 20
-7.05504
 30
0.0
 10
-3.22536
 20
-7.05504
 30
0.0
 10
-3.22536
 20
-7.05504
 30
0.0
 10
-3.21619
 20
-7.00509
 30
0.0
 10
-3.19559
 20
-6.96629
 30
0.0
 10
-3.16327
 20
-6.93877
 30
0.0
 10
-3.16327
 20
-6.93877
 30
0.0
 10
-3.1311
 20
-6.91125
 30
0.0
 10
-3.09088
 20
-6.89756
 30
0.0
 10
-3.0429
 20
-6.89756
 30
0.0
 10
-3.0429
 20
-6.89756
 30
0.0
 10
-3.00988
 20
-6.89756
 30
0.0
 10
-2.9794
 20
-6.90462
 30
0.0
 10
-2.9516
 20
-6.91887
 30
0.0
 10
-2.9516
 20
-6.91887
 30
0.0
 10
-2.92366
 20
-6.93298
 30
0.0
 10
-2.90236
 20
-6.95232
 30
0.0
 10
-2.88768
 20
-6.97673
 30
0.0
 10
-2.88768
 20
-6.97673
 30
0.0
 10
-2.87286
 20
-7.00128
 30
0.0
 10
-2.86553
 20
-7.02725
 30
0.0
 10
-2.86553
 20
-7.05476
 30
0.0
 10
-2.86553
 20
-7.05476
 30
0.0
 10
-2.86553
 20
-7.08087
 30
0.0
 10
-2.87258
 20
-7.10458
 30
0.0
 10
-2.88655
 20
-7.12602
 30
0.0
 10
-2.88655
 20
-7.12602
 30
0.0
 10
-2.90066
 20
-7.14747
 30
0.0
 10
-2.92155
 20
-7.16455
 30
0.0
 10
-2.94906
 20
-7.17725
 30
0.0
 10
-2.94906
 20
-7.17725
 30
0.0
 10
-2.91322
 20
-7.18543
 30
0.0
 10
-2.88542
 20
-7.20265
 30
0.0
 10
-2.86553
 20
-7.22875
 30
0.0
 10
-2.86553
 20
-7.22875
 30
0.0
 10
-2.84577
 20
-7.25472
 30
0.0
 10
-2.83589
 20
-7.28746
 30
0.0
 10
-2.83589
 20
-7.32654
 30
0.0
 10
-2.83589
 20
-7.32654
 30
0.0
 10
-2.83589
 20
-7.37946
 30
0.0
 10
-2.85522
 20
-7.42448
 30
0.0
 10
-2.89375
 20
-7.46131
 30
0.0
 10
-2.89375
 20
-7.46131
 30
0.0
 10
-2.93241
 20
-7.49814
 30
0.0
 10
-2.98124
 20
-7.51648
 30
0.0
 10
-3.04022
 20
-7.51648
 30
0.0
 10
-3.04022
 20
-7.51648
 30
0.0
 10
-3.09342
 20
-7.51648
 30
0.0
 10
-3.13759
 20
-7.50053
 30
0.0
 10
-3.17273
 20
-7.46878
 30
0.0
 10
-3.17273
 20
-7.46878
 30
0.0
 10
-3.208
 20
-7.43703
 30
0.0
 10
-3.22804
 20
-7.39597
 30
0.0
 10
-3.23298
 20
-7.34545
 30
0.0
  0
SPLINE
  5
46
330
1F
100
AcDbEntity
  8
Layer 1
 62
   250
100
AcDbSpline
210
0.0
220
0.0
230
1.0
 70
    11
 71
     3
 72
    92
 73
    88
 74
     0
 42
0.0000000001
 43
0.0000000001
 12
1.0
 22
0.0
 32
0.0
 13
1.0
 23
0.0
 33
0.0
 40
0.0
 40
0.0
 40
0.0
 40
0.0
 40
0.0434782608695652
 40
0.0434782608695652
 40
0.0434782608695652
 40
0.0434782608695652
 40
0.0869565217391304
 40
0.0869565217391304
 40
0.0869565217391304
 40
0.0869565217391304
 40
0.1304347826086956
 40
0.1304347826086956
 40
0.1304347826086956
 40
0.1304347826086956
 40
0.1739130434782609
 40
0.1739130434782609
 40
0.1739130434782609
 40
0.1739130434782609
 40
0.2173913043478261
 40
0.2173913043478261
 40
0.2173913043478261
 40
0.2173913043478261
 40
0.2608695652173913
 40
0.2608695652173913
 40
0.2608695652173913
 40
0.2608695652173913
 40
0.3043478260869565
 40
0.3043478260869565
 40
0.3043478260869565
 40
0.3043478260869565
 40
0.3478260869565217
 40
0.3478260869565217
 40
0.3478260869565217
 40
0.3478260869565217
 40
0.391304347826087
 40
0.391304347826087
 40
0.391304347826087
 40
0.391304347826087
 40
0.4347826086956522
 40
0.4347826086956522
 40
0.4347826086956522
 40
0.4347826086956522
 40
0.4782608695652174
 40
0.4782608695652174
 40
0.4782608695652174
 40
0.4782608695652174
 40
0.5217391304347826
 40
0.5217391304347826
 40
0.5217391304347826
 40
0.5217391304347826
 40
0.5652173913043478
 40
0.5652173913043478
 40
0.5652173913043478
 40
0.5652173913043478
 40
0.6086956521739131
 40
0.6086956521739131
 40
0.6086956521739131
 40
0.6086956521739131
 40
0.6521739130434783
 40
0.6521739130434783
 40
0.6521739130434783
 40
0.6521739130434783
 40
0.6956521739130435
 40
0.6956521739130435
 40
0.6956521739130435
 40
0.6956521739130435
 40
0.7391304347826086
 40
0.7391304347826086
 40
0.7391304347826086
 40
0.7391304347826086
 40
0.782608695652174
 40
0.782608695652174
 40
0.782608695652174
 40
0.782608695652174
 40
0.8260869565217391
 40
0.8260869565217391
 40
0.8260869565217391
 40
0.8260869565217391
 40
0.8695652173913043
 40
0.8695652173913043
 40
0.8695652173913043
 40
0.8695652173913043
 40
0.9130434782608695
 40
0.9130434782608695
 40
0.9130434782608695
 40
0.9130434782608695
 40
1.0
 40
1.0
 40
1.0
 40
1.0
 10
-2.37177
 20
-7.4352
 30
0.0
 10
-2.37177
 20
-7.4352
 30
0.0
 10
-2.37177
 20
-7.50632
 30
0.0
 10
-2.37177
 20
-7.50632
 30
0.0
 10
-2.37177
 20
-7.50632
 30
0.0
 10
-2.37177
 20
-7.50632
 30
0.0
 10
-2.7731
 20
-7.50632
 30
0.0
 10
-2.7731
 20
-7.50632
 30
0.0
 10
-2.7731
 20
-7.50632
 30
0.0
 10
-2.77366
 20
-7.4884
 30
0.0
 10
-2.7707
 20
-7.47118
 30
0.0
 10
-2.76435
 20
-7.45453
 30
0.0
 10
-2.76435
 20
-7.45453
 30
0.0
 10
-2.75405
 20
-7.4273
 30
0.0
 10
-2.73754
 20
-7.40035
 30
0.0
 10
-2.71482
 20
-7.37396
 30
0.0
 10
-2.71482
 20
-7.37396
 30
0.0
 10
-2.6921
 20
-7.34757
 30
0.0
 10
-2.65964
 20
-7.31709
 30
0.0
 10
-2.61745
 20
-7.28252
 30
0.0
 10
-2.61745
 20
-7.28252
 30
0.0
 10
-2.55183
 20
-7.22847
 30
0.0
 10
-2.50724
 20
-7.18571
 30
0.0
 10
-2.48396
 20
-7.15411
 30
0.0
 10
-2.48396
 20
-7.15411
 30
0.0
 10
-2.46053
 20
-7.1225
 30
0.0
 10
-2.44882
 20
-7.09258
 30
0.0
 10
-2.44882
 20
-7.06436
 30
0.0
 10
-2.44882
 20
-7.06436
 30
0.0
 10
-2.44882
 20
-7.03487
 30
0.0
 10
-2.45941
 20
-7.01003
 30
0.0
 10
-2.48057
 20
-6.98971
 30
0.0
 10
-2.48057
 20
-6.98971
 30
0.0
 10
-2.50174
 20
-6.96953
 30
0.0
 10
-2.5294
 20
-6.95937
 30
0.0
 10
-2.5634
 20
-6.95937
 30
0.0
 10
-2.5634
 20
-6.95937
 30
0.0
 10
-2.59939
 20
-6.95937
 30
0.0
 10
-2.62817
 20
-6.9701
 30
0.0
 10
-2.64976
 20
-6.99154
 30
0.0
 10
-2.64976
 20
-6.99154
 30
0.0
 10
-2.67136
 20
-7.01285
 30
0.0
 10
-2.68222
 20
-7.04249
 30
0.0
 10
-2.6825
 20
-7.08044
 30
0.0
 10
-2.6825
 20
-7.08044
 30
0.0
 10
-2.6825
 20
-7.08044
 30
0.0
 10
-2.7587
 20
-7.07282
 30
0.0
 10
-2.7587
 20
-7.07282
 30
0.0
 10
-2.7587
 20
-7.07282
 30
0.0
 10
-2.75348
 20
-7.01582
 30
0.0
 10
-2.73373
 20
-6.97235
 30
0.0
 10
-2.69958
 20
-6.94244
 30
0.0
 10
-2.69958
 20
-6.94244
 30
0.0
 10
-2.66529
 20
-6.91252
 30
0.0
 10
-2.61943
 20
-6.89756
 30
0.0
 10
-2.56171
 20
-6.89756
 30
0.0
 10
-2.56171
 20
-6.89756
 30
0.0
 10
-2.50357
 20
-6.89756
 30
0.0
 10
-2.45743
 20
-6.91365
 30
0.0
 10
-2.42356
 20
-6.94597
 30
0.0
 10
-2.42356
 20
-6.94597
 30
0.0
 10
-2.38956
 20
-6.97828
 30
0.0
 10
-2.37262
 20
-7.01836
 30
0.0
 10
-2.37262
 20
-7.06605
 30
0.0
 10
-2.37262
 20
-7.06605
 30
0.0
 10
-2.37262
 20
-7.09032
 30
0.0
 10
-2.37756
 20
-7.11417
 30
0.0
 10
-2.38758
 20
-7.1376
 30
0.0
 10
-2.38758
 20
-7.1376
 30
0.0
 10
-2.39746
 20
-7.16116
 30
0.0
 10
-2.41397
 20
-7.18586
 30
0.0
 10
-2.43697
 20
-7.21182
 30
0.0
 10
-2.43697
 20
-7.21182
 30
0.0
 10
-2.46011
 20
-7.23764
 30
0.0
 10
-2.49835
 20
-7.27334
 30
0.0
 10
-2.55169
 20
-7.3185
 30
0.0
 10
-2.55169
 20
-7.3185
 30
0.0
 10
-2.59642
 20
-7.35604
 30
0.0
 10
-2.62521
 20
-7.38144
 30
0.0
 10
-2.63791
 20
-7.39484
 30
0.0
 10
-2.63791
 20
-7.39484
 30
0.0
 10
-2.65061
 20
-7.40825
 30
0.0
 10
-2.66105
 20
-7.42165
 30
0.0
 10
-2.66938
 20
-7.4352
 30
0.0
 10
-2.66938
 20
-7.4352
 30
0.0
 10
-2.66938
 20
-7.4352
 30
0.0
 10
-2.37177
 20
-7.4352
 30
0.0
 10
-2.37177
 20
-7.4352
 30
0.0
  0
SPLINE
  5
47
330
1F
100
AcDbEntity
  8
Layer 1
 62
   250
100
AcDbSpline
210
0.0
220
0.0
230
1.0
 70
    11
 71
     3
 72
    48
 73
    44
 74
     0
 42
0.0000000001
 43
0.0000000001
 12
1.0
 22
0.0
 32
0.0
 13
1.0
 23
0.0
 33
0.0
 40
0.0
 40
0.0
 40
0.0
 40
0.0
 40
0.0833333333333333
 40
0.0833333333333333
 40
0.0833333333333333
 40
0.0833333333333333
 40
0.1666666666666667
 40
0.1666666666666667
 40
0.1666666666666667
 40
0.1666666666666667
 40
0.25
 40
0.25
 40
0.25
 40
0.25
 40
0.3333333333333333
 40
0.3333333333333333
 40
0.3333333333333333
 40
0.3333333333333333
 40
0.4166666666666667
 40
0.4166666666666667
 40
0.4166666666666667
 40
0.4166666666666667
 40
0.5
 40
0.5
 40
0.5
 40
0.5
 40
0.5833333333333334
 40
0.5833333333333334
 40
0.5833333333333334
 40
0.5833333333333334
 40
0.6666666666666666
 40
0.6666666666666666
 40
0.6666666666666666
 40
0.6666666666666666
 40
0.75
 40
0.75
 40
0.75
 40
0.75
 40
0.8333333333333334
 40
0.8333333333333334
 40
0.8333333333333334
 40
0.8333333333333334
 40
1.0
 40
1.0
 40
1.0
 40
1.0
 10
-2.05329
 20
-7.50632
 30
0.0
 10
-2.05329
 20
-7.50632
 30
0.0
 10
-2.05329
 20
-7.36154
 30
0.0
 10
-2.05329
 20
-7.36154
 30
0.0
 10
-2.05329
 20
-7.36154
 30
0.0
 10
-2.05329
 20
-7.36154
 30
0.0
 10
-2.3166
 20
-7.36154
 30
0.0
 10
-2.3166
 20
-7.36154
 30
0.0
 10
-2.3166
 20
-7.36154
 30
0.0
 10
-2.3166
 20
-7.36154
 30
0.0
 10
-2.3166
 20
-7.29296
 30
0.0
 10
-2.3166
 20
-7.29296
 30
0.0
 10
-2.3166
 20
-7.29296
 30
0.0
 10
-2.3166
 20
-7.29296
 30
0.0
 10
-2.03974
 20
-6.9001
 30
0.0
 10
-2.03974
 20
-6.9001
 30
0.0
 10
-2.03974
 20
-6.9001
 30
0.0
 10
-2.03974
 20
-6.9001
 30
0.0
 10
-1.97878
 20
-6.9001
 30
0.0
 10
-1.97878
 20
-6.9001
 30
0.0
 10
-1.97878
 20
-6.9001
 30
0.0
 10
-1.97878
 20
-6.9001
 30
0.0
 10
-1.97878
 20
-7.29296
 30
0.0
 10
-1.97878
 20
-7.29296
 30
0.0
 10
-1.97878
 20
-7.29296
 30
0.0
 10
-1.97878
 20
-7.29296
 30
0.0
 10
-1.89665
 20
-7.29296
 30
0.0
 10
-1.89665
 20
-7.29296
 30
0.0
 10
-1.89665
 20
-7.29296
 30
0.0
 10
-1.89665
 20
-7.29296
 30
0.0
 10
-1.89665
 20
-7.36154
 30
0.0
 10
-1.89665
 20
-7.36154
 30
0.0
 10
-1.89665
 20
-7.36154
 30
0.0
 10
-1.89665
 20
-7.36154
 30
0.0
 10
-1.97878
 20
-7.36154
 30
0.0
 10
-1.97878
 20
-7.36154
 30
0.0
 10
-1.97878
 20
-7.36154
 30
0.0
 10
-1.97878
 20
-7.36154
 30
0.0
 10
-1.97878
 20
-7.50632
 30
0.0
 10
-1.97878
 20
-7.50632
 30
0.0
 10
-1.97878
 20
-7.50632
 30
0.0
 10
-1.97878
 20
-7.50632
 30
0.0
 10
-2.05329
 20
-7.50632
 30
0.0
 10
-2.05329
 20
-7.50632
 30
0.0
  0
SPLINE
  5
48
330
1F
100
AcDbEntity
  8
Layer 1
 62
   250
100
AcDbSpline
210
0.0
220
0.0
230
1.0
 70
    11
 71
     3
 72
    16
 73
    12
 74
     0
 42
0.0000000001
 43
0.0000000001
 12
1.0
 22
0.0
 32
0.0
 13
1.0
 23
0.0
 33
0.0
 40
0.0
 40
0.0
 40
0.0
 40
0.0
 40
0.25
 40
0.25
 40
0.25
 40
0.25
 40
0.5
 40
0.5
 40
0.5
 40
0.5
 40
1.0
 40
1.0
 40
1.0
 40
1.0
 10
-2.05329
 20
-7.29296
 30
0.0
 10
-2.05329
 20
-7.29296
 30
0.0
 10
-2.05329
 20
-7.02019
 30
0.0
 10
-2.05329
 20
-7.02019
 30
0.0
 10
-2.05329
 20
-7.02019
 30
0.0
 10
-2.05329
 20
-7.02019
 30
0.0
 10
-2.24336
 20
-7.29296
 30
0.0
 10
-2.24336
 20
-7.29296
 30
0.0
 10
-2.24336
 20
-7.29296
 30
0.0
 10
-2.24336
 20
-7.29296
 30
0.0
 10
-2.05329
 20
-7.29296
 30
0.0
 10
-2.05329
 20
-7.29296
 30
0.0
  0
SPLINE
  5
49
330
1F
100
AcDbEntity
  8
Layer 1
 62
   250
100
AcDbSpline
210
0.0
220
0.0
230
1.0
 70
    11
 71
     3
 72
    20
 73
    16
 74
     0
 42
0.0000000001
 43
0.0000000001
 12
1.0
 22
0.0
 32
0.0
 13
1.0
 23
0.0
 33
0.0
 40
0.0
 40
0.0
 40
0.0
 40
0.0
 40
0.2
 40
0.2
 40
0.2
 40
0.2
 40
0.4
 40
0.4
 40
0.4
 40
0.4
 40
0.6
 40
0.6
 40
0.6
 40
0.6
 40
1.0
 40
1.0
 40
1.0
 40
1.0
 10
-1.82962
 20
-7.32429
 30
0.0
 10
-1.82962
 20
-7.32429
 30
0.0
 10
-1.82962
 20
-7.24978
 30
0.0
 10
-1.82962
 20
-7.24978
 30
0.0
 10
-1.82962
 20
-7.24978
 30
0.0
 10
-1.82962
 20
-7.24978
 30
0.0
 10
-1.59933
 20
-7.24978
 30
0.0
 10
-1.59933
 20
-7.24978
 30
0.0
 10
-1.59933
 20
-7.24978
 30
0.0
 10
-1.59933
 20
-7.24978
 30
0.0
 10
-1.59933
 20
-7.32429
 30
0.0
 10
-1.59933
 20
-7.32429
 30
0.0
 10
-1.59933
 20
-7.32429
 30
0.0
 10
-1.59933
 20
-7.32429
 30
0.0
 10
-1.82962
 20
-7.32429
 30
0.0
 10
-1.82962
 20
-7.32429
 30
0.0
  0
SPLINE
  5
4A
330
1F
100
AcDbEntity
  8
Layer 1
 62
   250
100
AcDbSpline
210
0.0
220
0.0
230
1.0
 70
    11
 71
     3
 72
    80
 73
    76
 74
     0
 42
0.0000000001
 43
0.0000000001
 12
1.0
 22
0.0
 32
0.0
 13
1.0
 23
0.0
 33
0.0
 40
0.0
 40
0.0
 40
0.0
 40
0.0
 40
0.05
 40
0.05
 40
0.05
 40
0.05
 40
0.1
 40
0.1
 40
0.1
 40
0.1
 40
0.15
 40
0.15
 40
0.15
 40
0.15
 40
0.2
 40
0.2
 40
0.2
 40
0.2
 40
0.25
 40
0.25
 40
0.25
 40
0.25
 40
0.3
 40
0.3
 40
0.3
 40
0.3
 40
0.35
 40
0.35
 40
0.35
 40
0.35
 40
0.4
 40
0.4
 40
0.4
 40
0.4
 40
0.45
 40
0.45
 40
0.45
 40
0.45
 40
0.5
 40
0.5
 40
0.5
 40
0.5
 40
0.55
 40
0.55
 40
0.55
 40
0.55
 40
0.6
 40
0.6
 40
0.6
 40
0.6
 40
0.65
 40
0.65
 40
0.65
 40
0.65
 40
0.7
 40
0.7
 40
0.7
 40
0.7
 40
0.75
 40
0.75
 40
0.75
 40
0.75
 40
0.8
 40
0.8
 40
0.8
 40
0.8
 40
0.85
 40
0.85
 40
0.85
 40
0.85
 40
0.9
 40
0.9
 40
0.9
 40
0.9
 40
1.0
 40
1.0
 40
1.0
 40
1.0
 10
-1.50704
 20
-7.50632
 30
0.0
 10
-1.50704
 20
-7.50632
 30
0.0
 10
-1.50704
 20
-6.9001
 30
0.0
 10
-1.50704
 20
-6.9001
 30
0.0
 10
-1.50704
 20
-6.9001
 30
0.0
 10
-1.50704
 20
-6.9001
 30
0.0
 10
-1.23837
 20
-6.9001
 30
0.0
 10
-1.23837
 20
-6.9001
 30
0.0
 10
-1.23837
 20
-6.9001
 30
0.0
 10
-1.18432
 20
-6.9001
 30
0.0
 10
-1.14326
 20
-6.90561
 30
0.0
 10
-1.11518
 20
-6.91647
 30
0.0
 10
-1.11518
 20
-6.91647
 30
0.0
 10
-1.08709
 20
-6.92734
 30
0.0
 10
-1.06466
 20
-6.94653
 30
0.0
 10
-1.04787
 20
-6.97405
 30
0.0
 10
-1.04787
 20
-6.97405
 30
0.0
 10
-1.03107
 20
-7.00156
 30
0.0
 10
-1.02275
 20
-7.03204
 30
0.0
 10
-1.02275
 20
-7.06535
 30
0.0
 10
-1.02275
 20
-7.06535
 30
0.0
 10
-1.02275
 20
-7.10839
 30
0.0
 10
-1.03672
 20
-7.14465
 30
0.0
 10
-1.06452
 20
-7.17414
 30
0.0
 10
-1.06452
 20
-7.17414
 30
0.0
 10
-1.09232
 20
-7.20364
 30
0.0
 10
-1.13521
 20
-7.22226
 30
0.0
 10
-1.19335
 20
-7.23031
 30
0.0
 10
-1.19335
 20
-7.23031
 30
0.0
 10
-1.17204
 20
-7.24047
 30
0.0
 10
-1.15596
 20
-7.25063
 30
0.0
 10
-1.14495
 20
-7.2605
 30
0.0
 10
-1.14495
 20
-7.2605
 30
0.0
 10
-1.12153
 20
-7.28195
 30
0.0
 10
-1.09937
 20
-7.3089
 30
0.0
 10
-1.07863
 20
-7.34122
 30
0.0
 10
-1.07863
 20
-7.34122
 30
0.0
 10
-1.07863
 20
-7.34122
 30
0.0
 10
-0.97378
 20
-7.50632
 30
0.0
 10
-0.97378
 20
-7.50632
 30
0.0
 10
-0.97378
 20
-7.50632
 30
0.0
 10
-0.97378
 20
-7.50632
 30
0.0
 10
-1.07397
 20
-7.50632
 30
0.0
 10
-1.07397
 20
-7.50632
 30
0.0
 10
-1.07397
 20
-7.50632
 30
0.0
 10
-1.07397
 20
-7.50632
 30
0.0
 10
-1.15412
 20
-7.38017
 30
0.0
 10
-1.15412
 20
-7.38017
 30
0.0
 10
-1.15412
 20
-7.38017
 30
0.0
 10
-1.17741
 20
-7.34362
 30
0.0
 10
-1.19674
 20
-7.31582
 30
0.0
 10
-1.21184
 20
-7.29649
 30
0.0
 10
-1.21184
 20
-7.29649
 30
0.0
 10
-1.22708
 20
-7.27715
 30
0.0
 10
-1.24062
 20
-7.26375
 30
0.0
 10
-1.25262
 20
-7.25599
 30
0.0
 10
-1.25262
 20
-7.25599
 30
0.0
 10
-1.26447
 20
-7.24837
 30
0.0
 10
-1.27675
 20
-7.24301
 30
0.0
 10
-1.28917
 20
-7.2399
 30
0.0
 10
-1.28917
 20
-7.2399
 30
0.0
 10
-1.2982
 20
-7.23807
 30
0.0
 10
-1.31301
 20
-7.23708
 30
0.0
 10
-1.33376
 20
-7.23708
 30
0.0
 10
-1.33376
 20
-7.23708
 30
0.0
 10
-1.33376
 20
-7.23708
 30
0.0
 10
-1.42661
 20
-7.23708
 30
0.0
 10
-1.42661
 20
-7.23708
 30
0.0
 10
-1.42661
 20
-7.23708
 30
0.0
 10
-1.42661
 20
-7.23708
 30
0.0
 10
-1.42661
 20
-7.50632
 30
0.0
 10
-1.42661
 20
-7.50632
 30
0.0
 10
-1.42661
 20
-7.50632
 30
0.0
 10
-1.42661
 20
-7.50632
 30
0.0
 10
-1.50704
 20
-7.50632
 30
0.0
 10
-1.50704
 20
-7.50632
 30
0.0
  0
SPLINE
  5
4B
330
1F
100
AcDbEntity
  8
Layer 1
 62
   250
100
AcDbSpline
210
0.0
220
0.0
230
1.0
 70
    11
 71
     3
 72
    36
 73
    32
 74
     0
 42
0.0000000001
 43
0.0000000001
 12
1.0
 22
0.0
 32
0.0
 13
1.0
 23
0.0
 33
0.0
 40
0.0
 40
0.0
 40
0.0
 40
0.0
 40
0.1111111111111111
 40
0.1111111111111111
 40
0.1111111111111111
 40
0.1111111111111111
 40
0.2222222222222222
 40
0.2222222222222222
 40
0.2222222222222222
 40
0.2222222222222222
 40
0.3333333333333333
 40
0.3333333333333333
 40
0.3333333333333333
 40
0.3333333333333333
 40
0.4444444444444444
 40
0.4444444444444444
 40
0.4444444444444444
 40
0.4444444444444444
 40
0.5555555555555556
 40
0.5555555555555556
 40
0.5555555555555556
 40
0.5555555555555556
 40
0.6666666666666666
 40
0.6666666666666666
 40
0.6666666666666666
 40
0.6666666666666666
 40
0.7777777777777778
 40
0.7777777777777778
 40
0.7777777777777778
 40
0.7777777777777778
 40
1.0
 40
1.0
 40
1.0
 40
1.0
 10
-1.42661
 20
-7.16765
 30
0.0
 10
-1.42661
 20
-7.16765
 30
0.0
 10
-1.25445
 20
-7.16765
 30
0.0
 10
-1.25445
 20
-7.16765
 30
0.0
 10
-1.25445
 20
-7.16765
 30
0.0
 10
-1.21776
 20
-7.16765
 30
0.0
 10
-1.18926
 20
-7.16384
 30
0.0
 10
-1.16866
 20
-7.15622
 30
0.0
 10
-1.16866
 20
-7.15622
 30
0.0
 10
-1.14805
 20
-7.14874
 30
0.0
 10
-1.13239
 20
-7.13661
 30
0.0
 10
-1.12181
 20
-7.11982
 30
0.0
 10
-1.12181
 20
-7.11982
 30
0.0
 10
-1.11108
 20
-7.10316
 30
0.0
 10
-1.10572
 20
-7.0851
 30
0.0
 10
-1.10572
 20
-7.06549
 30
0.0
 10
-1.10572
 20
-7.06549
 30
0.0
 10
-1.10572
 20
-7.03684
 30
0.0
 10
-1.11602
 20
-7.01313
 30
0.0
 10
-1.13677
 20
-6.99465
 30
0.0
 10
-1.13677
 20
-6.99465
 30
0.0
 10
-1.15751
 20
-6.97616
 30
0.0
 10
-1.19025
 20
-6.96699
 30
0.0
 10
-1.23498
 20
-6.96699
 30
0.0
 10
-1.23498
 20
-6.96699
 30
0.0
 10
-1.23498
 20
-6.96699
 30
0.0
 10
-1.42661
 20
-6.96699
 30
0.0
 10
-1.42661
 20
-6.96699
 30
0.0
 10
-1.42661
 20
-6.96699
 30
0.0
 10
-1.42661
 20
-6.96699
 30
0.0
 10
-1.42661
 20
-7.16765
 30
0.0
 10
-1.42661
 20
-7.16765
 30
0.0
  0
SPLINE
  5
4C
330
1F
100
AcDbEntity
  8
Layer 1
 62
   250
100
AcDbSpline
210
0.0
220
0.0
230
1.0
 70
    11
 71
     3
 72
    36
 73
    32
 74
     0
 42
0.0000000001
 43
0.0000000001
 12
1.0
 22
0.0
 32
0.0
 13
1.0
 23
0.0
 33
0.0
 40
0.0
 40
0.0
 40
0.0
 40
0.0
 40
0.1111111111111111
 40
0.1111111111111111
 40
0.1111111111111111
 40
0.1111111111111111
 40
0.2222222222222222
 40
0.2222222222222222
 40
0.2222222222222222
 40
0.2222222222222222
 40
0.3333333333333333
 40
0.3333333333333333
 40
0.3333333333333333
 40
0.3333333333333333
 40
0.4444444444444444
 40
0.4444444444444444
 40
0.4444444444444444
 40
0.4444444444444444
 40
0.5555555555555556
 40
0.5555555555555556
 40
0.5555555555555556
 40
0.5555555555555556
 40
0.6666666666666666
 40
0.6666666666666666
 40
0.6666666666666666
 40
0.6666666666666666
 40
0.7777777777777778
 40
0.7777777777777778
 40
0.7777777777777778
 40
0.7777777777777778
 40
1.0
 40
1.0
 40
1.0
 40
1.0
 10
-0.52321
 20
-7.50632
 30
0.0
 10
-0.52321
 20
-7.50632
 30
0.0
 10
-0.52321
 20
-6.97122
 30
0.0
 10
-0.52321
 20
-6.97122
 30
0.0
 10
-0.52321
 20
-6.97122
 30
0.0
 10
-0.52321
 20
-6.97122
 30
0.0
 10
-0.72303
 20
-6.97122
 30
0.0
 10
-0.72303
 20
-6.97122
 30
0.0
 10
-0.72303
 20
-6.97122
 30
0.0
 10
-0.72303
 20
-6.97122
 30
0.0
 10
-0.72303
 20
-6.9001
 30
0.0
 10
-0.72303
 20
-6.9001
 30
0.0
 10
-0.72303
 20
-6.9001
 30
0.0
 10
-0.72303
 20
-6.9001
 30
0.0
 10
-0.24296
 20
-6.9001
 30
0.0
 10
-0.24296
 20
-6.9001
 30
0.0
 10
-0.24296
 20
-6.9001
 30
0.0
 10
-0.24296
 20
-6.9001
 30
0.0
 10
-0.24296
 20
-6.97122
 30
0.0
 10
-0.24296
 20
-6.97122
 30
0.0
 10
-0.24296
 20
-6.97122
 30
0.0
 10
-0.24296
 20
-6.97122
 30
0.0
 10
-0.44278
 20
-6.97122
 30
0.0
 10
-0.44278
 20
-6.97122
 30
0.0
 10
-0.44278
 20
-6.97122
 30
0.0
 10
-0.44278
 20
-6.97122
 30
0.0
 10
-0.44278
 20
-7.50632
 30
0.0
 10
-0.44278
 20
-7.50632
 30
0.0
 10
-0.44278
 20
-7.50632
 30
0.0
 10
-0.44278
 20
-7.50632
 30
0.0
 10
-0.52321
 20
-7.50632
 30
0.0
 10
-0.52321
 20
-7.50632
 30
0.0
  0
SPLINE
  5
4D
330
1F
100
AcDbEntity
  8
Layer 1
 62
   250
100
AcDbSpline
210
0.0
220
0.0
230
1.0
 70
    11
 71
     3
 72
    52
 73
    48
 74
     0
 42
0.0000000001
 43
0.0000000001
 12
1.0
 22
0.0
 32
0.0
 13
1.0
 23
0.0
 33
0.0
 40
0.0
 40
0.0
 40
0.0
 40
0.0
 40
0.0769230769230769
 40
0.0769230769230769
 40
0.0769230769230769
 40
0.0769230769230769
 40
0.1538461538461539
 40
0.1538461538461539
 40
0.1538461538461539
 40
0.1538461538461539
 40
0.2307692307692308
 40
0.2307692307692308
 40
0.2307692307692308
 40
0.2307692307692308
 40
0.3076923076923077
 40
0.3076923076923077
 40
0.3076923076923077
 40
0.3076923076923077
 40
0.3846153846153846
 40
0.3846153846153846
 40
0.3846153846153846
 40
0.3846153846153846
 40
0.4615384615384616
 40
0.4615384615384616
 40
0.4615384615384616
 40
0.4615384615384616
 40
0.5384615384615384
 40
0.5384615384615384
 40
0.5384615384615384
 40
0.5384615384615384
 40
0.6153846153846154
 40
0.6153846153846154
 40
0.6153846153846154
 40
0.6153846153846154
 40
0.6923076923076923
 40
0.6923076923076923
 40
0.6923076923076923
 40
0.6923076923076923
 40
0.7692307692307693
 40
0.7692307692307693
 40
0.7692307692307693
 40
0.7692307692307693
 40
0.8461538461538461
 40
0.8461538461538461
 40
0.8461538461538461
 40
0.8461538461538461
 40
1.0
 40
1.0
 40
1.0
 40
1.0
 10
-0.15844
 20
-7.50632
 30
0.0
 10
-0.15844
 20
-7.50632
 30
0.0
 10
-0.15844
 20
-6.9001
 30
0.0
 10
-0.15844
 20
-6.9001
 30
0.0
 10
-0.15844
 20
-6.9001
 30
0.0
 10
-0.15844
 20
-6.9001
 30
0.0
 10
0.27929
 20
-6.9001
 30
0.0
 10
0.27929
 20
-6.9001
 30
0.0
 10
0.27929
 20
-6.9001
 30
0.0
 10
0.27929
 20
-6.9001
 30
0.0
 10
0.27929
 20
-6.97122
 30
0.0
 10
0.27929
 20
-6.97122
 30
0.0
 10
0.27929
 20
-6.97122
 30
0.0
 10
0.27929
 20
-6.97122
 30
0.0
 10
-0.07801
 20
-6.97122
 30
0.0
 10
-0.07801
 20
-6.97122
 30
0.0
 10
-0.07801
 20
-6.97122
 30
0.0
 10
-0.07801
 20
-6.97122
 30
0.0
 10
-0.07801
 20
-7.15749
 30
0.0
 10
-0.07801
 20
-7.15749
 30
0.0
 10
-0.07801
 20
-7.15749
 30
0.0
 10
-0.07801
 20
-7.15749
 30
0.0
 10
0.25643
 20
-7.15749
 30
0.0
 10
0.25643
 20
-7.15749
 30
0.0
 10
0.25643
 20
-7.15749
 30
0.0
 10
0.25643
 20
-7.15749
 30
0.0
 10
0.25643
 20
-7.22861
 30
0.0
 10
0.25643
 20
-7.22861
 30
0.0
 10
0.25643
 20
-7.22861
 30
0.0
 10
0.25643
 20
-7.22861
 30
0.0
 10
-0.07801
 20
-7.22861
 30
0.0
 10
-0.07801
 20
-7.22861
 30
0.0
 10
-0.07801
 20
-7.22861
 30
0.0
 10
-0.07801
 20
-7.22861
 30
0.0
 10
-0.07801
 20
-7.4352
 30
0.0
 10
-0.07801
 20
-7.4352
 30
0.0
 10
-0.07801
 20
-7.4352
 30
0.0
 10
-0.07801
 20
-7.4352
 30
0.0
 10
0.29368
 20
-7.4352
 30
0.0
 10
0.29368
 20
-7.4352
 30
0.0
 10
0.29368
 20
-7.4352
 30
0.0
 10
0.29368
 20
-7.4352
 30
0.0
 10
0.29368
 20
-7.50632
 30
0.0
 10
0.29368
 20
-7.50632
 30
0.0
 10
0.29368
 20
-7.50632
 30
0.0
 10
0.29368
 20
-7.50632
 30
0.0
 10
-0.15844
 20
-7.50632
 30
0.0
 10
-0.15844
 20
-7.50632
 30
0.0
  0
SPLINE
  5
4E
330
1F
100
AcDbEntity
  8
Layer 1
 62
   250
100
AcDbSpline
210
0.0
220
0.0
230
1.0
 70
    11
 71
     3
 72
    64
 73
    60
 74
     0
 42
0.0000000001
 43
0.0000000001
 12
1.0
 22
0.0
 32
0.0
 13
1.0
 23
0.0
 33
0.0
 40
0.0
 40
0.0
 40
0.0
 40
0.0
 40
0.0625
 40
0.0625
 40
0.0625
 40
0.0625
 40
0.125
 40
0.125
 40
0.125
 40
0.125
 40
0.1875
 40
0.1875
 40
0.1875
 40
0.1875
 40
0.25
 40
0.25
 40
0.25
 40
0.25
 40
0.3125
 40
0.3125
 40
0.3125
 40
0.3125
 40
0.375
 40
0.375
 40
0.375
 40
0.375
 40
0.4375
 40
0.4375
 40
0.4375
 40
0.4375
 40
0.5
 40
0.5
 40
0.5
 40
0.5
 40
0.5625
 40
0.5625
 40
0.5625
 40
0.5625
 40
0.625
 40
0.625
 40
0.625
 40
0.625
 40
0.6875
 40
0.6875
 40
0.6875
 40
0.6875
 40
0.75
 40
0.75
 40
0.75
 40
0.75
 40
0.8125
 40
0.8125
 40
0.8125
 40
0.8125
 40
0.875
 40
0.875
 40
0.875
 40
0.875
 40
1.0
 40
1.0
 40
1.0
 40
1.0
 10
0.4029
 20
-7.50632
 30
0.0
 10
0.4029
 20
-7.50632
 30
0.0
 10
0.4029
 20
-6.9001
 30
0.0
 10
0.4029
 20
-6.9001
 30
0.0
 10
0.4029
 20
-6.9001
 30
0.0
 10
0.4029
 20
-6.9001
 30
0.0
 10
0.52313
 20
-6.9001
 30
0.0
 10
0.52313
 20
-6.9001
 30
0.0
 10
0.52313
 20
-6.9001
 30
0.0
 10
0.52313
 20
-6.9001
 30
0.0
 10
0.6665
 20
-7.32922
 30
0.0
 10
0.6665
 20
-7.32922
 30
0.0
 10
0.6665
 20
-7.32922
 30
0.0
 10
0.67976
 20
-7.36916
 30
0.0
 10
0.68936
 20
-7.39908
 30
0.0
 10
0.69542
 20
-7.41897
 30
0.0
 10
0.69542
 20
-7.41897
 30
0.0
 10
0.70234
 20
-7.39696
 30
0.0
 10
0.7132
 20
-7.3645
 30
0.0
 10
0.72788
 20
-7.32175
 30
0.0
 10
0.72788
 20
-7.32175
 30
0.0
 10
0.72788
 20
-7.32175
 30
0.0
 10
0.87379
 20
-6.9001
 30
0.0
 10
0.87379
 20
-6.9001
 30
0.0
 10
0.87379
 20
-6.9001
 30
0.0
 10
0.87379
 20
-6.9001
 30
0.0
 10
0.98118
 20
-6.9001
 30
0.0
 10
0.98118
 20
-6.9001
 30
0.0
 10
0.98118
 20
-6.9001
 30
0.0
 10
0.98118
 20
-6.9001
 30
0.0
 10
0.98118
 20
-7.50632
 30
0.0
 10
0.98118
 20
-7.50632
 30
0.0
 10
0.98118
 20
-7.50632
 30
0.0
 10
0.98118
 20
-7.50632
 30
0.0
 10
0.90413
 20
-7.50632
 30
0.0
 10
0.90413
 20
-7.50632
 30
0.0
 10
0.90413
 20
-7.50632
 30
0.0
 10
0.90413
 20
-7.50632
 30
0.0
 10
0.90413
 20
-6.99916
 30
0.0
 10
0.90413
 20
-6.99916
 30
0.0
 10
0.90413
 20
-6.99916
 30
0.0
 10
0.90413
 20
-6.99916
 30
0.0
 10
0.72717
 20
-7.50632
 30
0.0
 10
0.72717
 20
-7.50632
 30
0.0
 10
0.72717
 20
-7.50632
 30
0.0
 10
0.72717
 20
-7.50632
 30
0.0
 10
0.65493
 20
-7.50632
 30
0.0
 10
0.65493
 20
-7.50632
 30
0.0
 10
0.65493
 20
-7.50632
 30
0.0
 10
0.65493
 20
-7.50632
 30
0.0
 10
0.47995
 20
-6.98985
 30
0.0
 10
0.47995
 20
-6.98985
 30
0.0
 10
0.47995
 20
-6.98985
 30
0.0
 10
0.47995
 20
-6.98985
 30
0.0
 10
0.47995
 20
-7.50632
 30
0.0
 10
0.47995
 20
-7.50632
 30
0.0
 10
0.47995
 20
-7.50632
 30
0.0
 10
0.47995
 20
-7.50632
 30
0.0
 10
0.4029
 20
-7.50632
 30
0.0
 10
0.4029
 20
-7.50632
 30
0.0
  0
SPLINE
  5
4F
330
1F
100
AcDbEntity
  8
Layer 1
 62
   250
100
AcDbSpline
210
0.0
220
0.0
230
1.0
 70
    11
 71
     3
 72
    48
 73
    44
 74
     0
 42
0.0000000001
 43
0.0000000001
 12
1.0
 22
0.0
 32
0.0
 13
1.0
 23
0.0
 33
0.0
 40
0.0
 40
0.0
 40
0.0
 40
0.0
 40
0.0833333333333333
 40
0.0833333333333333
 40
0.0833333333333333
 40
0.0833333333333333
 40
0.1666666666666667
 40
0.1666666666666667
 40
0.1666666666666667
 40
0.1666666666666667
 40
0.25
 40
0.25
 40
0.25
 40
0.25
 40
0.3333333333333333
 40
0.3333333333333333
 40
0.3333333333333333
 40
0.3333333333333333
 40
0.4166666666666667
 40
0.4166666666666667
 40
0.4166666666666667
 40
0.4166666666666667
 40
0.5
 40
0.5
 40
0.5
 40
0.5
 40
0.5833333333333334
 40
0.5833333333333334
 40
0.5833333333333334
 40
0.5833333333333334
 40
0.6666666666666666
 40
0.6666666666666666
 40
0.6666666666666666
 40
0.6666666666666666
 40
0.75
 40
0.75
 40
0.75
 40
0.75
 40
0.8333333333333334
 40
0.8333333333333334
 40
0.8333333333333334
 40
0.8333333333333334
 40
1.0
 40
1.0
 40
1.0
 40
1.0
 10
1.10987
 20
-7.50632
 30
0.0
 10
1.10987
 20
-7.50632
 30
0.0
 10
1.10987
 20
-6.9001
 30
0.0
 10
1.10987
 20
-6.9001
 30
0.0
 10
1.10987
 20
-6.9001
 30
0.0
 10
1.10987
 20
-6.9001
 30
0.0
 10
1.33876
 20
-6.9001
 30
0.0
 10
1.33876
 20
-6.9001
 30
0.0
 10
1.33876
 20
-6.9001
 30
0.0
 10
1.37897
 20
-6.9001
 30
0.0
 10
1.40974
 20
-6.90208
 30
0.0
 10
1.43104
 20
-6.90589
 30
0.0
 10
1.43104
 20
-6.90589
 30
0.0
 10
1.46082
 20
-6.91083
 30
0.0
 10
1.4858
 20
-6.92028
 30
0.0
 10
1.50597
 20
-6.93411
 30
0.0
 10
1.50597
 20
-6.93411
 30
0.0
 10
1.52615
 20
-6.94808
 30
0.0
 10
1.54238
 20
-6.96756
 30
0.0
 10
1.55466
 20
-6.99253
 30
0.0
 10
1.55466
 20
-6.99253
 30
0.0
 10
1.56693
 20
-7.01751
 30
0.0
 10
1.573
 20
-7.04503
 30
0.0
 10
1.573
 20
-7.07508
 30
0.0
 10
1.573
 20
-7.07508
 30
0.0
 10
1.573
 20
-7.12645
 30
0.0
 10
1.55663
 20
-7.17005
 30
0.0
 10
1.52375
 20
-7.20561
 30
0.0
 10
1.52375
 20
-7.20561
 30
0.0
 10
1.49102
 20
-7.24131
 30
0.0
 10
1.43161
 20
-7.25909
 30
0.0
 10
1.34581
 20
-7.25909
 30
0.0
 10
1.34581
 20
-7.25909
 30
0.0
 10
1.34581
 20
-7.25909
 30
0.0
 10
1.19031
 20
-7.25909
 30
0.0
 10
1.19031
 20
-7.25909
 30
0.0
 10
1.19031
 20
-7.25909
 30
0.0
 10
1.19031
 20
-7.25909
 30
0.0
 10
1.19031
 20
-7.50632
 30
0.0
 10
1.19031
 20
-7.50632
 30
0.0
 10
1.19031
 20
-7.50632
 30
0.0
 10
1.19031
 20
-7.50632
 30
0.0
 10
1.10987
 20
-7.50632
 30
0.0
 10
1.10987
 20
-7.50632
 30
0.0
  0
SPLINE
  5
50
330
1F
100
AcDbEntity
  8
Layer 1
 62
   250
100
AcDbSpline
210
0.0
220
0.0
230
1.0
 70
    11
 71
     3
 72
    36
 73
    32
 74
     0
 42
0.0000000001
 43
0.0000000001
 12
1.0
 22
0.0
 32
0.0
 13
1.0
 23
0.0
 33
0.0
 40
0.0
 40
0.0
 40
0.0
 40
0.0
 40
0.1111111111111111
 40
0.1111111111111111
 40
0.1111111111111111
 40
0.1111111111111111
 40
0.2222222222222222
 40
0.2222222222222222
 40
0.2222222222222222
 40
0.2222222222222222
 40
0.3333333333333333
 40
0.3333333333333333
 40
0.3333333333333333
 40
0.3333333333333333
 40
0.4444444444444444
 40
0.4444444444444444
 40
0.4444444444444444
 40
0.4444444444444444
 40
0.5555555555555556
 40
0.5555555555555556
 40
0.5555555555555556
 40
0.5555555555555556
 40
0.6666666666666666
 40
0.6666666666666666
 40
0.6666666666666666
 40
0.6666666666666666
 40
0.7777777777777778
 40
0.7777777777777778
 40
0.7777777777777778
 40
0.7777777777777778
 40
1.0
 40
1.0
 40
1.0
 40
1.0
 10
1.19031
 20
-7.18797
 30
0.0
 10
1.19031
 20
-7.18797
 30
0.0
 10
1.34694
 20
-7.18797
 30
0.0
 10
1.34694
 20
-7.18797
 30
0.0
 10
1.34694
 20
-7.18797
 30
0.0
 10
1.39887
 20
-7.18797
 30
0.0
 10
1.43556
 20
-7.17838
 30
0.0
 10
1.45743
 20
-7.15904
 30
0.0
 10
1.45743
 20
-7.15904
 30
0.0
 10
1.47916
 20
-7.13971
 30
0.0
 10
1.49003
 20
-7.11262
 30
0.0
 10
1.49003
 20
-7.07748
 30
0.0
 10
1.49003
 20
-7.07748
 30
0.0
 10
1.49003
 20
-7.05222
 30
0.0
 10
1.48368
 20
-7.03049
 30
0.0
 10
1.47084
 20
-7.01243
 30
0.0
 10
1.47084
 20
-7.01243
 30
0.0
 10
1.458
 20
-6.99437
 30
0.0
 10
1.44106
 20
-6.98237
 30
0.0
 10
1.42018
 20
-6.97659
 30
0.0
 10
1.42018
 20
-6.97659
 30
0.0
 10
1.40663
 20
-6.97306
 30
0.0
 10
1.38165
 20
-6.97122
 30
0.0
 10
1.34539
 20
-6.97122
 30
0.0
 10
1.34539
 20
-6.97122
 30
0.0
 10
1.34539
 20
-6.97122
 30
0.0
 10
1.19031
 20
-6.97122
 30
0.0
 10
1.19031
 20
-6.97122
 30
0.0
 10
1.19031
 20
-6.97122
 30
0.0
 10
1.19031
 20
-6.97122
 30
0.0
 10
1.19031
 20
-7.18797
 30
0.0
 10
1.19031
 20
-7.18797
 30
0.0
  0
SPLINE
  5
51
330
1F
100
AcDbEntity
  8
Layer 1
 62
   250
100
AcDbSpline
210
0.0
220
0.0
230
1.0
 70
    11
 71
     3
 72
    28
 73
    24
 74
     0
 42
0.0000000001
 43
0.0000000001
 12
1.0
 22
0.0
 32
0.0
 13
1.0
 23
0.0
 33
0.0
 40
0.0
 40
0.0
 40
0.0
 40
0.0
 40
0.1428571428571428
 40
0.1428571428571428
 40
0.1428571428571428
 40
0.1428571428571428
 40
0.2857142857142857
 40
0.2857142857142857
 40
0.2857142857142857
 40
0.2857142857142857
 40
0.4285714285714285
 40
0.4285714285714285
 40
0.4285714285714285
 40
0.4285714285714285
 40
0.5714285714285714
 40
0.5714285714285714
 40
0.5714285714285714
 40
0.5714285714285714
 40
0.7142857142857143
 40
0.7142857142857143
 40
0.7142857142857143
 40
0.7142857142857143
 40
1.0
 40
1.0
 40
1.0
 40
1.0
 10
1.67122
 20
-7.50632
 30
0.0
 10
1.67122
 20
-7.50632
 30
0.0
 10
1.67122
 20
-6.9001
 30
0.0
 10
1.67122
 20
-6.9001
 30
0.0
 10
1.67122
 20
-6.9001
 30
0.0
 10
1.67122
 20
-6.9001
 30
0.0
 10
1.75165
 20
-6.9001
 30
0.0
 10
1.75165
 20
-6.9001
 30
0.0
 10
1.75165
 20
-6.9001
 30
0.0
 10
1.75165
 20
-6.9001
 30
0.0
 10
1.75165
 20
-7.4352
 30
0.0
 10
1.75165
 20
-7.4352
 30
0.0
 10
1.75165
 20
-7.4352
 30
0.0
 10
1.75165
 20
-7.4352
 30
0.0
 10
2.04968
 20
-7.4352
 30
0.0
 10
2.04968
 20
-7.4352
 30
0.0
 10
2.04968
 20
-7.4352
 30
0.0
 10
2.04968
 20
-7.4352
 30
0.0
 10
2.04968
 20
-7.50632
 30
0.0
 10
2.04968
 20
-7.50632
 30
0.0
 10
2.04968
 20
-7.50632
 30
0.0
 10
2.04968
 20
-7.50632
 30
0.0
 10
1.67122
 20
-7.50632
 30
0.0
 10
1.67122
 20
-7.50632
 30
0.0
  0
SPLINE
  5
52
330
1F
100
AcDbEntity
  8
Layer 1
 62
   250
100
AcDbSpline
210
0.0
220
0.0
230
1.0
 70
    11
 71
     3
 72
    36
 73
    32
 74
     0
 42
0.0000000001
 43
0.0000000001
 12
1.0
 22
0.0
 32
0.0
 13
1.0
 23
0.0
 33
0.0
 40
0.0
 40
0.0
 40
0.0
 40
0.0
 40
0.1111111111111111
 40
0.1111111111111111
 40
0.1111111111111111
 40
0.1111111111111111
 40
0.2222222222222222
 40
0.2222222222222222
 40
0.2222222222222222
 40
0.2222222222222222
 40
0.3333333333333333
 40
0.3333333333333333
 40
0.3333333333333333
 40
0.3333333333333333
 40
0.4444444444444444
 40
0.4444444444444444
 40
0.4444444444444444
 40
0.4444444444444444
 40
0.5555555555555556
 40
0.5555555555555556
 40
0.5555555555555556
 40
0.5555555555555556
 40
0.6666666666666666
 40
0.6666666666666666
 40
0.6666666666666666
 40
0.6666666666666666
 40
0.7777777777777778
 40
0.7777777777777778
 40
0.7777777777777778
 40
0.7777777777777778
 40
1.0
 40
1.0
 40
1.0
 40
1.0
 10
2.07903
 20
-7.50632
 30
0.0
 10
2.07903
 20
-7.50632
 30
0.0
 10
2.31158
 20
-6.9001
 30
0.0
 10
2.31158
 20
-6.9001
 30
0.0
 10
2.31158
 20
-6.9001
 30
0.0
 10
2.31158
 20
-6.9001
 30
0.0
 10
2.39978
 20
-6.9001
 30
0.0
 10
2.39978
 20
-6.9001
 30
0.0
 10
2.39978
 20
-6.9001
 30
0.0
 10
2.39978
 20
-6.9001
 30
0.0
 10
2.64658
 20
-7.50632
 30
0.0
 10
2.64658
 20
-7.50632
 30
0.0
 10
2.64658
 20
-7.50632
 30
0.0
 10
2.64658
 20
-7.50632
 30
0.0
 10
2.55528
 20
-7.50632
 30
0.0
 10
2.55528
 20
-7.50632
 30
0.0
 10
2.55528
 20
-7.50632
 30
0.0
 10
2.55528
 20
-7.50632
 30
0.0
 10
2.48515
 20
-7.32259
 30
0.0
 10
2.48515
 20
-7.32259
 30
0.0
 10
2.48515
 20
-7.32259
 30
0.0
 10
2.48515
 20
-7.32259
 30
0.0
 10
2.22988
 20
-7.32259
 30
0.0
 10
2.22988
 20
-7.32259
 30
0.0
 10
2.22988
 20
-7.32259
 30
0.0
 10
2.22988
 20
-7.32259
 30
0.0
 10
2.16412
 20
-7.50632
 30
0.0
 10
2.16412
 20
-7.50632
 30
0.0
 10
2.16412
 20
-7.50632
 30
0.0
 10
2.16412
 20
-7.50632
 30
0.0
 10
2.07903
 20
-7.50632
 30
0.0
 10
2.07903
 20
-7.50632
 30
0.0
  0
SPLINE
  5
53
330
1F
100
AcDbEntity
  8
Layer 1
 62
   250
100
AcDbSpline
210
0.0
220
0.0
230
1.0
 70
    11
 71
     3
 72
    24
 73
    20
 74
     0
 42
0.0000000001
 43
0.0000000001
 12
1.0
 22
0.0
 32
0.0
 13
1.0
 23
0.0
 33
0.0
 40
0.0
 40
0.0
 40
0.0
 40
0.0
 40
0.1666666666666667
 40
0.1666666666666667
 40
0.1666666666666667
 40
0.1666666666666667
 40
0.3333333333333333
 40
0.3333333333333333
 40
0.3333333333333333
 40
0.3333333333333333
 40
0.5
 40
0.5
 40
0.5
 40
0.5
 40
0.6666666666666666
 40
0.6666666666666666
 40
0.6666666666666666
 40
0.6666666666666666
 40
1.0
 40
1.0
 40
1.0
 40
1.0
 10
2.25344
 20
-7.2574
 30
0.0
 10
2.25344
 20
-7.2574
 30
0.0
 10
2.46003
 20
-7.2574
 30
0.0
 10
2.46003
 20
-7.2574
 30
0.0
 10
2.46003
 20
-7.2574
 30
0.0
 10
2.46003
 20
-7.2574
 30
0.0
 10
2.39681
 20
-7.08934
 30
0.0
 10
2.39681
 20
-7.08934
 30
0.0
 10
2.39681
 20
-7.08934
 30
0.0
 10
2.37776
 20
-7.03825
 30
0.0
 10
2.36337
 20
-6.99606
 30
0.0
 10
2.35335
 20
-6.96276
 30
0.0
 10
2.35335
 20
-6.96276
 30
0.0
 10
2.34503
 20
-7.00227
 30
0.0
 10
2.33388
 20
-7.04107
 30
0.0
 10
2.31991
 20
-7.07946
 30
0.0
 10
2.31991
 20
-7.07946
 30
0.0
 10
2.31991
 20
-7.07946
 30
0.0
 10
2.25344
 20
-7.2574
 30
0.0
 10
2.25344
 20
-7.2574
 30
0.0
  0
SPLINE
  5
54
330
1F
100
AcDbEntity
  8
Layer 1
 62
   250
100
AcDbSpline
210
0.0
220
0.0
230
1.0
 70
    11
 71
     3
 72
    36
 73
    32
 74
     0
 42
0.0000000001
 43
0.0000000001
 12
1.0
 22
0.0
 32
0.0
 13
1.0
 23
0.0
 33
0.0
 40
0.0
 40
0.0
 40
0.0
 40
0.0
 40
0.1111111111111111
 40
0.1111111111111111
 40
0.1111111111111111
 40
0.1111111111111111
 40
0.2222222222222222
 40
0.2222222222222222
 40
0.2222222222222222
 40
0.2222222222222222
 40
0.3333333333333333
 40
0.3333333333333333
 40
0.3333333333333333
 40
0.3333333333333333
 40
0.4444444444444444
 40
0.4444444444444444
 40
0.4444444444444444
 40
0.4444444444444444
 40
0.5555555555555556
 40
0.5555555555555556
 40
0.5555555555555556
 40
0.5555555555555556
 40
0.6666666666666666
 40
0.6666666666666666
 40
0.6666666666666666
 40
0.6666666666666666
 40
0.7777777777777778
 40
0.7777777777777778
 40
0.7777777777777778
 40
0.7777777777777778
 40
1.0
 40
1.0
 40
1.0
 40
1.0
 10
2.80153
 20
-7.50632
 30
0.0
 10
2.80153
 20
-7.50632
 30
0.0
 10
2.80153
 20
-6.97122
 30
0.0
 10
2.80153
 20
-6.97122
 30
0.0
 10
2.80153
 20
-6.97122
 30
0.0
 10
2.80153
 20
-6.97122
 30
0.0
 10
2.60171
 20
-6.97122
 30
0.0
 10
2.60171
 20
-6.97122
 30
0.0
 10
2.60171
 20
-6.97122
 30
0.0
 10
2.60171
 20
-6.97122
 30
0.0
 10
2.60171
 20
-6.9001
 30
0.0
 10
2.60171
 20
-6.9001
 30
0.0
 10
2.60171
 20
-6.9001
 30
0.0
 10
2.60171
 20
-6.9001
 30
0.0
 10
3.08178
 20
-6.9001
 30
0.0
 10
3.08178
 20
-6.9001
 30
0.0
 10
3.08178
 20
-6.9001
 30
0.0
 10
3.08178
 20
-6.9001
 30
0.0
 10
3.08178
 20
-6.97122
 30
0.0
 10
3.08178
 20
-6.97122
 30
0.0
 10
3.08178
 20
-6.97122
 30
0.0
 10
3.08178
 20
-6.97122
 30
0.0
 10
2.88196
 20
-6.97122
 30
0.0
 10
2.88196
 20
-6.97122
 30
0.0
 10
2.88196
 20
-6.97122
 30
0.0
 10
2.88196
 20
-6.97122
 30
0.0
 10
2.88196
 20
-7.50632
 30
0.0
 10
2.88196
 20
-7.50632
 30
0.0
 10
2.88196
 20
-7.50632
 30
0.0
 10
2.88196
 20
-7.50632
 30
0.0
 10
2.80153
 20
-7.50632
 30
0.0
 10
2.80153
 20
-7.50632
 30
0.0
  0
SPLINE
  5
55
330
1F
100
AcDbEntity
  8
Layer 1
 62
   250
100
AcDbSpline
210
0.0
220
0.0
230
1.0
 70
    11
 71
     3
 72
    52
 73
    48
 74
     0
 42
0.0000000001
 43
0.0000000001
 12
1.0
 22
0.0
 32
0.0
 13
1.0
 23
0.0
 33
0.0
 40
0.0
 40
0.0
 40
0.0
 40
0.0
 40
0.0769230769230769
 40
0.0769230769230769
 40
0.0769230769230769
 40
0.0769230769230769
 40
0.1538461538461539
 40
0.1538461538461539
 40
0.1538461538461539
 40
0.1538461538461539
 40
0.2307692307692308
 40
0.2307692307692308
 40
0.2307692307692308
 40
0.2307692307692308
 40
0.3076923076923077
 40
0.3076923076923077
 40
0.3076923076923077
 40
0.3076923076923077
 40
0.3846153846153846
 40
0.3846153846153846
 40
0.3846153846153846
 40
0.3846153846153846
 40
0.4615384615384616
 40
0.4615384615384616
 40
0.4615384615384616
 40
0.4615384615384616
 40
0.5384615384615384
 40
0.5384615384615384
 40
0.5384615384615384
 40
0.5384615384615384
 40
0.6153846153846154
 40
0.6153846153846154
 40
0.6153846153846154
 40
0.6153846153846154
 40
0.6923076923076923
 40
0.6923076923076923
 40
0.6923076923076923
 40
0.6923076923076923
 40
0.7692307692307693
 40
0.7692307692307693
 40
0.7692307692307693
 40
0.7692307692307693
 40
0.8461538461538461
 40
0.8461538461538461
 40
0.8461538461538461
 40
0.8461538461538461
 40
1.0
 40
1.0
 40
1.0
 40
1.0
 10
3.1663
 20
-7.50632
 30
0.0
 10
3.1663
 20
-7.50632
 30
0.0
 10
3.1663
 20
-6.9001
 30
0.0
 10
3.1663
 20
-6.9001
 30
0.0
 10
3.1663
 20
-6.9001
 30
0.0
 10
3.1663
 20
-6.9001
 30
0.0
 10
3.60403
 20
-6.9001
 30
0.0
 10
3.60403
 20
-6.9001
 30
0.0
 10
3.60403
 20
-6.9001
 30
0.0
 10
3.60403
 20
-6.9001
 30
0.0
 10
3.60403
 20
-6.97122
 30
0.0
 10
3.60403
 20
-6.97122
 30
0.0
 10
3.60403
 20
-6.97122
 30
0.0
 10
3.60403
 20
-6.97122
 30
0.0
 10
3.24673
 20
-6.97122
 30
0.0
 10
3.24673
 20
-6.97122
 30
0.0
 10
3.24673
 20
-6.97122
 30
0.0
 10
3.24673
 20
-6.97122
 30
0.0
 10
3.24673
 20
-7.15749
 30
0.0
 10
3.24673
 20
-7.15749
 30
0.0
 10
3.24673
 20
-7.15749
 30
0.0
 10
3.24673
 20
-7.15749
 30
0.0
 10
3.58117
 20
-7.15749
 30
0.0
 10
3.58117
 20
-7.15749
 30
0.0
 10
3.58117
 20
-7.15749
 30
0.0
 10
3.58117
 20
-7.15749
 30
0.0
 10
3.58117
 20
-7.22861
 30
0.0
 10
3.58117
 20
-7.22861
 30
0.0
 10
3.58117
 20
-7.22861
 30
0.0
 10
3.58117
 20
-7.22861
 30
0.0
 10
3.24673
 20
-7.22861
 30
0.0
 10
3.24673
 20
-7.22861
 30
0.0
 10
3.24673
 20
-7.22861
 30
0.0
 10
3.24673
 20
-7.22861
 30
0.0
 10
3.24673
 20
-7.4352
 30
0.0
 10
3.24673
 20
-7.4352
 30
0.0
 10
3.24673
 20
-7.4352
 30
0.0
 10
3.24673
 20
-7.4352
 30
0.0
 10
3.61842
 20
-7.4352
 30
0.0
 10
3.61842
 20
-7.4352
 30
0.0
 10
3.61842
 20
-7.4352
 30
0.0
 10
3.61842
 20
-7.4352
 30
0.0
 10
3.61842
 20
-7.50632
 30
0.0
 10
3.61842
 20
-7.50632
 30
0.0
 10
3.61842
 20
-7.50632
 30
0.0
 10
3.61842
 20
-7.50632
 30
0.0
 10
3.1663
 20
-7.50632
 30
0.0
 10
3.1663
 20
-7.50632
 30
0.0
  0
SPLINE
  5
56
330
1F
100
AcDbEntity
  8
Layer 1
 62
     3
370
     9
100
AcDbSpline
210
0.0
220
0.0
230
1.0
 70
     8
 71
     3
 72
    32
 73
    28
 74
     0
 42
0.0000000001
 43
0.0000000001
 12
1.0
 22
0.0
 32
0.0
 13
1.0
 23
0.0
 33
0.0
 40
0.0
 40
0.0
 40
0.0
 40
0.0
 40
0.125
 40
0.125
 40
0.125
 40
0.125
 40
0.25
 40
0.25
 40
0.25
 40
0.25
 40
0.375
 40
0.375
 40
0.375
 40
0.375
 40
0.5
 40
0.5
 40
0.5
 40
0.5
 40
0.625
 40
0.625
 40
0.625
 40
0.625
 40
0.75
 40
0.75
 40
0.75
 40
0.75
 40
1.0
 40
1.0
 40
1.0
 40
1.0
 10
1.80607
 20
6.57035
 30
0.0
 10
1.80607
 20
6.57035
 30
0.0
 10
-10.52297
 20
6.57035
 30
0.0
 10
-10.52297
 20
6.57035
 30
0.0
 10
-10.52297
 20
6.57035
 30
0.0
 10
-10.59557
 20
6.57031
 30
0.0
 10
-10.66519
 20
6.54142
 30
0.0
 10
-10.7165
 20
6.49004
 30
0.0
 10
-10.7165
 20
6.49004
 30
0.0
 10
-10.7678
 20
6.43868
 30
0.0
 10
-10.79661
 20
6.36937
 30
0.0
 10
-10.79656
 20
6.29676
 30
0.0
 10
-10.79656
 20
6.29676
 30
0.0
 10
-10.79656
 20
6.29676
 30
0.0
 10
-10.79656
 20
-4.27496
 30
0.0
 10
-10.79656
 20
-4.27496
 30
0.0
 10
-10.79656
 20
-4.27496
 30
0.0
 10
-10.79651
 20
-4.34757
 30
0.0
 10
-10.76762
 20
-4.41718
 30
0.0
 10
-10.71625
 20
-4.4685
 30
0.0
 10
-10.71625
 20
-4.4685
 30
0.0
 10
-10.66488
 20
-4.5198
 30
0.0
 10
-10.59557
 20
-4.54861
 30
0.0
 10
-10.52297
 20
-4.54855
 30
0.0
 10
-10.52297
 20
-4.54855
 30
0.0
 10
-10.52297
 20
-4.54855
 30
0.0
 10
1.80607
 20
-4.54855
 30
0.0
 10
1.80607
 20
-4.54855
 30
0.0
  0
SPLINE
  5
57
330
1F
100
AcDbEntity
  8
Layer 1
 62
     3
370
     9
100
AcDbSpline
210
0.0
220
0.0
230
1.0
 70
     8
 71
     3
 72
    32
 73
    28
 74
     0
 42
0.0000000001
 43
0.0000000001
 12
1.0
 22
0.0
 32
0.0
 13
1.0
 23
0.0
 33
0.0
 40
0.0
 40
0.0
 40
0.0
 40
0.0
 40
0.125
 40
0.125
 40
0.125
 40
0.125
 40
0.25
 40
0.25
 40
0.25
 40
0.25
 40
0.375
 40
0.375
 40
0.375
 40
0.375
 40
0.5
 40
0.5
 40
0.5
 40
0.5
 40
0.625
 40
0.625
 40
0.625
 40
0.625
 40
0.75
 40
0.75
 40
0.75
 40
0.75
 40
1.0
 40
1.0
 40
1.0
 40
1.0
 10
1.80607
 20
6.57035
 30
0.0
 10
1.80607
 20
6.57035
 30
0.0
 10
9.77781
 20
6.57035
 30
0.0
 10
9.77781
 20
6.57035
 30
0.0
 10
9.77781
 20
6.57035
 30
0.0
 10
9.85032
 20
6.57041
 30
0.0
 10
9.91989
 20
6.54164
 30
0.0
 10
9.9712
 20
6.49039
 30
0.0
 10
9.9712
 20
6.49039
 30
0.0
 10
10.02251
 20
6.43915
 30
0.0
 10
10.05136
 20
6.36927
 30
0.0
 10
10.0514
 20
6.29676
 30
0.0
 10
10.0514
 20
6.29676
 30
0.0
 10
10.0514
 20
6.29676
 30
0.0
 10
10.0514
 20
-4.27496
 30
0.0
 10
10.0514
 20
-4.27496
 30
0.0
 10
10.0514
 20
-4.27496
 30
0.0
 10
10.05145
 20
-4.34748
 30
0.0
 10
10.02269
 20
-4.41704
 30
0.0
 10
9.97144
 20
-4.46835
 30
0.0
 10
9.97144
 20
-4.46835
 30
0.0
 10
9.9202
 20
-4.51966
 30
0.0
 10
9.85032
 20
-4.54851
 30
0.0
 10
9.77781
 20
-4.54855
 30
0.0
 10
9.77781
 20
-4.54855
 30
0.0
 10
9.77781
 20
-4.54855
 30
0.0
 10
1.80607
 20
-4.54855
 30
0.0
 10
1.80607
 20
-4.54855
 30
0.0
  0
SPLINE
  5
59
330
1F
100
AcDbEntity
  8
layer 2
 62
     1
370
     0
100
AcDbSpline
210
0.0
220
0.0
230
1.0
 70
    24
 71
     3
 72
     8
 73
     4
 74
     0
 42
0.0000000001
 43
0.0000000001
 12
1.0
 22
0.0
 32
0.0
 13
1.0
 23
0.0
 33
0.0
 40
0.0
 40
0.0
 40
0.0
 40
0.0
 40
1.0
 40
1.0
 40
1.0
 40
1.0
 10
-10.79656
 20
6.43356
 30
0.0
 10
-10.79656
 20
6.43356
 30
0.0
 10
-10.79656
 20
7.54227
 30
0.0
 10
-10.79656
 20
7.54227
 30
0.0
  0
SPLINE
  5
5A
330
1F
100
AcDbEntity
  8
layer 2
 62
     1
370
     0
100
AcDbSpline
210
0.0
220
0.0
230
1.0
 70
    24
 71
     3
 72
     8
 73
     4
 74
     0
 42
0.0000000001
 43
0.0000000001
 12
1.0
 22
0.0
 32
0.0
 13
1.0
 23
0.0
 33
0.0
 40
0.0
 40
0.0
 40
0.0
 40
0.0
 40
1.0
 40
1.0
 40
1.0
 40
1.0
 10
10.0514
 20
6.43356
 30
0.0
 10
10.0514
 20
6.43356
 30
0.0
 10
10.0514
 20
7.54227
 30
0.0
 10
10.0514
 20
7.54227
 30
0.0
  0
SPLINE
  5
5B
330
1F
100
AcDbEntity
  8
layer 2
 62
     1
370
     0
100
AcDbSpline
210
0.0
220
0.0
230
1.0
 70
    24
 71
     3
 72
     8
 73
     4
 74
     0
 42
0.0000000001
 43
0.0000000001
 12
1.0
 22
0.0
 32
0.0
 13
1.0
 23
0.0
 33
0.0
 40
0.0
 40
0.0
 40
0.0
 40
0.0
 40
1.0
 40
1.0
 40
1.0
 40
1.0
 10
-10.24937
 20
7.26867
 30
0.0
 10
-10.24937
 20
7.26867
 30
0.0
 10
9.50421
 20
7.26867
 30
0.0
 10
9.50421
 20
7.26867
 30
0.0
  0
SPLINE
  5
5C
330
1F
100
AcDbEntity
  8
layer 2
 62
     1
100
AcDbSpline
210
0.0
220
0.0
230
1.0
 70
    27
 71
     3
 72
    12
 73
     8
 74
     0
 42
0.0000000001
 43
0.0000000001
 12
1.0
 22
0.0
 32
0.0
 13
1.0
 23
0.0
 33
0.0
 40
0.0
 40
0.0
 40
0.0
 40
0.0
 40
0.3333333333333333
 40
0.3333333333333333
 40
0.3333333333333333
 40
0.3333333333333333
 40
1.0
 40
1.0
 40
1.0
 40
1.0
 10
-10.24937
 20
7.35987
 30
0.0
 10
-10.24937
 20
7.35987
 30
0.0
 10
-10.79656
 20
7.26867
 30
0.0
 10
-10.79656
 20
7.26867
 30
0.0
 10
-10.79656
 20
7.26867
 30
0.0
 10
-10.79656
 20
7.26867
 30
0.0
 10
-10.24937
 20
7.35987
 30
0.0
 10
-10.24937
 20
7.35987
 30
0.0
  0
SPLINE
  5
5D
330
1F
100
AcDbEntity
  8
layer 2
 62
     1
100
AcDbSpline
210
0.0
220
0.0
230
1.0
 70
     8
 71
     3
 72
    12
 73
     8
 74
     0
 42
0.0000000001
 43
0.0000000001
 12
1.0
 22
0.0
 32
0.0
 13
1.0
 23
0.0
 33
0.0
 40
0.0
 40
0.0
 40
0.0
 40
0.0
 40
0.3333333333333333
 40
0.3333333333333333
 40
0.3333333333333333
 40
0.3333333333333333
 40
1.0
 40
1.0
 40
1.0
 40
1.0
 10
-10.79656
 20
7.26867
 30
0.0
 10
-10.79656
 20
7.26867
 30
0.0
 10
-10.24937
 20
7.17748
 30
0.0
 10
-10.24937
 20
7.17748
 30
0.0
 10
-10.24937
 20
7.17748
 30
0.0
 10
-10.24937
 20
7.17748
 30
0.0
 10
-10.24937
 20
7.35987
 30
0.0
 10
-10.24937
 20
7.35987
 30
0.0
  0
SPLINE
  5
5E
330
1F
100
AcDbEntity
  8
layer 2
 62
     1
370
     9
100
AcDbSpline
210
0.0
220
0.0
230
1.0
 70
    24
 71
     3
 72
     8
 73
     4
 74
     0
 42
0.0000000001
 43
0.0000000001
 12
1.0
 22
0.0
 32
0.0
 13
1.0
 23
0.0
 33
0.0
 40
0.0
 40
0.0
 40
0.0
 40
0.0
 40
1.0
 40
1.0
 40
1.0
 40
1.0
 10
-10.24937
 20
7.35987
 30
0.0
 10
-10.24937
 20
7.35987
 30
0.0
 10
-10.79656
 20
7.26867
 30
0.0
 10
-10.79656
 20
7.26867
 30
0.0
  0
SPLINE
  5
5F
330
1F
100
AcDbEntity
  8
layer 2
 62
     1
370
     9
100
AcDbSpline
210
0.0
220
0.0
230
1.0
 70
     8
 71
     3
 72
    12
 73
     8
 74
     0
 42
0.0000000001
 43
0.0000000001
 12
1.0
 22
0.0
 32
0.0
 13
1.0
 23
0.0
 33
0.0
 40
0.0
 40
0.0
 40
0.0
 40
0.0
 40
0.3333333333333333
 40
0.3333333333333333
 40
0.3333333333333333
 40
0.3333333333333333
 40
1.0
 40
1.0
 40
1.0
 40
1.0
 10
-10.79656
 20
7.26867
 30
0.0
 10
-10.79656
 20
7.26867
 30
0.0
 10
-10.24937
 20
7.17748
 30
0.0
 10
-10.24937
 20
7.17748
 30
0.0
 10
-10.24937
 20
7.17748
 30
0.0
 10
-10.24937
 20
7.17748
 30
0.0
 10
-10.24937
 20
7.35987
 30
0.0
 10
-10.24937
 20
7.35987
 30
0.0
  0
SPLINE
  5
60
330
1F
100
AcDbEntity
  8
layer 2
 62
     1
100
AcDbSpline
210
0.0
220
0.0
230
1.0
 70
    27
 71
     3
 72
    12
 73
     8
 74
     0
 42
0.0000000001
 43
0.0000000001
 12
1.0
 22
0.0
 32
0.0
 13
1.0
 23
0.0
 33
0.0
 40
0.0
 40
0.0
 40
0.0
 40
0.0
 40
0.3333333333333333
 40
0.3333333333333333
 40
0.3333333333333333
 40
0.3333333333333333
 40
1.0
 40
1.0
 40
1.0
 40
1.0
 10
9.50421
 20
7.35987
 30
0.0
 10
9.50421
 20
7.35987
 30
0.0
 10
10.0514
 20
7.26867
 30
0.0
 10
10.0514
 20
7.26867
 30
0.0
 10
10.0514
 20
7.26867
 30
0.0
 10
10.0514
 20
7.26867
 30
0.0
 10
9.50421
 20
7.35987
 30
0.0
 10
9.50421
 20
7.35987
 30
0.0
  0
SPLINE
  5
61
330
1F
100
AcDbEntity
  8
layer 2
 62
     1
100
AcDbSpline
210
0.0
220
0.0
230
1.0
 70
     8
 71
     3
 72
    12
 73
     8
 74
     0
 42
0.0000000001
 43
0.0000000001
 12
1.0
 22
0.0
 32
0.0
 13
1.0
 23
0.0
 33
0.0
 40
0.0
 40
0.0
 40
0.0
 40
0.0
 40
0.3333333333333333
 40
0.3333333333333333
 40
0.3333333333333333
 40
0.3333333333333333
 40
1.0
 40
1.0
 40
1.0
 40
1.0
 10
10.0514
 20
7.26867
 30
0.0
 10
10.0514
 20
7.26867
 30
0.0
 10
9.50421
 20
7.17748
 30
0.0
 10
9.50421
 20
7.17748
 30
0.0
 10
9.50421
 20
7.17748
 30
0.0
 10
9.50421
 20
7.17748
 30
0.0
 10
9.50421
 20
7.35987
 30
0.0
 10
9.50421
 20
7.35987
 30
0.0
  0
SPLINE
  5
62
330
1F
100
AcDbEntity
  8
layer 2
 62
     1
370
     9
100
AcDbSpline
210
0.0
220
0.0
230
1.0
 70
    24
 71
     3
 72
     8
 73
     4
 74
     0
 42
0.0000000001
 43
0.0000000001
 12
1.0
 22
0.0
 32
0.0
 13
1.0
 23
0.0
 33
0.0
 40
0.0
 40
0.0
 40
0.0
 40
0.0
 40
1.0
 40
1.0
 40
1.0
 40
1.0
 10
9.50421
 20
7.35987
 30
0.0
 10
9.50421
 20
7.35987
 30
0.0
 10
10.0514
 20
7.26867
 30
0.0
 10
10.0514
 20
7.26867
 30
0.0
  0
SPLINE
  5
63
330
1F
100
AcDbEntity
  8
layer 2
 62
     1
370
     9
100
AcDbSpline
210
0.0
220
0.0
230
1.0
 70
     8
 71
     3
 72
    12
 73
     8
 74
     0
 42
0.0000000001
 43
0.0000000001
 12
1.0
 22
0.0
 32
0.0
 13
1.0
 23
0.0
 33
0.0
 40
0.0
 40
0.0
 40
0.0
 40
0.0
 40
0.3333333333333333
 40
0.3333333333333333
 40
0.3333333333333333
 40
0.3333333333333333
 40
1.0
 40
1.0
 40
1.0
 40
1.0
 10
10.0514
 20
7.26867
 30
0.0
 10
10.0514
 20
7.26867
 30
0.0
 10
9.50421
 20
7.17748
 30
0.0
 10
9.50421
 20
7.17748
 30
0.0
 10
9.50421
 20
7.17748
 30
0.0
 10
9.50421
 20
7.17748
 30
0.0
 10
9.50421
 20
7.35987
 30
0.0
 10
9.50421
 20
7.35987
 30
0.0
  0
SPLINE
  5
64
330
1F
100
AcDbEntity
  8
layer 2
 62
     1
100
AcDbSpline
210
0.0
220
0.0
230
1.0
 70
    11
 71
     3
 72
   124
 73
   120
 74
     0
 42
0.0000000001
 43
0.0000000001
 12
1.0
 22
0.0
 32
0.0
 13
1.0
 23
0.0
 33
0.0
 40
0.0
 40
0.0
 40
0.0
 40
0.0
 40
0.032258064516129
 40
0.032258064516129
 40
0.032258064516129
 40
0.032258064516129
 40
0.0645161290322581
 40
0.0645161290322581
 40
0.0645161290322581
 40
0.0645161290322581
 40
0.0967741935483871
 40
0.0967741935483871
 40
0.0967741935483871
 40
0.0967741935483871
 40
0.1290322580645161
 40
0.1290322580645161
 40
0.1290322580645161
 40
0.1290322580645161
 40
0.1612903225806452
 40
0.1612903225806452
 40
0.1612903225806452
 40
0.1612903225806452
 40
0.1935483870967742
 40
0.1935483870967742
 40
0.1935483870967742
 40
0.1935483870967742
 40
0.2258064516129032
 40
0.2258064516129032
 40
0.2258064516129032
 40
0.2258064516129032
 40
0.2580645161290323
 40
0.2580645161290323
 40
0.2580645161290323
 40
0.2580645161290323
 40
0.2903225806451613
 40
0.2903225806451613
 40
0.2903225806451613
 40
0.2903225806451613
 40
0.3225806451612903
 40
0.3225806451612903
 40
0.3225806451612903
 40
0.3225806451612903
 40
0.3548387096774194
 40
0.3548387096774194
 40
0.3548387096774194
 40
0.3548387096774194
 40
0.3870967741935484
 40
0.3870967741935484
 40
0.3870967741935484
 40
0.3870967741935484
 40
0.4193548387096774
 40
0.4193548387096774
 40
0.4193548387096774
 40
0.4193548387096774
 40
0.4516129032258064
 40
0.4516129032258064
 40
0.4516129032258064
 40
0.4516129032258064
 40
0.4838709677419355
 40
0.4838709677419355
 40
0.4838709677419355
 40
0.4838709677419355
 40
0.5161290322580645
 40
0.5161290322580645
 40
0.5161290322580645
 40
0.5161290322580645
 40
0.5483870967741935
 40
0.5483870967741935
 40
0.5483870967741935
 40
0.5483870967741935
 40
0.5806451612903226
 40
0.5806451612903226
 40
0.5806451612903226
 40
0.5806451612903226
 40
0.6129032258064516
 40
0.6129032258064516
 40
0.6129032258064516
 40
0.6129032258064516
 40
0.6451612903225806
 40
0.6451612903225806
 40
0.6451612903225806
 40
0.6451612903225806
 40
0.6774193548387096
 40
0.6774193548387096
 40
0.6774193548387096
 40
0.6774193548387096
 40
0.7096774193548387
 40
0.7096774193548387
 40
0.7096774193548387
 40
0.7096774193548387
 40
0.7419354838709677
 40
0.7419354838709677
 40
0.7419354838709677
 40
0.7419354838709677
 40
0.7741935483870968
 40
0.7741935483870968
 40
0.7741935483870968
 40
0.7741935483870968
 40
0.8064516129032258
 40
0.8064516129032258
 40
0.8064516129032258
 40
0.8064516129032258
 40
0.8387096774193549
 40
0.8387096774193549
 40
0.8387096774193549
 40
0.8387096774193549
 40
0.8709677419354839
 40
0.8709677419354839
 40
0.8709677419354839
 40
0.8709677419354839
 40
0.9032258064516129
 40
0.9032258064516129
 40
0.9032258064516129
 40
0.9032258064516129
 40
0.9354838709677419
 40
0.9354838709677419
 40
0.9354838709677419
 40
0.9354838709677419
 40
1.0
 40
1.0
 40
1.0
 40
1.0
 10
-0.72077
 20
7.59824
 30
0.0
 10
-0.72077
 20
7.59824
 30
0.0
 10
-0.67648
 20
7.60429
 30
0.0
 10
-0.67648
 20
7.60429
 30
0.0
 10
-0.67648
 20
7.60429
 30
0.0
 10
-0.67136
 20
7.57912
 30
0.0
 10
-0.6628
 20
7.56099
 30
0.0
 10
-0.65063
 20
7.54992
 30
0.0
 10
-0.65063
 20
7.54992
 30
0.0
 10
-0.63846
 20
7.53884
 30
0.0
 10
-0.62353
 20
7.5333
 30
0.0
 10
-0.60583
 20
7.5333
 30
0.0
 10
-0.60583
 20
7.5333
 30
0.0
 10
-0.58485
 20
7.5333
 30
0.0
 10
-0.56715
 20
7.54052
 30
0.0
 10
-0.55288
 20
7.55495
 30
0.0
 10
-0.55288
 20
7.55495
 30
0.0
 10
-0.53863
 20
7.56938
 30
0.0
 10
-0.5315
 20
7.58725
 30
0.0
 10
-0.5315
 20
7.60857
 30
0.0
 10
-0.5315
 20
7.60857
 30
0.0
 10
-0.5315
 20
7.62887
 30
0.0
 10
-0.53812
 20
7.64565
 30
0.0
 10
-0.55146
 20
7.65891
 30
0.0
 10
-0.55146
 20
7.65891
 30
0.0
 10
-0.56472
 20
7.67208
 30
0.0
 10
-0.58159
 20
7.67871
 30
0.0
 10
-0.60213
 20
7.67871
 30
0.0
 10
-0.60213
 20
7.67871
 30
0.0
 10
-0.61053
 20
7.67871
 30
0.0
 10
-0.62093
 20
7.67703
 30
0.0
 10
-0.63344
 20
7.67376
 30
0.0
 10
-0.63344
 20
7.67376
 30
0.0
 10
-0.63344
 20
7.67376
 30
0.0
 10
-0.62848
 20
7.71252
 30
0.0
 10
-0.62848
 20
7.71252
 30
0.0
 10
-0.62848
 20
7.71252
 30
0.0
 10
-0.62554
 20
7.71218
 30
0.0
 10
-0.62311
 20
7.71201
 30
0.0
 10
-0.62135
 20
7.71201
 30
0.0
 10
-0.62135
 20
7.71201
 30
0.0
 10
-0.60239
 20
7.71201
 30
0.0
 10
-0.58544
 20
7.71697
 30
0.0
 10
-0.57026
 20
7.72679
 30
0.0
 10
-0.57026
 20
7.72679
 30
0.0
 10
-0.55515
 20
7.7366
 30
0.0
 10
-0.54761
 20
7.7517
 30
0.0
 10
-0.54761
 20
7.77209
 30
0.0
 10
-0.54761
 20
7.77209
 30
0.0
 10
-0.54761
 20
7.78829
 30
0.0
 10
-0.55314
 20
7.80171
 30
0.0
 10
-0.56413
 20
7.81236
 30
0.0
 10
-0.56413
 20
7.81236
 30
0.0
 10
-0.57512
 20
7.82302
 30
0.0
 10
-0.5893
 20
7.8283
 30
0.0
 10
-0.60666
 20
7.8283
 30
0.0
 10
-0.60666
 20
7.8283
 30
0.0
 10
-0.62395
 20
7.8283
 30
0.0
 10
-0.6383
 20
7.82285
 30
0.0
 10
-0.64979
 20
7.81194
 30
0.0
 10
-0.64979
 20
7.81194
 30
0.0
 10
-0.66128
 20
7.80104
 30
0.0
 10
-0.66867
 20
7.78467
 30
0.0
 10
-0.67195
 20
7.76286
 30
0.0
 10
-0.67195
 20
7.76286
 30
0.0
 10
-0.67195
 20
7.76286
 30
0.0
 10
-0.71624
 20
7.77091
 30
0.0
 10
-0.71624
 20
7.77091
 30
0.0
 10
-0.71624
 20
7.77091
 30
0.0
 10
-0.7108
 20
7.80061
 30
0.0
 10
-0.69854
 20
7.82369
 30
0.0
 10
-0.67933
 20
7.84005
 30
0.0
 10
-0.67933
 20
7.84005
 30
0.0
 10
-0.6602
 20
7.85642
 30
0.0
 10
-0.63629
 20
7.86455
 30
0.0
 10
-0.60776
 20
7.86455
 30
0.0
 10
-0.60776
 20
7.86455
 30
0.0
 10
-0.58813
 20
7.86455
 30
0.0
 10
-0.57001
 20
7.86036
 30
0.0
 10
-0.55347
 20
7.85189
 30
0.0
 10
-0.55347
 20
7.85189
 30
0.0
 10
-0.53686
 20
7.84349
 30
0.0
 10
-0.52419
 20
7.83199
 30
0.0
 10
-0.51547
 20
7.81748
 30
0.0
 10
-0.51547
 20
7.81748
 30
0.0
 10
-0.50666
 20
7.80288
 30
0.0
 10
-0.50229
 20
7.78744
 30
0.0
 10
-0.50229
 20
7.77108
 30
0.0
 10
-0.50229
 20
7.77108
 30
0.0
 10
-0.50229
 20
7.75556
 30
0.0
 10
-0.50649
 20
7.74146
 30
0.0
 10
-0.5148
 20
7.72871
 30
0.0
 10
-0.5148
 20
7.72871
 30
0.0
 10
-0.52318
 20
7.71595
 30
0.0
 10
-0.5356
 20
7.70581
 30
0.0
 10
-0.55197
 20
7.69825
 30
0.0
 10
-0.55197
 20
7.69825
 30
0.0
 10
-0.53065
 20
7.69339
 30
0.0
 10
-0.51412
 20
7.68315
 30
0.0
 10
-0.50229
 20
7.66763
 30
0.0
 10
-0.50229
 20
7.66763
 30
0.0
 10
-0.49055
 20
7.6522
 30
0.0
 10
-0.48467
 20
7.63273
 30
0.0
 10
-0.48467
 20
7.60948
 30
0.0
 10
-0.48467
 20
7.60948
 30
0.0
 10
-0.48467
 20
7.57802
 30
0.0
 10
-0.49617
 20
7.55126
 30
0.0
 10
-0.51907
 20
7.52936
 30
0.0
 10
-0.51907
 20
7.52936
 30
0.0
 10
-0.54206
 20
7.50746
 30
0.0
 10
-0.57109
 20
7.49655
 30
0.0
 10
-0.60617
 20
7.49655
 30
0.0
 10
-0.60617
 20
7.49655
 30
0.0
 10
-0.6378
 20
7.49655
 30
0.0
 10
-0.66406
 20
7.50604
 30
0.0
 10
-0.68495
 20
7.52492
 30
0.0
 10
-0.68495
 20
7.52492
 30
0.0
 10
-0.70593
 20
7.54379
 30
0.0
 10
-0.71784
 20
7.5682
 30
0.0
 10
-0.72077
 20
7.59824
 30
0.0
  0
SPLINE
  5
65
330
1F
100
AcDbEntity
  8
layer 2
 62
     1
100
AcDbSpline
210
0.0
220
0.0
230
1.0
 70
    11
 71
     3
 72
    52
 73
    48
 74
     0
 42
0.0000000001
 43
0.0000000001
 12
1.0
 22
0.0
 32
0.0
 13
1.0
 23
0.0
 33
0.0
 40
0.0
 40
0.0
 40
0.0
 40
0.0
 40
0.0769230769230769
 40
0.0769230769230769
 40
0.0769230769230769
 40
0.0769230769230769
 40
0.1538461538461539
 40
0.1538461538461539
 40
0.1538461538461539
 40
0.1538461538461539
 40
0.2307692307692308
 40
0.2307692307692308
 40
0.2307692307692308
 40
0.2307692307692308
 40
0.3076923076923077
 40
0.3076923076923077
 40
0.3076923076923077
 40
0.3076923076923077
 40
0.3846153846153846
 40
0.3846153846153846
 40
0.3846153846153846
 40
0.3846153846153846
 40
0.4615384615384616
 40
0.4615384615384616
 40
0.4615384615384616
 40
0.4615384615384616
 40
0.5384615384615384
 40
0.5384615384615384
 40
0.5384615384615384
 40
0.5384615384615384
 40
0.6153846153846154
 40
0.6153846153846154
 40
0.6153846153846154
 40
0.6153846153846154
 40
0.6923076923076923
 40
0.6923076923076923
 40
0.6923076923076923
 40
0.6923076923076923
 40
0.7692307692307693
 40
0.7692307692307693
 40
0.7692307692307693
 40
0.7692307692307693
 40
0.8461538461538461
 40
0.8461538461538461
 40
0.8461538461538461
 40
0.8461538461538461
 40
1.0
 40
1.0
 40
1.0
 40
1.0
 10
-0.44079
 20
7.68047
 30
0.0
 10
-0.44079
 20
7.723
 30
0.0
 10
-0.43642
 20
7.7574
 30
0.0
 10
-0.4277
 20
7.78342
 30
0.0
 10
-0.4277
 20
7.78342
 30
0.0
 10
-0.41889
 20
7.80951
 30
0.0
 10
-0.40589
 20
7.82956
 30
0.0
 10
-0.3886
 20
7.84357
 30
0.0
 10
-0.3886
 20
7.84357
 30
0.0
 10
-0.3714
 20
7.85759
 30
0.0
 10
-0.34968
 20
7.86455
 30
0.0
 10
-0.32349
 20
7.86455
 30
0.0
 10
-0.32349
 20
7.86455
 30
0.0
 10
-0.3042
 20
7.86455
 30
0.0
 10
-0.28725
 20
7.86069
 30
0.0
 10
-0.27256
 20
7.85289
 30
0.0
 10
-0.27256
 20
7.85289
 30
0.0
 10
-0.25797
 20
7.84509
 30
0.0
 10
-0.24588
 20
7.83385
 30
0.0
 10
-0.23649
 20
7.81916
 30
0.0
 10
-0.23649
 20
7.81916
 30
0.0
 10
-0.2271
 20
7.80456
 30
0.0
 10
-0.21971
 20
7.78669
 30
0.0
 10
-0.21434
 20
7.76563
 30
0.0
 10
-0.21434
 20
7.76563
 30
0.0
 10
-0.20889
 20
7.74457
 30
0.0
 10
-0.2062
 20
7.71612
 30
0.0
 10
-0.2062
 20
7.68047
 30
0.0
 10
-0.2062
 20
7.68047
 30
0.0
 10
-0.2062
 20
7.63818
 30
0.0
 10
-0.21056
 20
7.60395
 30
0.0
 10
-0.2192
 20
7.57794
 30
0.0
 10
-0.2192
 20
7.57794
 30
0.0
 10
-0.22784
 20
7.55185
 30
0.0
 10
-0.24085
 20
7.5318
 30
0.0
 10
-0.25814
 20
7.5177
 30
0.0
 10
-0.25814
 20
7.5177
 30
0.0
 10
-0.27533
 20
7.5036
 30
0.0
 10
-0.29715
 20
7.49655
 30
0.0
 10
-0.32349
 20
7.49655
 30
0.0
 10
-0.32349
 20
7.49655
 30
0.0
 10
-0.35815
 20
7.49655
 30
0.0
 10
-0.38542
 20
7.50889
 30
0.0
 10
-0.40522
 20
7.53364
 30
0.0
 10
-0.40522
 20
7.53364
 30
0.0
 10
-0.42896
 20
7.56385
 30
0.0
 10
-0.44079
 20
7.61276
 30
0.0
 10
-0.44079
 20
7.68047
 30
0.0
  0
SPLINE
  5
66
330
1F
100
AcDbEntity
  8
layer 2
 62
     1
100
AcDbSpline
210
0.0
220
0.0
230
1.0
 70
    11
 71
     3
 72
    36
 73
    32
 74
     0
 42
0.0000000001
 43
0.0000000001
 12
1.0
 22
0.0
 32
0.0
 13
1.0
 23
0.0
 33
0.0
 40
0.0
 40
0.0
 40
0.0
 40
0.0
 40
0.1111111111111111
 40
0.1111111111111111
 40
0.1111111111111111
 40
0.1111111111111111
 40
0.2222222222222222
 40
0.2222222222222222
 40
0.2222222222222222
 40
0.2222222222222222
 40
0.3333333333333333
 40
0.3333333333333333
 40
0.3333333333333333
 40
0.3333333333333333
 40
0.4444444444444444
 40
0.4444444444444444
 40
0.4444444444444444
 40
0.4444444444444444
 40
0.5555555555555556
 40
0.5555555555555556
 40
0.5555555555555556
 40
0.5555555555555556
 40
0.6666666666666666
 40
0.6666666666666666
 40
0.6666666666666666
 40
0.6666666666666666
 40
0.7777777777777778
 40
0.7777777777777778
 40
0.7777777777777778
 40
0.7777777777777778
 40
1.0
 40
1.0
 40
1.0
 40
1.0
 10
-0.39548
 20
7.6803
 30
0.0
 10
-0.39548
 20
7.62098
 30
0.0
 10
-0.3886
 20
7.58155
 30
0.0
 10
-0.37475
 20
7.56208
 30
0.0
 10
-0.37475
 20
7.56208
 30
0.0
 10
-0.36092
 20
7.54253
 30
0.0
 10
-0.3438
 20
7.5328
 30
0.0
 10
-0.32349
 20
7.5328
 30
0.0
 10
-0.32349
 20
7.5328
 30
0.0
 10
-0.30319
 20
7.5328
 30
0.0
 10
-0.28608
 20
7.54262
 30
0.0
 10
-0.27223
 20
7.56216
 30
0.0
 10
-0.27223
 20
7.56216
 30
0.0
 10
-0.25839
 20
7.58179
 30
0.0
 10
-0.25151
 20
7.62115
 30
0.0
 10
-0.25151
 20
7.6803
 30
0.0
 10
-0.25151
 20
7.6803
 30
0.0
 10
-0.25151
 20
7.73962
 30
0.0
 10
-0.25839
 20
7.77906
 30
0.0
 10
-0.27223
 20
7.79852
 30
0.0
 10
-0.27223
 20
7.79852
 30
0.0
 10
-0.286
 20
7.81807
 30
0.0
 10
-0.30328
 20
7.8278
 30
0.0
 10
-0.324
 20
7.8278
 30
0.0
 10
-0.324
 20
7.8278
 30
0.0
 10
-0.3443
 20
7.8278
 30
0.0
 10
-0.36058
 20
7.81916
 30
0.0
 10
-0.37274
 20
7.80196
 30
0.0
 10
-0.37274
 20
7.80196
 30
0.0
 10
-0.38794
 20
7.78006
 30
0.0
 10
-0.39548
 20
7.73945
 30
0.0
 10
-0.39548
 20
7.6803
 30
0.0
  0
SPLINE
  5
67
330
1F
100
AcDbEntity
  8
layer 2
 62
     1
100
AcDbSpline
210
0.0
220
0.0
230
1.0
 70
    11
 71
     3
 72
    28
 73
    24
 74
     0
 42
0.0000000001
 43
0.0000000001
 12
1.0
 22
0.0
 32
0.0
 13
1.0
 23
0.0
 33
0.0
 40
0.0
 40
0.0
 40
0.0
 40
0.0
 40
0.1428571428571428
 40
0.1428571428571428
 40
0.1428571428571428
 40
0.1428571428571428
 40
0.2857142857142857
 40
0.2857142857142857
 40
0.2857142857142857
 40
0.2857142857142857
 40
0.4285714285714285
 40
0.4285714285714285
 40
0.4285714285714285
 40
0.4285714285714285
 40
0.5714285714285714
 40
0.5714285714285714
 40
0.5714285714285714
 40
0.5714285714285714
 40
0.7142857142857143
 40
0.7142857142857143
 40
0.7142857142857143
 40
0.7142857142857143
 40
1.0
 40
1.0
 40
1.0
 40
1.0
 10
-0.14654
 20
7.73568
 30
0.0
 10
-0.14654
 20
7.73568
 30
0.0
 10
-0.1588
 20
7.80414
 30
0.0
 10
-0.1588
 20
7.80414
 30
0.0
 10
-0.1588
 20
7.80414
 30
0.0
 10
-0.1588
 20
7.80414
 30
0.0
 10
-0.1588
 20
7.86304
 30
0.0
 10
-0.1588
 20
7.86304
 30
0.0
 10
-0.1588
 20
7.86304
 30
0.0
 10
-0.1588
 20
7.86304
 30
0.0
 10
-0.10846
 20
7.86304
 30
0.0
 10
-0.10846
 20
7.86304
 30
0.0
 10
-0.10846
 20
7.86304
 30
0.0
 10
-0.10846
 20
7.86304
 30
0.0
 10
-0.10846
 20
7.80414
 30
0.0
 10
-0.10846
 20
7.80414
 30
0.0
 10
-0.10846
 20
7.80414
 30
0.0
 10
-0.10846
 20
7.80414
 30
0.0
 10
-0.11953
 20
7.73568
 30
0.0
 10
-0.11953
 20
7.73568
 30
0.0
 10
-0.11953
 20
7.73568
 30
0.0
 10
-0.11953
 20
7.73568
 30
0.0
 10
-0.14654
 20
7.73568
 30
0.0
 10
-0.14654
 20
7.73568
 30
0.0
  0
SPLINE
  5
68
330
1F
100
AcDbEntity
  8
layer 2
 62
     1
100
AcDbSpline
210
0.0
220
0.0
230
1.0
 70
    11
 71
     3
 72
    28
 73
    24
 74
     0
 42
0.0000000001
 43
0.0000000001
 12
1.0
 22
0.0
 32
0.0
 13
1.0
 23
0.0
 33
0.0
 40
0.0
 40
0.0
 40
0.0
 40
0.0
 40
0.1428571428571428
 40
0.1428571428571428
 40
0.1428571428571428
 40
0.1428571428571428
 40
0.2857142857142857
 40
0.2857142857142857
 40
0.2857142857142857
 40
0.2857142857142857
 40
0.4285714285714285
 40
0.4285714285714285
 40
0.4285714285714285
 40
0.4285714285714285
 40
0.5714285714285714
 40
0.5714285714285714
 40
0.5714285714285714
 40
0.5714285714285714
 40
0.7142857142857143
 40
0.7142857142857143
 40
0.7142857142857143
 40
0.7142857142857143
 40
1.0
 40
1.0
 40
1.0
 40
1.0
 10
-0.06525
 20
7.73568
 30
0.0
 10
-0.06525
 20
7.73568
 30
0.0
 10
-0.07724
 20
7.80414
 30
0.0
 10
-0.07724
 20
7.80414
 30
0.0
 10
-0.07724
 20
7.80414
 30
0.0
 10
-0.07724
 20
7.80414
 30
0.0
 10
-0.07724
 20
7.86304
 30
0.0
 10
-0.07724
 20
7.86304
 30
0.0
 10
-0.07724
 20
7.86304
 30
0.0
 10
-0.07724
 20
7.86304
 30
0.0
 10
-0.0269
 20
7.86304
 30
0.0
 10
-0.0269
 20
7.86304
 30
0.0
 10
-0.0269
 20
7.86304
 30
0.0
 10
-0.0269
 20
7.86304
 30
0.0
 10
-0.0269
 20
7.80414
 30
0.0
 10
-0.0269
 20
7.80414
 30
0.0
 10
-0.0269
 20
7.80414
 30
0.0
 10
-0.0269
 20
7.80414
 30
0.0
 10
-0.03872
 20
7.73568
 30
0.0
 10
-0.03872
 20
7.73568
 30
0.0
 10
-0.03872
 20
7.73568
 30
0.0
 10
-0.03872
 20
7.73568
 30
0.0
 10
-0.06525
 20
7.73568
 30
0.0
 10
-0.06525
 20
7.73568
 30
0.0
  0
SPLINE
  5
69
330
1F
100
AcDbEntity
  8
layer 2
 62
     1
370
     0
100
AcDbSpline
210
0.0
220
0.0
230
1.0
 70
    24
 71
     3
 72
     8
 73
     4
 74
     0
 42
0.0000000001
 43
0.0000000001
 12
1.0
 22
0.0
 32
0.0
 13
1.0
 23
0.0
 33
0.0
 40
0.0
 40
0.0
 40
0.0
 40
0.0
 40
1.0
 40
1.0
 40
1.0
 40
1.0
 10
9.9146
 20
6.57035
 30
0.0
 10
9.9146
 20
6.57035
 30
0.0
 10
11.52321
 20
6.57035
 30
0.0
 10
11.52321
 20
6.57035
 30
0.0
  0
SPLINE
  5
6A
330
1F
100
AcDbEntity
  8
layer 2
 62
     1
370
     0
100
AcDbSpline
210
0.0
220
0.0
230
1.0
 70
    24
 71
     3
 72
     8
 73
     4
 74
     0
 42
0.0000000001
 43
0.0000000001
 12
1.0
 22
0.0
 32
0.0
 13
1.0
 23
0.0
 33
0.0
 40
0.0
 40
0.0
 40
0.0
 40
0.0
 40
1.0
 40
1.0
 40
1.0
 40
1.0
 10
9.9146
 20
-4.54855
 30
0.0
 10
9.9146
 20
-4.54855
 30
0.0
 10
11.52321
 20
-4.54855
 30
0.0
 10
11.52321
 20
-4.54855
 30
0.0
  0
SPLINE
  5
6B
330
1F
100
AcDbEntity
  8
layer 2
 62
     1
370
     0
100
AcDbSpline
210
0.0
220
0.0
230
1.0
 70
    24
 71
     3
 72
     8
 73
     4
 74
     0
 42
0.0000000001
 43
0.0000000001
 12
1.0
 22
0.0
 32
0.0
 13
1.0
 23
0.0
 33
0.0
 40
0.0
 40
0.0
 40
0.0
 40
0.0
 40
1.0
 40
1.0
 40
1.0
 40
1.0
 10
11.24962
 20
6.02316
 30
0.0
 10
11.24962
 20
6.02316
 30
0.0
 10
11.24962
 20
-4.00136
 30
0.0
 10
11.24962
 20
-4.00136
 30
0.0
  0
SPLINE
  5
6C
330
1F
100
AcDbEntity
  8
layer 2
 62
     1
100
AcDbSpline
210
0.0
220
0.0
230
1.0
 70
    27
 71
     3
 72
    12
 73
     8
 74
     0
 42
0.0000000001
 43
0.0000000001
 12
1.0
 22
0.0
 32
0.0
 13
1.0
 23
0.0
 33
0.0
 40
0.0
 40
0.0
 40
0.0
 40
0.0
 40
0.3333333333333333
 40
0.3333333333333333
 40
0.3333333333333333
 40
0.3333333333333333
 40
1.0
 40
1.0
 40
1.0
 40
1.0
 10
11.15842
 20
6.02316
 30
0.0
 10
11.15842
 20
6.02316
 30
0.0
 10
11.24962
 20
6.57035
 30
0.0
 10
11.24962
 20
6.57035
 30
0.0
 10
11.24962
 20
6.57035
 30
0.0
 10
11.24962
 20
6.57035
 30
0.0
 10
11.15842
 20
6.02316
 30
0.0
 10
11.15842
 20
6.02316
 30
0.0
  0
SPLINE
  5
6D
330
1F
100
AcDbEntity
  8
layer 2
 62
     1
100
AcDbSpline
210
0.0
220
0.0
230
1.0
 70
     8
 71
     3
 72
    12
 73
     8
 74
     0
 42
0.0000000001
 43
0.0000000001
 12
1.0
 22
0.0
 32
0.0
 13
1.0
 23
0.0
 33
0.0
 40
0.0
 40
0.0
 40
0.0
 40
0.0
 40
0.3333333333333333
 40
0.3333333333333333
 40
0.3333333333333333
 40
0.3333333333333333
 40
1.0
 40
1.0
 40
1.0
 40
1.0
 10
11.24962
 20
6.57035
 30
0.0
 10
11.24962
 20
6.57035
 30
0.0
 10
11.34081
 20
6.02316
 30
0.0
 10
11.34081
 20
6.02316
 30
0.0
 10
11.34081
 20
6.02316
 30
0.0
 10
11.34081
 20
6.02316
 30
0.0
 10
11.15842
 20
6.02316
 30
0.0
 10
11.15842
 20
6.02316
 30
0.0
  0
SPLINE
  5
6E
330
1F
100
AcDbEntity
  8
layer 2
 62
     1
370
     9
100
AcDbSpline
210
0.0
220
0.0
230
1.0
 70
    24
 71
     3
 72
     8
 73
     4
 74
     0
 42
0.0000000001
 43
0.0000000001
 12
1.0
 22
0.0
 32
0.0
 13
1.0
 23
0.0
 33
0.0
 40
0.0
 40
0.0
 40
0.0
 40
0.0
 40
1.0
 40
1.0
 40
1.0
 40
1.0
 10
11.15842
 20
6.02316
 30
0.0
 10
11.15842
 20
6.02316
 30
0.0
 10
11.24962
 20
6.57035
 30
0.0
 10
11.24962
 20
6.57035
 30
0.0
  0
SPLINE
  5
6F
330
1F
100
AcDbEntity
  8
layer 2
 62
     1
370
     9
100
AcDbSpline
210
0.0
220
0.0
230
1.0
 70
     8
 71
     3
 72
    12
 73
     8
 74
     0
 42
0.0000000001
 43
0.0000000001
 12
1.0
 22
0.0
 32
0.0
 13
1.0
 23
0.0
 33
0.0
 40
0.0
 40
0.0
 40
0.0
 40
0.0
 40
0.3333333333333333
 40
0.3333333333333333
 40
0.3333333333333333
 40
0.3333333333333333
 40
1.0
 40
1.0
 40
1.0
 40
1.0
 10
11.24962
 20
6.57035
 30
0.0
 10
11.24962
 20
6.57035
 30
0.0
 10
11.34081
 20
6.02316
 30
0.0
 10
11.34081
 20
6.02316
 30
0.0
 10
11.34081
 20
6.02316
 30
0.0
 10
11.34081
 20
6.02316
 30
0.0
 10
11.15842
 20
6.02316
 30
0.0
 10
11.15842
 20
6.02316
 30
0.0
  0
SPLINE
  5
70
330
1F
100
AcDbEntity
  8
layer 2
 62
     1
100
AcDbSpline
210
0.0
220
0.0
230
1.0
 70
    27
 71
     3
 72
    12
 73
     8
 74
     0
 42
0.0000000001
 43
0.0000000001
 12
1.0
 22
0.0
 32
0.0
 13
1.0
 23
0.0
 33
0.0
 40
0.0
 40
0.0
 40
0.0
 40
0.0
 40
0.3333333333333333
 40
0.3333333333333333
 40
0.3333333333333333
 40
0.3333333333333333
 40
1.0
 40
1.0
 40
1.0
 40
1.0
 10
11.15842
 20
-4.00136
 30
0.0
 10
11.15842
 20
-4.00136
 30
0.0
 10
11.24962
 20
-4.54855
 30
0.0
 10
11.24962
 20
-4.54855
 30
0.0
 10
11.24962
 20
-4.54855
 30
0.0
 10
11.24962
 20
-4.54855
 30
0.0
 10
11.15842
 20
-4.00136
 30
0.0
 10
11.15842
 20
-4.00136
 30
0.0
  0
SPLINE
  5
71
330
1F
100
AcDbEntity
  8
layer 2
 62
     1
100
AcDbSpline
210
0.0
220
0.0
230
1.0
 70
     8
 71
     3
 72
    12
 73
     8
 74
     0
 42
0.0000000001
 43
0.0000000001
 12
1.0
 22
0.0
 32
0.0
 13
1.0
 23
0.0
 33
0.0
 40
0.0
 40
0.0
 40
0.0
 40
0.0
 40
0.3333333333333333
 40
0.3333333333333333
 40
0.3333333333333333
 40
0.3333333333333333
 40
1.0
 40
1.0
 40
1.0
 40
1.0
 10
11.24962
 20
-4.54855
 30
0.0
 10
11.24962
 20
-4.54855
 30
0.0
 10
11.34081
 20
-4.00136
 30
0.0
 10
11.34081
 20
-4.00136
 30
0.0
 10
11.34081
 20
-4.00136
 30
0.0
 10
11.34081
 20
-4.00136
 30
0.0
 10
11.15842
 20
-4.00136
 30
0.0
 10
11.15842
 20
-4.00136
 30
0.0
  0
SPLINE
  5
72
330
1F
100
AcDbEntity
  8
layer 2
 62
     1
370
     9
100
AcDbSpline
210
0.0
220
0.0
230
1.0
 70
    24
 71
     3
 72
     8
 73
     4
 74
     0
 42
0.0000000001
 43
0.0000000001
 12
1.0
 22
0.0
 32
0.0
 13
1.0
 23
0.0
 33
0.0
 40
0.0
 40
0.0
 40
0.0
 40
0.0
 40
1.0
 40
1.0
 40
1.0
 40
1.0
 10
11.15842
 20
-4.00136
 30
0.0
 10
11.15842
 20
-4.00136
 30
0.0
 10
11.24962
 20
-4.54855
 30
0.0
 10
11.24962
 20
-4.54855
 30
0.0
  0
SPLINE
  5
73
330
1F
100
AcDbEntity
  8
layer 2
 62
     1
370
     9
100
AcDbSpline
210
0.0
220
0.0
230
1.0
 70
     8
 71
     3
 72
    12
 73
     8
 74
     0
 42
0.0000000001
 43
0.0000000001
 12
1.0
 22
0.0
 32
0.0
 13
1.0
 23
0.0
 33
0.0
 40
0.0
 40
0.0
 40
0.0
 40
0.0
 40
0.3333333333333333
 40
0.3333333333333333
 40
0.3333333333333333
 40
0.3333333333333333
 40
1.0
 40
1.0
 40
1.0
 40
1.0
 10
11.24962
 20
-4.54855
 30
0.0
 10
11.24962
 20
-4.54855
 30
0.0
 10
11.34081
 20
-4.00136
 30
0.0
 10
11.34081
 20
-4.00136
 30
0.0
 10
11.34081
 20
-4.00136
 30
0.0
 10
11.34081
 20
-4.00136
 30
0.0
 10
11.15842
 20
-4.00136
 30
0.0
 10
11.15842
 20
-4.00136
 30
0.0
  0
SPLINE
  5
74
330
1F
100
AcDbEntity
  8
layer 2
 62
     1
100
AcDbSpline
210
0.0
220
0.0
230
1.0
 70
    11
 71
     3
 72
    40
 73
    36
 74
     0
 42
0.0000000001
 43
0.0000000001
 12
1.0
 22
0.0
 32
0.0
 13
1.0
 23
0.0
 33
0.0
 40
0.0
 40
0.0
 40
0.0
 40
0.0
 40
0.1
 40
0.1
 40
0.1
 40
0.1
 40
0.2
 40
0.2
 40
0.2
 40
0.2
 40
0.3
 40
0.3
 40
0.3
 40
0.3
 40
0.4
 40
0.4
 40
0.4
 40
0.4
 40
0.5
 40
0.5
 40
0.5
 40
0.5
 40
0.6
 40
0.6
 40
0.6
 40
0.6
 40
0.7
 40
0.7
 40
0.7
 40
0.7
 40
0.8
 40
0.8
 40
0.8
 40
0.8
 40
1.0
 40
1.0
 40
1.0
 40
1.0
 10
11.01569
 20
1.93155
 30
0.0
 10
11.01569
 20
1.93155
 30
0.0
 10
11.01569
 20
1.88725
 30
0.0
 10
11.01569
 20
1.88725
 30
0.0
 10
11.01569
 20
1.88725
 30
0.0
 10
11.01569
 20
1.88725
 30
0.0
 10
10.73362
 20
1.88725
 30
0.0
 10
10.73362
 20
1.88725
 30
0.0
 10
10.73362
 20
1.88725
 30
0.0
 10
10.74385
 20
1.8766
 30
0.0
 10
10.754
 20
1.86259
 30
0.0
 10
10.76415
 20
1.84531
 30
0.0
 10
10.76415
 20
1.84531
 30
0.0
 10
10.77431
 20
1.82802
 30
0.0
 10
10.78194
 20
1.81241
 30
0.0
 10
10.78697
 20
1.79865
 30
0.0
 10
10.78697
 20
1.79865
 30
0.0
 10
10.78697
 20
1.79865
 30
0.0
 10
10.74418
 20
1.79865
 30
0.0
 10
10.74418
 20
1.79865
 30
0.0
 10
10.74418
 20
1.79865
 30
0.0
 10
10.7326
 20
1.8234
 30
0.0
 10
10.71851
 20
1.84505
 30
0.0
 10
10.7019
 20
1.86359
 30
0.0
 10
10.7019
 20
1.86359
 30
0.0
 10
10.68537
 20
1.88213
 30
0.0
 10
10.66934
 20
1.8953
 30
0.0
 10
10.65374
 20
1.90302
 30
0.0
 10
10.65374
 20
1.90302
 30
0.0
 10
10.65374
 20
1.90302
 30
0.0
 10
10.65374
 20
1.93155
 30
0.0
 10
10.65374
 20
1.93155
 30
0.0
 10
10.65374
 20
1.93155
 30
0.0
 10
10.65374
 20
1.93155
 30
0.0
 10
11.01569
 20
1.93155
 30
0.0
 10
11.01569
 20
1.93155
 30
0.0
  0
SPLINE
  5
75
330
1F
100
AcDbEntity
  8
layer 2
 62
     1
100
AcDbSpline
210
0.0
220
0.0
230
1.0
 70
    11
 71
     3
 72
    80
 73
    76
 74
     0
 42
0.0000000001
 43
0.0000000001
 12
1.0
 22
0.0
 32
0.0
 13
1.0
 23
0.0
 33
0.0
 40
0.0
 40
0.0
 40
0.0
 40
0.0
 40
0.05
 40
0.05
 40
0.05
 40
0.05
 40
0.1
 40
0.1
 40
0.1
 40
0.1
 40
0.15
 40
0.15
 40
0.15
 40
0.15
 40
0.2
 40
0.2
 40
0.2
 40
0.2
 40
0.25
 40
0.25
 40
0.25
 40
0.25
 40
0.3
 40
0.3
 40
0.3
 40
0.3
 40
0.35
 40
0.35
 40
0.35
 40
0.35
 40
0.4
 40
0.4
 40
0.4
 40
0.4
 40
0.45
 40
0.45
 40
0.45
 40
0.45
 40
0.5
 40
0.5
 40
0.5
 40
0.5
 40
0.55
 40
0.55
 40
0.55
 40
0.55
 40
0.6
 40
0.6
 40
0.6
 40
0.6
 40
0.65
 40
0.65
 40
0.65
 40
0.65
 40
0.7
 40
0.7
 40
0.7
 40
0.7
 40
0.75
 40
0.75
 40
0.75
 40
0.75
 40
0.8
 40
0.8
 40
0.8
 40
0.8
 40
0.85
 40
0.85
 40
0.85
 40
0.85
 40
0.9
 40
0.9
 40
0.9
 40
0.9
 40
1.0
 40
1.0
 40
1.0
 40
1.0
 10
10.74334
 20
2.27547
 30
0.0
 10
10.74334
 20
2.27547
 30
0.0
 10
10.74687
 20
2.23167
 30
0.0
 10
10.74687
 20
2.23167
 30
0.0
 10
10.74687
 20
2.23167
 30
0.0
 10
10.7295
 20
2.22773
 30
0.0
 10
10.71683
 20
2.22211
 30
0.0
 10
10.70895
 20
2.21481
 30
0.0
 10
10.70895
 20
2.21481
 30
0.0
 10
10.69627
 20
2.20281
 30
0.0
 10
10.68998
 20
2.18796
 30
0.0
 10
10.68998
 20
2.17034
 30
0.0
 10
10.68998
 20
2.17034
 30
0.0
 10
10.68998
 20
2.15616
 30
0.0
 10
10.69392
 20
2.14357
 30
0.0
 10
10.70182
 20
2.13275
 30
0.0
 10
10.70182
 20
2.13275
 30
0.0
 10
10.71196
 20
2.11882
 30
0.0
 10
10.72674
 20
2.10792
 30
0.0
 10
10.7462
 20
2.09977
 30
0.0
 10
10.7462
 20
2.09977
 30
0.0
 10
10.76574
 20
2.09172
 30
0.0
 10
10.79352
 20
2.08753
 30
0.0
 10
10.82951
 20
2.08719
 30
0.0
 10
10.82951
 20
2.08719
 30
0.0
 10
10.81332
 20
2.09784
 30
0.0
 10
10.80124
 20
2.11094
 30
0.0
 10
10.79343
 20
2.12638
 30
0.0
 10
10.79343
 20
2.12638
 30
0.0
 10
10.78555
 20
2.14181
 30
0.0
 10
10.78161
 20
2.15792
 30
0.0
 10
10.78161
 20
2.17487
 30
0.0
 10
10.78161
 20
2.17487
 30
0.0
 10
10.78161
 20
2.2044
 30
0.0
 10
10.79251
 20
2.22957
 30
0.0
 10
10.81424
 20
2.25038
 30
0.0
 10
10.81424
 20
2.25038
 30
0.0
 10
10.83598
 20
2.27111
 30
0.0
 10
10.86399
 20
2.28151
 30
0.0
 10
10.89848
 20
2.28151
 30
0.0
 10
10.89848
 20
2.28151
 30
0.0
 10
10.92113
 20
2.28151
 30
0.0
 10
10.94211
 20
2.27664
 30
0.0
 10
10.96157
 20
2.26691
 30
0.0
 10
10.96157
 20
2.26691
 30
0.0
 10
10.98104
 20
2.25709
 30
0.0
 10
10.99589
 20
2.24375
 30
0.0
 10
11.00622
 20
2.22664
 30
0.0
 10
11.00622
 20
2.22664
 30
0.0
 10
11.01653
 20
2.2096
 30
0.0
 10
11.02174
 20
2.19023
 30
0.0
 10
11.02174
 20
2.16858
 30
0.0
 10
11.02174
 20
2.16858
 30
0.0
 10
11.02174
 20
2.13174
 30
0.0
 10
11.00814
 20
2.10163
 30
0.0
 10
10.98104
 20
2.0783
 30
0.0
 10
10.98104
 20
2.0783
 30
0.0
 10
10.95394
 20
2.05506
 30
0.0
 10
10.90922
 20
2.04339
 30
0.0
 10
10.84697
 20
2.04339
 30
0.0
 10
10.84697
 20
2.04339
 30
0.0
 10
10.77732
 20
2.04339
 30
0.0
 10
10.72665
 20
2.05632
 30
0.0
 10
10.69502
 20
2.08207
 30
0.0
 10
10.69502
 20
2.08207
 30
0.0
 10
10.6675
 20
2.10456
 30
0.0
 10
10.65374
 20
2.13485
 30
0.0
 10
10.65374
 20
2.17302
 30
0.0
 10
10.65374
 20
2.17302
 30
0.0
 10
10.65374
 20
2.20139
 30
0.0
 10
10.6617
 20
2.2247
 30
0.0
 10
10.67756
 20
2.24284
 30
0.0
 10
10.67756
 20
2.24284
 30
0.0
 10
10.69342
 20
2.26096
 30
0.0
 10
10.71532
 20
2.27186
 30
0.0
 10
10.74334
 20
2.27547
 30
0.0
  0
SPLINE
  5
76
330
1F
100
AcDbEntity
  8
layer 2
 62
     1
100
AcDbSpline
210
0.0
220
0.0
230
1.0
 70
    11
 71
     3
 72
    40
 73
    36
 74
     0
 42
0.0000000001
 43
0.0000000001
 12
1.0
 22
0.0
 32
0.0
 13
1.0
 23
0.0
 33
0.0
 40
0.0
 40
0.0
 40
0.0
 40
0.0
 40
0.1
 40
0.1
 40
0.1
 40
0.1
 40
0.2
 40
0.2
 40
0.2
 40
0.2
 40
0.3
 40
0.3
 40
0.3
 40
0.3
 40
0.4
 40
0.4
 40
0.4
 40
0.4
 40
0.5
 40
0.5
 40
0.5
 40
0.5
 40
0.6
 40
0.6
 40
0.6
 40
0.6
 40
0.7
 40
0.7
 40
0.7
 40
0.7
 40
0.8
 40
0.8
 40
0.8
 40
0.8
 40
1.0
 40
1.0
 40
1.0
 40
1.0
 10
10.8989
 20
2.09424
 30
0.0
 10
10.91417
 20
2.09424
 30
0.0
 10
10.92877
 20
2.09751
 30
0.0
 10
10.9427
 20
2.10398
 30
0.0
 10
10.9427
 20
2.10398
 30
0.0
 10
10.95663
 20
2.11044
 30
0.0
 10
10.9672
 20
2.1195
 30
0.0
 10
10.9745
 20
2.13099
 30
0.0
 10
10.9745
 20
2.13099
 30
0.0
 10
10.98179
 20
2.14257
 30
0.0
 10
10.98549
 20
2.15481
 30
0.0
 10
10.98549
 20
2.16783
 30
0.0
 10
10.98549
 20
2.16783
 30
0.0
 10
10.98549
 20
2.1867
 30
0.0
 10
10.97794
 20
2.20281
 30
0.0
 10
10.96284
 20
2.21615
 30
0.0
 10
10.96284
 20
2.21615
 30
0.0
 10
10.94773
 20
2.22949
 30
0.0
 10
10.92726
 20
2.2362
 30
0.0
 10
10.90134
 20
2.2362
 30
0.0
 10
10.90134
 20
2.2362
 30
0.0
 10
10.87642
 20
2.2362
 30
0.0
 10
10.85678
 20
2.22957
 30
0.0
 10
10.84244
 20
2.2164
 30
0.0
 10
10.84244
 20
2.2164
 30
0.0
 10
10.82809
 20
2.20323
 30
0.0
 10
10.82087
 20
2.18645
 30
0.0
 10
10.82087
 20
2.16606
 30
0.0
 10
10.82087
 20
2.16606
 30
0.0
 10
10.82087
 20
2.14609
 30
0.0
 10
10.82809
 20
2.12906
 30
0.0
 10
10.84244
 20
2.11513
 30
0.0
 10
10.84244
 20
2.11513
 30
0.0
 10
10.85678
 20
2.10121
 30
0.0
 10
10.87557
 20
2.09424
 30
0.0
 10
10.8989
 20
2.09424
 30
0.0
  0
SPLINE
  5
77
330
1F
100
AcDbEntity
  8
layer 2
 62
     1
100
AcDbSpline
210
0.0
220
0.0
230
1.0
 70
    11
 71
     3
 72
    28
 73
    24
 74
     0
 42
0.0000000001
 43
0.0000000001
 12
1.0
 22
0.0
 32
0.0
 13
1.0
 23
0.0
 33
0.0
 40
0.0
 40
0.0
 40
0.0
 40
0.0
 40
0.1428571428571428
 40
0.1428571428571428
 40
0.1428571428571428
 40
0.1428571428571428
 40
0.2857142857142857
 40
0.2857142857142857
 40
0.2857142857142857
 40
0.2857142857142857
 40
0.4285714285714285
 40
0.4285714285714285
 40
0.4285714285714285
 40
0.4285714285714285
 40
0.5714285714285714
 40
0.5714285714285714
 40
0.5714285714285714
 40
0.5714285714285714
 40
0.7142857142857143
 40
0.7142857142857143
 40
0.7142857142857143
 40
0.7142857142857143
 40
1.0
 40
1.0
 40
1.0
 40
1.0
 10
10.78261
 20
2.33966
 30
0.0
 10
10.78261
 20
2.33966
 30
0.0
 10
10.71414
 20
2.3274
 30
0.0
 10
10.71414
 20
2.3274
 30
0.0
 10
10.71414
 20
2.3274
 30
0.0
 10
10.71414
 20
2.3274
 30
0.0
 10
10.65525
 20
2.3274
 30
0.0
 10
10.65525
 20
2.3274
 30
0.0
 10
10.65525
 20
2.3274
 30
0.0
 10
10.65525
 20
2.3274
 30
0.0
 10
10.65525
 20
2.37775
 30
0.0
 10
10.65525
 20
2.37775
 30
0.0
 10
10.65525
 20
2.37775
 30
0.0
 10
10.65525
 20
2.37775
 30
0.0
 10
10.71414
 20
2.37775
 30
0.0
 10
10.71414
 20
2.37775
 30
0.0
 10
10.71414
 20
2.37775
 30
0.0
 10
10.71414
 20
2.37775
 30
0.0
 10
10.78261
 20
2.36667
 30
0.0
 10
10.78261
 20
2.36667
 30
0.0
 10
10.78261
 20
2.36667
 30
0.0
 10
10.78261
 20
2.36667
 30
0.0
 10
10.78261
 20
2.33966
 30
0.0
 10
10.78261
 20
2.33966
 30
0.0
  0
SPLINE
  5
78
330
1F
100
AcDbEntity
  8
layer 2
 62
     1
100
AcDbSpline
210
0.0
220
0.0
230
1.0
 70
    11
 71
     3
 72
    28
 73
    24
 74
     0
 42
0.0000000001
 43
0.0000000001
 12
1.0
 22
0.0
 32
0.0
 13
1.0
 23
0.0
 33
0.0
 40
0.0
 40
0.0
 40
0.0
 40
0.0
 40
0.1428571428571428
 40
0.1428571428571428
 40
0.1428571428571428
 40
0.1428571428571428
 40
0.2857142857142857
 40
0.2857142857142857
 40
0.2857142857142857
 40
0.2857142857142857
 40
0.4285714285714285
 40
0.4285714285714285
 40
0.4285714285714285
 40
0.4285714285714285
 40
0.5714285714285714
 40
0.5714285714285714
 40
0.5714285714285714
 40
0.5714285714285714
 40
0.7142857142857143
 40
0.7142857142857143
 40
0.7142857142857143
 40
0.7142857142857143
 40
1.0
 40
1.0
 40
1.0
 40
1.0
 10
10.78261
 20
2.42096
 30
0.0
 10
10.78261
 20
2.42096
 30
0.0
 10
10.71414
 20
2.40896
 30
0.0
 10
10.71414
 20
2.40896
 30
0.0
 10
10.71414
 20
2.40896
 30
0.0
 10
10.71414
 20
2.40896
 30
0.0
 10
10.65525
 20
2.40896
 30
0.0
 10
10.65525
 20
2.40896
 30
0.0
 10
10.65525
 20
2.40896
 30
0.0
 10
10.65525
 20
2.40896
 30
0.0
 10
10.65525
 20
2.4593
 30
0.0
 10
10.65525
 20
2.4593
 30
0.0
 10
10.65525
 20
2.4593
 30
0.0
 10
10.65525
 20
2.4593
 30
0.0
 10
10.71414
 20
2.4593
 30
0.0
 10
10.71414
 20
2.4593
 30
0.0
 10
10.71414
 20
2.4593
 30
0.0
 10
10.71414
 20
2.4593
 30
0.0
 10
10.78261
 20
2.44747
 30
0.0
 10
10.78261
 20
2.44747
 30
0.0
 10
10.78261
 20
2.44747
 30
0.0
 10
10.78261
 20
2.44747
 30
0.0
 10
10.78261
 20
2.42096
 30
0.0
 10
10.78261
 20
2.42096
 30
0.0
  0
SPLINE
  5
79
330
1F
100
AcDbEntity
  8
layer 2
 62
     1
370
     0
100
AcDbSpline
210
0.0
220
0.0
230
1.0
 70
    24
 71
     3
 72
     8
 73
     4
 74
     0
 42
0.0000000001
 43
0.0000000001
 12
1.0
 22
0.0
 32
0.0
 13
1.0
 23
0.0
 33
0.0
 40
0.0
 40
0.0
 40
0.0
 40
0.0
 40
1.0
 40
1.0
 40
1.0
 40
1.0
 10
-12.51508
 20
-5.78263
 30
0.0
 10
-12.51508
 20
-5.78263
 30
0.0
 10
-11.00291
 20
-4.6382
 30
0.0
 10
-11.00291
 20
-4.6382
 30
0.0
  0
SPLINE
  5
7A
330
1F
100
AcDbEntity
  8
layer 2
 62
     1
100
AcDbSpline
210
0.0
220
0.0
230
1.0
 70
    11
 71
     3
 72
    80
 73
    76
 74
     0
 42
0.0000000001
 43
0.0000000001
 12
1.0
 22
0.0
 32
0.0
 13
1.0
 23
0.0
 33
0.0
 40
0.0
 40
0.0
 40
0.0
 40
0.0
 40
0.05
 40
0.05
 40
0.05
 40
0.05
 40
0.1
 40
0.1
 40
0.1
 40
0.1
 40
0.15
 40
0.15
 40
0.15
 40
0.15
 40
0.2
 40
0.2
 40
0.2
 40
0.2
 40
0.25
 40
0.25
 40
0.25
 40
0.25
 40
0.3
 40
0.3
 40
0.3
 40
0.3
 40
0.35
 40
0.35
 40
0.35
 40
0.35
 40
0.4
 40
0.4
 40
0.4
 40
0.4
 40
0.45
 40
0.45
 40
0.45
 40
0.45
 40
0.5
 40
0.5
 40
0.5
 40
0.5
 40
0.55
 40
0.55
 40
0.55
 40
0.55
 40
0.6
 40
0.6
 40
0.6
 40
0.6
 40
0.65
 40
0.65
 40
0.65
 40
0.65
 40
0.7
 40
0.7
 40
0.7
 40
0.7
 40
0.75
 40
0.75
 40
0.75
 40
0.75
 40
0.8
 40
0.8
 40
0.8
 40
0.8
 40
0.85
 40
0.85
 40
0.85
 40
0.85
 40
0.9
 40
0.9
 40
0.9
 40
0.9
 40
1.0
 40
1.0
 40
1.0
 40
1.0
 10
-12.33861
 20
-4.60959
 30
0.0
 10
-12.33861
 20
-4.60959
 30
0.0
 10
-12.55613
 20
-4.32219
 30
0.0
 10
-12.55613
 20
-4.32219
 30
0.0
 10
-12.55613
 20
-4.32219
 30
0.0
 10
-12.55613
 20
-4.32219
 30
0.0
 10
-12.42874
 20
-4.22578
 30
0.0
 10
-12.42874
 20
-4.22578
 30
0.0
 10
-12.42874
 20
-4.22578
 30
0.0
 10
-12.40312
 20
-4.20638
 30
0.0
 10
-12.38168
 20
-4.19425
 30
0.0
 10
-12.36447
 20
-4.18933
 30
0.0
 10
-12.36447
 20
-4.18933
 30
0.0
 10
-12.34725
 20
-4.18441
 30
0.0
 10
-12.32973
 20
-4.18546
 30
0.0
 10
-12.31189
 20
-4.19248
 30
0.0
 10
-12.31189
 20
-4.19248
 30
0.0
 10
-12.29407
 20
-4.1995
 30
0.0
 10
-12.27918
 20
-4.21096
 30
0.0
 10
-12.26723
 20
-4.22676
 30
0.0
 10
-12.26723
 20
-4.22676
 30
0.0
 10
-12.25178
 20
-4.24716
 30
0.0
 10
-12.2454
 20
-4.26937
 30
0.0
 10
-12.24799
 20
-4.29332
 30
0.0
 10
-12.24799
 20
-4.29332
 30
0.0
 10
-12.25059
 20
-4.31728
 30
0.0
 10
-12.26425
 20
-4.3415
 30
0.0
 10
-12.28892
 20
-4.36618
 30
0.0
 10
-12.28892
 20
-4.36618
 30
0.0
 10
-12.27517
 20
-4.36335
 30
0.0
 10
-12.2639
 20
-4.3624
 30
0.0
 10
-12.25514
 20
-4.36313
 30
0.0
 10
-12.25514
 20
-4.36313
 30
0.0
 10
-12.23634
 20
-4.36489
 30
0.0
 10
-12.21617
 20
-4.36972
 30
0.0
 10
-12.19474
 20
-4.3776
 30
0.0
 10
-12.19474
 20
-4.3776
 30
0.0
 10
-12.19474
 20
-4.3776
 30
0.0
 10
-12.08579
 20
-4.41825
 30
0.0
 10
-12.08579
 20
-4.41825
 30
0.0
 10
-12.08579
 20
-4.41825
 30
0.0
 10
-12.08579
 20
-4.41825
 30
0.0
 10
-12.13329
 20
-4.4542
 30
0.0
 10
-12.13329
 20
-4.4542
 30
0.0
 10
-12.13329
 20
-4.4542
 30
0.0
 10
-12.13329
 20
-4.4542
 30
0.0
 10
-12.21656
 20
-4.42315
 30
0.0
 10
-12.21656
 20
-4.42315
 30
0.0
 10
-12.21656
 20
-4.42315
 30
0.0
 10
-12.24071
 20
-4.41418
 30
0.0
 10
-12.25984
 20
-4.40793
 30
0.0
 10
-12.27394
 20
-4.40419
 30
0.0
 10
-12.27394
 20
-4.40419
 30
0.0
 10
-12.2881
 20
-4.40048
 30
0.0
 10
-12.29933
 20
-4.399
 30
0.0
 10
-12.30782
 20
-4.39962
 30
0.0
 10
-12.30782
 20
-4.39962
 30
0.0
 10
-12.31616
 20
-4.40026
 30
0.0
 10
-12.32391
 20
-4.40213
 30
0.0
 10
-12.33091
 20
-4.40511
 30
0.0
 10
-12.33091
 20
-4.40511
 30
0.0
 10
-12.33585
 20
-4.40748
 30
0.0
 10
-12.34323
 20
-4.41233
 30
0.0
 10
-12.35306
 20
-4.41977
 30
0.0
 10
-12.35306
 20
-4.41977
 30
0.0
 10
-12.35306
 20
-4.41977
 30
0.0
 10
-12.39708
 20
-4.45308
 30
0.0
 10
-12.39708
 20
-4.45308
 30
0.0
 10
-12.39708
 20
-4.45308
 30
0.0
 10
-12.39708
 20
-4.45308
 30
0.0
 10
-12.30047
 20
-4.58073
 30
0.0
 10
-12.30047
 20
-4.58073
 30
0.0
 10
-12.30047
 20
-4.58073
 30
0.0
 10
-12.30047
 20
-4.58073
 30
0.0
 10
-12.33861
 20
-4.60959
 30
0.0
 10
-12.33861
 20
-4.60959
 30
0.0
  0
SPLINE
  5
7B
330
1F
100
AcDbEntity
  8
layer 2
 62
     1
100
AcDbSpline
210
0.0
220
0.0
230
1.0
 70
    11
 71
     3
 72
    36
 73
    32
 74
     0
 42
0.0000000001
 43
0.0000000001
 12
1.0
 22
0.0
 32
0.0
 13
1.0
 23
0.0
 33
0.0
 40
0.0
 40
0.0
 40
0.0
 40
0.0
 40
0.1111111111111111
 40
0.1111111111111111
 40
0.1111111111111111
 40
0.1111111111111111
 40
0.2222222222222222
 40
0.2222222222222222
 40
0.2222222222222222
 40
0.2222222222222222
 40
0.3333333333333333
 40
0.3333333333333333
 40
0.3333333333333333
 40
0.3333333333333333
 40
0.4444444444444444
 40
0.4444444444444444
 40
0.4444444444444444
 40
0.4444444444444444
 40
0.5555555555555556
 40
0.5555555555555556
 40
0.5555555555555556
 40
0.5555555555555556
 40
0.6666666666666666
 40
0.6666666666666666
 40
0.6666666666666666
 40
0.6666666666666666
 40
0.7777777777777778
 40
0.7777777777777778
 40
0.7777777777777778
 40
0.7777777777777778
 40
1.0
 40
1.0
 40
1.0
 40
1.0
 10
-12.422
 20
-4.42017
 30
0.0
 10
-12.422
 20
-4.42017
 30
0.0
 10
-12.34037
 20
-4.3584
 30
0.0
 10
-12.34037
 20
-4.3584
 30
0.0
 10
-12.34037
 20
-4.3584
 30
0.0
 10
-12.32298
 20
-4.34523
 30
0.0
 10
-12.31083
 20
-4.3332
 30
0.0
 10
-12.3038
 20
-4.32219
 30
0.0
 10
-12.3038
 20
-4.32219
 30
0.0
 10
-12.29671
 20
-4.31126
 30
0.0
 10
-12.29364
 20
-4.29988
 30
0.0
 10
-12.29466
 20
-4.28812
 30
0.0
 10
-12.29466
 20
-4.28812
 30
0.0
 10
-12.29554
 20
-4.27638
 30
0.0
 10
-12.29948
 20
-4.26589
 30
0.0
 10
-12.30652
 20
-4.25659
 30
0.0
 10
-12.30652
 20
-4.25659
 30
0.0
 10
-12.31679
 20
-4.24301
 30
0.0
 10
-12.33019
 20
-4.23547
 30
0.0
 10
-12.34665
 20
-4.23415
 30
0.0
 10
-12.34665
 20
-4.23415
 30
0.0
 10
-12.36312
 20
-4.23283
 30
0.0
 10
-12.38193
 20
-4.24022
 30
0.0
 10
-12.40314
 20
-4.25627
 30
0.0
 10
-12.40314
 20
-4.25627
 30
0.0
 10
-12.40314
 20
-4.25627
 30
0.0
 10
-12.494
 20
-4.32503
 30
0.0
 10
-12.494
 20
-4.32503
 30
0.0
 10
-12.494
 20
-4.32503
 30
0.0
 10
-12.494
 20
-4.32503
 30
0.0
 10
-12.422
 20
-4.42017
 30
0.0
 10
-12.422
 20
-4.42017
 30
0.0
  0
SPLINE
  5
7C
330
1F
100
AcDbEntity
  8
layer 2
 62
     1
100
AcDbSpline
210
0.0
220
0.0
230
1.0
 70
    11
 71
     3
 72
    40
 73
    36
 74
     0
 42
0.0000000001
 43
0.0000000001
 12
1.0
 22
0.0
 32
0.0
 13
1.0
 23
0.0
 33
0.0
 40
0.0
 40
0.0
 40
0.0
 40
0.0
 40
0.1
 40
0.1
 40
0.1
 40
0.1
 40
0.2
 40
0.2
 40
0.2
 40
0.2
 40
0.3
 40
0.3
 40
0.3
 40
0.3
 40
0.4
 40
0.4
 40
0.4
 40
0.4
 40
0.5
 40
0.5
 40
0.5
 40
0.5
 40
0.6
 40
0.6
 40
0.6
 40
0.6
 40
0.7
 40
0.7
 40
0.7
 40
0.7
 40
0.8
 40
0.8
 40
0.8
 40
0.8
 40
1.0
 40
1.0
 40
1.0
 40
1.0
 10
-11.93111
 20
-4.30119
 30
0.0
 10
-11.93111
 20
-4.30119
 30
0.0
 10
-11.96643
 20
-4.32792
 30
0.0
 10
-11.96643
 20
-4.32792
 30
0.0
 10
-11.96643
 20
-4.32792
 30
0.0
 10
-11.96643
 20
-4.32792
 30
0.0
 10
-12.13666
 20
-4.103
 30
0.0
 10
-12.13666
 20
-4.103
 30
0.0
 10
-12.13666
 20
-4.103
 30
0.0
 10
-12.13898
 20
-4.11759
 30
0.0
 10
-12.14403
 20
-4.13414
 30
0.0
 10
-12.15168
 20
-4.15267
 30
0.0
 10
-12.15168
 20
-4.15267
 30
0.0
 10
-12.15934
 20
-4.17119
 30
0.0
 10
-12.16718
 20
-4.1867
 30
0.0
 10
-12.17511
 20
-4.19902
 30
0.0
 10
-12.17511
 20
-4.19902
 30
0.0
 10
-12.17511
 20
-4.19902
 30
0.0
 10
-12.20092
 20
-4.1649
 30
0.0
 10
-12.20092
 20
-4.1649
 30
0.0
 10
-12.20092
 20
-4.1649
 30
0.0
 10
-12.18817
 20
-4.14073
 30
0.0
 10
-12.17942
 20
-4.11642
 30
0.0
 10
-12.17467
 20
-4.09199
 30
0.0
 10
-12.17467
 20
-4.09199
 30
0.0
 10
-12.16985
 20
-4.06762
 30
0.0
 10
-12.16902
 20
-4.04689
 30
0.0
 10
-12.17229
 20
-4.02979
 30
0.0
 10
-12.17229
 20
-4.02979
 30
0.0
 10
-12.17229
 20
-4.02979
 30
0.0
 10
-12.14954
 20
-4.01257
 30
0.0
 10
-12.14954
 20
-4.01257
 30
0.0
 10
-12.14954
 20
-4.01257
 30
0.0
 10
-12.14954
 20
-4.01257
 30
0.0
 10
-11.93111
 20
-4.30119
 30
0.0
 10
-11.93111
 20
-4.30119
 30
0.0
  0
SPLINE
  5
7D
330
1F
100
AcDbEntity
  8
layer 2
 62
     1
100
AcDbSpline
210
0.0
220
0.0
230
1.0
 70
    11
 71
     3
 72
    52
 73
    48
 74
     0
 42
0.0000000001
 43
0.0000000001
 12
1.0
 22
0.0
 32
0.0
 13
1.0
 23
0.0
 33
0.0
 40
0.0
 40
0.0
 40
0.0
 40
0.0
 40
0.0769230769230769
 40
0.0769230769230769
 40
0.0769230769230769
 40
0.0769230769230769
 40
0.1538461538461539
 40
0.1538461538461539
 40
0.1538461538461539
 40
0.1538461538461539
 40
0.2307692307692308
 40
0.2307692307692308
 40
0.2307692307692308
 40
0.2307692307692308
 40
0.3076923076923077
 40
0.3076923076923077
 40
0.3076923076923077
 40
0.3076923076923077
 40
0.3846153846153846
 40
0.3846153846153846
 40
0.3846153846153846
 40
0.3846153846153846
 40
0.4615384615384616
 40
0.4615384615384616
 40
0.4615384615384616
 40
0.4615384615384616
 40
0.5384615384615384
 40
0.5384615384615384
 40
0.5384615384615384
 40
0.5384615384615384
 40
0.6153846153846154
 40
0.6153846153846154
 40
0.6153846153846154
 40
0.6153846153846154
 40
0.6923076923076923
 40
0.6923076923076923
 40
0.6923076923076923
 40
0.6923076923076923
 40
0.7692307692307693
 40
0.7692307692307693
 40
0.7692307692307693
 40
0.7692307692307693
 40
0.8461538461538461
 40
0.8461538461538461
 40
0.8461538461538461
 40
0.8461538461538461
 40
1.0
 40
1.0
 40
1.0
 40
1.0
 10
-11.94766
 20
-4.09065
 30
0.0
 10
-11.97334
 20
-4.05673
 30
0.0
 10
-11.99062
 20
-4.02666
 30
0.0
 10
-11.99935
 20
-4.00066
 30
0.0
 10
-11.99935
 20
-4.00066
 30
0.0
 10
-12.00807
 20
-3.97454
 30
0.0
 10
-12.0098
 20
-3.9507
 30
0.0
 10
-12.00448
 20
-3.92909
 30
0.0
 10
-12.00448
 20
-3.92909
 30
0.0
 10
-11.99922
 20
-3.90755
 30
0.0
 10
-11.9861
 20
-3.88887
 30
0.0
 10
-11.96522
 20
-3.87308
 30
0.0
 10
-11.96522
 20
-3.87308
 30
0.0
 10
-11.94983
 20
-3.86144
 30
0.0
 10
-11.93399
 20
-3.85428
 30
0.0
 10
-11.91758
 20
-3.85164
 30
0.0
 10
-11.91758
 20
-3.85164
 30
0.0
 10
-11.90122
 20
-3.84906
 30
0.0
 10
-11.88481
 20
-3.85073
 30
0.0
 10
-11.86846
 20
-3.85677
 30
0.0
 10
-11.86846
 20
-3.85677
 30
0.0
 10
-11.85214
 20
-3.86273
 30
0.0
 10
-11.83548
 20
-3.87253
 30
0.0
 10
-11.81849
 20
-3.88608
 30
0.0
 10
-11.81849
 20
-3.88608
 30
0.0
 10
-11.80142
 20
-3.89958
 30
0.0
 10
-11.78212
 20
-3.92064
 30
0.0
 10
-11.7606
 20
-3.94908
 30
0.0
 10
-11.7606
 20
-3.94908
 30
0.0
 10
-11.73508
 20
-3.9828
 30
0.0
 10
-11.7179
 20
-4.01272
 30
0.0
 10
-11.7091
 20
-4.03868
 30
0.0
 10
-11.7091
 20
-4.03868
 30
0.0
 10
-11.70024
 20
-4.06471
 30
0.0
 10
-11.69851
 20
-4.08854
 30
0.0
 10
-11.70379
 20
-4.11021
 30
0.0
 10
-11.70379
 20
-4.11021
 30
0.0
 10
-11.709
 20
-4.13183
 30
0.0
 10
-11.72213
 20
-4.15061
 30
0.0
 10
-11.74314
 20
-4.16651
 30
0.0
 10
-11.74314
 20
-4.16651
 30
0.0
 10
-11.77077
 20
-4.18743
 30
0.0
 10
-11.79997
 20
-4.19404
 30
0.0
 10
-11.83069
 20
-4.18626
 30
0.0
 10
-11.83069
 20
-4.18626
 30
0.0
 10
-11.86785
 20
-4.1765
 30
0.0
 10
-11.9068
 20
-4.14464
 30
0.0
 10
-11.94766
 20
-4.09065
 30
0.0
  0
SPLINE
  5
7E
330
1F
100
AcDbEntity
  8
layer 2
 62
     1
100
AcDbSpline
210
0.0
220
0.0
230
1.0
 70
    11
 71
     3
 72
    36
 73
    32
 74
     0
 42
0.0000000001
 43
0.0000000001
 12
1.0
 22
0.0
 32
0.0
 13
1.0
 23
0.0
 33
0.0
 40
0.0
 40
0.0
 40
0.0
 40
0.0
 40
0.1111111111111111
 40
0.1111111111111111
 40
0.1111111111111111
 40
0.1111111111111111
 40
0.2222222222222222
 40
0.2222222222222222
 40
0.2222222222222222
 40
0.2222222222222222
 40
0.3333333333333333
 40
0.3333333333333333
 40
0.3333333333333333
 40
0.3333333333333333
 40
0.4444444444444444
 40
0.4444444444444444
 40
0.4444444444444444
 40
0.4444444444444444
 40
0.5555555555555556
 40
0.5555555555555556
 40
0.5555555555555556
 40
0.5555555555555556
 40
0.6666666666666666
 40
0.6666666666666666
 40
0.6666666666666666
 40
0.6666666666666666
 40
0.7777777777777778
 40
0.7777777777777778
 40
0.7777777777777778
 40
0.7777777777777778
 40
1.0
 40
1.0
 40
1.0
 40
1.0
 10
-11.91143
 20
-4.06344
 30
0.0
 10
-11.87564
 20
-4.11074
 30
0.0
 10
-11.84635
 20
-4.13803
 30
0.0
 10
-11.82357
 20
-4.1452
 30
0.0
 10
-11.82357
 20
-4.1452
 30
0.0
 10
-11.80073
 20
-4.15243
 30
0.0
 10
-11.78121
 20
-4.14986
 30
0.0
 10
-11.76502
 20
-4.13761
 30
0.0
 10
-11.76502
 20
-4.13761
 30
0.0
 10
-11.74882
 20
-4.12536
 30
0.0
 10
-11.7411
 20
-4.1072
 30
0.0
 10
-11.74186
 20
-4.08326
 30
0.0
 10
-11.74186
 20
-4.08326
 30
0.0
 10
-11.74267
 20
-4.05925
 30
0.0
 10
-11.76093
 20
-4.02372
 30
0.0
 10
-11.79663
 20
-3.97655
 30
0.0
 10
-11.79663
 20
-3.97655
 30
0.0
 10
-11.83242
 20
-3.92925
 30
0.0
 10
-11.86171
 20
-3.90196
 30
0.0
 10
-11.88449
 20
-3.8948
 30
0.0
 10
-11.88449
 20
-3.8948
 30
0.0
 10
-11.90726
 20
-3.8875
 30
0.0
 10
-11.92692
 20
-3.89018
 30
0.0
 10
-11.94344
 20
-3.90269
 30
0.0
 10
-11.94344
 20
-3.90269
 30
0.0
 10
-11.95964
 20
-3.91494
 30
0.0
 10
-11.9674
 20
-3.93165
 30
0.0
 10
-11.96672
 20
-3.9527
 30
0.0
 10
-11.96672
 20
-3.9527
 30
0.0
 10
-11.96561
 20
-3.97933
 30
0.0
 10
-11.94713
 20
-4.01627
 30
0.0
 10
-11.91143
 20
-4.06344
 30
0.0
  0
SPLINE
  5
7F
330
1F
100
AcDbEntity
  8
layer 2
 62
     1
370
     0
100
AcDbSpline
210
0.0
220
0.0
230
1.0
 70
    24
 71
     3
 72
     8
 73
     4
 74
     0
 42
0.0000000001
 43
0.0000000001
 12
1.0
 22
0.0
 32
0.0
 13
1.0
 23
0.0
 33
0.0
 40
0.0
 40
0.0
 40
0.0
 40
0.0
 40
1.0
 40
1.0
 40
1.0
 40
1.0
 10
-10.52297
 20
-4.27496
 30
0.0
 10
-10.52297
 20
-4.27496
 30
0.0
 10
-10.74112
 20
-4.44007
 30
0.0
 10
-10.74112
 20
-4.44007
 30
0.0
  0
SPLINE
  5
80
330
1F
100
AcDbEntity
  8
layer 2
 62
     1
100
AcDbSpline
210
0.0
220
0.0
230
1.0
 70
    27
 71
     3
 72
    12
 73
     8
 74
     0
 42
0.0000000001
 43
0.0000000001
 12
1.0
 22
0.0
 32
0.0
 13
1.0
 23
0.0
 33
0.0
 40
0.0
 40
0.0
 40
0.0
 40
0.0
 40
0.3333333333333333
 40
0.3333333333333333
 40
0.3333333333333333
 40
0.3333333333333333
 40
1.0
 40
1.0
 40
1.0
 40
1.0
 10
-11.03594
 20
-4.59457
 30
0.0
 10
-11.03594
 20
-4.59457
 30
0.0
 10
-10.74112
 20
-4.44007
 30
0.0
 10
-10.74112
 20
-4.44007
 30
0.0
 10
-10.74112
 20
-4.44007
 30
0.0
 10
-10.74112
 20
-4.44007
 30
0.0
 10
-11.03594
 20
-4.59457
 30
0.0
 10
-11.03594
 20
-4.59457
 30
0.0
  0
SPLINE
  5
81
330
1F
100
AcDbEntity
  8
layer 2
 62
     1
100
AcDbSpline
210
0.0
220
0.0
230
1.0
 70
     8
 71
     3
 72
    12
 73
     8
 74
     0
 42
0.0000000001
 43
0.0000000001
 12
1.0
 22
0.0
 32
0.0
 13
1.0
 23
0.0
 33
0.0
 40
0.0
 40
0.0
 40
0.0
 40
0.0
 40
0.3333333333333333
 40
0.3333333333333333
 40
0.3333333333333333
 40
0.3333333333333333
 40
1.0
 40
1.0
 40
1.0
 40
1.0
 10
-10.74112
 20
-4.44007
 30
0.0
 10
-10.74112
 20
-4.44007
 30
0.0
 10
-10.96989
 20
-4.68183
 30
0.0
 10
-10.96989
 20
-4.68183
 30
0.0
 10
-10.96989
 20
-4.68183
 30
0.0
 10
-10.96989
 20
-4.68183
 30
0.0
 10
-11.03594
 20
-4.59457
 30
0.0
 10
-11.03594
 20
-4.59457
 30
0.0
  0
SPLINE
  5
82
330
1F
100
AcDbEntity
  8
layer 2
 62
     1
370
     9
100
AcDbSpline
210
0.0
220
0.0
230
1.0
 70
    24
 71
     3
 72
     8
 73
     4
 74
     0
 42
0.0000000001
 43
0.0000000001
 12
1.0
 22
0.0
 32
0.0
 13
1.0
 23
0.0
 33
0.0
 40
0.0
 40
0.0
 40
0.0
 40
0.0
 40
1.0
 40
1.0
 40
1.0
 40
1.0
 10
-11.03594
 20
-4.59457
 30
0.0
 10
-11.03594
 20
-4.59457
 30
0.0
 10
-10.74112
 20
-4.44007
 30
0.0
 10
-10.74112
 20
-4.44007
 30
0.0
  0
SPLINE
  5
83
330
1F
100
AcDbEntity
  8
layer 2
 62
     1
370
     9
100
AcDbSpline
210
0.0
220
0.0
230
1.0
 70
     8
 71
     3
 72
    12
 73
     8
 74
     0
 42
0.0000000001
 43
0.0000000001
 12
1.0
 22
0.0
 32
0.0
 13
1.0
 23
0.0
 33
0.0
 40
0.0
 40
0.0
 40
0.0
 40
0.0
 40
0.3333333333333333
 40
0.3333333333333333
 40
0.3333333333333333
 40
0.3333333333333333
 40
1.0
 40
1.0
 40
1.0
 40
1.0
 10
-10.74112
 20
-4.44007
 30
0.0
 10
-10.74112
 20
-4.44007
 30
0.0
 10
-10.96989
 20
-4.68183
 30
0.0
 10
-10.96989
 20
-4.68183
 30
0.0
 10
-10.96989
 20
-4.68183
 30
0.0
 10
-10.96989
 20
-4.68183
 30
0.0
 10
-11.03594
 20
-4.59457
 30
0.0
 10
-11.03594
 20
-4.59457
 30
0.0
  0
ENDSEC
  0
SECTION
  2
OBJECTS
  0
DICTIONARY
  5
C
330
0
100
AcDbDictionary
281
     1
  3
ACAD_GROUP
350
D
  3
ACAD_LAYOUT
350
1A
  3
ACAD_MATERIAL
350
3B
  3
ACAD_MLEADERSTYLE
350
A5
  3
ACAD_MLINESTYLE
350
17
  3
ACAD_PLOTSETTINGS
350
19
  3
ACAD_PLOTSTYLENAME
350
E
  3
ACAD_TABLESTYLE
350
A4
  3
ACAD_VISUALSTYLE
350
2A
  0
DICTIONARY
  5
D
102
{ACAD_REACTORS
330
C
102
}
330
C
100
AcDbDictionary
281
     1
  0
DICTIONARY
  5
1A
102
{ACAD_REACTORS
330
C
102
}
330
C
100
AcDbDictionary
281
     1
  3
Layout1
350
1E
  3
Layout2
350
26
  3
Model
350
22
  0
DICTIONARY
  5
3B
102
{ACAD_REACTORS
330
C
102
}
330
C
100
AcDbDictionary
281
     1
  3
ByBlock
350
3D
  3
ByLayer
350
3C
  3
Global
350
3E
  0
DICTIONARY
  5
A5
102
{ACAD_REACTORS
330
C
102
}
330
C
100
AcDbDictionary
281
     1
  0
DICTIONARY
  5
17
102
{ACAD_REACTORS
330
C
102
}
330
C
100
AcDbDictionary
281
     1
  3
Standard
350
18
  0
DICTIONARY
  5
19
102
{ACAD_REACTORS
330
C
102
}
330
C
100
AcDbDictionary
281
     1
  0
ACDBDICTIONARYWDFLT
  5
E
102
{ACAD_REACTORS
330
C
102
}
330
C
100
AcDbDictionary
281
     1
  3
Normal
350
F
100
AcDbDictionaryWithDefault
340
F
  0
DICTIONARY
  5
A4
102
{ACAD_REACTORS
330
C
102
}
330
C
100
AcDbDictionary
281
     1
  0
DICTIONARY
  5
2A
102
{ACAD_REACTORS
330
C
102
}
330
C
100
AcDbDictionary
281
     1
  3
2dWireframe
350
2F
  3
3D Hidden
350
31
  3
3dWireframe
350
30
  3
Basic
350
32
  3
Brighten
350
36
  3
ColorChange
350
3A
  3
Conceptual
350
34
  3
Dim
350
35
  3
Facepattern
350
39
  3
Flat
350
2B
  3
FlatWithEdges
350
2C
  3
Gouraud
350
2D
  3
GouraudWithEdges
350
2E
  3
Linepattern
350
38
  3
Realistic
350
33
  3
Thicken
350
37
  0
LAYOUT
  5
1E
102
{ACAD_REACTORS
330
1A
102
}
330
1A
100
AcDbPlotSettings
  1

  2
none_device
  4

  6

 40
0.0
 41
0.0
 42
0.0
 43
0.0
 44
0.0
 45
0.0
 46
0.0
 47
0.0
 48
0.0
 49
0.0
140
0.0
141
0.0
142
1.0
143
1.0
 70
   688
 72
     0
 73
     0
 74
     5
  7

 75
    16
 76
     0
 77
     2
 78
   300
147
1.0
148
0.0
149
0.0
100
AcDbLayout
  1
Layout1
 70
     1
 71
     1
 10
0.0
 20
0.0
 11
12.0
 21
9.0
 12
0.0
 22
0.0
 32
0.0
 14
1.000000000000000E+20
 24
1.000000000000000E+20
 34
1.000000000000000E+20
 15
-1.000000000000000E+20
 25
-1.000000000000000E+20
 35
-1.000000000000000E+20
146
0.0
 13
0.0
 23
0.0
 33
0.0
 16
1.0
 26
0.0
 36
0.0
 17
0.0
 27
1.0
 37
0.0
 76
     0
330
1B
  0
LAYOUT
  5
26
102
{ACAD_REACTORS
330
1A
102
}
330
1A
100
AcDbPlotSettings
  1

  2
none_device
  4

  6

 40
0.0
 41
0.0
 42
0.0
 43
0.0
 44
0.0
 45
0.0
 46
0.0
 47
0.0
 48
0.0
 49
0.0
140
0.0
141
0.0
142
1.0
143
1.0
 70
   688
 72
     0
 73
     0
 74
     5
  7

 75
    16
 76
     0
 77
     2
 78
   300
147
1.0
148
0.0
149
0.0
100
AcDbLayout
  1
Layout2
 70
     1
 71
     2
 10
0.0
 20
0.0
 11
0.0
 21
0.0
 12
0.0
 22
0.0
 32
0.0
 14
0.0
 24
0.0
 34
0.0
 15
0.0
 25
0.0
 35
0.0
146
0.0
 13
0.0
 23
0.0
 33
0.0
 16
1.0
 26
0.0
 36
0.0
 17
0.0
 27
1.0
 37
0.0
 76
     0
330
23
  0
LAYOUT
  5
22
102
{ACAD_REACTORS
330
1A
102
}
330
1A
100
AcDbPlotSettings
  1

  2
none_device
  4

  6

 40
0.0
 41
0.0
 42
0.0
 43
0.0
 44
0.0
 45
0.0
 46
0.0
 47
0.0
 48
0.0
 49
0.0
140
0.0
141
0.0
142
1.0
143
1.0
 70
  1712
 72
     0
 73
     0
 74
     0
  7

 75
     0
 76
     0
 77
     2
 78
   300
147
1.0
148
0.0
149
0.0
100
AcDbLayout
  1
Model
 70
     1
 71
     0
 10
0.0
 20
0.0
 11
12.0
 21
9.0
 12
0.0
 22
0.0
 32
0.0
 14
-12.55613
 24
-7.51648
 34
0.0
 15
11.52321
 25
7.86455
 35
0.0
146
0.0
 13
0.0
 23
0.0
 33
0.0
 16
1.0
 26
0.0
 36
0.0
 17
0.0
 27
1.0
 37
0.0
 76
     0
330
1F
331
29
  0
MATERIAL
  5
3D
102
{ACAD_REACTORS
330
3B
102
}
330
3B
100
AcDbMaterial
  1
ByBlock
 72
     1
 94
      127
  0
MATERIAL
  5
3C
102
{ACAD_REACTORS
330
3B
102
}
330
3B
100
AcDbMaterial
  1
ByLayer
 72
     1
 94
      127
  0
MATERIAL
  5
3E
102
{ACAD_REACTORS
330
3B
102
}
330
3B
100
AcDbMaterial
  1
Global
 72
     1
 94
      127
  0
MLINESTYLE
  5
18
102
{ACAD_REACTORS
330
17
102
}
330
17
100
AcDbMlineStyle
  2
Standard
 70
     0
  3

 62
   256
 51
90.0
 52
90.0
 71
     2
 49
0.5
 62
   256
  6
BYLAYER
 49
-0.5
 62
   256
  6
BYLAYER
  0
ACDBPLACEHOLDER
  5
F
102
{ACAD_REACTORS
330
E
102
}
330
E
  0
VISUALSTYLE
  5
2F
102
{ACAD_REACTORS
330
2A
102
}
102
{ACAD_XDICTIONARY
360
8C
102
}
330
2A
100
AcDbVisualStyle
  2
2dWireframe
 70
     4
 71
     0
 72
     2
 73
     0
 90
        0
 40
-0.6
 41
-30.0
 62
     5
 63
     7
421
 16777215
 74
     1
 91
        4
 64
     7
 65
   257
 75
     1
175
     1
 42
1.0
 92
        0
 66
   257
 43
1.0
 76
     1
 77
     6
 78
     2
 67
     7
 79
     5
170
     0
171
     0
290
     0
174
     0
 93
        1
 44
0.0
173
     0
291
     0
 45
0.0
  0
VISUALSTYLE
  5
31
102
{ACAD_REACTORS
330
2A
102
}
102
{ACAD_XDICTIONARY
360
90
102
}
330
2A
100
AcDbVisualStyle
  2
3D Hidden
 70
     6
 71
     1
 72
     2
 73
     2
 90
        0
 40
-0.6
 41
-30.0
 62
     5
 63
     7
421
 16777215
 74
     2
 91
        2
 64
     7
 65
   257
 75
     2
175
     1
 42
40.0
 92
        0
 66
   257
 43
1.0
 76
     1
 77
     6
 78
     2
 67
     7
 79
     3
170
     0
171
     0
290
     0
174
     0
 93
        1
 44
0.0
173
     0
291
     0
 45
0.0
  0
VISUALSTYLE
  5
30
102
{ACAD_REACTORS
330
2A
102
}
102
{ACAD_XDICTIONARY
360
8E
102
}
330
2A
100
AcDbVisualStyle
  2
3dWireframe
 70
     5
 71
     0
 72
     2
 73
     0
 90
        0
 40
-0.6
 41
-30.0
 62
     5
 63
     7
421
 16777215
 74
     1
 91
        4
 64
     7
 65
   257
 75
     1
175
     1
 42
1.0
 92
        0
 66
   257
 43
1.0
 76
     1
 77
     6
 78
     2
 67
     7
 79
     5
170
     0
171
     0
290
     0
174
     0
 93
        1
 44
0.0
173
     0
291
     0
 45
0.0
  0
VISUALSTYLE
  5
32
102
{ACAD_REACTORS
330
2A
102
}
102
{ACAD_XDICTIONARY
360
92
102
}
330
2A
100
AcDbVisualStyle
  2
Basic
 70
     7
 71
     1
 72
     0
 73
     1
 90
        0
 40
-0.6
 41
-30.0
 62
     5
 63
     7
421
 16777215
 74
     0
 91
        4
 64
     7
 65
   257
 75
     1
175
     1
 42
1.0
 92
        8
 66
     7
 43
1.0
 76
     1
 77
     6
 78
     2
 67
     7
 79
     5
170
     0
171
     0
290
     0
174
     0
 93
        1
 44
0.0
173
     0
291
     1
 45
0.0
  0
VISUALSTYLE
  5
36
102
{ACAD_REACTORS
330
2A
102
}
102
{ACAD_XDICTIONARY
360
9A
102
}
330
2A
100
AcDbVisualStyle
  2
Brighten
 70
    12
 71
     2
 72
     2
 73
     0
 90
        0
 40
-0.6
 41
-30.0
 62
     5
 63
     7
421
 16777215
 74
     1
 91
        4
 64
     7
 65
   257
 75
     1
175
     1
 42
1.0
 92
        8
 66
     7
 43
1.0
 76
     1
 77
     6
 78
     2
 67
     7
 79
     5
170
     0
171
     0
290
     0
174
     0
 93
        1
 44
50.0
173
     0
291
     1
 45
0.0
  0
VISUALSTYLE
  5
3A
102
{ACAD_REACTORS
330
2A
102
}
102
{ACAD_XDICTIONARY
360
A2
102
}
330
2A
100
AcDbVisualStyle
  2
ColorChange
 70
    16
 71
     2
 72
     2
 73
     3
 90
        0
 40
-0.6
 41
-30.0
 62
     5
 63
     8
421
  8421504
 74
     1
 91
        4
 64
     7
 65
   257
 75
     1
175
     1
 42
1.0
 92
        8
 66
     8
424
  8421504
 43
1.0
 76
     1
 77
     6
 78
     2
 67
     7
 79
     5
170
     0
171
     0
290
     0
174
     0
 93
        1
 44
0.0
173
     0
291
     1
 45
0.0
  0
VISUALSTYLE
  5
34
102
{ACAD_REACTORS
330
2A
102
}
102
{ACAD_XDICTIONARY
360
96
102
}
330
2A
100
AcDbVisualStyle
  2
Conceptual
 70
     9
 71
     3
 72
     2
 73
     0
 90
        0
 40
-0.6
 41
-30.0
 62
     5
 63
     7
421
 16777215
 74
     2
 91
        2
 64
     7
 65
   257
 75
     1
175
     1
 42
40.0
 92
        8
 66
     7
 43
1.0
 76
     1
 77
     6
 78
     2
 67
     7
 79
     3
170
     0
171
     0
290
     0
174
     0
 93
        1
 44
0.0
173
     0
291
     0
 45
0.0
  0
VISUALSTYLE
  5
35
102
{ACAD_REACTORS
330
2A
102
}
102
{ACAD_XDICTIONARY
360
98
102
}
330
2A
100
AcDbVisualStyle
  2
Dim
 70
    11
 71
     2
 72
     2
 73
     0
 90
        0
 40
-0.6
 41
-30.0
 62
     5
 63
     7
421
 16777215
 74
     1
 91
        4
 64
     7
 65
   257
 75
     1
175
     1
 42
1.0
 92
        8
 66
     7
 43
1.0
 76
     1
 77
     6
 78
     2
 67
     7
 79
     5
170
     0
171
     0
290
     0
174
     0
 93
        1
 44
-50.0
173
     0
291
     1
 45
0.0
  0
VISUALSTYLE
  5
39
102
{ACAD_REACTORS
330
2A
102
}
102
{ACAD_XDICTIONARY
360
A0
102
}
330
2A
100
AcDbVisualStyle
  2
Facepattern
 70
    15
 71
     2
 72
     2
 73
     0
 90
        0
 40
-0.6
 41
-30.0
 62
     5
 63
     7
421
 16777215
 74
     1
 91
        4
 64
     7
 65
   257
 75
     1
175
     1
 42
1.0
 92
        8
 66
     7
 43
1.0
 76
     1
 77
     6
 78
     2
 67
     7
 79
     5
170
     0
171
     0
290
     0
174
     0
 93
        1
 44
0.0
173
     0
291
     1
 45
0.0
  0
VISUALSTYLE
  5
2B
102
{ACAD_REACTORS
330
2A
102
}
102
{ACAD_XDICTIONARY
360
84
102
}
330
2A
100
AcDbVisualStyle
  2
Flat
 70
     0
 71
     2
 72
     1
 73
     1
 90
        2
 40
-0.6
 41
30.0
 62
     5
 63
     7
421
 16777215
 74
     0
 91
        4
 64
     7
 65
   257
 75
     1
175
     1
 42
1.0
 92
        8
 66
     7
 43
1.0
 76
     1
 77
     6
 78
     2
 67
     7
 79
     5
170
     0
171
     0
290
     0
174
     0
 93
       13
 44
0.0
173
     0
291
     1
 45
0.0
  0
VISUALSTYLE
  5
2C
102
{ACAD_REACTORS
330
2A
102
}
102
{ACAD_XDICTIONARY
360
86
102
}
330
2A
100
AcDbVisualStyle
  2
FlatWithEdges
 70
     1
 71
     2
 72
     1
 73
     1
 90
        2
 40
-0.6
 41
30.0
 62
     5
 63
     7
421
 16777215
 74
     1
 91
        4
 64
     7
 65
   257
 75
     1
175
     1
 42
1.0
 92
        0
 66
   257
 43
1.0
 76
     1
 77
     6
 78
     2
 67
     7
 79
     5
170
     0
171
     0
290
     0
174
     0
 93
       13
 44
0.0
173
     0
291
     1
 45
0.0
  0
VISUALSTYLE
  5
2D
102
{ACAD_REACTORS
330
2A
102
}
102
{ACAD_XDICTIONARY
360
88
102
}
330
2A
100
AcDbVisualStyle
  2
Gouraud
 70
     2
 71
     2
 72
     2
 73
     1
 90
        2
 40
-0.6
 41
30.0
 62
     5
 63
     7
421
 16777215
 74
     0
 91
        4
 64
     7
 65
   257
 75
     1
175
     1
 42
1.0
 92
        0
 66
     7
 43
1.0
 76
     1
 77
     6
 78
     2
 67
     7
 79
     5
170
     0
171
     0
290
     0
174
     0
 93
       13
 44
0.0
173
     0
291
     1
 45
0.0
  0
VISUALSTYLE
  5
2E
102
{ACAD_REACTORS
330
2A
102
}
102
{ACAD_XDICTIONARY
360
8A
102
}
330
2A
100
AcDbVisualStyle
  2
GouraudWithEdges
 70
     3
 71
     2
 72
     2
 73
     1
 90
        2
 40
-0.6
 41
30.0
 62
     5
 63
     7
421
 16777215
 74
     1
 91
        4
 64
     7
 65
   257
 75
     1
175
     1
 42
1.0
 92
        0
 66
   257
 43
1.0
 76
     1
 77
     6
 78
     2
 67
     7
 79
     5
170
     0
171
     0
290
     0
174
     0
 93
       13
 44
0.0
173
     0
291
     1
 45
0.0
  0
VISUALSTYLE
  5
38
102
{ACAD_REACTORS
330
2A
102
}
102
{ACAD_XDICTIONARY
360
9E
102
}
330
2A
100
AcDbVisualStyle
  2
Linepattern
 70
    14
 71
     2
 72
     2
 73
     0
 90
        0
 40
-0.6
 41
-30.0
 62
     5
 63
     7
421
 16777215
 74
     1
 91
        4
 64
     7
 65
   257
 75
     7
175
     7
 42
1.0
 92
        8
 66
     7
 43
1.0
 76
     1
 77
     6
 78
     2
 67
     7
 79
     5
170
     0
171
     0
290
     0
174
     0
 93
        1
 44
0.0
173
     0
291
     1
 45
0.0
  0
VISUALSTYLE
  5
33
102
{ACAD_REACTORS
330
2A
102
}
102
{ACAD_XDICTIONARY
360
94
102
}
330
2A
100
AcDbVisualStyle
  2
Realistic
 70
     8
 71
     2
 72
     2
 73
     0
 90
        0
 40
-0.6
 41
-30.0
 62
     5
 63
     7
421
 16777215
 74
     1
 91
        0
 64
     7
 65
   257
 75
     1
175
     1
 42
1.0
 92
        8
 66
     8
424
  7895160
 43
1.0
 76
     1
 77
     6
 78
     2
 67
     7
 79
     5
170
     0
171
     0
290
     0
174
     0
 93
       13
 44
0.0
173
     0
291
     0
 45
0.0
  0
VISUALSTYLE
  5
37
102
{ACAD_REACTORS
330
2A
102
}
102
{ACAD_XDICTIONARY
360
9C
102
}
330
2A
100
AcDbVisualStyle
  2
Thicken
 70
    13
 71
     2
 72
     2
 73
     0
 90
        0
 40
-0.6
 41
-30.0
 62
     5
 63
     7
421
 16777215
 74
     1
 91
        4
 64
     7
 65
   257
 75
     1
175
     1
 42
1.0
 92
       12
 66
     7
 43
1.0
 76
     1
 77
     6
 78
     2
 67
     7
 79
     5
170
     0
171
     0
290
     0
174
     0
 93
        1
 44
0.0
173
     0
291
     1
 45
0.0
  0
DICTIONARY
  5
8C
330
2F
100
AcDbDictionary
280
     1
281
     1
  3
ACAD_XREC_ROUNDTRIP
360
8D
  0
DICTIONARY
  5
90
330
31
100
AcDbDictionary
280
     1
281
     1
  3
ACAD_XREC_ROUNDTRIP
360
91
  0
DICTIONARY
  5
8E
330
30
100
AcDbDictionary
280
     1
281
     1
  3
ACAD_XREC_ROUNDTRIP
360
8F
  0
DICTIONARY
  5
92
330
32
100
AcDbDictionary
280
     1
281
     1
  3
ACAD_XREC_ROUNDTRIP
360
93
  0
DICTIONARY
  5
9A
330
36
100
AcDbDictionary
280
     1
281
     1
  3
ACAD_XREC_ROUNDTRIP
360
9B
  0
DICTIONARY
  5
A2
330
3A
100
AcDbDictionary
280
     1
281
     1
  3
ACAD_XREC_ROUNDTRIP
360
A3
  0
DICTIONARY
  5
96
330
34
100
AcDbDictionary
280
     1
281
     1
  3
ACAD_XREC_ROUNDTRIP
360
97
  0
DICTIONARY
  5
98
330
35
100
AcDbDictionary
280
     1
281
     1
  3
ACAD_XREC_ROUNDTRIP
360
99
  0
DICTIONARY
  5
A0
330
39
100
AcDbDictionary
280
     1
281
     1
  3
ACAD_XREC_ROUNDTRIP
360
A1
  0
DICTIONARY
  5
84
330
2B
100
AcDbDictionary
280
     1
281
     1
  3
ACAD_XREC_ROUNDTRIP
360
85
  0
DICTIONARY
  5
86
330
2C
100
AcDbDictionary
280
     1
281
     1
  3
ACAD_XREC_ROUNDTRIP
360
87
  0
DICTIONARY
  5
88
330
2D
100
AcDbDictionary
280
     1
281
     1
  3
ACAD_XREC_ROUNDTRIP
360
89
  0
DICTIONARY
  5
8A
330
2E
100
AcDbDictionary
280
     1
281
     1
  3
ACAD_XREC_ROUNDTRIP
360
8B
  0
DICTIONARY
  5
9E
330
38
100
AcDbDictionary
280
     1
281
     1
  3
ACAD_XREC_ROUNDTRIP
360
9F
  0
DICTIONARY
  5
94
330
33
100
AcDbDictionary
280
     1
281
     1
  3
ACAD_XREC_ROUNDTRIP
360
95
  0
DICTIONARY
  5
9C
330
37
100
AcDbDictionary
280
     1
281
     1
  3
ACAD_XREC_ROUNDTRIP
360
9D
  0
XRECORD
  5
8D
102
{ACAD_REACTORS
330
8C
102
}
330
8C
100
AcDbXrecord
280
     1
102
RTVSPropertyOp0
 70
     1
102
RTVSPropertyOp1
 70
     1
102
RTVSPropertyOp2
 70
     1
102
RTVSPropertyOp3
 70
     1
102
RTVSPropertyOp4
 70
     1
102
RTVSPropertyOp5
 70
     1
102
RTVSPropertyOp6
 70
     1
102
RTVSPropertyOp7
 70
     1
102
RTVSPropertyOp8
 70
     1
102
RTVSPropertyOp9
 70
     1
102
RTVSPropertyOp10
 70
     1
102
RTVSPropertyOp11
 70
     1
102
RTVSPropertyOp12
 70
     1
102
RTVSPropertyOp13
 70
     1
102
RTVSPropertyOp14
 70
     1
102
RTVSPropertyOp15
 70
     1
102
RTVSPropertyOp16
 70
     1
102
RTVSPropertyOp17
 70
     1
102
RTVSPropertyOp18
 70
     1
102
RTVSPropertyOp19
 70
     1
102
RTVSPropertyOp20
 70
     1
102
RTVSPropertyOp21
 70
     1
102
RTVSPropertyOp22
 70
     1
102
RTVSPropertyOp23
 70
     1
102
RTVSPropertyOp24
 70
     1
102
RTVSPropertyOp25
 70
     1
102
RTVSPropertyOp26
 70
     1
102
RTVSPropertyOp27
 70
     1
102
RTVSPropertyOp28
 70
     1
102
RTVSPropertyOp29
 70
     1
102
RTVSPropertyOp30
 70
     1
102
RTVSPropertyOp31
 70
     1
102
RTVSPropertyOp32
 70
     1
  0
XRECORD
  5
91
102
{ACAD_REACTORS
330
90
102
}
330
90
100
AcDbXrecord
280
     1
102
RTVSPropertyOp0
 70
     1
102
RTVSPropertyOp1
 70
     1
102
RTVSPropertyOp2
 70
     1
102
RTVSPropertyOp3
 70
     1
102
RTVSPropertyOp4
 70
     1
102
RTVSPropertyOp5
 70
     1
102
RTVSPropertyOp6
 70
     1
102
RTVSPropertyOp7
 70
     1
102
RTVSPropertyOp8
 70
     1
102
RTVSPropertyOp9
 70
     1
102
RTVSPropertyOp10
 70
     1
102
RTVSPropertyOp11
 70
     1
102
RTVSPropertyOp12
 70
     1
102
RTVSPropertyOp13
 70
     1
102
RTVSPropertyOp14
 70
     1
102
RTVSPropertyOp15
 70
     1
102
RTVSPropertyOp16
 70
     1
102
RTVSPropertyOp17
 70
     1
102
RTVSPropertyOp18
 70
     1
102
RTVSPropertyOp19
 70
     1
102
RTVSPropertyOp20
 70
     1
102
RTVSPropertyOp21
 70
     1
102
RTVSPropertyOp22
 70
     1
102
RTVSPropertyOp23
 70
     1
102
RTVSPropertyOp24
 70
     1
102
RTVSPropertyOp25
 70
     1
102
RTVSPropertyOp26
 70
     1
102
RTVSPropertyOp27
 70
     1
102
RTVSPropertyOp28
 70
     1
102
RTVSPropertyOp29
 70
     1
102
RTVSPropertyOp30
 70
     1
102
RTVSPropertyOp31
 70
     1
102
RTVSPropertyOp32
 70
     1
  0
XRECORD
  5
8F
102
{ACAD_REACTORS
330
8E
102
}
330
8E
100
AcDbXrecord
280
     1
102
RTVSPropertyOp0
 70
     1
102
RTVSPropertyOp1
 70
     1
102
RTVSPropertyOp2
 70
     1
102
RTVSPropertyOp3
 70
     1
102
RTVSPropertyOp4
 70
     1
102
RTVSPropertyOp5
 70
     1
102
RTVSPropertyOp6
 70
     1
102
RTVSPropertyOp7
 70
     1
102
RTVSPropertyOp8
 70
     1
102
RTVSPropertyOp9
 70
     1
102
RTVSPropertyOp10
 70
     1
102
RTVSPropertyOp11
 70
     1
102
RTVSPropertyOp12
 70
     1
102
RTVSPropertyOp13
 70
     1
102
RTVSPropertyOp14
 70
     1
102
RTVSPropertyOp15
 70
     1
102
RTVSPropertyOp16
 70
     1
102
RTVSPropertyOp17
 70
     1
102
RTVSPropertyOp18
 70
     1
102
RTVSPropertyOp19
 70
     1
102
RTVSPropertyOp20
 70
     1
102
RTVSPropertyOp21
 70
     1
102
RTVSPropertyOp22
 70
     1
102
RTVSPropertyOp23
 70
     1
102
RTVSPropertyOp24
 70
     1
102
RTVSPropertyOp25
 70
     1
102
RTVSPropertyOp26
 70
     1
102
RTVSPropertyOp27
 70
     1
102
RTVSPropertyOp28
 70
     1
102
RTVSPropertyOp29
 70
     1
102
RTVSPropertyOp30
 70
     1
102
RTVSPropertyOp31
 70
     1
102
RTVSPropertyOp32
 70
     1
  0
XRECORD
  5
93
102
{ACAD_REACTORS
330
92
102
}
330
92
100
AcDbXrecord
280
     1
102
RTVSPropertyOp0
 70
     1
102
RTVSPropertyOp1
 70
     1
102
RTVSPropertyOp2
 70
     1
102
RTVSPropertyOp3
 70
     1
102
RTVSPropertyOp4
 70
     1
102
RTVSPropertyOp5
 70
     1
102
RTVSPropertyOp6
 70
     1
102
RTVSPropertyOp7
 70
     1
102
RTVSPropertyOp8
 70
     1
102
RTVSPropertyOp9
 70
     1
102
RTVSPropertyOp10
 70
     1
102
RTVSPropertyOp11
 70
     1
102
RTVSPropertyOp12
 70
     1
102
RTVSPropertyOp13
 70
     1
102
RTVSPropertyOp14
 70
     1
102
RTVSPropertyOp15
 70
     1
102
RTVSPropertyOp16
 70
     1
102
RTVSPropertyOp17
 70
     1
102
RTVSPropertyOp18
 70
     1
102
RTVSPropertyOp19
 70
     1
102
RTVSPropertyOp20
 70
     1
102
RTVSPropertyOp21
 70
     1
102
RTVSPropertyOp22
 70
     1
102
RTVSPropertyOp23
 70
     1
102
RTVSPropertyOp24
 70
     1
102
RTVSPropertyOp25
 70
     1
102
RTVSPropertyOp26
 70
     1
102
RTVSPropertyOp27
 70
     1
102
RTVSPropertyOp28
 70
     1
102
RTVSPropertyOp29
 70
     1
102
RTVSPropertyOp30
 70
     1
102
RTVSPropertyOp31
 70
     1
102
RTVSPropertyOp32
 70
     1
  0
XRECORD
  5
9B
102
{ACAD_REACTORS
330
9A
102
}
330
9A
100
AcDbXrecord
280
     1
102
RTVSPropertyOp0
 70
     1
102
RTVSPropertyOp1
 70
     1
102
RTVSPropertyOp2
 70
     1
102
RTVSPropertyOp3
 70
     1
102
RTVSPropertyOp4
 70
     1
102
RTVSPropertyOp5
 70
     1
102
RTVSPropertyOp6
 70
     1
102
RTVSPropertyOp7
 70
     1
102
RTVSPropertyOp8
 70
     1
102
RTVSPropertyOp9
 70
     1
102
RTVSPropertyOp10
 70
     1
102
RTVSPropertyOp11
 70
     1
102
RTVSPropertyOp12
 70
     1
102
RTVSPropertyOp13
 70
     1
102
RTVSPropertyOp14
 70
     1
102
RTVSPropertyOp15
 70
     1
102
RTVSPropertyOp16
 70
     1
102
RTVSPropertyOp17
 70
     1
102
RTVSPropertyOp18
 70
     1
102
RTVSPropertyOp19
 70
     1
102
RTVSPropertyOp20
 70
     1
102
RTVSPropertyOp21
 70
     1
102
RTVSPropertyOp22
 70
     1
102
RTVSPropertyOp23
 70
     1
102
RTVSPropertyOp24
 70
     1
102
RTVSPropertyOp25
 70
     1
102
RTVSPropertyOp26
 70
     1
102
RTVSPropertyOp27
 70
     1
102
RTVSPropertyOp28
 70
     1
102
RTVSPropertyOp29
 70
     1
102
RTVSPropertyOp30
 70
     1
102
RTVSPropertyOp31
 70
     1
102
RTVSPropertyOp32
 70
     1
  0
XRECORD
  5
A3
102
{ACAD_REACTORS
330
A2
102
}
330
A2
100
AcDbXrecord
280
     1
102
RTVSPropertyOp0
 70
     1
102
RTVSPropertyOp1
 70
     1
102
RTVSPropertyOp2
 70
     1
102
RTVSPropertyOp3
 70
     1
102
RTVSPropertyOp4
 70
     1
102
RTVSPropertyOp5
 70
     1
102
RTVSPropertyOp6
 70
     1
102
RTVSPropertyOp7
 70
     1
102
RTVSPropertyOp8
 70
     1
102
RTVSPropertyOp9
 70
     1
102
RTVSPropertyOp10
 70
     1
102
RTVSPropertyOp11
 70
     1
102
RTVSPropertyOp12
 70
     1
102
RTVSPropertyOp13
 70
     1
102
RTVSPropertyOp14
 70
     1
102
RTVSPropertyOp15
 70
     1
102
RTVSPropertyOp16
 70
     1
102
RTVSPropertyOp17
 70
     1
102
RTVSPropertyOp18
 70
     1
102
RTVSPropertyOp19
 70
     1
102
RTVSPropertyOp20
 70
     1
102
RTVSPropertyOp21
 70
     1
102
RTVSPropertyOp22
 70
     1
102
RTVSPropertyOp23
 70
     1
102
RTVSPropertyOp24
 70
     1
102
RTVSPropertyOp25
 70
     1
102
RTVSPropertyOp26
 70
     1
102
RTVSPropertyOp27
 70
     1
102
RTVSPropertyOp28
 70
     1
102
RTVSPropertyOp29
 70
     1
102
RTVSPropertyOp30
 70
     1
102
RTVSPropertyOp31
 70
     1
102
RTVSPropertyOp32
 70
     1
  0
XRECORD
  5
97
102
{ACAD_REACTORS
330
96
102
}
330
96
100
AcDbXrecord
280
     1
102
RTVSPropertyOp0
 70
     1
102
RTVSPropertyOp1
 70
     1
102
RTVSPropertyOp2
 70
     1
102
RTVSPropertyOp3
 70
     1
102
RTVSPropertyOp4
 70
     1
102
RTVSPropertyOp5
 70
     1
102
RTVSPropertyOp6
 70
     1
102
RTVSPropertyOp7
 70
     1
102
RTVSPropertyOp8
 70
     1
102
RTVSPropertyOp9
 70
     1
102
RTVSPropertyOp10
 70
     1
102
RTVSPropertyOp11
 70
     1
102
RTVSPropertyOp12
 70
     1
102
RTVSPropertyOp13
 70
     1
102
RTVSPropertyOp14
 70
     1
102
RTVSPropertyOp15
 70
     1
102
RTVSPropertyOp16
 70
     1
102
RTVSPropertyOp17
 70
     1
102
RTVSPropertyOp18
 70
     1
102
RTVSPropertyOp19
 70
     1
102
RTVSPropertyOp20
 70
     1
102
RTVSPropertyOp21
 70
     1
102
RTVSPropertyOp22
 70
     1
102
RTVSPropertyOp23
 70
     1
102
RTVSPropertyOp24
 70
     1
102
RTVSPropertyOp25
 70
     1
102
RTVSPropertyOp26
 70
     1
102
RTVSPropertyOp27
 70
     1
102
RTVSPropertyOp28
 70
     1
102
RTVSPropertyOp29
 70
     1
102
RTVSPropertyOp30
 70
     1
102
RTVSPropertyOp31
 70
     1
102
RTVSPropertyOp32
 70
     1
  0
XRECORD
  5
99
102
{ACAD_REACTORS
330
98
102
}
330
98
100
AcDbXrecord
280
     1
102
RTVSPropertyOp0
 70
     1
102
RTVSPropertyOp1
 70
     1
102
RTVSPropertyOp2
 70
     1
102
RTVSPropertyOp3
 70
     1
102
RTVSPropertyOp4
 70
     1
102
RTVSPropertyOp5
 70
     1
102
RTVSPropertyOp6
 70
     1
102
RTVSPropertyOp7
 70
     1
102
RTVSPropertyOp8
 70
     1
102
RTVSPropertyOp9
 70
     1
102
RTVSPropertyOp10
 70
     1
102
RTVSPropertyOp11
 70
     1
102
RTVSPropertyOp12
 70
     1
102
RTVSPropertyOp13
 70
     1
102
RTVSPropertyOp14
 70
     1
102
RTVSPropertyOp15
 70
     1
102
RTVSPropertyOp16
 70
     1
102
RTVSPropertyOp17
 70
     1
102
RTVSPropertyOp18
 70
     1
102
RTVSPropertyOp19
 70
     1
102
RTVSPropertyOp20
 70
     1
102
RTVSPropertyOp21
 70
     1
102
RTVSPropertyOp22
 70
     1
102
RTVSPropertyOp23
 70
     1
102
RTVSPropertyOp24
 70
     1
102
RTVSPropertyOp25
 70
     1
102
RTVSPropertyOp26
 70
     1
102
RTVSPropertyOp27
 70
     1
102
RTVSPropertyOp28
 70
     1
102
RTVSPropertyOp29
 70
     1
102
RTVSPropertyOp30
 70
     1
102
RTVSPropertyOp31
 70
     1
102
RTVSPropertyOp32
 70
     1
  0
XRECORD
  5
A1
102
{ACAD_REACTORS
330
A0
102
}
330
A0
100
AcDbXrecord
280
     1
102
RTVSPropertyOp0
 70
     1
102
RTVSPropertyOp1
 70
     1
102
RTVSPropertyOp2
 70
     1
102
RTVSPropertyOp3
 70
     1
102
RTVSPropertyOp4
 70
     1
102
RTVSPropertyOp5
 70
     1
102
RTVSPropertyOp6
 70
     1
102
RTVSPropertyOp7
 70
     1
102
RTVSPropertyOp8
 70
     1
102
RTVSPropertyOp9
 70
     1
102
RTVSPropertyOp10
 70
     1
102
RTVSPropertyOp11
 70
     1
102
RTVSPropertyOp12
 70
     1
102
RTVSPropertyOp13
 70
     1
102
RTVSPropertyOp14
 70
     1
102
RTVSPropertyOp15
 70
     1
102
RTVSPropertyOp16
 70
     1
102
RTVSPropertyOp17
 70
     1
102
RTVSPropertyOp18
 70
     1
102
RTVSPropertyOp19
 70
     1
102
RTVSPropertyOp20
 70
     1
102
RTVSPropertyOp21
 70
     1
102
RTVSPropertyOp22
 70
     1
102
RTVSPropertyOp23
 70
     1
102
RTVSPropertyOp24
 70
     1
102
RTVSPropertyOp25
 70
     1
102
RTVSPropertyOp26
 70
     1
102
RTVSPropertyOp27
 70
     1
102
RTVSPropertyOp28
 70
     1
102
RTVSPropertyOp29
 70
     1
102
RTVSPropertyOp30
 70
     1
102
RTVSPropertyOp31
 70
     1
102
RTVSPropertyOp32
 70
     1
  0
XRECORD
  5
85
102
{ACAD_REACTORS
330
84
102
}
330
84
100
AcDbXrecord
280
     1
102
RTVSPropertyOp0
 70
     1
102
RTVSPropertyOp1
 70
     1
102
RTVSPropertyOp2
 70
     1
102
RTVSPropertyOp3
 70
     1
102
RTVSPropertyOp4
 70
     1
102
RTVSPropertyOp5
 70
     1
102
RTVSPropertyOp6
 70
     1
102
RTVSPropertyOp7
 70
     1
102
RTVSPropertyOp8
 70
     1
102
RTVSPropertyOp9
 70
     1
102
RTVSPropertyOp10
 70
     1
102
RTVSPropertyOp11
 70
     1
102
RTVSPropertyOp12
 70
     1
102
RTVSPropertyOp13
 70
     1
102
RTVSPropertyOp14
 70
     1
102
RTVSPropertyOp15
 70
     1
102
RTVSPropertyOp16
 70
     1
102
RTVSPropertyOp17
 70
     1
102
RTVSPropertyOp18
 70
     1
102
RTVSPropertyOp19
 70
     1
102
RTVSPropertyOp20
 70
     1
102
RTVSPropertyOp21
 70
     1
102
RTVSPropertyOp22
 70
     1
102
RTVSPropertyOp23
 70
     1
102
RTVSPropertyOp24
 70
     1
102
RTVSPropertyOp25
 70
     1
102
RTVSPropertyOp26
 70
     1
102
RTVSPropertyOp27
 70
     1
102
RTVSPropertyOp28
 70
     1
102
RTVSPropertyOp29
 70
     1
102
RTVSPropertyOp30
 70
     1
102
RTVSPropertyOp31
 70
     1
102
RTVSPropertyOp32
 70
     1
  0
XRECORD
  5
87
102
{ACAD_REACTORS
330
86
102
}
330
86
100
AcDbXrecord
280
     1
102
RTVSPropertyOp0
 70
     1
102
RTVSPropertyOp1
 70
     1
102
RTVSPropertyOp2
 70
     1
102
RTVSPropertyOp3
 70
     1
102
RTVSPropertyOp4
 70
     1
102
RTVSPropertyOp5
 70
     1
102
RTVSPropertyOp6
 70
     1
102
RTVSPropertyOp7
 70
     1
102
RTVSPropertyOp8
 70
     1
102
RTVSPropertyOp9
 70
     1
102
RTVSPropertyOp10
 70
     1
102
RTVSPropertyOp11
 70
     1
102
RTVSPropertyOp12
 70
     1
102
RTVSPropertyOp13
 70
     1
102
RTVSPropertyOp14
 70
     1
102
RTVSPropertyOp15
 70
     1
102
RTVSPropertyOp16
 70
     1
102
RTVSPropertyOp17
 70
     1
102
RTVSPropertyOp18
 70
     1
102
RTVSPropertyOp19
 70
     1
102
RTVSPropertyOp20
 70
     1
102
RTVSPropertyOp21
 70
     1
102
RTVSPropertyOp22
 70
     1
102
RTVSPropertyOp23
 70
     1
102
RTVSPropertyOp24
 70
     1
102
RTVSPropertyOp25
 70
     1
102
RTVSPropertyOp26
 70
     1
102
RTVSPropertyOp27
 70
     1
102
RTVSPropertyOp28
 70
     1
102
RTVSPropertyOp29
 70
     1
102
RTVSPropertyOp30
 70
     1
102
RTVSPropertyOp31
 70
     1
102
RTVSPropertyOp32
 70
     1
  0
XRECORD
  5
89
102
{ACAD_REACTORS
330
88
102
}
330
88
100
AcDbXrecord
280
     1
102
RTVSPropertyOp0
 70
     1
102
RTVSPropertyOp1
 70
     1
102
RTVSPropertyOp2
 70
     1
102
RTVSPropertyOp3
 70
     1
102
RTVSPropertyOp4
 70
     1
102
RTVSPropertyOp5
 70
     1
102
RTVSPropertyOp6
 70
     1
102
RTVSPropertyOp7
 70
     1
102
RTVSPropertyOp8
 70
     1
102
RTVSPropertyOp9
 70
     1
102
RTVSPropertyOp10
 70
     1
102
RTVSPropertyOp11
 70
     1
102
RTVSPropertyOp12
 70
     1
102
RTVSPropertyOp13
 70
     1
102
RTVSPropertyOp14
 70
     1
102
RTVSPropertyOp15
 70
     1
102
RTVSPropertyOp16
 70
     1
102
RTVSPropertyOp17
 70
     1
102
RTVSPropertyOp18
 70
     1
102
RTVSPropertyOp19
 70
     1
102
RTVSPropertyOp20
 70
     1
102
RTVSPropertyOp21
 70
     1
102
RTVSPropertyOp22
 70
     1
102
RTVSPropertyOp23
 70
     1
102
RTVSPropertyOp24
 70
     1
102
RTVSPropertyOp25
 70
     1
102
RTVSPropertyOp26
 70
     1
102
RTVSPropertyOp27
 70
     1
102
RTVSPropertyOp28
 70
     1
102
RTVSPropertyOp29
 70
     1
102
RTVSPropertyOp30
 70
     1
102
RTVSPropertyOp31
 70
     1
102
RTVSPropertyOp32
 70
     1
  0
XRECORD
  5
8B
102
{ACAD_REACTORS
330
8A
102
}
330
8A
100
AcDbXrecord
280
     1
102
RTVSPropertyOp0
 70
     1
102
RTVSPropertyOp1
 70
     1
102
RTVSPropertyOp2
 70
     1
102
RTVSPropertyOp3
 70
     1
102
RTVSPropertyOp4
 70
     1
102
RTVSPropertyOp5
 70
     1
102
RTVSPropertyOp6
 70
     1
102
RTVSPropertyOp7
 70
     1
102
RTVSPropertyOp8
 70
     1
102
RTVSPropertyOp9
 70
     1
102
RTVSPropertyOp10
 70
     1
102
RTVSPropertyOp11
 70
     1
102
RTVSPropertyOp12
 70
     1
102
RTVSPropertyOp13
 70
     1
102
RTVSPropertyOp14
 70
     1
102
RTVSPropertyOp15
 70
     1
102
RTVSPropertyOp16
 70
     1
102
RTVSPropertyOp17
 70
     1
102
RTVSPropertyOp18
 70
     1
102
RTVSPropertyOp19
 70
     1
102
RTVSPropertyOp20
 70
     1
102
RTVSPropertyOp21
 70
     1
102
RTVSPropertyOp22
 70
     1
102
RTVSPropertyOp23
 70
     1
102
RTVSPropertyOp24
 70
     1
102
RTVSPropertyOp25
 70
     1
102
RTVSPropertyOp26
 70
     1
102
RTVSPropertyOp27
 70
     1
102
RTVSPropertyOp28
 70
     1
102
RTVSPropertyOp29
 70
     1
102
RTVSPropertyOp30
 70
     1
102
RTVSPropertyOp31
 70
     1
102
RTVSPropertyOp32
 70
     1
  0
XRECORD
  5
9F
102
{ACAD_REACTORS
330
9E
102
}
330
9E
100
AcDbXrecord
280
     1
102
RTVSPropertyOp0
 70
     1
102
RTVSPropertyOp1
 70
     1
102
RTVSPropertyOp2
 70
     1
102
RTVSPropertyOp3
 70
     1
102
RTVSPropertyOp4
 70
     1
102
RTVSPropertyOp5
 70
     1
102
RTVSPropertyOp6
 70
     1
102
RTVSPropertyOp7
 70
     1
102
RTVSPropertyOp8
 70
     1
102
RTVSPropertyOp9
 70
     1
102
RTVSPropertyOp10
 70
     1
102
RTVSPropertyOp11
 70
     1
102
RTVSPropertyOp12
 70
     1
102
RTVSPropertyOp13
 70
     1
102
RTVSPropertyOp14
 70
     1
102
RTVSPropertyOp15
 70
     1
102
RTVSPropertyOp16
 70
     1
102
RTVSPropertyOp17
 70
     1
102
RTVSPropertyOp18
 70
     1
102
RTVSPropertyOp19
 70
     1
102
RTVSPropertyOp20
 70
     1
102
RTVSPropertyOp21
 70
     1
102
RTVSPropertyOp22
 70
     1
102
RTVSPropertyOp23
 70
     1
102
RTVSPropertyOp24
 70
     1
102
RTVSPropertyOp25
 70
     1
102
RTVSPropertyOp26
 70
     1
102
RTVSPropertyOp27
 70
     1
102
RTVSPropertyOp28
 70
     1
102
RTVSPropertyOp29
 70
     1
102
RTVSPropertyOp30
 70
     1
102
RTVSPropertyOp31
 70
     1
102
RTVSPropertyOp32
 70
     1
  0
XRECORD
  5
95
102
{ACAD_REACTORS
330
94
102
}
330
94
100
AcDbXrecord
280
     1
102
RTVSPropertyOp0
 70
     1
102
RTVSPropertyOp1
 70
     1
102
RTVSPropertyOp2
 70
     1
102
RTVSPropertyOp3
 70
     1
102
RTVSPropertyOp4
 70
     1
102
RTVSPropertyOp5
 70
     1
102
RTVSPropertyOp6
 70
     1
102
RTVSPropertyOp7
 70
     1
102
RTVSPropertyOp8
 70
     1
102
RTVSPropertyOp9
 70
     1
102
RTVSPropertyOp10
 70
     1
102
RTVSPropertyOp11
 70
     1
102
RTVSPropertyOp12
 70
     1
102
RTVSPropertyOp13
 70
     1
102
RTVSPropertyOp14
 70
     1
102
RTVSPropertyOp15
 70
     1
102
RTVSPropertyOp16
 70
     1
102
RTVSPropertyOp17
 70
     1
102
RTVSPropertyOp18
 70
     1
102
RTVSPropertyOp19
 70
     1
102
RTVSPropertyOp20
 70
     1
102
RTVSPropertyOp21
 70
     1
102
RTVSPropertyOp22
 70
     1
102
RTVSPropertyOp23
 70
     1
102
RTVSPropertyOp24
 70
     1
102
RTVSPropertyOp25
 70
     1
102
RTVSPropertyOp26
 70
     1
102
RTVSPropertyOp27
 70
     1
102
RTVSPropertyOp28
 70
     1
102
RTVSPropertyOp29
 70
     1
102
RTVSPropertyOp30
 70
     1
102
RTVSPropertyOp31
 70
     1
102
RTVSPropertyOp32
 70
     1
  0
XRECORD
  5
9D
102
{ACAD_REACTORS
330
9C
102
}
330
9C
100
AcDbXrecord
280
     1
102
RTVSPropertyOp0
 70
     1
102
RTVSPropertyOp1
 70
     1
102
RTVSPropertyOp2
 70
     1
102
RTVSPropertyOp3
 70
     1
102
RTVSPropertyOp4
 70
     1
102
RTVSPropertyOp5
 70
     1
102
RTVSPropertyOp6
 70
     1
102
RTVSPropertyOp7
 70
     1
102
RTVSPropertyOp8
 70
     1
102
RTVSPropertyOp9
 70
     1
102
RTVSPropertyOp10
 70
     1
102
RTVSPropertyOp11
 70
     1
102
RTVSPropertyOp12
 70
     1
102
RTVSPropertyOp13
 70
     1
102
RTVSPropertyOp14
 70
     1
102
RTVSPropertyOp15
 70
     1
102
RTVSPropertyOp16
 70
     1
102
RTVSPropertyOp17
 70
     1
102
RTVSPropertyOp18
 70
     1
102
RTVSPropertyOp19
 70
     1
102
RTVSPropertyOp20
 70
     1
102
RTVSPropertyOp21
 70
     1
102
RTVSPropertyOp22
 70
     1
102
RTVSPropertyOp23
 70
     1
102
RTVSPropertyOp24
 70
     1
102
RTVSPropertyOp25
 70
     1
102
RTVSPropertyOp26
 70
     1
102
RTVSPropertyOp27
 70
     1
102
RTVSPropertyOp28
 70
     1
102
RTVSPropertyOp29
 70
     1
102
RTVSPropertyOp30
 70
     1
102
RTVSPropertyOp31
 70
     1
102
RTVSPropertyOp32
 70
     1
  0
ENDSEC
  0
EOF
