  0
SECTION
  2
HEADER
  9
$ACADVER
  1
AC1021
  9
$ACADMAINTVER
 70
    25
  9
$DWGCODEPAGE
  3
ANSI_1252
  9
$INSBASE
 10
0.0
 20
0.0
 30
0.0
  9
$EXTMIN
 10
-12.66524
 20
-7.75511
 30
0.0
  9
$EXTMAX
 10
12.14248
 20
7.48489
 30
0.0
  9
$LIMMIN
 10
0.0
 20
0.0
  9
$LIMMAX
 10
12.0
 20
9.0
  9
$ORTHOMODE
 70
     0
  9
$REGENMODE
 70
     1
  9
$FILLMODE
 70
     1
  9
$QTEXTMODE
 70
     0
  9
$MIRRTEXT
 70
     1
  9
$LTSCALE
 40
1.0
  9
$ATTMODE
 70
     1
  9
$TEXTSIZE
 40
0.2
  9
$TRACEWID
 40
0.05
  9
$TEXTSTYLE
  7
Standard
  9
$CLAYER
  8
0
  9
$CELTYPE
  6
ByLayer
  9
$CECOLOR
 62
   256
  9
$CELTSCALE
 40
1.0
  9
$DISPSILH
 70
     0
  9
$DIMSCALE
 40
1.0
  9
$DIMASZ
 40
0.18
  9
$DIMEXO
 40
0.0625
  9
$DIMDLI
 40
0.38
  9
$DIMRND
 40
0.0
  9
$DIMDLE
 40
0.0
  9
$DIMEXE
 40
0.18
  9
$DIMTP
 40
0.0
  9
$DIMTM
 40
0.0
  9
$DIMTXT
 40
0.18
  9
$DIMCEN
 40
0.09
  9
$DIMTSZ
 40
0.0
  9
$DIMTOL
 70
     0
  9
$DIMLIM
 70
     0
  9
$DIMTIH
 70
     1
  9
$DIMTOH
 70
     1
  9
$DIMSE1
 70
     0
  9
$DIMSE2
 70
     0
  9
$DIMTAD
 70
     0
  9
$DIMZIN
 70
     0
  9
$DIMBLK
  1

  9
$DIMASO
 70
     1
  9
$DIMSHO
 70
     1
  9
$DIMPOST
  1

  9
$DIMAPOST
  1

  9
$DIMALT
 70
     0
  9
$DIMALTD
 70
     2
  9
$DIMALTF
 40
25.4
  9
$DIMLFAC
 40
1.0
  9
$DIMTOFL
 70
     0
  9
$DIMTVP
 40
0.0
  9
$DIMTIX
 70
     0
  9
$DIMSOXD
 70
     0
  9
$DIMSAH
 70
     0
  9
$DIMBLK1
  1

  9
$DIMBLK2
  1

  9
$DIMSTYLE
  2
Standard
  9
$DIMCLRD
 70
     0
  9
$DIMCLRE
 70
     0
  9
$DIMCLRT
 70
     0
  9
$DIMTFAC
 40
1.0
  9
$DIMGAP
 40
0.09
  9
$DIMJUST
 70
     0
  9
$DIMSD1
 70
     0
  9
$DIMSD2
 70
     0
  9
$DIMTOLJ
 70
     1
  9
$DIMTZIN
 70
     0
  9
$DIMALTZ
 70
     0
  9
$DIMALTTZ
 70
     0
  9
$DIMUPT
 70
     0
  9
$DIMDEC
 70
     4
  9
$DIMTDEC
 70
     4
  9
$DIMALTU
 70
     2
  9
$DIMALTTD
 70
     2
  9
$DIMTXSTY
  7
Standard
  9
$DIMAUNIT
 70
     0
  9
$DIMADEC
 70
     0
  9
$DIMALTRND
 40
0.0
  9
$DIMAZIN
 70
     0
  9
$DIMDSEP
 70
    46
  9
$DIMATFIT
 70
     3
  9
$DIMFRAC
 70
     0
  9
$DIMLDRBLK
  1

  9
$DIMLUNIT
 70
     2
  9
$DIMLWD
 70
    -2
  9
$DIMLWE
 70
    -2
  9
$DIMTMOVE
 70
     0
  9
$DIMFXL
 40
1.0
  9
$DIMFXLON
 70
     0
  9
$DIMJOGANG
 40
0.7853981633974483
  9
$DIMTFILL
 70
     0
  9
$DIMTFILLCLR
 70
     0
  9
$DIMARCSYM
 70
     0
  9
$DIMLTYPE
  6

  9
$DIMLTEX1
  6

  9
$DIMLTEX2
  6

  9
$LUNITS
 70
     2
  9
$LUPREC
 70
     4
  9
$SKETCHINC
 40
0.1
  9
$FILLETRAD
 40
0.5
  9
$AUNITS
 70
     0
  9
$AUPREC
 70
     0
  9
$MENU
  1
.
  9
$ELEVATION
 40
0.0
  9
$PELEVATION
 40
0.0
  9
$THICKNESS
 40
0.0
  9
$LIMCHECK
 70
     0
  9
$CHAMFERA
 40
0.5
  9
$CHAMFERB
 40
0.5
  9
$CHAMFERC
 40
1.0
  9
$CHAMFERD
 40
0.0
  9
$SKPOLY
 70
     0
  9
$TDCREATE
 40
2456231.950669097
  9
$TDUCREATE
 40
2456232.117335764
  9
$TDUPDATE
 40
2456231.950669155
  9
$TDUUPDATE
 40
2456232.117335822
  9
$TDINDWG
 40
0.0000000116
  9
$TDUSRTIMER
 40
0.0000000116
  9
$USRTIMER
 70
     1
  9
$ANGBASE
 50
0.0
  9
$ANGDIR
 70
     0
  9
$PDMODE
 70
     0
  9
$PDSIZE
 40
0.0
  9
$PLINEWID
 40
0.0
  9
$SPLFRAME
 70
     0
  9
$SPLINETYPE
 70
     6
  9
$SPLINESEGS
 70
     8
  9
$HANDSEED
  5
A5
  9
$SURFTAB1
 70
     6
  9
$SURFTAB2
 70
     6
  9
$SURFTYPE
 70
     6
  9
$SURFU
 70
     6
  9
$SURFV
 70
     6
  9
$UCSBASE
  2

  9
$UCSNAME
  2

  9
$UCSORG
 10
0.0
 20
0.0
 30
0.0
  9
$UCSXDIR
 10
1.0
 20
0.0
 30
0.0
  9
$UCSYDIR
 10
0.0
 20
1.0
 30
0.0
  9
$UCSORTHOREF
  2

  9
$UCSORTHOVIEW
 70
     0
  9
$UCSORGTOP
 10
0.0
 20
0.0
 30
0.0
  9
$UCSORGBOTTOM
 10
0.0
 20
0.0
 30
0.0
  9
$UCSORGLEFT
 10
0.0
 20
0.0
 30
0.0
  9
$UCSORGRIGHT
 10
0.0
 20
0.0
 30
0.0
  9
$UCSORGFRONT
 10
0.0
 20
0.0
 30
0.0
  9
$UCSORGBACK
 10
0.0
 20
0.0
 30
0.0
  9
$PUCSBASE
  2

  9
$PUCSNAME
  2

  9
$PUCSORG
 10
0.0
 20
0.0
 30
0.0
  9
$PUCSXDIR
 10
1.0
 20
0.0
 30
0.0
  9
$PUCSYDIR
 10
0.0
 20
1.0
 30
0.0
  9
$PUCSORTHOREF
  2

  9
$PUCSORTHOVIEW
 70
     0
  9
$PUCSORGTOP
 10
0.0
 20
0.0
 30
0.0
  9
$PUCSORGBOTTOM
 10
0.0
 20
0.0
 30
0.0
  9
$PUCSORGLEFT
 10
0.0
 20
0.0
 30
0.0
  9
$PUCSORGRIGHT
 10
0.0
 20
0.0
 30
0.0
  9
$PUCSORGFRONT
 10
0.0
 20
0.0
 30
0.0
  9
$PUCSORGBACK
 10
0.0
 20
0.0
 30
0.0
  9
$USERI1
 70
     0
  9
$USERI2
 70
     0
  9
$USERI3
 70
     0
  9
$USERI4
 70
     0
  9
$USERI5
 70
     0
  9
$USERR1
 40
0.0
  9
$USERR2
 40
0.0
  9
$USERR3
 40
0.0
  9
$USERR4
 40
0.0
  9
$USERR5
 40
0.0
  9
$WORLDVIEW
 70
     1
  9
$SHADEDGE
 70
     3
  9
$SHADEDIF
 70
    70
  9
$TILEMODE
 70
     1
  9
$MAXACTVP
 70
    64
  9
$PINSBASE
 10
0.0
 20
0.0
 30
0.0
  9
$PLIMCHECK
 70
     0
  9
$PEXTMIN
 10
1.000000000000000E+20
 20
1.000000000000000E+20
 30
1.000000000000000E+20
  9
$PEXTMAX
 10
-1.000000000000000E+20
 20
-1.000000000000000E+20
 30
-1.000000000000000E+20
  9
$PLIMMIN
 10
0.0
 20
0.0
  9
$PLIMMAX
 10
12.0
 20
9.0
  9
$UNITMODE
 70
     0
  9
$VISRETAIN
 70
     1
  9
$PLINEGEN
 70
     0
  9
$PSLTSCALE
 70
     1
  9
$TREEDEPTH
 70
  3020
  9
$CMLSTYLE
  2
Standard
  9
$CMLJUST
 70
     0
  9
$CMLSCALE
 40
1.0
  9
$PROXYGRAPHICS
 70
     1
  9
$MEASUREMENT
 70
     0
  9
$CELWEIGHT
370
    -1
  9
$ENDCAPS
280
     0
  9
$JOINSTYLE
280
     0
  9
$LWDISPLAY
290
     0
  9
$INSUNITS
 70
     5
  9
$HYPERLINKBASE
  1

  9
$STYLESHEET
  1

  9
$XEDIT
290
     1
  9
$CEPSNTYPE
380
     0
  9
$PSTYLEMODE
290
     1
  9
$FINGERPRINTGUID
  2
{26A49728-CAF8-4522-95F8-E39470B0AA0C}
  9
$VERSIONGUID
  2
{FAEB1C32-E019-11D5-929B-00C0DF256EC4}
  9
$EXTNAMES
290
     1
  9
$PSVPSCALE
 40
0.0
  9
$OLESTARTUP
290
     0
  9
$SORTENTS
280
   127
  9
$INDEXCTL
280
     0
  9
$HIDETEXT
280
     1
  9
$XCLIPFRAME
290
     0
  9
$HALOGAP
280
     0
  9
$OBSCOLOR
 70
   257
  9
$OBSLTYPE
280
     0
  9
$INTERSECTIONDISPLAY
280
     0
  9
$INTERSECTIONCOLOR
 70
   257
  9
$DIMASSOC
280
     2
  9
$PROJECTNAME
  1

  9
$CAMERADISPLAY
290
     0
  9
$LENSLENGTH
 40
50.0
  9
$CAMERAHEIGHT
 40
0.0
  9
$STEPSPERSEC
 40
2.0
  9
$STEPSIZE
 40
6.0
  9
$3DDWFPREC
 40
2.0
  9
$PSOLWIDTH
 40
0.25
  9
$PSOLHEIGHT
 40
4.0
  9
$LOFTANG1
 40
1.570796326794897
  9
$LOFTANG2
 40
1.570796326794897
  9
$LOFTMAG1
 40
0.0
  9
$LOFTMAG2
 40
0.0
  9
$LOFTPARAM
 70
     7
  9
$LOFTNORMALS
280
     1
  9
$LATITUDE
 40
37.795
  9
$LONGITUDE
 40
-122.394
  9
$NORTHDIRECTION
 40
0.0
  9
$TIMEZONE
 70
 -8000
  9
$LIGHTGLYPHDISPLAY
280
     1
  9
$TILEMODELIGHTSYNCH
280
     1
  9
$SOLIDHIST
280
     1
  9
$SHOWHIST
280
     1
  9
$DWFFRAME
280
     2
  9
$DGNFRAME
280
     2
  9
$REALWORLDSCALE
290
     1
  9
$INTERFERECOLOR
 62
   256
  9
$CSHADOW
280
     0
  9
$SHADOWPLANELOCATION
 40
0.0
  0
ENDSEC
  0
SECTION
  2
CLASSES
  0
CLASS
  1
ACDBDICTIONARYWDFLT
  2
AcDbDictionaryWithDefault
  3
ObjectDBX Classes
 90
        0
 91
        4
280
     0
281
     0
  0
CLASS
  1
VISUALSTYLE
  2
AcDbVisualStyle
  3
ObjectDBX Classes
 90
     4095
 91
        4
280
     0
281
     0
  0
CLASS
  1
MATERIAL
  2
AcDbMaterial
  3
ObjectDBX Classes
 90
     1153
 91
        4
280
     0
281
     0
  0
ENDSEC
  0
SECTION
  2
TABLES
  0
TABLE
  2
VPORT
  5
8
330
0
100
AcDbSymbolTable
 70
     1
  0
VPORT
  5
29
330
8
100
AcDbSymbolTableRecord
100
AcDbViewportTableRecord
  2
*Active
 70
     0
 10
0.0
 20
0.0
 11
1.0
 21
1.0
 12
10.42990654205607
 22
4.5
 13
0.0
 23
0.0
 14
0.5
 24
0.5
 15
0.5
 25
0.5
 16
0.0
 26
0.0
 36
1.0
 17
0.0
 27
0.0
 37
0.0
 40
9.0
 41
1.972972972850329
 42
50.0
 43
0.0
 44
0.0
 50
0.0
 51
0.0
 71
     0
 72
   100
 73
     1
 74
     3
 75
     0
 76
     0
 77
     0
 78
     0
281
     0
 65
     1
110
0.0
120
0.0
130
0.0
111
1.0
121
0.0
131
0.0
112
0.0
122
1.0
132
0.0
 79
     0
146
0.0
 60
     3
 61
     5
292
     1
282
     1
141
0.0
142
0.0
 63
   250
  0
ENDTAB
  0
TABLE
  2
LTYPE
  5
5
330
0
100
AcDbSymbolTable
 70
     1
  0
LTYPE
  5
14
330
5
100
AcDbSymbolTableRecord
100
AcDbLinetypeTableRecord
  2
ByBlock
 70
     0
  3

 72
    65
 73
     0
 40
0.0
  0
LTYPE
  5
15
330
5
100
AcDbSymbolTableRecord
100
AcDbLinetypeTableRecord
  2
ByLayer
 70
     0
  3

 72
    65
 73
     0
 40
0.0
  0
LTYPE
  5
16
330
5
100
AcDbSymbolTableRecord
100
AcDbLinetypeTableRecord
  2
Continuous
 70
     0
  3
Solid line
 72
    65
 73
     0
 40
0.0
  0
ENDTAB
  0
TABLE
  2
LAYER
  5
2
330
0
100
AcDbSymbolTable
 70
     3
  0
LAYER
  5
10
330
2
100
AcDbSymbolTableRecord
100
AcDbLayerTableRecord
  2
0
 70
     0
 62
     7
  6
Continuous
370
    -3
390
F
347
3E
  0
LAYER
  5
40
330
2
100
AcDbSymbolTableRecord
100
AcDbLayerTableRecord
  2
Layer 1
 70
     0
 62
     7
  6
Continuous
370
    -3
390
F
347
3E
  0
LAYER
  5
57
330
2
100
AcDbSymbolTableRecord
100
AcDbLayerTableRecord
  2
layer 2
 70
     0
 62
     7
  6
Continuous
370
    -3
390
F
347
3E
  0
ENDTAB
  0
TABLE
  2
STYLE
  5
3
330
0
100
AcDbSymbolTable
 70
     1
  0
STYLE
  5
11
330
3
100
AcDbSymbolTableRecord
100
AcDbTextStyleTableRecord
  2
Standard
 70
     0
 40
0.0
 41
1.0
 50
0.0
 71
     0
 42
0.2
  3
txt
  4

  0
ENDTAB
  0
TABLE
  2
VIEW
  5
6
330
0
100
AcDbSymbolTable
 70
     0
  0
ENDTAB
  0
TABLE
  2
UCS
  5
7
330
0
100
AcDbSymbolTable
 70
     0
  0
ENDTAB
  0
TABLE
  2
APPID
  5
9
330
0
100
AcDbSymbolTable
 70
     2
  0
APPID
  5
12
330
9
100
AcDbSymbolTableRecord
100
AcDbRegAppTableRecord
  2
ACAD
 70
     0
  0
APPID
  5
3F
330
9
100
AcDbSymbolTableRecord
100
AcDbRegAppTableRecord
  2
ODA
 70
     0
  0
ENDTAB
  0
TABLE
  2
DIMSTYLE
  5
A
330
0
100
AcDbSymbolTable
 70
     1
100
AcDbDimStyleTable
  0
DIMSTYLE
105
27
330
A
100
AcDbSymbolTableRecord
100
AcDbDimStyleTableRecord
  2
Standard
 70
     0
178
     0
340
11
  0
ENDTAB
  0
TABLE
  2
BLOCK_RECORD
  5
1
330
0
100
AcDbSymbolTable
 70
     1
  0
BLOCK_RECORD
  5
1F
330
1
100
AcDbSymbolTableRecord
100
AcDbBlockTableRecord
  2
*Model_Space
340
22
 70
     0
280
     1
281
     0
  0
BLOCK_RECORD
  5
1B
330
1
100
AcDbSymbolTableRecord
100
AcDbBlockTableRecord
  2
*Paper_Space
340
1E
 70
     0
280
     1
281
     0
  0
BLOCK_RECORD
  5
23
330
1
100
AcDbSymbolTableRecord
100
AcDbBlockTableRecord
  2
*Paper_Space0
340
26
 70
     0
280
     1
281
     0
  0
ENDTAB
  0
ENDSEC
  0
SECTION
  2
BLOCKS
  0
BLOCK
  5
20
330
1F
100
AcDbEntity
  8
0
100
AcDbBlockBegin
  2
*Model_Space
 70
     0
 10
0.0
 20
0.0
 30
0.0
  3
*Model_Space
  1

  0
ENDBLK
  5
21
330
1F
100
AcDbEntity
  8
0
100
AcDbBlockEnd
  0
BLOCK
  5
1C
330
1B
100
AcDbEntity
 67
     1
  8
0
100
AcDbBlockBegin
  2
*Paper_Space
 70
     0
 10
0.0
 20
0.0
 30
0.0
  3
*Paper_Space
  1

  0
ENDBLK
  5
1D
330
1B
100
AcDbEntity
 67
     1
  8
0
100
AcDbBlockEnd
  0
BLOCK
  5
24
330
23
100
AcDbEntity
  8
0
100
AcDbBlockBegin
  2
*Paper_Space0
 70
     0
 10
0.0
 20
0.0
 30
0.0
  3
*Paper_Space0
  1

  0
ENDBLK
  5
25
330
23
100
AcDbEntity
  8
0
100
AcDbBlockEnd
  0
ENDSEC
  0
SECTION
  2
ENTITIES
  0
SPLINE
  5
41
330
1F
100
AcDbEntity
  8
Layer 1
 62
   250
100
AcDbSpline
210
0.0
220
0.0
230
1.0
 70
    11
 71
     3
 72
    92
 73
    88
 74
     0
 42
0.0000000001
 43
0.0000000001
 12
1.0
 22
0.0
 32
0.0
 13
1.0
 23
0.0
 33
0.0
 40
0.0
 40
0.0
 40
0.0
 40
0.0
 40
0.0434782608695652
 40
0.0434782608695652
 40
0.0434782608695652
 40
0.0434782608695652
 40
0.0869565217391304
 40
0.0869565217391304
 40
0.0869565217391304
 40
0.0869565217391304
 40
0.1304347826086956
 40
0.1304347826086956
 40
0.1304347826086956
 40
0.1304347826086956
 40
0.1739130434782609
 40
0.1739130434782609
 40
0.1739130434782609
 40
0.1739130434782609
 40
0.2173913043478261
 40
0.2173913043478261
 40
0.2173913043478261
 40
0.2173913043478261
 40
0.2608695652173913
 40
0.2608695652173913
 40
0.2608695652173913
 40
0.2608695652173913
 40
0.3043478260869565
 40
0.3043478260869565
 40
0.3043478260869565
 40
0.3043478260869565
 40
0.3478260869565217
 40
0.3478260869565217
 40
0.3478260869565217
 40
0.3478260869565217
 40
0.391304347826087
 40
0.391304347826087
 40
0.391304347826087
 40
0.391304347826087
 40
0.4347826086956522
 40
0.4347826086956522
 40
0.4347826086956522
 40
0.4347826086956522
 40
0.4782608695652174
 40
0.4782608695652174
 40
0.4782608695652174
 40
0.4782608695652174
 40
0.5217391304347826
 40
0.5217391304347826
 40
0.5217391304347826
 40
0.5217391304347826
 40
0.5652173913043478
 40
0.5652173913043478
 40
0.5652173913043478
 40
0.5652173913043478
 40
0.6086956521739131
 40
0.6086956521739131
 40
0.6086956521739131
 40
0.6086956521739131
 40
0.6521739130434783
 40
0.6521739130434783
 40
0.6521739130434783
 40
0.6521739130434783
 40
0.6956521739130435
 40
0.6956521739130435
 40
0.6956521739130435
 40
0.6956521739130435
 40
0.7391304347826086
 40
0.7391304347826086
 40
0.7391304347826086
 40
0.7391304347826086
 40
0.782608695652174
 40
0.782608695652174
 40
0.782608695652174
 40
0.782608695652174
 40
0.8260869565217391
 40
0.8260869565217391
 40
0.8260869565217391
 40
0.8260869565217391
 40
0.8695652173913043
 40
0.8695652173913043
 40
0.8695652173913043
 40
0.8695652173913043
 40
0.9130434782608695
 40
0.9130434782608695
 40
0.9130434782608695
 40
0.9130434782608695
 40
1.0
 40
1.0
 40
1.0
 40
1.0
 10
-4.7326
 20
-7.67383
 30
0.0
 10
-4.7326
 20
-7.67383
 30
0.0
 10
-4.7326
 20
-7.74495
 30
0.0
 10
-4.7326
 20
-7.74495
 30
0.0
 10
-4.7326
 20
-7.74495
 30
0.0
 10
-4.7326
 20
-7.74495
 30
0.0
 10
-5.13393
 20
-7.74495
 30
0.0
 10
-5.13393
 20
-7.74495
 30
0.0
 10
-5.13393
 20
-7.74495
 30
0.0
 10
-5.13449
 20
-7.72703
 30
0.0
 10
-5.13153
 20
-7.70981
 30
0.0
 10
-5.12518
 20
-7.69316
 30
0.0
 10
-5.12518
 20
-7.69316
 30
0.0
 10
-5.11488
 20
-7.66593
 30
0.0
 10
-5.09837
 20
-7.63898
 30
0.0
 10
-5.07565
 20
-7.61259
 30
0.0
 10
-5.07565
 20
-7.61259
 30
0.0
 10
-5.05293
 20
-7.5862
 30
0.0
 10
-5.02047
 20
-7.55572
 30
0.0
 10
-4.97828
 20
-7.52115
 30
0.0
 10
-4.97828
 20
-7.52115
 30
0.0
 10
-4.91266
 20
-7.4671
 30
0.0
 10
-4.86807
 20
-7.42434
 30
0.0
 10
-4.84479
 20
-7.39274
 30
0.0
 10
-4.84479
 20
-7.39274
 30
0.0
 10
-4.82136
 20
-7.36113
 30
0.0
 10
-4.80965
 20
-7.33121
 30
0.0
 10
-4.80965
 20
-7.30299
 30
0.0
 10
-4.80965
 20
-7.30299
 30
0.0
 10
-4.80965
 20
-7.2735
 30
0.0
 10
-4.82024
 20
-7.24866
 30
0.0
 10
-4.8414
 20
-7.22834
 30
0.0
 10
-4.8414
 20
-7.22834
 30
0.0
 10
-4.86257
 20
-7.20816
 30
0.0
 10
-4.89023
 20
-7.198
 30
0.0
 10
-4.92423
 20
-7.198
 30
0.0
 10
-4.92423
 20
-7.198
 30
0.0
 10
-4.96022
 20
-7.198
 30
0.0
 10
-4.989
 20
-7.20873
 30
0.0
 10
-5.01059
 20
-7.23017
 30
0.0
 10
-5.01059
 20
-7.23017
 30
0.0
 10
-5.03219
 20
-7.25148
 30
0.0
 10
-5.04305
 20
-7.28112
 30
0.0
 10
-5.04333
 20
-7.31907
 30
0.0
 10
-5.04333
 20
-7.31907
 30
0.0
 10
-5.04333
 20
-7.31907
 30
0.0
 10
-5.11953
 20
-7.31145
 30
0.0
 10
-5.11953
 20
-7.31145
 30
0.0
 10
-5.11953
 20
-7.31145
 30
0.0
 10
-5.11431
 20
-7.25445
 30
0.0
 10
-5.09456
 20
-7.21098
 30
0.0
 10
-5.06041
 20
-7.18107
 30
0.0
 10
-5.06041
 20
-7.18107
 30
0.0
 10
-5.02612
 20
-7.15115
 30
0.0
 10
-4.98026
 20
-7.13619
 30
0.0
 10
-4.92254
 20
-7.13619
 30
0.0
 10
-4.92254
 20
-7.13619
 30
0.0
 10
-4.8644
 20
-7.13619
 30
0.0
 10
-4.81826
 20
-7.15228
 30
0.0
 10
-4.78439
 20
-7.1846
 30
0.0
 10
-4.78439
 20
-7.1846
 30
0.0
 10
-4.75039
 20
-7.21691
 30
0.0
 10
-4.73345
 20
-7.25699
 30
0.0
 10
-4.73345
 20
-7.30468
 30
0.0
 10
-4.73345
 20
-7.30468
 30
0.0
 10
-4.73345
 20
-7.32895
 30
0.0
 10
-4.73839
 20
-7.3528
 30
0.0
 10
-4.74841
 20
-7.37623
 30
0.0
 10
-4.74841
 20
-7.37623
 30
0.0
 10
-4.75829
 20
-7.39979
 30
0.0
 10
-4.7748
 20
-7.42449
 30
0.0
 10
-4.7978
 20
-7.45045
 30
0.0
 10
-4.7978
 20
-7.45045
 30
0.0
 10
-4.82094
 20
-7.47627
 30
0.0
 10
-4.85918
 20
-7.51197
 30
0.0
 10
-4.91252
 20
-7.55713
 30
0.0
 10
-4.91252
 20
-7.55713
 30
0.0
 10
-4.95725
 20
-7.59467
 30
0.0
 10
-4.98604
 20
-7.62007
 30
0.0
 10
-4.99874
 20
-7.63347
 30
0.0
 10
-4.99874
 20
-7.63347
 30
0.0
 10
-5.01144
 20
-7.64688
 30
0.0
 10
-5.02188
 20
-7.66028
 30
0.0
 10
-5.03021
 20
-7.67383
 30
0.0
 10
-5.03021
 20
-7.67383
 30
0.0
 10
-5.03021
 20
-7.67383
 30
0.0
 10
-4.7326
 20
-7.67383
 30
0.0
 10
-4.7326
 20
-7.67383
 30
0.0
  0
SPLINE
  5
42
330
1F
100
AcDbEntity
  8
Layer 1
 62
   250
100
AcDbSpline
210
0.0
220
0.0
230
1.0
 70
    11
 71
     3
 72
    52
 73
    48
 74
     0
 42
0.0000000001
 43
0.0000000001
 12
1.0
 22
0.0
 32
0.0
 13
1.0
 23
0.0
 33
0.0
 40
0.0
 40
0.0
 40
0.0
 40
0.0
 40
0.0769230769230769
 40
0.0769230769230769
 40
0.0769230769230769
 40
0.0769230769230769
 40
0.1538461538461539
 40
0.1538461538461539
 40
0.1538461538461539
 40
0.1538461538461539
 40
0.2307692307692308
 40
0.2307692307692308
 40
0.2307692307692308
 40
0.2307692307692308
 40
0.3076923076923077
 40
0.3076923076923077
 40
0.3076923076923077
 40
0.3076923076923077
 40
0.3846153846153846
 40
0.3846153846153846
 40
0.3846153846153846
 40
0.3846153846153846
 40
0.4615384615384616
 40
0.4615384615384616
 40
0.4615384615384616
 40
0.4615384615384616
 40
0.5384615384615384
 40
0.5384615384615384
 40
0.5384615384615384
 40
0.5384615384615384
 40
0.6153846153846154
 40
0.6153846153846154
 40
0.6153846153846154
 40
0.6153846153846154
 40
0.6923076923076923
 40
0.6923076923076923
 40
0.6923076923076923
 40
0.6923076923076923
 40
0.7692307692307693
 40
0.7692307692307693
 40
0.7692307692307693
 40
0.7692307692307693
 40
0.8461538461538461
 40
0.8461538461538461
 40
0.8461538461538461
 40
0.8461538461538461
 40
1.0
 40
1.0
 40
1.0
 40
1.0
 10
-4.65203
 20
-7.44579
 30
0.0
 10
-4.65203
 20
-7.37425
 30
0.0
 10
-4.64469
 20
-7.31639
 30
0.0
 10
-4.63002
 20
-7.27265
 30
0.0
 10
-4.63002
 20
-7.27265
 30
0.0
 10
-4.6152
 20
-7.22876
 30
0.0
 10
-4.59333
 20
-7.19504
 30
0.0
 10
-4.56426
 20
-7.17147
 30
0.0
 10
-4.56426
 20
-7.17147
 30
0.0
 10
-4.53533
 20
-7.14791
 30
0.0
 10
-4.49878
 20
-7.13619
 30
0.0
 10
-4.45476
 20
-7.13619
 30
0.0
 10
-4.45476
 20
-7.13619
 30
0.0
 10
-4.4223
 20
-7.13619
 30
0.0
 10
-4.3938
 20
-7.14269
 30
0.0
 10
-4.3691
 20
-7.15581
 30
0.0
 10
-4.3691
 20
-7.15581
 30
0.0
 10
-4.34455
 20
-7.16893
 30
0.0
 10
-4.32423
 20
-7.18784
 30
0.0
 10
-4.30842
 20
-7.21254
 30
0.0
 10
-4.30842
 20
-7.21254
 30
0.0
 10
-4.29262
 20
-7.23709
 30
0.0
 10
-4.2802
 20
-7.26715
 30
0.0
 10
-4.27117
 20
-7.30256
 30
0.0
 10
-4.27117
 20
-7.30256
 30
0.0
 10
-4.262
 20
-7.33798
 30
0.0
 10
-4.25748
 20
-7.38582
 30
0.0
 10
-4.25748
 20
-7.44579
 30
0.0
 10
-4.25748
 20
-7.44579
 30
0.0
 10
-4.25748
 20
-7.51691
 30
0.0
 10
-4.26482
 20
-7.57449
 30
0.0
 10
-4.27935
 20
-7.61823
 30
0.0
 10
-4.27935
 20
-7.61823
 30
0.0
 10
-4.29389
 20
-7.66212
 30
0.0
 10
-4.31576
 20
-7.69584
 30
0.0
 10
-4.34483
 20
-7.71955
 30
0.0
 10
-4.34483
 20
-7.71955
 30
0.0
 10
-4.37376
 20
-7.74326
 30
0.0
 10
-4.41045
 20
-7.75511
 30
0.0
 10
-4.45476
 20
-7.75511
 30
0.0
 10
-4.45476
 20
-7.75511
 30
0.0
 10
-4.51303
 20
-7.75511
 30
0.0
 10
-4.5589
 20
-7.73437
 30
0.0
 10
-4.5922
 20
-7.69274
 30
0.0
 10
-4.5922
 20
-7.69274
 30
0.0
 10
-4.63213
 20
-7.64194
 30
0.0
 10
-4.65203
 20
-7.55967
 30
0.0
 10
-4.65203
 20
-7.44579
 30
0.0
  0
SPLINE
  5
43
330
1F
100
AcDbEntity
  8
Layer 1
 62
   250
100
AcDbSpline
210
0.0
220
0.0
230
1.0
 70
    11
 71
     3
 72
    36
 73
    32
 74
     0
 42
0.0000000001
 43
0.0000000001
 12
1.0
 22
0.0
 32
0.0
 13
1.0
 23
0.0
 33
0.0
 40
0.0
 40
0.0
 40
0.0
 40
0.0
 40
0.1111111111111111
 40
0.1111111111111111
 40
0.1111111111111111
 40
0.1111111111111111
 40
0.2222222222222222
 40
0.2222222222222222
 40
0.2222222222222222
 40
0.2222222222222222
 40
0.3333333333333333
 40
0.3333333333333333
 40
0.3333333333333333
 40
0.3333333333333333
 40
0.4444444444444444
 40
0.4444444444444444
 40
0.4444444444444444
 40
0.4444444444444444
 40
0.5555555555555556
 40
0.5555555555555556
 40
0.5555555555555556
 40
0.5555555555555556
 40
0.6666666666666666
 40
0.6666666666666666
 40
0.6666666666666666
 40
0.6666666666666666
 40
0.7777777777777778
 40
0.7777777777777778
 40
0.7777777777777778
 40
0.7777777777777778
 40
1.0
 40
1.0
 40
1.0
 40
1.0
 10
-4.57583
 20
-7.44608
 30
0.0
 10
-4.57583
 20
-7.54584
 30
0.0
 10
-4.56426
 20
-7.61216
 30
0.0
 10
-4.54097
 20
-7.6449
 30
0.0
 10
-4.54097
 20
-7.6449
 30
0.0
 10
-4.51769
 20
-7.67778
 30
0.0
 10
-4.4889
 20
-7.69415
 30
0.0
 10
-4.45476
 20
-7.69415
 30
0.0
 10
-4.45476
 20
-7.69415
 30
0.0
 10
-4.42061
 20
-7.69415
 30
0.0
 10
-4.39182
 20
-7.67764
 30
0.0
 10
-4.36854
 20
-7.64476
 30
0.0
 10
-4.36854
 20
-7.64476
 30
0.0
 10
-4.34525
 20
-7.61174
 30
0.0
 10
-4.33368
 20
-7.54556
 30
0.0
 10
-4.33368
 20
-7.44608
 30
0.0
 10
-4.33368
 20
-7.44608
 30
0.0
 10
-4.33368
 20
-7.34631
 30
0.0
 10
-4.34525
 20
-7.27999
 30
0.0
 10
-4.36854
 20
-7.24725
 30
0.0
 10
-4.36854
 20
-7.24725
 30
0.0
 10
-4.39168
 20
-7.21437
 30
0.0
 10
-4.42075
 20
-7.198
 30
0.0
 10
-4.4556
 20
-7.198
 30
0.0
 10
-4.4556
 20
-7.198
 30
0.0
 10
-4.48975
 20
-7.198
 30
0.0
 10
-4.51713
 20
-7.21254
 30
0.0
 10
-4.53759
 20
-7.24146
 30
0.0
 10
-4.53759
 20
-7.24146
 30
0.0
 10
-4.56313
 20
-7.27829
 30
0.0
 10
-4.57583
 20
-7.34659
 30
0.0
 10
-4.57583
 20
-7.44608
 30
0.0
  0
SPLINE
  5
44
330
1F
100
AcDbEntity
  8
Layer 1
 62
   250
100
AcDbSpline
210
0.0
220
0.0
230
1.0
 70
    11
 71
     3
 72
   124
 73
   120
 74
     0
 42
0.0000000001
 43
0.0000000001
 12
1.0
 22
0.0
 32
0.0
 13
1.0
 23
0.0
 33
0.0
 40
0.0
 40
0.0
 40
0.0
 40
0.0
 40
0.032258064516129
 40
0.032258064516129
 40
0.032258064516129
 40
0.032258064516129
 40
0.0645161290322581
 40
0.0645161290322581
 40
0.0645161290322581
 40
0.0645161290322581
 40
0.0967741935483871
 40
0.0967741935483871
 40
0.0967741935483871
 40
0.0967741935483871
 40
0.1290322580645161
 40
0.1290322580645161
 40
0.1290322580645161
 40
0.1290322580645161
 40
0.1612903225806452
 40
0.1612903225806452
 40
0.1612903225806452
 40
0.1612903225806452
 40
0.1935483870967742
 40
0.1935483870967742
 40
0.1935483870967742
 40
0.1935483870967742
 40
0.2258064516129032
 40
0.2258064516129032
 40
0.2258064516129032
 40
0.2258064516129032
 40
0.2580645161290323
 40
0.2580645161290323
 40
0.2580645161290323
 40
0.2580645161290323
 40
0.2903225806451613
 40
0.2903225806451613
 40
0.2903225806451613
 40
0.2903225806451613
 40
0.3225806451612903
 40
0.3225806451612903
 40
0.3225806451612903
 40
0.3225806451612903
 40
0.3548387096774194
 40
0.3548387096774194
 40
0.3548387096774194
 40
0.3548387096774194
 40
0.3870967741935484
 40
0.3870967741935484
 40
0.3870967741935484
 40
0.3870967741935484
 40
0.4193548387096774
 40
0.4193548387096774
 40
0.4193548387096774
 40
0.4193548387096774
 40
0.4516129032258064
 40
0.4516129032258064
 40
0.4516129032258064
 40
0.4516129032258064
 40
0.4838709677419355
 40
0.4838709677419355
 40
0.4838709677419355
 40
0.4838709677419355
 40
0.5161290322580645
 40
0.5161290322580645
 40
0.5161290322580645
 40
0.5161290322580645
 40
0.5483870967741935
 40
0.5483870967741935
 40
0.5483870967741935
 40
0.5483870967741935
 40
0.5806451612903226
 40
0.5806451612903226
 40
0.5806451612903226
 40
0.5806451612903226
 40
0.6129032258064516
 40
0.6129032258064516
 40
0.6129032258064516
 40
0.6129032258064516
 40
0.6451612903225806
 40
0.6451612903225806
 40
0.6451612903225806
 40
0.6451612903225806
 40
0.6774193548387096
 40
0.6774193548387096
 40
0.6774193548387096
 40
0.6774193548387096
 40
0.7096774193548387
 40
0.7096774193548387
 40
0.7096774193548387
 40
0.7096774193548387
 40
0.7419354838709677
 40
0.7419354838709677
 40
0.7419354838709677
 40
0.7419354838709677
 40
0.7741935483870968
 40
0.7741935483870968
 40
0.7741935483870968
 40
0.7741935483870968
 40
0.8064516129032258
 40
0.8064516129032258
 40
0.8064516129032258
 40
0.8064516129032258
 40
0.8387096774193549
 40
0.8387096774193549
 40
0.8387096774193549
 40
0.8387096774193549
 40
0.8709677419354839
 40
0.8709677419354839
 40
0.8709677419354839
 40
0.8709677419354839
 40
0.9032258064516129
 40
0.9032258064516129
 40
0.9032258064516129
 40
0.9032258064516129
 40
0.9354838709677419
 40
0.9354838709677419
 40
0.9354838709677419
 40
0.9354838709677419
 40
1.0
 40
1.0
 40
1.0
 40
1.0
 10
-4.18114
 20
-7.58408
 30
0.0
 10
-4.18114
 20
-7.58408
 30
0.0
 10
-4.10663
 20
-7.57392
 30
0.0
 10
-4.10663
 20
-7.57392
 30
0.0
 10
-4.10663
 20
-7.57392
 30
0.0
 10
-4.09803
 20
-7.61626
 30
0.0
 10
-4.08363
 20
-7.64674
 30
0.0
 10
-4.06317
 20
-7.66536
 30
0.0
 10
-4.06317
 20
-7.66536
 30
0.0
 10
-4.04271
 20
-7.68399
 30
0.0
 10
-4.01759
 20
-7.6933
 30
0.0
 10
-3.98782
 20
-7.6933
 30
0.0
 10
-3.98782
 20
-7.6933
 30
0.0
 10
-3.95254
 20
-7.6933
 30
0.0
 10
-3.92276
 20
-7.68117
 30
0.0
 10
-3.89878
 20
-7.6569
 30
0.0
 10
-3.89878
 20
-7.6569
 30
0.0
 10
-3.87479
 20
-7.63263
 30
0.0
 10
-3.86279
 20
-7.60257
 30
0.0
 10
-3.86279
 20
-7.56673
 30
0.0
 10
-3.86279
 20
-7.56673
 30
0.0
 10
-3.86279
 20
-7.53258
 30
0.0
 10
-3.87394
 20
-7.50435
 30
0.0
 10
-3.89638
 20
-7.48206
 30
0.0
 10
-3.89638
 20
-7.48206
 30
0.0
 10
-3.91867
 20
-7.4599
 30
0.0
 10
-3.94704
 20
-7.44876
 30
0.0
 10
-3.98161
 20
-7.44876
 30
0.0
 10
-3.98161
 20
-7.44876
 30
0.0
 10
-3.99572
 20
-7.44876
 30
0.0
 10
-4.01322
 20
-7.45158
 30
0.0
 10
-4.03424
 20
-7.45708
 30
0.0
 10
-4.03424
 20
-7.45708
 30
0.0
 10
-4.03424
 20
-7.45708
 30
0.0
 10
-4.02592
 20
-7.39189
 30
0.0
 10
-4.02592
 20
-7.39189
 30
0.0
 10
-4.02592
 20
-7.39189
 30
0.0
 10
-4.02098
 20
-7.39245
 30
0.0
 10
-4.01689
 20
-7.39274
 30
0.0
 10
-4.01392
 20
-7.39274
 30
0.0
 10
-4.01392
 20
-7.39274
 30
0.0
 10
-3.98203
 20
-7.39274
 30
0.0
 10
-3.95353
 20
-7.38441
 30
0.0
 10
-3.92799
 20
-7.3679
 30
0.0
 10
-3.92799
 20
-7.3679
 30
0.0
 10
-3.90259
 20
-7.35139
 30
0.0
 10
-3.88989
 20
-7.32599
 30
0.0
 10
-3.88989
 20
-7.2917
 30
0.0
 10
-3.88989
 20
-7.2917
 30
0.0
 10
-3.88989
 20
-7.26446
 30
0.0
 10
-3.8992
 20
-7.24189
 30
0.0
 10
-3.91768
 20
-7.22397
 30
0.0
 10
-3.91768
 20
-7.22397
 30
0.0
 10
-3.93617
 20
-7.20604
 30
0.0
 10
-3.96002
 20
-7.19715
 30
0.0
 10
-3.98923
 20
-7.19715
 30
0.0
 10
-3.98923
 20
-7.19715
 30
0.0
 10
-4.0183
 20
-7.19715
 30
0.0
 10
-4.04243
 20
-7.20633
 30
0.0
 10
-4.06176
 20
-7.22467
 30
0.0
 10
-4.06176
 20
-7.22467
 30
0.0
 10
-4.08109
 20
-7.24302
 30
0.0
 10
-4.09351
 20
-7.27053
 30
0.0
 10
-4.09901
 20
-7.30722
 30
0.0
 10
-4.09901
 20
-7.30722
 30
0.0
 10
-4.09901
 20
-7.30722
 30
0.0
 10
-4.17352
 20
-7.29367
 30
0.0
 10
-4.17352
 20
-7.29367
 30
0.0
 10
-4.17352
 20
-7.29367
 30
0.0
 10
-4.16435
 20
-7.24372
 30
0.0
 10
-4.14375
 20
-7.20492
 30
0.0
 10
-4.11143
 20
-7.1774
 30
0.0
 10
-4.11143
 20
-7.1774
 30
0.0
 10
-4.07926
 20
-7.14988
 30
0.0
 10
-4.03904
 20
-7.13619
 30
0.0
 10
-3.99106
 20
-7.13619
 30
0.0
 10
-3.99106
 20
-7.13619
 30
0.0
 10
-3.95804
 20
-7.13619
 30
0.0
 10
-3.92756
 20
-7.14325
 30
0.0
 10
-3.89976
 20
-7.1575
 30
0.0
 10
-3.89976
 20
-7.1575
 30
0.0
 10
-3.87182
 20
-7.17161
 30
0.0
 10
-3.85052
 20
-7.19095
 30
0.0
 10
-3.83584
 20
-7.21536
 30
0.0
 10
-3.83584
 20
-7.21536
 30
0.0
 10
-3.82102
 20
-7.23991
 30
0.0
 10
-3.81369
 20
-7.26588
 30
0.0
 10
-3.81369
 20
-7.29339
 30
0.0
 10
-3.81369
 20
-7.29339
 30
0.0
 10
-3.81369
 20
-7.3195
 30
0.0
 10
-3.82074
 20
-7.34321
 30
0.0
 10
-3.83471
 20
-7.36465
 30
0.0
 10
-3.83471
 20
-7.36465
 30
0.0
 10
-3.84882
 20
-7.3861
 30
0.0
 10
-3.86971
 20
-7.40318
 30
0.0
 10
-3.89722
 20
-7.41588
 30
0.0
 10
-3.89722
 20
-7.41588
 30
0.0
 10
-3.86138
 20
-7.42406
 30
0.0
 10
-3.83358
 20
-7.44128
 30
0.0
 10
-3.81369
 20
-7.46738
 30
0.0
 10
-3.81369
 20
-7.46738
 30
0.0
 10
-3.79393
 20
-7.49335
 30
0.0
 10
-3.78405
 20
-7.52609
 30
0.0
 10
-3.78405
 20
-7.56517
 30
0.0
 10
-3.78405
 20
-7.56517
 30
0.0
 10
-3.78405
 20
-7.61809
 30
0.0
 10
-3.80338
 20
-7.66311
 30
0.0
 10
-3.84191
 20
-7.69994
 30
0.0
 10
-3.84191
 20
-7.69994
 30
0.0
 10
-3.88057
 20
-7.73677
 30
0.0
 10
-3.9294
 20
-7.75511
 30
0.0
 10
-3.98838
 20
-7.75511
 30
0.0
 10
-3.98838
 20
-7.75511
 30
0.0
 10
-4.04158
 20
-7.75511
 30
0.0
 10
-4.08575
 20
-7.73916
 30
0.0
 10
-4.12089
 20
-7.70741
 30
0.0
 10
-4.12089
 20
-7.70741
 30
0.0
 10
-4.15616
 20
-7.67566
 30
0.0
 10
-4.1762
 20
-7.6346
 30
0.0
 10
-4.18114
 20
-7.58408
 30
0.0
  0
SPLINE
  5
45
330
1F
100
AcDbEntity
  8
Layer 1
 62
   250
100
AcDbSpline
210
0.0
220
0.0
230
1.0
 70
    11
 71
     3
 72
   124
 73
   120
 74
     0
 42
0.0000000001
 43
0.0000000001
 12
1.0
 22
0.0
 32
0.0
 13
1.0
 23
0.0
 33
0.0
 40
0.0
 40
0.0
 40
0.0
 40
0.0
 40
0.032258064516129
 40
0.032258064516129
 40
0.032258064516129
 40
0.032258064516129
 40
0.0645161290322581
 40
0.0645161290322581
 40
0.0645161290322581
 40
0.0645161290322581
 40
0.0967741935483871
 40
0.0967741935483871
 40
0.0967741935483871
 40
0.0967741935483871
 40
0.1290322580645161
 40
0.1290322580645161
 40
0.1290322580645161
 40
0.1290322580645161
 40
0.1612903225806452
 40
0.1612903225806452
 40
0.1612903225806452
 40
0.1612903225806452
 40
0.1935483870967742
 40
0.1935483870967742
 40
0.1935483870967742
 40
0.1935483870967742
 40
0.2258064516129032
 40
0.2258064516129032
 40
0.2258064516129032
 40
0.2258064516129032
 40
0.2580645161290323
 40
0.2580645161290323
 40
0.2580645161290323
 40
0.2580645161290323
 40
0.2903225806451613
 40
0.2903225806451613
 40
0.2903225806451613
 40
0.2903225806451613
 40
0.3225806451612903
 40
0.3225806451612903
 40
0.3225806451612903
 40
0.3225806451612903
 40
0.3548387096774194
 40
0.3548387096774194
 40
0.3548387096774194
 40
0.3548387096774194
 40
0.3870967741935484
 40
0.3870967741935484
 40
0.3870967741935484
 40
0.3870967741935484
 40
0.4193548387096774
 40
0.4193548387096774
 40
0.4193548387096774
 40
0.4193548387096774
 40
0.4516129032258064
 40
0.4516129032258064
 40
0.4516129032258064
 40
0.4516129032258064
 40
0.4838709677419355
 40
0.4838709677419355
 40
0.4838709677419355
 40
0.4838709677419355
 40
0.5161290322580645
 40
0.5161290322580645
 40
0.5161290322580645
 40
0.5161290322580645
 40
0.5483870967741935
 40
0.5483870967741935
 40
0.5483870967741935
 40
0.5483870967741935
 40
0.5806451612903226
 40
0.5806451612903226
 40
0.5806451612903226
 40
0.5806451612903226
 40
0.6129032258064516
 40
0.6129032258064516
 40
0.6129032258064516
 40
0.6129032258064516
 40
0.6451612903225806
 40
0.6451612903225806
 40
0.6451612903225806
 40
0.6451612903225806
 40
0.6774193548387096
 40
0.6774193548387096
 40
0.6774193548387096
 40
0.6774193548387096
 40
0.7096774193548387
 40
0.7096774193548387
 40
0.7096774193548387
 40
0.7096774193548387
 40
0.7419354838709677
 40
0.7419354838709677
 40
0.7419354838709677
 40
0.7419354838709677
 40
0.7741935483870968
 40
0.7741935483870968
 40
0.7741935483870968
 40
0.7741935483870968
 40
0.8064516129032258
 40
0.8064516129032258
 40
0.8064516129032258
 40
0.8064516129032258
 40
0.8387096774193549
 40
0.8387096774193549
 40
0.8387096774193549
 40
0.8387096774193549
 40
0.8709677419354839
 40
0.8709677419354839
 40
0.8709677419354839
 40
0.8709677419354839
 40
0.9032258064516129
 40
0.9032258064516129
 40
0.9032258064516129
 40
0.9032258064516129
 40
0.9354838709677419
 40
0.9354838709677419
 40
0.9354838709677419
 40
0.9354838709677419
 40
1.0
 40
1.0
 40
1.0
 40
1.0
 10
-3.71025
 20
-7.58408
 30
0.0
 10
-3.71025
 20
-7.58408
 30
0.0
 10
-3.63574
 20
-7.57392
 30
0.0
 10
-3.63574
 20
-7.57392
 30
0.0
 10
-3.63574
 20
-7.57392
 30
0.0
 10
-3.62714
 20
-7.61626
 30
0.0
 10
-3.61274
 20
-7.64674
 30
0.0
 10
-3.59228
 20
-7.66536
 30
0.0
 10
-3.59228
 20
-7.66536
 30
0.0
 10
-3.57182
 20
-7.68399
 30
0.0
 10
-3.5467
 20
-7.6933
 30
0.0
 10
-3.51693
 20
-7.6933
 30
0.0
 10
-3.51693
 20
-7.6933
 30
0.0
 10
-3.48165
 20
-7.6933
 30
0.0
 10
-3.45187
 20
-7.68117
 30
0.0
 10
-3.42789
 20
-7.6569
 30
0.0
 10
-3.42789
 20
-7.6569
 30
0.0
 10
-3.4039
 20
-7.63263
 30
0.0
 10
-3.3919
 20
-7.60257
 30
0.0
 10
-3.3919
 20
-7.56673
 30
0.0
 10
-3.3919
 20
-7.56673
 30
0.0
 10
-3.3919
 20
-7.53258
 30
0.0
 10
-3.40305
 20
-7.50435
 30
0.0
 10
-3.42549
 20
-7.48206
 30
0.0
 10
-3.42549
 20
-7.48206
 30
0.0
 10
-3.44778
 20
-7.4599
 30
0.0
 10
-3.47615
 20
-7.44876
 30
0.0
 10
-3.51072
 20
-7.44876
 30
0.0
 10
-3.51072
 20
-7.44876
 30
0.0
 10
-3.52483
 20
-7.44876
 30
0.0
 10
-3.54233
 20
-7.45158
 30
0.0
 10
-3.56335
 20
-7.45708
 30
0.0
 10
-3.56335
 20
-7.45708
 30
0.0
 10
-3.56335
 20
-7.45708
 30
0.0
 10
-3.55503
 20
-7.39189
 30
0.0
 10
-3.55503
 20
-7.39189
 30
0.0
 10
-3.55503
 20
-7.39189
 30
0.0
 10
-3.55009
 20
-7.39245
 30
0.0
 10
-3.546
 20
-7.39274
 30
0.0
 10
-3.54303
 20
-7.39274
 30
0.0
 10
-3.54303
 20
-7.39274
 30
0.0
 10
-3.51114
 20
-7.39274
 30
0.0
 10
-3.48264
 20
-7.38441
 30
0.0
 10
-3.4571
 20
-7.3679
 30
0.0
 10
-3.4571
 20
-7.3679
 30
0.0
 10
-3.4317
 20
-7.35139
 30
0.0
 10
-3.419
 20
-7.32599
 30
0.0
 10
-3.419
 20
-7.2917
 30
0.0
 10
-3.419
 20
-7.2917
 30
0.0
 10
-3.419
 20
-7.26446
 30
0.0
 10
-3.42831
 20
-7.24189
 30
0.0
 10
-3.44679
 20
-7.22397
 30
0.0
 10
-3.44679
 20
-7.22397
 30
0.0
 10
-3.46528
 20
-7.20604
 30
0.0
 10
-3.48913
 20
-7.19715
 30
0.0
 10
-3.51834
 20
-7.19715
 30
0.0
 10
-3.51834
 20
-7.19715
 30
0.0
 10
-3.54741
 20
-7.19715
 30
0.0
 10
-3.57154
 20
-7.20633
 30
0.0
 10
-3.59087
 20
-7.22467
 30
0.0
 10
-3.59087
 20
-7.22467
 30
0.0
 10
-3.6102
 20
-7.24302
 30
0.0
 10
-3.62262
 20
-7.27053
 30
0.0
 10
-3.62812
 20
-7.30722
 30
0.0
 10
-3.62812
 20
-7.30722
 30
0.0
 10
-3.62812
 20
-7.30722
 30
0.0
 10
-3.70263
 20
-7.29367
 30
0.0
 10
-3.70263
 20
-7.29367
 30
0.0
 10
-3.70263
 20
-7.29367
 30
0.0
 10
-3.69346
 20
-7.24372
 30
0.0
 10
-3.67286
 20
-7.20492
 30
0.0
 10
-3.64054
 20
-7.1774
 30
0.0
 10
-3.64054
 20
-7.1774
 30
0.0
 10
-3.60837
 20
-7.14988
 30
0.0
 10
-3.56815
 20
-7.13619
 30
0.0
 10
-3.52017
 20
-7.13619
 30
0.0
 10
-3.52017
 20
-7.13619
 30
0.0
 10
-3.48715
 20
-7.13619
 30
0.0
 10
-3.45667
 20
-7.14325
 30
0.0
 10
-3.42887
 20
-7.1575
 30
0.0
 10
-3.42887
 20
-7.1575
 30
0.0
 10
-3.40093
 20
-7.17161
 30
0.0
 10
-3.37963
 20
-7.19095
 30
0.0
 10
-3.36495
 20
-7.21536
 30
0.0
 10
-3.36495
 20
-7.21536
 30
0.0
 10
-3.35013
 20
-7.23991
 30
0.0
 10
-3.3428
 20
-7.26588
 30
0.0
 10
-3.3428
 20
-7.29339
 30
0.0
 10
-3.3428
 20
-7.29339
 30
0.0
 10
-3.3428
 20
-7.3195
 30
0.0
 10
-3.34985
 20
-7.34321
 30
0.0
 10
-3.36382
 20
-7.36465
 30
0.0
 10
-3.36382
 20
-7.36465
 30
0.0
 10
-3.37793
 20
-7.3861
 30
0.0
 10
-3.39882
 20
-7.40318
 30
0.0
 10
-3.42633
 20
-7.41588
 30
0.0
 10
-3.42633
 20
-7.41588
 30
0.0
 10
-3.39049
 20
-7.42406
 30
0.0
 10
-3.36269
 20
-7.44128
 30
0.0
 10
-3.3428
 20
-7.46738
 30
0.0
 10
-3.3428
 20
-7.46738
 30
0.0
 10
-3.32304
 20
-7.49335
 30
0.0
 10
-3.31316
 20
-7.52609
 30
0.0
 10
-3.31316
 20
-7.56517
 30
0.0
 10
-3.31316
 20
-7.56517
 30
0.0
 10
-3.31316
 20
-7.61809
 30
0.0
 10
-3.33249
 20
-7.66311
 30
0.0
 10
-3.37102
 20
-7.69994
 30
0.0
 10
-3.37102
 20
-7.69994
 30
0.0
 10
-3.40968
 20
-7.73677
 30
0.0
 10
-3.45851
 20
-7.75511
 30
0.0
 10
-3.51749
 20
-7.75511
 30
0.0
 10
-3.51749
 20
-7.75511
 30
0.0
 10
-3.57069
 20
-7.75511
 30
0.0
 10
-3.61486
 20
-7.73916
 30
0.0
 10
-3.65
 20
-7.70741
 30
0.0
 10
-3.65
 20
-7.70741
 30
0.0
 10
-3.68527
 20
-7.67566
 30
0.0
 10
-3.70531
 20
-7.6346
 30
0.0
 10
-3.71025
 20
-7.58408
 30
0.0
  0
SPLINE
  5
46
330
1F
100
AcDbEntity
  8
Layer 1
 62
   250
100
AcDbSpline
210
0.0
220
0.0
230
1.0
 70
    11
 71
     3
 72
    92
 73
    88
 74
     0
 42
0.0000000001
 43
0.0000000001
 12
1.0
 22
0.0
 32
0.0
 13
1.0
 23
0.0
 33
0.0
 40
0.0
 40
0.0
 40
0.0
 40
0.0
 40
0.0434782608695652
 40
0.0434782608695652
 40
0.0434782608695652
 40
0.0434782608695652
 40
0.0869565217391304
 40
0.0869565217391304
 40
0.0869565217391304
 40
0.0869565217391304
 40
0.1304347826086956
 40
0.1304347826086956
 40
0.1304347826086956
 40
0.1304347826086956
 40
0.1739130434782609
 40
0.1739130434782609
 40
0.1739130434782609
 40
0.1739130434782609
 40
0.2173913043478261
 40
0.2173913043478261
 40
0.2173913043478261
 40
0.2173913043478261
 40
0.2608695652173913
 40
0.2608695652173913
 40
0.2608695652173913
 40
0.2608695652173913
 40
0.3043478260869565
 40
0.3043478260869565
 40
0.3043478260869565
 40
0.3043478260869565
 40
0.3478260869565217
 40
0.3478260869565217
 40
0.3478260869565217
 40
0.3478260869565217
 40
0.391304347826087
 40
0.391304347826087
 40
0.391304347826087
 40
0.391304347826087
 40
0.4347826086956522
 40
0.4347826086956522
 40
0.4347826086956522
 40
0.4347826086956522
 40
0.4782608695652174
 40
0.4782608695652174
 40
0.4782608695652174
 40
0.4782608695652174
 40
0.5217391304347826
 40
0.5217391304347826
 40
0.5217391304347826
 40
0.5217391304347826
 40
0.5652173913043478
 40
0.5652173913043478
 40
0.5652173913043478
 40
0.5652173913043478
 40
0.6086956521739131
 40
0.6086956521739131
 40
0.6086956521739131
 40
0.6086956521739131
 40
0.6521739130434783
 40
0.6521739130434783
 40
0.6521739130434783
 40
0.6521739130434783
 40
0.6956521739130435
 40
0.6956521739130435
 40
0.6956521739130435
 40
0.6956521739130435
 40
0.7391304347826086
 40
0.7391304347826086
 40
0.7391304347826086
 40
0.7391304347826086
 40
0.782608695652174
 40
0.782608695652174
 40
0.782608695652174
 40
0.782608695652174
 40
0.8260869565217391
 40
0.8260869565217391
 40
0.8260869565217391
 40
0.8260869565217391
 40
0.8695652173913043
 40
0.8695652173913043
 40
0.8695652173913043
 40
0.8695652173913043
 40
0.9130434782608695
 40
0.9130434782608695
 40
0.9130434782608695
 40
0.9130434782608695
 40
1.0
 40
1.0
 40
1.0
 40
1.0
 10
-2.84904
 20
-7.67383
 30
0.0
 10
-2.84904
 20
-7.67383
 30
0.0
 10
-2.84904
 20
-7.74495
 30
0.0
 10
-2.84904
 20
-7.74495
 30
0.0
 10
-2.84904
 20
-7.74495
 30
0.0
 10
-2.84904
 20
-7.74495
 30
0.0
 10
-3.25037
 20
-7.74495
 30
0.0
 10
-3.25037
 20
-7.74495
 30
0.0
 10
-3.25037
 20
-7.74495
 30
0.0
 10
-3.25093
 20
-7.72703
 30
0.0
 10
-3.24797
 20
-7.70981
 30
0.0
 10
-3.24162
 20
-7.69316
 30
0.0
 10
-3.24162
 20
-7.69316
 30
0.0
 10
-3.23132
 20
-7.66593
 30
0.0
 10
-3.21481
 20
-7.63898
 30
0.0
 10
-3.19209
 20
-7.61259
 30
0.0
 10
-3.19209
 20
-7.61259
 30
0.0
 10
-3.16937
 20
-7.5862
 30
0.0
 10
-3.13691
 20
-7.55572
 30
0.0
 10
-3.09472
 20
-7.52115
 30
0.0
 10
-3.09472
 20
-7.52115
 30
0.0
 10
-3.0291
 20
-7.4671
 30
0.0
 10
-2.98451
 20
-7.42434
 30
0.0
 10
-2.96123
 20
-7.39274
 30
0.0
 10
-2.96123
 20
-7.39274
 30
0.0
 10
-2.9378
 20
-7.36113
 30
0.0
 10
-2.92609
 20
-7.33121
 30
0.0
 10
-2.92609
 20
-7.30299
 30
0.0
 10
-2.92609
 20
-7.30299
 30
0.0
 10
-2.92609
 20
-7.2735
 30
0.0
 10
-2.93668
 20
-7.24866
 30
0.0
 10
-2.95784
 20
-7.22834
 30
0.0
 10
-2.95784
 20
-7.22834
 30
0.0
 10
-2.97901
 20
-7.20816
 30
0.0
 10
-3.00667
 20
-7.198
 30
0.0
 10
-3.04067
 20
-7.198
 30
0.0
 10
-3.04067
 20
-7.198
 30
0.0
 10
-3.07666
 20
-7.198
 30
0.0
 10
-3.10544
 20
-7.20873
 30
0.0
 10
-3.12703
 20
-7.23017
 30
0.0
 10
-3.12703
 20
-7.23017
 30
0.0
 10
-3.14863
 20
-7.25148
 30
0.0
 10
-3.15949
 20
-7.28112
 30
0.0
 10
-3.15977
 20
-7.31907
 30
0.0
 10
-3.15977
 20
-7.31907
 30
0.0
 10
-3.15977
 20
-7.31907
 30
0.0
 10
-3.23597
 20
-7.31145
 30
0.0
 10
-3.23597
 20
-7.31145
 30
0.0
 10
-3.23597
 20
-7.31145
 30
0.0
 10
-3.23075
 20
-7.25445
 30
0.0
 10
-3.211
 20
-7.21098
 30
0.0
 10
-3.17685
 20
-7.18107
 30
0.0
 10
-3.17685
 20
-7.18107
 30
0.0
 10
-3.14256
 20
-7.15115
 30
0.0
 10
-3.0967
 20
-7.13619
 30
0.0
 10
-3.03898
 20
-7.13619
 30
0.0
 10
-3.03898
 20
-7.13619
 30
0.0
 10
-2.98084
 20
-7.13619
 30
0.0
 10
-2.9347
 20
-7.15228
 30
0.0
 10
-2.90083
 20
-7.1846
 30
0.0
 10
-2.90083
 20
-7.1846
 30
0.0
 10
-2.86683
 20
-7.21691
 30
0.0
 10
-2.84989
 20
-7.25699
 30
0.0
 10
-2.84989
 20
-7.30468
 30
0.0
 10
-2.84989
 20
-7.30468
 30
0.0
 10
-2.84989
 20
-7.32895
 30
0.0
 10
-2.85483
 20
-7.3528
 30
0.0
 10
-2.86485
 20
-7.37623
 30
0.0
 10
-2.86485
 20
-7.37623
 30
0.0
 10
-2.87473
 20
-7.39979
 30
0.0
 10
-2.89124
 20
-7.42449
 30
0.0
 10
-2.91424
 20
-7.45045
 30
0.0
 10
-2.91424
 20
-7.45045
 30
0.0
 10
-2.93738
 20
-7.47627
 30
0.0
 10
-2.97562
 20
-7.51197
 30
0.0
 10
-3.02896
 20
-7.55713
 30
0.0
 10
-3.02896
 20
-7.55713
 30
0.0
 10
-3.07369
 20
-7.59467
 30
0.0
 10
-3.10248
 20
-7.62007
 30
0.0
 10
-3.11518
 20
-7.63347
 30
0.0
 10
-3.11518
 20
-7.63347
 30
0.0
 10
-3.12788
 20
-7.64688
 30
0.0
 10
-3.13832
 20
-7.66028
 30
0.0
 10
-3.14665
 20
-7.67383
 30
0.0
 10
-3.14665
 20
-7.67383
 30
0.0
 10
-3.14665
 20
-7.67383
 30
0.0
 10
-2.84904
 20
-7.67383
 30
0.0
 10
-2.84904
 20
-7.67383
 30
0.0
  0
SPLINE
  5
47
330
1F
100
AcDbEntity
  8
Layer 1
 62
   250
100
AcDbSpline
210
0.0
220
0.0
230
1.0
 70
    11
 71
     3
 72
    48
 73
    44
 74
     0
 42
0.0000000001
 43
0.0000000001
 12
1.0
 22
0.0
 32
0.0
 13
1.0
 23
0.0
 33
0.0
 40
0.0
 40
0.0
 40
0.0
 40
0.0
 40
0.0833333333333333
 40
0.0833333333333333
 40
0.0833333333333333
 40
0.0833333333333333
 40
0.1666666666666667
 40
0.1666666666666667
 40
0.1666666666666667
 40
0.1666666666666667
 40
0.25
 40
0.25
 40
0.25
 40
0.25
 40
0.3333333333333333
 40
0.3333333333333333
 40
0.3333333333333333
 40
0.3333333333333333
 40
0.4166666666666667
 40
0.4166666666666667
 40
0.4166666666666667
 40
0.4166666666666667
 40
0.5
 40
0.5
 40
0.5
 40
0.5
 40
0.5833333333333334
 40
0.5833333333333334
 40
0.5833333333333334
 40
0.5833333333333334
 40
0.6666666666666666
 40
0.6666666666666666
 40
0.6666666666666666
 40
0.6666666666666666
 40
0.75
 40
0.75
 40
0.75
 40
0.75
 40
0.8333333333333334
 40
0.8333333333333334
 40
0.8333333333333334
 40
0.8333333333333334
 40
1.0
 40
1.0
 40
1.0
 40
1.0
 10
-2.53056
 20
-7.74495
 30
0.0
 10
-2.53056
 20
-7.74495
 30
0.0
 10
-2.53056
 20
-7.60017
 30
0.0
 10
-2.53056
 20
-7.60017
 30
0.0
 10
-2.53056
 20
-7.60017
 30
0.0
 10
-2.53056
 20
-7.60017
 30
0.0
 10
-2.79387
 20
-7.60017
 30
0.0
 10
-2.79387
 20
-7.60017
 30
0.0
 10
-2.79387
 20
-7.60017
 30
0.0
 10
-2.79387
 20
-7.60017
 30
0.0
 10
-2.79387
 20
-7.53159
 30
0.0
 10
-2.79387
 20
-7.53159
 30
0.0
 10
-2.79387
 20
-7.53159
 30
0.0
 10
-2.79387
 20
-7.53159
 30
0.0
 10
-2.51701
 20
-7.13873
 30
0.0
 10
-2.51701
 20
-7.13873
 30
0.0
 10
-2.51701
 20
-7.13873
 30
0.0
 10
-2.51701
 20
-7.13873
 30
0.0
 10
-2.45605
 20
-7.13873
 30
0.0
 10
-2.45605
 20
-7.13873
 30
0.0
 10
-2.45605
 20
-7.13873
 30
0.0
 10
-2.45605
 20
-7.13873
 30
0.0
 10
-2.45605
 20
-7.53159
 30
0.0
 10
-2.45605
 20
-7.53159
 30
0.0
 10
-2.45605
 20
-7.53159
 30
0.0
 10
-2.45605
 20
-7.53159
 30
0.0
 10
-2.37392
 20
-7.53159
 30
0.0
 10
-2.37392
 20
-7.53159
 30
0.0
 10
-2.37392
 20
-7.53159
 30
0.0
 10
-2.37392
 20
-7.53159
 30
0.0
 10
-2.37392
 20
-7.60017
 30
0.0
 10
-2.37392
 20
-7.60017
 30
0.0
 10
-2.37392
 20
-7.60017
 30
0.0
 10
-2.37392
 20
-7.60017
 30
0.0
 10
-2.45605
 20
-7.60017
 30
0.0
 10
-2.45605
 20
-7.60017
 30
0.0
 10
-2.45605
 20
-7.60017
 30
0.0
 10
-2.45605
 20
-7.60017
 30
0.0
 10
-2.45605
 20
-7.74495
 30
0.0
 10
-2.45605
 20
-7.74495
 30
0.0
 10
-2.45605
 20
-7.74495
 30
0.0
 10
-2.45605
 20
-7.74495
 30
0.0
 10
-2.53056
 20
-7.74495
 30
0.0
 10
-2.53056
 20
-7.74495
 30
0.0
  0
SPLINE
  5
48
330
1F
100
AcDbEntity
  8
Layer 1
 62
   250
100
AcDbSpline
210
0.0
220
0.0
230
1.0
 70
    11
 71
     3
 72
    16
 73
    12
 74
     0
 42
0.0000000001
 43
0.0000000001
 12
1.0
 22
0.0
 32
0.0
 13
1.0
 23
0.0
 33
0.0
 40
0.0
 40
0.0
 40
0.0
 40
0.0
 40
0.25
 40
0.25
 40
0.25
 40
0.25
 40
0.5
 40
0.5
 40
0.5
 40
0.5
 40
1.0
 40
1.0
 40
1.0
 40
1.0
 10
-2.53056
 20
-7.53159
 30
0.0
 10
-2.53056
 20
-7.53159
 30
0.0
 10
-2.53056
 20
-7.25882
 30
0.0
 10
-2.53056
 20
-7.25882
 30
0.0
 10
-2.53056
 20
-7.25882
 30
0.0
 10
-2.53056
 20
-7.25882
 30
0.0
 10
-2.72063
 20
-7.53159
 30
0.0
 10
-2.72063
 20
-7.53159
 30
0.0
 10
-2.72063
 20
-7.53159
 30
0.0
 10
-2.72063
 20
-7.53159
 30
0.0
 10
-2.53056
 20
-7.53159
 30
0.0
 10
-2.53056
 20
-7.53159
 30
0.0
  0
SPLINE
  5
49
330
1F
100
AcDbEntity
  8
Layer 1
 62
   250
100
AcDbSpline
210
0.0
220
0.0
230
1.0
 70
    11
 71
     3
 72
    20
 73
    16
 74
     0
 42
0.0000000001
 43
0.0000000001
 12
1.0
 22
0.0
 32
0.0
 13
1.0
 23
0.0
 33
0.0
 40
0.0
 40
0.0
 40
0.0
 40
0.0
 40
0.2
 40
0.2
 40
0.2
 40
0.2
 40
0.4
 40
0.4
 40
0.4
 40
0.4
 40
0.6
 40
0.6
 40
0.6
 40
0.6
 40
1.0
 40
1.0
 40
1.0
 40
1.0
 10
-2.30689
 20
-7.56292
 30
0.0
 10
-2.30689
 20
-7.56292
 30
0.0
 10
-2.30689
 20
-7.48841
 30
0.0
 10
-2.30689
 20
-7.48841
 30
0.0
 10
-2.30689
 20
-7.48841
 30
0.0
 10
-2.30689
 20
-7.48841
 30
0.0
 10
-2.0766
 20
-7.48841
 30
0.0
 10
-2.0766
 20
-7.48841
 30
0.0
 10
-2.0766
 20
-7.48841
 30
0.0
 10
-2.0766
 20
-7.48841
 30
0.0
 10
-2.0766
 20
-7.56292
 30
0.0
 10
-2.0766
 20
-7.56292
 30
0.0
 10
-2.0766
 20
-7.56292
 30
0.0
 10
-2.0766
 20
-7.56292
 30
0.0
 10
-2.30689
 20
-7.56292
 30
0.0
 10
-2.30689
 20
-7.56292
 30
0.0
  0
SPLINE
  5
4A
330
1F
100
AcDbEntity
  8
Layer 1
 62
   250
100
AcDbSpline
210
0.0
220
0.0
230
1.0
 70
    11
 71
     3
 72
    28
 73
    24
 74
     0
 42
0.0000000001
 43
0.0000000001
 12
1.0
 22
0.0
 32
0.0
 13
1.0
 23
0.0
 33
0.0
 40
0.0
 40
0.0
 40
0.0
 40
0.0
 40
0.1428571428571428
 40
0.1428571428571428
 40
0.1428571428571428
 40
0.1428571428571428
 40
0.2857142857142857
 40
0.2857142857142857
 40
0.2857142857142857
 40
0.2857142857142857
 40
0.4285714285714285
 40
0.4285714285714285
 40
0.4285714285714285
 40
0.4285714285714285
 40
0.5714285714285714
 40
0.5714285714285714
 40
0.5714285714285714
 40
0.5714285714285714
 40
0.7142857142857143
 40
0.7142857142857143
 40
0.7142857142857143
 40
0.7142857142857143
 40
1.0
 40
1.0
 40
1.0
 40
1.0
 10
-1.98939
 20
-7.74495
 30
0.0
 10
-1.98939
 20
-7.74495
 30
0.0
 10
-1.98939
 20
-7.13873
 30
0.0
 10
-1.98939
 20
-7.13873
 30
0.0
 10
-1.98939
 20
-7.13873
 30
0.0
 10
-1.98939
 20
-7.13873
 30
0.0
 10
-1.90896
 20
-7.13873
 30
0.0
 10
-1.90896
 20
-7.13873
 30
0.0
 10
-1.90896
 20
-7.13873
 30
0.0
 10
-1.90896
 20
-7.13873
 30
0.0
 10
-1.90896
 20
-7.67383
 30
0.0
 10
-1.90896
 20
-7.67383
 30
0.0
 10
-1.90896
 20
-7.67383
 30
0.0
 10
-1.90896
 20
-7.67383
 30
0.0
 10
-1.61093
 20
-7.67383
 30
0.0
 10
-1.61093
 20
-7.67383
 30
0.0
 10
-1.61093
 20
-7.67383
 30
0.0
 10
-1.61093
 20
-7.67383
 30
0.0
 10
-1.61093
 20
-7.74495
 30
0.0
 10
-1.61093
 20
-7.74495
 30
0.0
 10
-1.61093
 20
-7.74495
 30
0.0
 10
-1.61093
 20
-7.74495
 30
0.0
 10
-1.98939
 20
-7.74495
 30
0.0
 10
-1.98939
 20
-7.74495
 30
0.0
  0
SPLINE
  5
4B
330
1F
100
AcDbEntity
  8
Layer 1
 62
   250
100
AcDbSpline
210
0.0
220
0.0
230
1.0
 70
    11
 71
     3
 72
    36
 73
    32
 74
     0
 42
0.0000000001
 43
0.0000000001
 12
1.0
 22
0.0
 32
0.0
 13
1.0
 23
0.0
 33
0.0
 40
0.0
 40
0.0
 40
0.0
 40
0.0
 40
0.1111111111111111
 40
0.1111111111111111
 40
0.1111111111111111
 40
0.1111111111111111
 40
0.2222222222222222
 40
0.2222222222222222
 40
0.2222222222222222
 40
0.2222222222222222
 40
0.3333333333333333
 40
0.3333333333333333
 40
0.3333333333333333
 40
0.3333333333333333
 40
0.4444444444444444
 40
0.4444444444444444
 40
0.4444444444444444
 40
0.4444444444444444
 40
0.5555555555555556
 40
0.5555555555555556
 40
0.5555555555555556
 40
0.5555555555555556
 40
0.6666666666666666
 40
0.6666666666666666
 40
0.6666666666666666
 40
0.6666666666666666
 40
0.7777777777777778
 40
0.7777777777777778
 40
0.7777777777777778
 40
0.7777777777777778
 40
1.0
 40
1.0
 40
1.0
 40
1.0
 10
-1.1725
 20
-7.74495
 30
0.0
 10
-1.1725
 20
-7.74495
 30
0.0
 10
-1.1725
 20
-7.20985
 30
0.0
 10
-1.1725
 20
-7.20985
 30
0.0
 10
-1.1725
 20
-7.20985
 30
0.0
 10
-1.1725
 20
-7.20985
 30
0.0
 10
-1.37232
 20
-7.20985
 30
0.0
 10
-1.37232
 20
-7.20985
 30
0.0
 10
-1.37232
 20
-7.20985
 30
0.0
 10
-1.37232
 20
-7.20985
 30
0.0
 10
-1.37232
 20
-7.13873
 30
0.0
 10
-1.37232
 20
-7.13873
 30
0.0
 10
-1.37232
 20
-7.13873
 30
0.0
 10
-1.37232
 20
-7.13873
 30
0.0
 10
-0.89225
 20
-7.13873
 30
0.0
 10
-0.89225
 20
-7.13873
 30
0.0
 10
-0.89225
 20
-7.13873
 30
0.0
 10
-0.89225
 20
-7.13873
 30
0.0
 10
-0.89225
 20
-7.20985
 30
0.0
 10
-0.89225
 20
-7.20985
 30
0.0
 10
-0.89225
 20
-7.20985
 30
0.0
 10
-0.89225
 20
-7.20985
 30
0.0
 10
-1.09207
 20
-7.20985
 30
0.0
 10
-1.09207
 20
-7.20985
 30
0.0
 10
-1.09207
 20
-7.20985
 30
0.0
 10
-1.09207
 20
-7.20985
 30
0.0
 10
-1.09207
 20
-7.74495
 30
0.0
 10
-1.09207
 20
-7.74495
 30
0.0
 10
-1.09207
 20
-7.74495
 30
0.0
 10
-1.09207
 20
-7.74495
 30
0.0
 10
-1.1725
 20
-7.74495
 30
0.0
 10
-1.1725
 20
-7.74495
 30
0.0
  0
SPLINE
  5
4C
330
1F
100
AcDbEntity
  8
Layer 1
 62
   250
100
AcDbSpline
210
0.0
220
0.0
230
1.0
 70
    11
 71
     3
 72
    52
 73
    48
 74
     0
 42
0.0000000001
 43
0.0000000001
 12
1.0
 22
0.0
 32
0.0
 13
1.0
 23
0.0
 33
0.0
 40
0.0
 40
0.0
 40
0.0
 40
0.0
 40
0.0769230769230769
 40
0.0769230769230769
 40
0.0769230769230769
 40
0.0769230769230769
 40
0.1538461538461539
 40
0.1538461538461539
 40
0.1538461538461539
 40
0.1538461538461539
 40
0.2307692307692308
 40
0.2307692307692308
 40
0.2307692307692308
 40
0.2307692307692308
 40
0.3076923076923077
 40
0.3076923076923077
 40
0.3076923076923077
 40
0.3076923076923077
 40
0.3846153846153846
 40
0.3846153846153846
 40
0.3846153846153846
 40
0.3846153846153846
 40
0.4615384615384616
 40
0.4615384615384616
 40
0.4615384615384616
 40
0.4615384615384616
 40
0.5384615384615384
 40
0.5384615384615384
 40
0.5384615384615384
 40
0.5384615384615384
 40
0.6153846153846154
 40
0.6153846153846154
 40
0.6153846153846154
 40
0.6153846153846154
 40
0.6923076923076923
 40
0.6923076923076923
 40
0.6923076923076923
 40
0.6923076923076923
 40
0.7692307692307693
 40
0.7692307692307693
 40
0.7692307692307693
 40
0.7692307692307693
 40
0.8461538461538461
 40
0.8461538461538461
 40
0.8461538461538461
 40
0.8461538461538461
 40
1.0
 40
1.0
 40
1.0
 40
1.0
 10
-0.80773
 20
-7.74495
 30
0.0
 10
-0.80773
 20
-7.74495
 30
0.0
 10
-0.80773
 20
-7.13873
 30
0.0
 10
-0.80773
 20
-7.13873
 30
0.0
 10
-0.80773
 20
-7.13873
 30
0.0
 10
-0.80773
 20
-7.13873
 30
0.0
 10
-0.37
 20
-7.13873
 30
0.0
 10
-0.37
 20
-7.13873
 30
0.0
 10
-0.37
 20
-7.13873
 30
0.0
 10
-0.37
 20
-7.13873
 30
0.0
 10
-0.37
 20
-7.20985
 30
0.0
 10
-0.37
 20
-7.20985
 30
0.0
 10
-0.37
 20
-7.20985
 30
0.0
 10
-0.37
 20
-7.20985
 30
0.0
 10
-0.7273
 20
-7.20985
 30
0.0
 10
-0.7273
 20
-7.20985
 30
0.0
 10
-0.7273
 20
-7.20985
 30
0.0
 10
-0.7273
 20
-7.20985
 30
0.0
 10
-0.7273
 20
-7.39612
 30
0.0
 10
-0.7273
 20
-7.39612
 30
0.0
 10
-0.7273
 20
-7.39612
 30
0.0
 10
-0.7273
 20
-7.39612
 30
0.0
 10
-0.39286
 20
-7.39612
 30
0.0
 10
-0.39286
 20
-7.39612
 30
0.0
 10
-0.39286
 20
-7.39612
 30
0.0
 10
-0.39286
 20
-7.39612
 30
0.0
 10
-0.39286
 20
-7.46724
 30
0.0
 10
-0.39286
 20
-7.46724
 30
0.0
 10
-0.39286
 20
-7.46724
 30
0.0
 10
-0.39286
 20
-7.46724
 30
0.0
 10
-0.7273
 20
-7.46724
 30
0.0
 10
-0.7273
 20
-7.46724
 30
0.0
 10
-0.7273
 20
-7.46724
 30
0.0
 10
-0.7273
 20
-7.46724
 30
0.0
 10
-0.7273
 20
-7.67383
 30
0.0
 10
-0.7273
 20
-7.67383
 30
0.0
 10
-0.7273
 20
-7.67383
 30
0.0
 10
-0.7273
 20
-7.67383
 30
0.0
 10
-0.35561
 20
-7.67383
 30
0.0
 10
-0.35561
 20
-7.67383
 30
0.0
 10
-0.35561
 20
-7.67383
 30
0.0
 10
-0.35561
 20
-7.67383
 30
0.0
 10
-0.35561
 20
-7.74495
 30
0.0
 10
-0.35561
 20
-7.74495
 30
0.0
 10
-0.35561
 20
-7.74495
 30
0.0
 10
-0.35561
 20
-7.74495
 30
0.0
 10
-0.80773
 20
-7.74495
 30
0.0
 10
-0.80773
 20
-7.74495
 30
0.0
  0
SPLINE
  5
4D
330
1F
100
AcDbEntity
  8
Layer 1
 62
   250
100
AcDbSpline
210
0.0
220
0.0
230
1.0
 70
    11
 71
     3
 72
    64
 73
    60
 74
     0
 42
0.0000000001
 43
0.0000000001
 12
1.0
 22
0.0
 32
0.0
 13
1.0
 23
0.0
 33
0.0
 40
0.0
 40
0.0
 40
0.0
 40
0.0
 40
0.0625
 40
0.0625
 40
0.0625
 40
0.0625
 40
0.125
 40
0.125
 40
0.125
 40
0.125
 40
0.1875
 40
0.1875
 40
0.1875
 40
0.1875
 40
0.25
 40
0.25
 40
0.25
 40
0.25
 40
0.3125
 40
0.3125
 40
0.3125
 40
0.3125
 40
0.375
 40
0.375
 40
0.375
 40
0.375
 40
0.4375
 40
0.4375
 40
0.4375
 40
0.4375
 40
0.5
 40
0.5
 40
0.5
 40
0.5
 40
0.5625
 40
0.5625
 40
0.5625
 40
0.5625
 40
0.625
 40
0.625
 40
0.625
 40
0.625
 40
0.6875
 40
0.6875
 40
0.6875
 40
0.6875
 40
0.75
 40
0.75
 40
0.75
 40
0.75
 40
0.8125
 40
0.8125
 40
0.8125
 40
0.8125
 40
0.875
 40
0.875
 40
0.875
 40
0.875
 40
1.0
 40
1.0
 40
1.0
 40
1.0
 10
-0.24639
 20
-7.74495
 30
0.0
 10
-0.24639
 20
-7.74495
 30
0.0
 10
-0.24639
 20
-7.13873
 30
0.0
 10
-0.24639
 20
-7.13873
 30
0.0
 10
-0.24639
 20
-7.13873
 30
0.0
 10
-0.24639
 20
-7.13873
 30
0.0
 10
-0.12616
 20
-7.13873
 30
0.0
 10
-0.12616
 20
-7.13873
 30
0.0
 10
-0.12616
 20
-7.13873
 30
0.0
 10
-0.12616
 20
-7.13873
 30
0.0
 10
0.01721
 20
-7.56785
 30
0.0
 10
0.01721
 20
-7.56785
 30
0.0
 10
0.01721
 20
-7.56785
 30
0.0
 10
0.03047
 20
-7.60779
 30
0.0
 10
0.04007
 20
-7.63771
 30
0.0
 10
0.04613
 20
-7.6576
 30
0.0
 10
0.04613
 20
-7.6576
 30
0.0
 10
0.05305
 20
-7.63559
 30
0.0
 10
0.06391
 20
-7.60313
 30
0.0
 10
0.07859
 20
-7.56038
 30
0.0
 10
0.07859
 20
-7.56038
 30
0.0
 10
0.07859
 20
-7.56038
 30
0.0
 10
0.2245
 20
-7.13873
 30
0.0
 10
0.2245
 20
-7.13873
 30
0.0
 10
0.2245
 20
-7.13873
 30
0.0
 10
0.2245
 20
-7.13873
 30
0.0
 10
0.33189
 20
-7.13873
 30
0.0
 10
0.33189
 20
-7.13873
 30
0.0
 10
0.33189
 20
-7.13873
 30
0.0
 10
0.33189
 20
-7.13873
 30
0.0
 10
0.33189
 20
-7.74495
 30
0.0
 10
0.33189
 20
-7.74495
 30
0.0
 10
0.33189
 20
-7.74495
 30
0.0
 10
0.33189
 20
-7.74495
 30
0.0
 10
0.25484
 20
-7.74495
 30
0.0
 10
0.25484
 20
-7.74495
 30
0.0
 10
0.25484
 20
-7.74495
 30
0.0
 10
0.25484
 20
-7.74495
 30
0.0
 10
0.25484
 20
-7.23779
 30
0.0
 10
0.25484
 20
-7.23779
 30
0.0
 10
0.25484
 20
-7.23779
 30
0.0
 10
0.25484
 20
-7.23779
 30
0.0
 10
0.07788
 20
-7.74495
 30
0.0
 10
0.07788
 20
-7.74495
 30
0.0
 10
0.07788
 20
-7.74495
 30
0.0
 10
0.07788
 20
-7.74495
 30
0.0
 10
0.00564
 20
-7.74495
 30
0.0
 10
0.00564
 20
-7.74495
 30
0.0
 10
0.00564
 20
-7.74495
 30
0.0
 10
0.00564
 20
-7.74495
 30
0.0
 10
-0.16934
 20
-7.22848
 30
0.0
 10
-0.16934
 20
-7.22848
 30
0.0
 10
-0.16934
 20
-7.22848
 30
0.0
 10
-0.16934
 20
-7.22848
 30
0.0
 10
-0.16934
 20
-7.74495
 30
0.0
 10
-0.16934
 20
-7.74495
 30
0.0
 10
-0.16934
 20
-7.74495
 30
0.0
 10
-0.16934
 20
-7.74495
 30
0.0
 10
-0.24639
 20
-7.74495
 30
0.0
 10
-0.24639
 20
-7.74495
 30
0.0
  0
SPLINE
  5
4E
330
1F
100
AcDbEntity
  8
Layer 1
 62
   250
100
AcDbSpline
210
0.0
220
0.0
230
1.0
 70
    11
 71
     3
 72
    48
 73
    44
 74
     0
 42
0.0000000001
 43
0.0000000001
 12
1.0
 22
0.0
 32
0.0
 13
1.0
 23
0.0
 33
0.0
 40
0.0
 40
0.0
 40
0.0
 40
0.0
 40
0.0833333333333333
 40
0.0833333333333333
 40
0.0833333333333333
 40
0.0833333333333333
 40
0.1666666666666667
 40
0.1666666666666667
 40
0.1666666666666667
 40
0.1666666666666667
 40
0.25
 40
0.25
 40
0.25
 40
0.25
 40
0.3333333333333333
 40
0.3333333333333333
 40
0.3333333333333333
 40
0.3333333333333333
 40
0.4166666666666667
 40
0.4166666666666667
 40
0.4166666666666667
 40
0.4166666666666667
 40
0.5
 40
0.5
 40
0.5
 40
0.5
 40
0.5833333333333334
 40
0.5833333333333334
 40
0.5833333333333334
 40
0.5833333333333334
 40
0.6666666666666666
 40
0.6666666666666666
 40
0.6666666666666666
 40
0.6666666666666666
 40
0.75
 40
0.75
 40
0.75
 40
0.75
 40
0.8333333333333334
 40
0.8333333333333334
 40
0.8333333333333334
 40
0.8333333333333334
 40
1.0
 40
1.0
 40
1.0
 40
1.0
 10
0.46058
 20
-7.74495
 30
0.0
 10
0.46058
 20
-7.74495
 30
0.0
 10
0.46058
 20
-7.13873
 30
0.0
 10
0.46058
 20
-7.13873
 30
0.0
 10
0.46058
 20
-7.13873
 30
0.0
 10
0.46058
 20
-7.13873
 30
0.0
 10
0.68947
 20
-7.13873
 30
0.0
 10
0.68947
 20
-7.13873
 30
0.0
 10
0.68947
 20
-7.13873
 30
0.0
 10
0.72968
 20
-7.13873
 30
0.0
 10
0.76045
 20
-7.14071
 30
0.0
 10
0.78175
 20
-7.14452
 30
0.0
 10
0.78175
 20
-7.14452
 30
0.0
 10
0.81153
 20
-7.14946
 30
0.0
 10
0.83651
 20
-7.15891
 30
0.0
 10
0.85668
 20
-7.17274
 30
0.0
 10
0.85668
 20
-7.17274
 30
0.0
 10
0.87686
 20
-7.18671
 30
0.0
 10
0.89309
 20
-7.20619
 30
0.0
 10
0.90537
 20
-7.23116
 30
0.0
 10
0.90537
 20
-7.23116
 30
0.0
 10
0.91764
 20
-7.25614
 30
0.0
 10
0.92371
 20
-7.28366
 30
0.0
 10
0.92371
 20
-7.31371
 30
0.0
 10
0.92371
 20
-7.31371
 30
0.0
 10
0.92371
 20
-7.36508
 30
0.0
 10
0.90734
 20
-7.40868
 30
0.0
 10
0.87446
 20
-7.44424
 30
0.0
 10
0.87446
 20
-7.44424
 30
0.0
 10
0.84173
 20
-7.47994
 30
0.0
 10
0.78232
 20
-7.49772
 30
0.0
 10
0.69652
 20
-7.49772
 30
0.0
 10
0.69652
 20
-7.49772
 30
0.0
 10
0.69652
 20
-7.49772
 30
0.0
 10
0.54102
 20
-7.49772
 30
0.0
 10
0.54102
 20
-7.49772
 30
0.0
 10
0.54102
 20
-7.49772
 30
0.0
 10
0.54102
 20
-7.49772
 30
0.0
 10
0.54102
 20
-7.74495
 30
0.0
 10
0.54102
 20
-7.74495
 30
0.0
 10
0.54102
 20
-7.74495
 30
0.0
 10
0.54102
 20
-7.74495
 30
0.0
 10
0.46058
 20
-7.74495
 30
0.0
 10
0.46058
 20
-7.74495
 30
0.0
  0
SPLINE
  5
4F
330
1F
100
AcDbEntity
  8
Layer 1
 62
   250
100
AcDbSpline
210
0.0
220
0.0
230
1.0
 70
    11
 71
     3
 72
    36
 73
    32
 74
     0
 42
0.0000000001
 43
0.0000000001
 12
1.0
 22
0.0
 32
0.0
 13
1.0
 23
0.0
 33
0.0
 40
0.0
 40
0.0
 40
0.0
 40
0.0
 40
0.1111111111111111
 40
0.1111111111111111
 40
0.1111111111111111
 40
0.1111111111111111
 40
0.2222222222222222
 40
0.2222222222222222
 40
0.2222222222222222
 40
0.2222222222222222
 40
0.3333333333333333
 40
0.3333333333333333
 40
0.3333333333333333
 40
0.3333333333333333
 40
0.4444444444444444
 40
0.4444444444444444
 40
0.4444444444444444
 40
0.4444444444444444
 40
0.5555555555555556
 40
0.5555555555555556
 40
0.5555555555555556
 40
0.5555555555555556
 40
0.6666666666666666
 40
0.6666666666666666
 40
0.6666666666666666
 40
0.6666666666666666
 40
0.7777777777777778
 40
0.7777777777777778
 40
0.7777777777777778
 40
0.7777777777777778
 40
1.0
 40
1.0
 40
1.0
 40
1.0
 10
0.54102
 20
-7.4266
 30
0.0
 10
0.54102
 20
-7.4266
 30
0.0
 10
0.69765
 20
-7.4266
 30
0.0
 10
0.69765
 20
-7.4266
 30
0.0
 10
0.69765
 20
-7.4266
 30
0.0
 10
0.74958
 20
-7.4266
 30
0.0
 10
0.78627
 20
-7.41701
 30
0.0
 10
0.80814
 20
-7.39767
 30
0.0
 10
0.80814
 20
-7.39767
 30
0.0
 10
0.82987
 20
-7.37834
 30
0.0
 10
0.84074
 20
-7.35125
 30
0.0
 10
0.84074
 20
-7.31611
 30
0.0
 10
0.84074
 20
-7.31611
 30
0.0
 10
0.84074
 20
-7.29085
 30
0.0
 10
0.83439
 20
-7.26912
 30
0.0
 10
0.82155
 20
-7.25106
 30
0.0
 10
0.82155
 20
-7.25106
 30
0.0
 10
0.80871
 20
-7.233
 30
0.0
 10
0.79177
 20
-7.221
 30
0.0
 10
0.77089
 20
-7.21522
 30
0.0
 10
0.77089
 20
-7.21522
 30
0.0
 10
0.75734
 20
-7.21169
 30
0.0
 10
0.73236
 20
-7.20985
 30
0.0
 10
0.6961
 20
-7.20985
 30
0.0
 10
0.6961
 20
-7.20985
 30
0.0
 10
0.6961
 20
-7.20985
 30
0.0
 10
0.54102
 20
-7.20985
 30
0.0
 10
0.54102
 20
-7.20985
 30
0.0
 10
0.54102
 20
-7.20985
 30
0.0
 10
0.54102
 20
-7.20985
 30
0.0
 10
0.54102
 20
-7.4266
 30
0.0
 10
0.54102
 20
-7.4266
 30
0.0
  0
SPLINE
  5
50
330
1F
100
AcDbEntity
  8
Layer 1
 62
   250
100
AcDbSpline
210
0.0
220
0.0
230
1.0
 70
    11
 71
     3
 72
    28
 73
    24
 74
     0
 42
0.0000000001
 43
0.0000000001
 12
1.0
 22
0.0
 32
0.0
 13
1.0
 23
0.0
 33
0.0
 40
0.0
 40
0.0
 40
0.0
 40
0.0
 40
0.1428571428571428
 40
0.1428571428571428
 40
0.1428571428571428
 40
0.1428571428571428
 40
0.2857142857142857
 40
0.2857142857142857
 40
0.2857142857142857
 40
0.2857142857142857
 40
0.4285714285714285
 40
0.4285714285714285
 40
0.4285714285714285
 40
0.4285714285714285
 40
0.5714285714285714
 40
0.5714285714285714
 40
0.5714285714285714
 40
0.5714285714285714
 40
0.7142857142857143
 40
0.7142857142857143
 40
0.7142857142857143
 40
0.7142857142857143
 40
1.0
 40
1.0
 40
1.0
 40
1.0
 10
1.02193
 20
-7.74495
 30
0.0
 10
1.02193
 20
-7.74495
 30
0.0
 10
1.02193
 20
-7.13873
 30
0.0
 10
1.02193
 20
-7.13873
 30
0.0
 10
1.02193
 20
-7.13873
 30
0.0
 10
1.02193
 20
-7.13873
 30
0.0
 10
1.10236
 20
-7.13873
 30
0.0
 10
1.10236
 20
-7.13873
 30
0.0
 10
1.10236
 20
-7.13873
 30
0.0
 10
1.10236
 20
-7.13873
 30
0.0
 10
1.10236
 20
-7.67383
 30
0.0
 10
1.10236
 20
-7.67383
 30
0.0
 10
1.10236
 20
-7.67383
 30
0.0
 10
1.10236
 20
-7.67383
 30
0.0
 10
1.40039
 20
-7.67383
 30
0.0
 10
1.40039
 20
-7.67383
 30
0.0
 10
1.40039
 20
-7.67383
 30
0.0
 10
1.40039
 20
-7.67383
 30
0.0
 10
1.40039
 20
-7.74495
 30
0.0
 10
1.40039
 20
-7.74495
 30
0.0
 10
1.40039
 20
-7.74495
 30
0.0
 10
1.40039
 20
-7.74495
 30
0.0
 10
1.02193
 20
-7.74495
 30
0.0
 10
1.02193
 20
-7.74495
 30
0.0
  0
SPLINE
  5
51
330
1F
100
AcDbEntity
  8
Layer 1
 62
   250
100
AcDbSpline
210
0.0
220
0.0
230
1.0
 70
    11
 71
     3
 72
    36
 73
    32
 74
     0
 42
0.0000000001
 43
0.0000000001
 12
1.0
 22
0.0
 32
0.0
 13
1.0
 23
0.0
 33
0.0
 40
0.0
 40
0.0
 40
0.0
 40
0.0
 40
0.1111111111111111
 40
0.1111111111111111
 40
0.1111111111111111
 40
0.1111111111111111
 40
0.2222222222222222
 40
0.2222222222222222
 40
0.2222222222222222
 40
0.2222222222222222
 40
0.3333333333333333
 40
0.3333333333333333
 40
0.3333333333333333
 40
0.3333333333333333
 40
0.4444444444444444
 40
0.4444444444444444
 40
0.4444444444444444
 40
0.4444444444444444
 40
0.5555555555555556
 40
0.5555555555555556
 40
0.5555555555555556
 40
0.5555555555555556
 40
0.6666666666666666
 40
0.6666666666666666
 40
0.6666666666666666
 40
0.6666666666666666
 40
0.7777777777777778
 40
0.7777777777777778
 40
0.7777777777777778
 40
0.7777777777777778
 40
1.0
 40
1.0
 40
1.0
 40
1.0
 10
1.42974
 20
-7.74495
 30
0.0
 10
1.42974
 20
-7.74495
 30
0.0
 10
1.66229
 20
-7.13873
 30
0.0
 10
1.66229
 20
-7.13873
 30
0.0
 10
1.66229
 20
-7.13873
 30
0.0
 10
1.66229
 20
-7.13873
 30
0.0
 10
1.75049
 20
-7.13873
 30
0.0
 10
1.75049
 20
-7.13873
 30
0.0
 10
1.75049
 20
-7.13873
 30
0.0
 10
1.75049
 20
-7.13873
 30
0.0
 10
1.99729
 20
-7.74495
 30
0.0
 10
1.99729
 20
-7.74495
 30
0.0
 10
1.99729
 20
-7.74495
 30
0.0
 10
1.99729
 20
-7.74495
 30
0.0
 10
1.90599
 20
-7.74495
 30
0.0
 10
1.90599
 20
-7.74495
 30
0.0
 10
1.90599
 20
-7.74495
 30
0.0
 10
1.90599
 20
-7.74495
 30
0.0
 10
1.83586
 20
-7.56122
 30
0.0
 10
1.83586
 20
-7.56122
 30
0.0
 10
1.83586
 20
-7.56122
 30
0.0
 10
1.83586
 20
-7.56122
 30
0.0
 10
1.58059
 20
-7.56122
 30
0.0
 10
1.58059
 20
-7.56122
 30
0.0
 10
1.58059
 20
-7.56122
 30
0.0
 10
1.58059
 20
-7.56122
 30
0.0
 10
1.51483
 20
-7.74495
 30
0.0
 10
1.51483
 20
-7.74495
 30
0.0
 10
1.51483
 20
-7.74495
 30
0.0
 10
1.51483
 20
-7.74495
 30
0.0
 10
1.42974
 20
-7.74495
 30
0.0
 10
1.42974
 20
-7.74495
 30
0.0
  0
SPLINE
  5
52
330
1F
100
AcDbEntity
  8
Layer 1
 62
   250
100
AcDbSpline
210
0.0
220
0.0
230
1.0
 70
    11
 71
     3
 72
    24
 73
    20
 74
     0
 42
0.0000000001
 43
0.0000000001
 12
1.0
 22
0.0
 32
0.0
 13
1.0
 23
0.0
 33
0.0
 40
0.0
 40
0.0
 40
0.0
 40
0.0
 40
0.1666666666666667
 40
0.1666666666666667
 40
0.1666666666666667
 40
0.1666666666666667
 40
0.3333333333333333
 40
0.3333333333333333
 40
0.3333333333333333
 40
0.3333333333333333
 40
0.5
 40
0.5
 40
0.5
 40
0.5
 40
0.6666666666666666
 40
0.6666666666666666
 40
0.6666666666666666
 40
0.6666666666666666
 40
1.0
 40
1.0
 40
1.0
 40
1.0
 10
1.60415
 20
-7.49603
 30
0.0
 10
1.60415
 20
-7.49603
 30
0.0
 10
1.81074
 20
-7.49603
 30
0.0
 10
1.81074
 20
-7.49603
 30
0.0
 10
1.81074
 20
-7.49603
 30
0.0
 10
1.81074
 20
-7.49603
 30
0.0
 10
1.74752
 20
-7.32797
 30
0.0
 10
1.74752
 20
-7.32797
 30
0.0
 10
1.74752
 20
-7.32797
 30
0.0
 10
1.72847
 20
-7.27688
 30
0.0
 10
1.71408
 20
-7.23469
 30
0.0
 10
1.70406
 20
-7.20139
 30
0.0
 10
1.70406
 20
-7.20139
 30
0.0
 10
1.69574
 20
-7.2409
 30
0.0
 10
1.68459
 20
-7.2797
 30
0.0
 10
1.67062
 20
-7.31809
 30
0.0
 10
1.67062
 20
-7.31809
 30
0.0
 10
1.67062
 20
-7.31809
 30
0.0
 10
1.60415
 20
-7.49603
 30
0.0
 10
1.60415
 20
-7.49603
 30
0.0
  0
SPLINE
  5
53
330
1F
100
AcDbEntity
  8
Layer 1
 62
   250
100
AcDbSpline
210
0.0
220
0.0
230
1.0
 70
    11
 71
     3
 72
    36
 73
    32
 74
     0
 42
0.0000000001
 43
0.0000000001
 12
1.0
 22
0.0
 32
0.0
 13
1.0
 23
0.0
 33
0.0
 40
0.0
 40
0.0
 40
0.0
 40
0.0
 40
0.1111111111111111
 40
0.1111111111111111
 40
0.1111111111111111
 40
0.1111111111111111
 40
0.2222222222222222
 40
0.2222222222222222
 40
0.2222222222222222
 40
0.2222222222222222
 40
0.3333333333333333
 40
0.3333333333333333
 40
0.3333333333333333
 40
0.3333333333333333
 40
0.4444444444444444
 40
0.4444444444444444
 40
0.4444444444444444
 40
0.4444444444444444
 40
0.5555555555555556
 40
0.5555555555555556
 40
0.5555555555555556
 40
0.5555555555555556
 40
0.6666666666666666
 40
0.6666666666666666
 40
0.6666666666666666
 40
0.6666666666666666
 40
0.7777777777777778
 40
0.7777777777777778
 40
0.7777777777777778
 40
0.7777777777777778
 40
1.0
 40
1.0
 40
1.0
 40
1.0
 10
2.15224
 20
-7.74495
 30
0.0
 10
2.15224
 20
-7.74495
 30
0.0
 10
2.15224
 20
-7.20985
 30
0.0
 10
2.15224
 20
-7.20985
 30
0.0
 10
2.15224
 20
-7.20985
 30
0.0
 10
2.15224
 20
-7.20985
 30
0.0
 10
1.95242
 20
-7.20985
 30
0.0
 10
1.95242
 20
-7.20985
 30
0.0
 10
1.95242
 20
-7.20985
 30
0.0
 10
1.95242
 20
-7.20985
 30
0.0
 10
1.95242
 20
-7.13873
 30
0.0
 10
1.95242
 20
-7.13873
 30
0.0
 10
1.95242
 20
-7.13873
 30
0.0
 10
1.95242
 20
-7.13873
 30
0.0
 10
2.43249
 20
-7.13873
 30
0.0
 10
2.43249
 20
-7.13873
 30
0.0
 10
2.43249
 20
-7.13873
 30
0.0
 10
2.43249
 20
-7.13873
 30
0.0
 10
2.43249
 20
-7.20985
 30
0.0
 10
2.43249
 20
-7.20985
 30
0.0
 10
2.43249
 20
-7.20985
 30
0.0
 10
2.43249
 20
-7.20985
 30
0.0
 10
2.23267
 20
-7.20985
 30
0.0
 10
2.23267
 20
-7.20985
 30
0.0
 10
2.23267
 20
-7.20985
 30
0.0
 10
2.23267
 20
-7.20985
 30
0.0
 10
2.23267
 20
-7.74495
 30
0.0
 10
2.23267
 20
-7.74495
 30
0.0
 10
2.23267
 20
-7.74495
 30
0.0
 10
2.23267
 20
-7.74495
 30
0.0
 10
2.15224
 20
-7.74495
 30
0.0
 10
2.15224
 20
-7.74495
 30
0.0
  0
SPLINE
  5
54
330
1F
100
AcDbEntity
  8
Layer 1
 62
   250
100
AcDbSpline
210
0.0
220
0.0
230
1.0
 70
    11
 71
     3
 72
    52
 73
    48
 74
     0
 42
0.0000000001
 43
0.0000000001
 12
1.0
 22
0.0
 32
0.0
 13
1.0
 23
0.0
 33
0.0
 40
0.0
 40
0.0
 40
0.0
 40
0.0
 40
0.0769230769230769
 40
0.0769230769230769
 40
0.0769230769230769
 40
0.0769230769230769
 40
0.1538461538461539
 40
0.1538461538461539
 40
0.1538461538461539
 40
0.1538461538461539
 40
0.2307692307692308
 40
0.2307692307692308
 40
0.2307692307692308
 40
0.2307692307692308
 40
0.3076923076923077
 40
0.3076923076923077
 40
0.3076923076923077
 40
0.3076923076923077
 40
0.3846153846153846
 40
0.3846153846153846
 40
0.3846153846153846
 40
0.3846153846153846
 40
0.4615384615384616
 40
0.4615384615384616
 40
0.4615384615384616
 40
0.4615384615384616
 40
0.5384615384615384
 40
0.5384615384615384
 40
0.5384615384615384
 40
0.5384615384615384
 40
0.6153846153846154
 40
0.6153846153846154
 40
0.6153846153846154
 40
0.6153846153846154
 40
0.6923076923076923
 40
0.6923076923076923
 40
0.6923076923076923
 40
0.6923076923076923
 40
0.7692307692307693
 40
0.7692307692307693
 40
0.7692307692307693
 40
0.7692307692307693
 40
0.8461538461538461
 40
0.8461538461538461
 40
0.8461538461538461
 40
0.8461538461538461
 40
1.0
 40
1.0
 40
1.0
 40
1.0
 10
2.51701
 20
-7.74495
 30
0.0
 10
2.51701
 20
-7.74495
 30
0.0
 10
2.51701
 20
-7.13873
 30
0.0
 10
2.51701
 20
-7.13873
 30
0.0
 10
2.51701
 20
-7.13873
 30
0.0
 10
2.51701
 20
-7.13873
 30
0.0
 10
2.95474
 20
-7.13873
 30
0.0
 10
2.95474
 20
-7.13873
 30
0.0
 10
2.95474
 20
-7.13873
 30
0.0
 10
2.95474
 20
-7.13873
 30
0.0
 10
2.95474
 20
-7.20985
 30
0.0
 10
2.95474
 20
-7.20985
 30
0.0
 10
2.95474
 20
-7.20985
 30
0.0
 10
2.95474
 20
-7.20985
 30
0.0
 10
2.59744
 20
-7.20985
 30
0.0
 10
2.59744
 20
-7.20985
 30
0.0
 10
2.59744
 20
-7.20985
 30
0.0
 10
2.59744
 20
-7.20985
 30
0.0
 10
2.59744
 20
-7.39612
 30
0.0
 10
2.59744
 20
-7.39612
 30
0.0
 10
2.59744
 20
-7.39612
 30
0.0
 10
2.59744
 20
-7.39612
 30
0.0
 10
2.93188
 20
-7.39612
 30
0.0
 10
2.93188
 20
-7.39612
 30
0.0
 10
2.93188
 20
-7.39612
 30
0.0
 10
2.93188
 20
-7.39612
 30
0.0
 10
2.93188
 20
-7.46724
 30
0.0
 10
2.93188
 20
-7.46724
 30
0.0
 10
2.93188
 20
-7.46724
 30
0.0
 10
2.93188
 20
-7.46724
 30
0.0
 10
2.59744
 20
-7.46724
 30
0.0
 10
2.59744
 20
-7.46724
 30
0.0
 10
2.59744
 20
-7.46724
 30
0.0
 10
2.59744
 20
-7.46724
 30
0.0
 10
2.59744
 20
-7.67383
 30
0.0
 10
2.59744
 20
-7.67383
 30
0.0
 10
2.59744
 20
-7.67383
 30
0.0
 10
2.59744
 20
-7.67383
 30
0.0
 10
2.96913
 20
-7.67383
 30
0.0
 10
2.96913
 20
-7.67383
 30
0.0
 10
2.96913
 20
-7.67383
 30
0.0
 10
2.96913
 20
-7.67383
 30
0.0
 10
2.96913
 20
-7.74495
 30
0.0
 10
2.96913
 20
-7.74495
 30
0.0
 10
2.96913
 20
-7.74495
 30
0.0
 10
2.96913
 20
-7.74495
 30
0.0
 10
2.51701
 20
-7.74495
 30
0.0
 10
2.51701
 20
-7.74495
 30
0.0
  0
SPLINE
  5
55
330
1F
100
AcDbEntity
  8
Layer 1
 62
     3
370
     9
100
AcDbSpline
210
0.0
220
0.0
230
1.0
 70
     8
 71
     3
 72
    32
 73
    28
 74
     0
 42
0.0000000001
 43
0.0000000001
 12
1.0
 22
0.0
 32
0.0
 13
1.0
 23
0.0
 33
0.0
 40
0.0
 40
0.0
 40
0.0
 40
0.0
 40
0.125
 40
0.125
 40
0.125
 40
0.125
 40
0.25
 40
0.25
 40
0.25
 40
0.25
 40
0.375
 40
0.375
 40
0.375
 40
0.375
 40
0.5
 40
0.5
 40
0.5
 40
0.5
 40
0.625
 40
0.625
 40
0.625
 40
0.625
 40
0.75
 40
0.75
 40
0.75
 40
0.75
 40
1.0
 40
1.0
 40
1.0
 40
1.0
 10
2.1314
 20
6.15155
 30
0.0
 10
2.1314
 20
6.15155
 30
0.0
 10
-10.57057
 20
6.15155
 30
0.0
 10
-10.57057
 20
6.15155
 30
0.0
 10
-10.57057
 20
6.15155
 30
0.0
 10
-10.64538
 20
6.1515
 30
0.0
 10
-10.7171
 20
6.12174
 30
0.0
 10
-10.76996
 20
6.06881
 30
0.0
 10
-10.76996
 20
6.06881
 30
0.0
 10
-10.82282
 20
6.01588
 30
0.0
 10
-10.85249
 20
5.94448
 30
0.0
 10
-10.85244
 20
5.86967
 30
0.0
 10
-10.85244
 20
5.86967
 30
0.0
 10
-10.85244
 20
5.86967
 30
0.0
 10
-10.85244
 20
-5.02183
 30
0.0
 10
-10.85244
 20
-5.02183
 30
0.0
 10
-10.85244
 20
-5.02183
 30
0.0
 10
-10.8524
 20
-5.09664
 30
0.0
 10
-10.82263
 20
-5.16836
 30
0.0
 10
-10.76971
 20
-5.22122
 30
0.0
 10
-10.76971
 20
-5.22122
 30
0.0
 10
-10.71678
 20
-5.27408
 30
0.0
 10
-10.64538
 20
-5.30375
 30
0.0
 10
-10.57057
 20
-5.3037
 30
0.0
 10
-10.57057
 20
-5.3037
 30
0.0
 10
-10.57057
 20
-5.3037
 30
0.0
 10
2.1314
 20
-5.3037
 30
0.0
 10
2.1314
 20
-5.3037
 30
0.0
  0
SPLINE
  5
56
330
1F
100
AcDbEntity
  8
Layer 1
 62
     3
370
     9
100
AcDbSpline
210
0.0
220
0.0
230
1.0
 70
     8
 71
     3
 72
    32
 73
    28
 74
     0
 42
0.0000000001
 43
0.0000000001
 12
1.0
 22
0.0
 32
0.0
 13
1.0
 23
0.0
 33
0.0
 40
0.0
 40
0.0
 40
0.0
 40
0.0
 40
0.125
 40
0.125
 40
0.125
 40
0.125
 40
0.25
 40
0.25
 40
0.25
 40
0.25
 40
0.375
 40
0.375
 40
0.375
 40
0.375
 40
0.5
 40
0.5
 40
0.5
 40
0.5
 40
0.625
 40
0.625
 40
0.625
 40
0.625
 40
0.75
 40
0.75
 40
0.75
 40
0.75
 40
1.0
 40
1.0
 40
1.0
 40
1.0
 10
2.1314
 20
6.15155
 30
0.0
 10
2.1314
 20
6.15155
 30
0.0
 10
10.34428
 20
6.15155
 30
0.0
 10
10.34428
 20
6.15155
 30
0.0
 10
10.34428
 20
6.15155
 30
0.0
 10
10.41899
 20
6.15159
 30
0.0
 10
10.49066
 20
6.12196
 30
0.0
 10
10.54352
 20
6.06917
 30
0.0
 10
10.54352
 20
6.06917
 30
0.0
 10
10.59638
 20
6.01637
 30
0.0
 10
10.62611
 20
5.94438
 30
0.0
 10
10.62615
 20
5.86967
 30
0.0
 10
10.62615
 20
5.86967
 30
0.0
 10
10.62615
 20
5.86967
 30
0.0
 10
10.62615
 20
-5.02183
 30
0.0
 10
10.62615
 20
-5.02183
 30
0.0
 10
10.62615
 20
-5.02183
 30
0.0
 10
10.6262
 20
-5.09654
 30
0.0
 10
10.59657
 20
-5.16821
 30
0.0
 10
10.54377
 20
-5.22107
 30
0.0
 10
10.54377
 20
-5.22107
 30
0.0
 10
10.49098
 20
-5.27393
 30
0.0
 10
10.41899
 20
-5.30366
 30
0.0
 10
10.34428
 20
-5.3037
 30
0.0
 10
10.34428
 20
-5.3037
 30
0.0
 10
10.34428
 20
-5.3037
 30
0.0
 10
2.1314
 20
-5.3037
 30
0.0
 10
2.1314
 20
-5.3037
 30
0.0
  0
SPLINE
  5
58
330
1F
100
AcDbEntity
  8
layer 2
 62
     1
370
     0
100
AcDbSpline
210
0.0
220
0.0
230
1.0
 70
    24
 71
     3
 72
     8
 73
     4
 74
     0
 42
0.0000000001
 43
0.0000000001
 12
1.0
 22
0.0
 32
0.0
 13
1.0
 23
0.0
 33
0.0
 40
0.0
 40
0.0
 40
0.0
 40
0.0
 40
1.0
 40
1.0
 40
1.0
 40
1.0
 10
-10.85244
 20
6.01061
 30
0.0
 10
-10.85244
 20
6.01061
 30
0.0
 10
-10.85244
 20
7.15286
 30
0.0
 10
-10.85244
 20
7.15286
 30
0.0
  0
SPLINE
  5
59
330
1F
100
AcDbEntity
  8
layer 2
 62
     1
370
     0
100
AcDbSpline
210
0.0
220
0.0
230
1.0
 70
    24
 71
     3
 72
     8
 73
     4
 74
     0
 42
0.0000000001
 43
0.0000000001
 12
1.0
 22
0.0
 32
0.0
 13
1.0
 23
0.0
 33
0.0
 40
0.0
 40
0.0
 40
0.0
 40
0.0
 40
1.0
 40
1.0
 40
1.0
 40
1.0
 10
10.62615
 20
6.01061
 30
0.0
 10
10.62615
 20
6.01061
 30
0.0
 10
10.62615
 20
7.15286
 30
0.0
 10
10.62615
 20
7.15286
 30
0.0
  0
SPLINE
  5
5A
330
1F
100
AcDbEntity
  8
layer 2
 62
     1
370
     0
100
AcDbSpline
210
0.0
220
0.0
230
1.0
 70
    24
 71
     3
 72
     8
 73
     4
 74
     0
 42
0.0000000001
 43
0.0000000001
 12
1.0
 22
0.0
 32
0.0
 13
1.0
 23
0.0
 33
0.0
 40
0.0
 40
0.0
 40
0.0
 40
0.0
 40
1.0
 40
1.0
 40
1.0
 40
1.0
 10
-10.2887
 20
6.87099
 30
0.0
 10
-10.2887
 20
6.87099
 30
0.0
 10
10.06241
 20
6.87099
 30
0.0
 10
10.06241
 20
6.87099
 30
0.0
  0
SPLINE
  5
5B
330
1F
100
AcDbEntity
  8
layer 2
 62
     1
100
AcDbSpline
210
0.0
220
0.0
230
1.0
 70
    27
 71
     3
 72
    12
 73
     8
 74
     0
 42
0.0000000001
 43
0.0000000001
 12
1.0
 22
0.0
 32
0.0
 13
1.0
 23
0.0
 33
0.0
 40
0.0
 40
0.0
 40
0.0
 40
0.0
 40
0.3333333333333333
 40
0.3333333333333333
 40
0.3333333333333333
 40
0.3333333333333333
 40
1.0
 40
1.0
 40
1.0
 40
1.0
 10
-10.2887
 20
6.96494
 30
0.0
 10
-10.2887
 20
6.96494
 30
0.0
 10
-10.85244
 20
6.87099
 30
0.0
 10
-10.85244
 20
6.87099
 30
0.0
 10
-10.85244
 20
6.87099
 30
0.0
 10
-10.85244
 20
6.87099
 30
0.0
 10
-10.2887
 20
6.96494
 30
0.0
 10
-10.2887
 20
6.96494
 30
0.0
  0
SPLINE
  5
5C
330
1F
100
AcDbEntity
  8
layer 2
 62
     1
100
AcDbSpline
210
0.0
220
0.0
230
1.0
 70
     8
 71
     3
 72
    12
 73
     8
 74
     0
 42
0.0000000001
 43
0.0000000001
 12
1.0
 22
0.0
 32
0.0
 13
1.0
 23
0.0
 33
0.0
 40
0.0
 40
0.0
 40
0.0
 40
0.0
 40
0.3333333333333333
 40
0.3333333333333333
 40
0.3333333333333333
 40
0.3333333333333333
 40
1.0
 40
1.0
 40
1.0
 40
1.0
 10
-10.85244
 20
6.87099
 30
0.0
 10
-10.85244
 20
6.87099
 30
0.0
 10
-10.2887
 20
6.77703
 30
0.0
 10
-10.2887
 20
6.77703
 30
0.0
 10
-10.2887
 20
6.77703
 30
0.0
 10
-10.2887
 20
6.77703
 30
0.0
 10
-10.2887
 20
6.96494
 30
0.0
 10
-10.2887
 20
6.96494
 30
0.0
  0
SPLINE
  5
5D
330
1F
100
AcDbEntity
  8
layer 2
 62
     1
370
     9
100
AcDbSpline
210
0.0
220
0.0
230
1.0
 70
    24
 71
     3
 72
     8
 73
     4
 74
     0
 42
0.0000000001
 43
0.0000000001
 12
1.0
 22
0.0
 32
0.0
 13
1.0
 23
0.0
 33
0.0
 40
0.0
 40
0.0
 40
0.0
 40
0.0
 40
1.0
 40
1.0
 40
1.0
 40
1.0
 10
-10.2887
 20
6.96494
 30
0.0
 10
-10.2887
 20
6.96494
 30
0.0
 10
-10.85244
 20
6.87099
 30
0.0
 10
-10.85244
 20
6.87099
 30
0.0
  0
SPLINE
  5
5E
330
1F
100
AcDbEntity
  8
layer 2
 62
     1
370
     9
100
AcDbSpline
210
0.0
220
0.0
230
1.0
 70
     8
 71
     3
 72
    12
 73
     8
 74
     0
 42
0.0000000001
 43
0.0000000001
 12
1.0
 22
0.0
 32
0.0
 13
1.0
 23
0.0
 33
0.0
 40
0.0
 40
0.0
 40
0.0
 40
0.0
 40
0.3333333333333333
 40
0.3333333333333333
 40
0.3333333333333333
 40
0.3333333333333333
 40
1.0
 40
1.0
 40
1.0
 40
1.0
 10
-10.85244
 20
6.87099
 30
0.0
 10
-10.85244
 20
6.87099
 30
0.0
 10
-10.2887
 20
6.77703
 30
0.0
 10
-10.2887
 20
6.77703
 30
0.0
 10
-10.2887
 20
6.77703
 30
0.0
 10
-10.2887
 20
6.77703
 30
0.0
 10
-10.2887
 20
6.96494
 30
0.0
 10
-10.2887
 20
6.96494
 30
0.0
  0
SPLINE
  5
5F
330
1F
100
AcDbEntity
  8
layer 2
 62
     1
100
AcDbSpline
210
0.0
220
0.0
230
1.0
 70
    27
 71
     3
 72
    12
 73
     8
 74
     0
 42
0.0000000001
 43
0.0000000001
 12
1.0
 22
0.0
 32
0.0
 13
1.0
 23
0.0
 33
0.0
 40
0.0
 40
0.0
 40
0.0
 40
0.0
 40
0.3333333333333333
 40
0.3333333333333333
 40
0.3333333333333333
 40
0.3333333333333333
 40
1.0
 40
1.0
 40
1.0
 40
1.0
 10
10.06241
 20
6.96494
 30
0.0
 10
10.06241
 20
6.96494
 30
0.0
 10
10.62615
 20
6.87099
 30
0.0
 10
10.62615
 20
6.87099
 30
0.0
 10
10.62615
 20
6.87099
 30
0.0
 10
10.62615
 20
6.87099
 30
0.0
 10
10.06241
 20
6.96494
 30
0.0
 10
10.06241
 20
6.96494
 30
0.0
  0
SPLINE
  5
60
330
1F
100
AcDbEntity
  8
layer 2
 62
     1
100
AcDbSpline
210
0.0
220
0.0
230
1.0
 70
     8
 71
     3
 72
    12
 73
     8
 74
     0
 42
0.0000000001
 43
0.0000000001
 12
1.0
 22
0.0
 32
0.0
 13
1.0
 23
0.0
 33
0.0
 40
0.0
 40
0.0
 40
0.0
 40
0.0
 40
0.3333333333333333
 40
0.3333333333333333
 40
0.3333333333333333
 40
0.3333333333333333
 40
1.0
 40
1.0
 40
1.0
 40
1.0
 10
10.62615
 20
6.87099
 30
0.0
 10
10.62615
 20
6.87099
 30
0.0
 10
10.06241
 20
6.77703
 30
0.0
 10
10.06241
 20
6.77703
 30
0.0
 10
10.06241
 20
6.77703
 30
0.0
 10
10.06241
 20
6.77703
 30
0.0
 10
10.06241
 20
6.96494
 30
0.0
 10
10.06241
 20
6.96494
 30
0.0
  0
SPLINE
  5
61
330
1F
100
AcDbEntity
  8
layer 2
 62
     1
370
     9
100
AcDbSpline
210
0.0
220
0.0
230
1.0
 70
    24
 71
     3
 72
     8
 73
     4
 74
     0
 42
0.0000000001
 43
0.0000000001
 12
1.0
 22
0.0
 32
0.0
 13
1.0
 23
0.0
 33
0.0
 40
0.0
 40
0.0
 40
0.0
 40
0.0
 40
1.0
 40
1.0
 40
1.0
 40
1.0
 10
10.06241
 20
6.96494
 30
0.0
 10
10.06241
 20
6.96494
 30
0.0
 10
10.62615
 20
6.87099
 30
0.0
 10
10.62615
 20
6.87099
 30
0.0
  0
SPLINE
  5
62
330
1F
100
AcDbEntity
  8
layer 2
 62
     1
370
     9
100
AcDbSpline
210
0.0
220
0.0
230
1.0
 70
     8
 71
     3
 72
    12
 73
     8
 74
     0
 42
0.0000000001
 43
0.0000000001
 12
1.0
 22
0.0
 32
0.0
 13
1.0
 23
0.0
 33
0.0
 40
0.0
 40
0.0
 40
0.0
 40
0.0
 40
0.3333333333333333
 40
0.3333333333333333
 40
0.3333333333333333
 40
0.3333333333333333
 40
1.0
 40
1.0
 40
1.0
 40
1.0
 10
10.62615
 20
6.87099
 30
0.0
 10
10.62615
 20
6.87099
 30
0.0
 10
10.06241
 20
6.77703
 30
0.0
 10
10.06241
 20
6.77703
 30
0.0
 10
10.06241
 20
6.77703
 30
0.0
 10
10.06241
 20
6.77703
 30
0.0
 10
10.06241
 20
6.96494
 30
0.0
 10
10.06241
 20
6.96494
 30
0.0
  0
SPLINE
  5
63
330
1F
100
AcDbEntity
  8
layer 2
 62
     1
100
AcDbSpline
210
0.0
220
0.0
230
1.0
 70
    11
 71
     3
 72
   124
 73
   120
 74
     0
 42
0.0000000001
 43
0.0000000001
 12
1.0
 22
0.0
 32
0.0
 13
1.0
 23
0.0
 33
0.0
 40
0.0
 40
0.0
 40
0.0
 40
0.0
 40
0.032258064516129
 40
0.032258064516129
 40
0.032258064516129
 40
0.032258064516129
 40
0.0645161290322581
 40
0.0645161290322581
 40
0.0645161290322581
 40
0.0645161290322581
 40
0.0967741935483871
 40
0.0967741935483871
 40
0.0967741935483871
 40
0.0967741935483871
 40
0.1290322580645161
 40
0.1290322580645161
 40
0.1290322580645161
 40
0.1290322580645161
 40
0.1612903225806452
 40
0.1612903225806452
 40
0.1612903225806452
 40
0.1612903225806452
 40
0.1935483870967742
 40
0.1935483870967742
 40
0.1935483870967742
 40
0.1935483870967742
 40
0.2258064516129032
 40
0.2258064516129032
 40
0.2258064516129032
 40
0.2258064516129032
 40
0.2580645161290323
 40
0.2580645161290323
 40
0.2580645161290323
 40
0.2580645161290323
 40
0.2903225806451613
 40
0.2903225806451613
 40
0.2903225806451613
 40
0.2903225806451613
 40
0.3225806451612903
 40
0.3225806451612903
 40
0.3225806451612903
 40
0.3225806451612903
 40
0.3548387096774194
 40
0.3548387096774194
 40
0.3548387096774194
 40
0.3548387096774194
 40
0.3870967741935484
 40
0.3870967741935484
 40
0.3870967741935484
 40
0.3870967741935484
 40
0.4193548387096774
 40
0.4193548387096774
 40
0.4193548387096774
 40
0.4193548387096774
 40
0.4516129032258064
 40
0.4516129032258064
 40
0.4516129032258064
 40
0.4516129032258064
 40
0.4838709677419355
 40
0.4838709677419355
 40
0.4838709677419355
 40
0.4838709677419355
 40
0.5161290322580645
 40
0.5161290322580645
 40
0.5161290322580645
 40
0.5161290322580645
 40
0.5483870967741935
 40
0.5483870967741935
 40
0.5483870967741935
 40
0.5483870967741935
 40
0.5806451612903226
 40
0.5806451612903226
 40
0.5806451612903226
 40
0.5806451612903226
 40
0.6129032258064516
 40
0.6129032258064516
 40
0.6129032258064516
 40
0.6129032258064516
 40
0.6451612903225806
 40
0.6451612903225806
 40
0.6451612903225806
 40
0.6451612903225806
 40
0.6774193548387096
 40
0.6774193548387096
 40
0.6774193548387096
 40
0.6774193548387096
 40
0.7096774193548387
 40
0.7096774193548387
 40
0.7096774193548387
 40
0.7096774193548387
 40
0.7419354838709677
 40
0.7419354838709677
 40
0.7419354838709677
 40
0.7419354838709677
 40
0.7741935483870968
 40
0.7741935483870968
 40
0.7741935483870968
 40
0.7741935483870968
 40
0.8064516129032258
 40
0.8064516129032258
 40
0.8064516129032258
 40
0.8064516129032258
 40
0.8387096774193549
 40
0.8387096774193549
 40
0.8387096774193549
 40
0.8387096774193549
 40
0.8709677419354839
 40
0.8709677419354839
 40
0.8709677419354839
 40
0.8709677419354839
 40
0.9032258064516129
 40
0.9032258064516129
 40
0.9032258064516129
 40
0.9032258064516129
 40
0.9354838709677419
 40
0.9354838709677419
 40
0.9354838709677419
 40
0.9354838709677419
 40
1.0
 40
1.0
 40
1.0
 40
1.0
 10
-0.47188
 20
7.21053
 30
0.0
 10
-0.47188
 20
7.21053
 30
0.0
 10
-0.42624
 20
7.21675
 30
0.0
 10
-0.42624
 20
7.21675
 30
0.0
 10
-0.42624
 20
7.21675
 30
0.0
 10
-0.42096
 20
7.19082
 30
0.0
 10
-0.41214
 20
7.17215
 30
0.0
 10
-0.39961
 20
7.16074
 30
0.0
 10
-0.39961
 20
7.16074
 30
0.0
 10
-0.38708
 20
7.14933
 30
0.0
 10
-0.37169
 20
7.14362
 30
0.0
 10
-0.35345
 20
7.14362
 30
0.0
 10
-0.35345
 20
7.14362
 30
0.0
 10
-0.33184
 20
7.14362
 30
0.0
 10
-0.3136
 20
7.15105
 30
0.0
 10
-0.29891
 20
7.16592
 30
0.0
 10
-0.29891
 20
7.16592
 30
0.0
 10
-0.28421
 20
7.18079
 30
0.0
 10
-0.27687
 20
7.1992
 30
0.0
 10
-0.27687
 20
7.22116
 30
0.0
 10
-0.27687
 20
7.22116
 30
0.0
 10
-0.27687
 20
7.24208
 30
0.0
 10
-0.2837
 20
7.25937
 30
0.0
 10
-0.29744
 20
7.27302
 30
0.0
 10
-0.29744
 20
7.27302
 30
0.0
 10
-0.3111
 20
7.28659
 30
0.0
 10
-0.32847
 20
7.29342
 30
0.0
 10
-0.34965
 20
7.29342
 30
0.0
 10
-0.34965
 20
7.29342
 30
0.0
 10
-0.35829
 20
7.29342
 30
0.0
 10
-0.36901
 20
7.29169
 30
0.0
 10
-0.38189
 20
7.28832
 30
0.0
 10
-0.38189
 20
7.28832
 30
0.0
 10
-0.38189
 20
7.28832
 30
0.0
 10
-0.37679
 20
7.32826
 30
0.0
 10
-0.37679
 20
7.32826
 30
0.0
 10
-0.37679
 20
7.32826
 30
0.0
 10
-0.37376
 20
7.32791
 30
0.0
 10
-0.37126
 20
7.32774
 30
0.0
 10
-0.36944
 20
7.32774
 30
0.0
 10
-0.36944
 20
7.32774
 30
0.0
 10
-0.34991
 20
7.32774
 30
0.0
 10
-0.33245
 20
7.33284
 30
0.0
 10
-0.3168
 20
7.34295
 30
0.0
 10
-0.3168
 20
7.34295
 30
0.0
 10
-0.30124
 20
7.35306
 30
0.0
 10
-0.29346
 20
7.36862
 30
0.0
 10
-0.29346
 20
7.38963
 30
0.0
 10
-0.29346
 20
7.38963
 30
0.0
 10
-0.29346
 20
7.40631
 30
0.0
 10
-0.29917
 20
7.42014
 30
0.0
 10
-0.31049
 20
7.43112
 30
0.0
 10
-0.31049
 20
7.43112
 30
0.0
 10
-0.32182
 20
7.4421
 30
0.0
 10
-0.33642
 20
7.44755
 30
0.0
 10
-0.35432
 20
7.44755
 30
0.0
 10
-0.35432
 20
7.44755
 30
0.0
 10
-0.37212
 20
7.44755
 30
0.0
 10
-0.38691
 20
7.44193
 30
0.0
 10
-0.39875
 20
7.43069
 30
0.0
 10
-0.39875
 20
7.43069
 30
0.0
 10
-0.41059
 20
7.41945
 30
0.0
 10
-0.4182
 20
7.4026
 30
0.0
 10
-0.42157
 20
7.38012
 30
0.0
 10
-0.42157
 20
7.38012
 30
0.0
 10
-0.42157
 20
7.38012
 30
0.0
 10
-0.46721
 20
7.38842
 30
0.0
 10
-0.46721
 20
7.38842
 30
0.0
 10
-0.46721
 20
7.38842
 30
0.0
 10
-0.46159
 20
7.41902
 30
0.0
 10
-0.44897
 20
7.44279
 30
0.0
 10
-0.42918
 20
7.45965
 30
0.0
 10
-0.42918
 20
7.45965
 30
0.0
 10
-0.40947
 20
7.4765
 30
0.0
 10
-0.38483
 20
7.48489
 30
0.0
 10
-0.35544
 20
7.48489
 30
0.0
 10
-0.35544
 20
7.48489
 30
0.0
 10
-0.33521
 20
7.48489
 30
0.0
 10
-0.31654
 20
7.48057
 30
0.0
 10
-0.29951
 20
7.47183
 30
0.0
 10
-0.29951
 20
7.47183
 30
0.0
 10
-0.2824
 20
7.46319
 30
0.0
 10
-0.26935
 20
7.45135
 30
0.0
 10
-0.26036
 20
7.43639
 30
0.0
 10
-0.26036
 20
7.43639
 30
0.0
 10
-0.25128
 20
7.42135
 30
0.0
 10
-0.24678
 20
7.40545
 30
0.0
 10
-0.24678
 20
7.38859
 30
0.0
 10
-0.24678
 20
7.38859
 30
0.0
 10
-0.24678
 20
7.3726
 30
0.0
 10
-0.25111
 20
7.35808
 30
0.0
 10
-0.25966
 20
7.34494
 30
0.0
 10
-0.25966
 20
7.34494
 30
0.0
 10
-0.26831
 20
7.3318
 30
0.0
 10
-0.2811
 20
7.32134
 30
0.0
 10
-0.29796
 20
7.31356
 30
0.0
 10
-0.29796
 20
7.31356
 30
0.0
 10
-0.276
 20
7.30855
 30
0.0
 10
-0.25897
 20
7.298
 30
0.0
 10
-0.24678
 20
7.28201
 30
0.0
 10
-0.24678
 20
7.28201
 30
0.0
 10
-0.23468
 20
7.26611
 30
0.0
 10
-0.22863
 20
7.24605
 30
0.0
 10
-0.22863
 20
7.22211
 30
0.0
 10
-0.22863
 20
7.22211
 30
0.0
 10
-0.22863
 20
7.18969
 30
0.0
 10
-0.24047
 20
7.16212
 30
0.0
 10
-0.26407
 20
7.13956
 30
0.0
 10
-0.26407
 20
7.13956
 30
0.0
 10
-0.28776
 20
7.117
 30
0.0
 10
-0.31767
 20
7.10576
 30
0.0
 10
-0.3538
 20
7.10576
 30
0.0
 10
-0.3538
 20
7.10576
 30
0.0
 10
-0.38639
 20
7.10576
 30
0.0
 10
-0.41344
 20
7.11553
 30
0.0
 10
-0.43496
 20
7.13498
 30
0.0
 10
-0.43496
 20
7.13498
 30
0.0
 10
-0.45658
 20
7.15442
 30
0.0
 10
-0.46885
 20
7.17958
 30
0.0
 10
-0.47188
 20
7.21053
 30
0.0
  0
SPLINE
  5
64
330
1F
100
AcDbEntity
  8
layer 2
 62
     1
100
AcDbSpline
210
0.0
220
0.0
230
1.0
 70
    11
 71
     3
 72
    52
 73
    48
 74
     0
 42
0.0000000001
 43
0.0000000001
 12
1.0
 22
0.0
 32
0.0
 13
1.0
 23
0.0
 33
0.0
 40
0.0
 40
0.0
 40
0.0
 40
0.0
 40
0.0769230769230769
 40
0.0769230769230769
 40
0.0769230769230769
 40
0.0769230769230769
 40
0.1538461538461539
 40
0.1538461538461539
 40
0.1538461538461539
 40
0.1538461538461539
 40
0.2307692307692308
 40
0.2307692307692308
 40
0.2307692307692308
 40
0.2307692307692308
 40
0.3076923076923077
 40
0.3076923076923077
 40
0.3076923076923077
 40
0.3076923076923077
 40
0.3846153846153846
 40
0.3846153846153846
 40
0.3846153846153846
 40
0.3846153846153846
 40
0.4615384615384616
 40
0.4615384615384616
 40
0.4615384615384616
 40
0.4615384615384616
 40
0.5384615384615384
 40
0.5384615384615384
 40
0.5384615384615384
 40
0.5384615384615384
 40
0.6153846153846154
 40
0.6153846153846154
 40
0.6153846153846154
 40
0.6153846153846154
 40
0.6923076923076923
 40
0.6923076923076923
 40
0.6923076923076923
 40
0.6923076923076923
 40
0.7692307692307693
 40
0.7692307692307693
 40
0.7692307692307693
 40
0.7692307692307693
 40
0.8461538461538461
 40
0.8461538461538461
 40
0.8461538461538461
 40
0.8461538461538461
 40
1.0
 40
1.0
 40
1.0
 40
1.0
 10
-0.18342
 20
7.29524
 30
0.0
 10
-0.18342
 20
7.33906
 30
0.0
 10
-0.17893
 20
7.3745
 30
0.0
 10
-0.16994
 20
7.4013
 30
0.0
 10
-0.16994
 20
7.4013
 30
0.0
 10
-0.16086
 20
7.42818
 30
0.0
 10
-0.14746
 20
7.44884
 30
0.0
 10
-0.12966
 20
7.46328
 30
0.0
 10
-0.12966
 20
7.46328
 30
0.0
 10
-0.11194
 20
7.47771
 30
0.0
 10
-0.08955
 20
7.48489
 30
0.0
 10
-0.06258
 20
7.48489
 30
0.0
 10
-0.06258
 20
7.48489
 30
0.0
 10
-0.0427
 20
7.48489
 30
0.0
 10
-0.02524
 20
7.48091
 30
0.0
 10
-0.01011
 20
7.47287
 30
0.0
 10
-0.01011
 20
7.47287
 30
0.0
 10
0.00493
 20
7.46483
 30
0.0
 10
0.01738
 20
7.45325
 30
0.0
 10
0.02706
 20
7.43812
 30
0.0
 10
0.02706
 20
7.43812
 30
0.0
 10
0.03674
 20
7.42308
 30
0.0
 10
0.04435
 20
7.40467
 30
0.0
 10
0.04988
 20
7.38297
 30
0.0
 10
0.04988
 20
7.38297
 30
0.0
 10
0.0555
 20
7.36128
 30
0.0
 10
0.05826
 20
7.33198
 30
0.0
 10
0.05826
 20
7.29524
 30
0.0
 10
0.05826
 20
7.29524
 30
0.0
 10
0.05826
 20
7.25167
 30
0.0
 10
0.05377
 20
7.2164
 30
0.0
 10
0.04487
 20
7.18961
 30
0.0
 10
0.04487
 20
7.18961
 30
0.0
 10
0.03596
 20
7.16272
 30
0.0
 10
0.02257
 20
7.14206
 30
0.0
 10
0.00476
 20
7.12754
 30
0.0
 10
0.00476
 20
7.12754
 30
0.0
 10
-0.01296
 20
7.11302
 30
0.0
 10
-0.03544
 20
7.10576
 30
0.0
 10
-0.06258
 20
7.10576
 30
0.0
 10
-0.06258
 20
7.10576
 30
0.0
 10
-0.09828
 20
7.10576
 30
0.0
 10
-0.12637
 20
7.11847
 30
0.0
 10
-0.14677
 20
7.14397
 30
0.0
 10
-0.14677
 20
7.14397
 30
0.0
 10
-0.17123
 20
7.17509
 30
0.0
 10
-0.18342
 20
7.22548
 30
0.0
 10
-0.18342
 20
7.29524
 30
0.0
  0
SPLINE
  5
65
330
1F
100
AcDbEntity
  8
layer 2
 62
     1
100
AcDbSpline
210
0.0
220
0.0
230
1.0
 70
    11
 71
     3
 72
    36
 73
    32
 74
     0
 42
0.0000000001
 43
0.0000000001
 12
1.0
 22
0.0
 32
0.0
 13
1.0
 23
0.0
 33
0.0
 40
0.0
 40
0.0
 40
0.0
 40
0.0
 40
0.1111111111111111
 40
0.1111111111111111
 40
0.1111111111111111
 40
0.1111111111111111
 40
0.2222222222222222
 40
0.2222222222222222
 40
0.2222222222222222
 40
0.2222222222222222
 40
0.3333333333333333
 40
0.3333333333333333
 40
0.3333333333333333
 40
0.3333333333333333
 40
0.4444444444444444
 40
0.4444444444444444
 40
0.4444444444444444
 40
0.4444444444444444
 40
0.5555555555555556
 40
0.5555555555555556
 40
0.5555555555555556
 40
0.5555555555555556
 40
0.6666666666666666
 40
0.6666666666666666
 40
0.6666666666666666
 40
0.6666666666666666
 40
0.7777777777777778
 40
0.7777777777777778
 40
0.7777777777777778
 40
0.7777777777777778
 40
1.0
 40
1.0
 40
1.0
 40
1.0
 10
-0.13674
 20
7.29506
 30
0.0
 10
-0.13674
 20
7.23395
 30
0.0
 10
-0.12966
 20
7.19332
 30
0.0
 10
-0.11539
 20
7.17327
 30
0.0
 10
-0.11539
 20
7.17327
 30
0.0
 10
-0.10113
 20
7.15313
 30
0.0
 10
-0.0835
 20
7.1431
 30
0.0
 10
-0.06258
 20
7.1431
 30
0.0
 10
-0.06258
 20
7.1431
 30
0.0
 10
-0.04166
 20
7.1431
 30
0.0
 10
-0.02403
 20
7.15322
 30
0.0
 10
-0.00976
 20
7.17335
 30
0.0
 10
-0.00976
 20
7.17335
 30
0.0
 10
0.0045
 20
7.19358
 30
0.0
 10
0.01159
 20
7.23412
 30
0.0
 10
0.01159
 20
7.29506
 30
0.0
 10
0.01159
 20
7.29506
 30
0.0
 10
0.01159
 20
7.35618
 30
0.0
 10
0.0045
 20
7.39681
 30
0.0
 10
-0.00976
 20
7.41686
 30
0.0
 10
-0.00976
 20
7.41686
 30
0.0
 10
-0.02394
 20
7.437
 30
0.0
 10
-0.04175
 20
7.44703
 30
0.0
 10
-0.0631
 20
7.44703
 30
0.0
 10
-0.0631
 20
7.44703
 30
0.0
 10
-0.08402
 20
7.44703
 30
0.0
 10
-0.10079
 20
7.43812
 30
0.0
 10
-0.11332
 20
7.4204
 30
0.0
 10
-0.11332
 20
7.4204
 30
0.0
 10
-0.12897
 20
7.39784
 30
0.0
 10
-0.13674
 20
7.356
 30
0.0
 10
-0.13674
 20
7.29506
 30
0.0
  0
SPLINE
  5
66
330
1F
100
AcDbEntity
  8
layer 2
 62
     1
100
AcDbSpline
210
0.0
220
0.0
230
1.0
 70
    11
 71
     3
 72
    28
 73
    24
 74
     0
 42
0.0000000001
 43
0.0000000001
 12
1.0
 22
0.0
 32
0.0
 13
1.0
 23
0.0
 33
0.0
 40
0.0
 40
0.0
 40
0.0
 40
0.0
 40
0.1428571428571428
 40
0.1428571428571428
 40
0.1428571428571428
 40
0.1428571428571428
 40
0.2857142857142857
 40
0.2857142857142857
 40
0.2857142857142857
 40
0.2857142857142857
 40
0.4285714285714285
 40
0.4285714285714285
 40
0.4285714285714285
 40
0.4285714285714285
 40
0.5714285714285714
 40
0.5714285714285714
 40
0.5714285714285714
 40
0.5714285714285714
 40
0.7142857142857143
 40
0.7142857142857143
 40
0.7142857142857143
 40
0.7142857142857143
 40
1.0
 40
1.0
 40
1.0
 40
1.0
 10
0.11972
 20
7.35211
 30
0.0
 10
0.11972
 20
7.35211
 30
0.0
 10
0.1071
 20
7.42265
 30
0.0
 10
0.1071
 20
7.42265
 30
0.0
 10
0.1071
 20
7.42265
 30
0.0
 10
0.1071
 20
7.42265
 30
0.0
 10
0.1071
 20
7.48333
 30
0.0
 10
0.1071
 20
7.48333
 30
0.0
 10
0.1071
 20
7.48333
 30
0.0
 10
0.1071
 20
7.48333
 30
0.0
 10
0.15897
 20
7.48333
 30
0.0
 10
0.15897
 20
7.48333
 30
0.0
 10
0.15897
 20
7.48333
 30
0.0
 10
0.15897
 20
7.48333
 30
0.0
 10
0.15897
 20
7.42265
 30
0.0
 10
0.15897
 20
7.42265
 30
0.0
 10
0.15897
 20
7.42265
 30
0.0
 10
0.15897
 20
7.42265
 30
0.0
 10
0.14756
 20
7.35211
 30
0.0
 10
0.14756
 20
7.35211
 30
0.0
 10
0.14756
 20
7.35211
 30
0.0
 10
0.14756
 20
7.35211
 30
0.0
 10
0.11972
 20
7.35211
 30
0.0
 10
0.11972
 20
7.35211
 30
0.0
  0
SPLINE
  5
67
330
1F
100
AcDbEntity
  8
layer 2
 62
     1
100
AcDbSpline
210
0.0
220
0.0
230
1.0
 70
    11
 71
     3
 72
    28
 73
    24
 74
     0
 42
0.0000000001
 43
0.0000000001
 12
1.0
 22
0.0
 32
0.0
 13
1.0
 23
0.0
 33
0.0
 40
0.0
 40
0.0
 40
0.0
 40
0.0
 40
0.1428571428571428
 40
0.1428571428571428
 40
0.1428571428571428
 40
0.1428571428571428
 40
0.2857142857142857
 40
0.2857142857142857
 40
0.2857142857142857
 40
0.2857142857142857
 40
0.4285714285714285
 40
0.4285714285714285
 40
0.4285714285714285
 40
0.4285714285714285
 40
0.5714285714285714
 40
0.5714285714285714
 40
0.5714285714285714
 40
0.5714285714285714
 40
0.7142857142857143
 40
0.7142857142857143
 40
0.7142857142857143
 40
0.7142857142857143
 40
1.0
 40
1.0
 40
1.0
 40
1.0
 10
0.20348
 20
7.35211
 30
0.0
 10
0.20348
 20
7.35211
 30
0.0
 10
0.19112
 20
7.42265
 30
0.0
 10
0.19112
 20
7.42265
 30
0.0
 10
0.19112
 20
7.42265
 30
0.0
 10
0.19112
 20
7.42265
 30
0.0
 10
0.19112
 20
7.48333
 30
0.0
 10
0.19112
 20
7.48333
 30
0.0
 10
0.19112
 20
7.48333
 30
0.0
 10
0.19112
 20
7.48333
 30
0.0
 10
0.24299
 20
7.48333
 30
0.0
 10
0.24299
 20
7.48333
 30
0.0
 10
0.24299
 20
7.48333
 30
0.0
 10
0.24299
 20
7.48333
 30
0.0
 10
0.24299
 20
7.42265
 30
0.0
 10
0.24299
 20
7.42265
 30
0.0
 10
0.24299
 20
7.42265
 30
0.0
 10
0.24299
 20
7.42265
 30
0.0
 10
0.2308
 20
7.35211
 30
0.0
 10
0.2308
 20
7.35211
 30
0.0
 10
0.2308
 20
7.35211
 30
0.0
 10
0.2308
 20
7.35211
 30
0.0
 10
0.20348
 20
7.35211
 30
0.0
 10
0.20348
 20
7.35211
 30
0.0
  0
SPLINE
  5
68
330
1F
100
AcDbEntity
  8
layer 2
 62
     1
370
     0
100
AcDbSpline
210
0.0
220
0.0
230
1.0
 70
    24
 71
     3
 72
     8
 73
     4
 74
     0
 42
0.0000000001
 43
0.0000000001
 12
1.0
 22
0.0
 32
0.0
 13
1.0
 23
0.0
 33
0.0
 40
0.0
 40
0.0
 40
0.0
 40
0.0
 40
1.0
 40
1.0
 40
1.0
 40
1.0
 10
10.48521
 20
6.15155
 30
0.0
 10
10.48521
 20
6.15155
 30
0.0
 10
12.14248
 20
6.15155
 30
0.0
 10
12.14248
 20
6.15155
 30
0.0
  0
SPLINE
  5
69
330
1F
100
AcDbEntity
  8
layer 2
 62
     1
370
     0
100
AcDbSpline
210
0.0
220
0.0
230
1.0
 70
    24
 71
     3
 72
     8
 73
     4
 74
     0
 42
0.0000000001
 43
0.0000000001
 12
1.0
 22
0.0
 32
0.0
 13
1.0
 23
0.0
 33
0.0
 40
0.0
 40
0.0
 40
0.0
 40
0.0
 40
1.0
 40
1.0
 40
1.0
 40
1.0
 10
10.48521
 20
-5.3037
 30
0.0
 10
10.48521
 20
-5.3037
 30
0.0
 10
12.14248
 20
-5.3037
 30
0.0
 10
12.14248
 20
-5.3037
 30
0.0
  0
SPLINE
  5
6A
330
1F
100
AcDbEntity
  8
layer 2
 62
     1
370
     0
100
AcDbSpline
210
0.0
220
0.0
230
1.0
 70
    24
 71
     3
 72
     8
 73
     4
 74
     0
 42
0.0000000001
 43
0.0000000001
 12
1.0
 22
0.0
 32
0.0
 13
1.0
 23
0.0
 33
0.0
 40
0.0
 40
0.0
 40
0.0
 40
0.0
 40
1.0
 40
1.0
 40
1.0
 40
1.0
 10
11.86061
 20
5.5878
 30
0.0
 10
11.86061
 20
5.5878
 30
0.0
 10
11.86061
 20
-4.73996
 30
0.0
 10
11.86061
 20
-4.73996
 30
0.0
  0
SPLINE
  5
6B
330
1F
100
AcDbEntity
  8
layer 2
 62
     1
100
AcDbSpline
210
0.0
220
0.0
230
1.0
 70
    27
 71
     3
 72
    12
 73
     8
 74
     0
 42
0.0000000001
 43
0.0000000001
 12
1.0
 22
0.0
 32
0.0
 13
1.0
 23
0.0
 33
0.0
 40
0.0
 40
0.0
 40
0.0
 40
0.0
 40
0.3333333333333333
 40
0.3333333333333333
 40
0.3333333333333333
 40
0.3333333333333333
 40
1.0
 40
1.0
 40
1.0
 40
1.0
 10
11.76665
 20
5.5878
 30
0.0
 10
11.76665
 20
5.5878
 30
0.0
 10
11.86061
 20
6.15155
 30
0.0
 10
11.86061
 20
6.15155
 30
0.0
 10
11.86061
 20
6.15155
 30
0.0
 10
11.86061
 20
6.15155
 30
0.0
 10
11.76665
 20
5.5878
 30
0.0
 10
11.76665
 20
5.5878
 30
0.0
  0
SPLINE
  5
6C
330
1F
100
AcDbEntity
  8
layer 2
 62
     1
100
AcDbSpline
210
0.0
220
0.0
230
1.0
 70
     8
 71
     3
 72
    12
 73
     8
 74
     0
 42
0.0000000001
 43
0.0000000001
 12
1.0
 22
0.0
 32
0.0
 13
1.0
 23
0.0
 33
0.0
 40
0.0
 40
0.0
 40
0.0
 40
0.0
 40
0.3333333333333333
 40
0.3333333333333333
 40
0.3333333333333333
 40
0.3333333333333333
 40
1.0
 40
1.0
 40
1.0
 40
1.0
 10
11.86061
 20
6.15155
 30
0.0
 10
11.86061
 20
6.15155
 30
0.0
 10
11.95456
 20
5.5878
 30
0.0
 10
11.95456
 20
5.5878
 30
0.0
 10
11.95456
 20
5.5878
 30
0.0
 10
11.95456
 20
5.5878
 30
0.0
 10
11.76665
 20
5.5878
 30
0.0
 10
11.76665
 20
5.5878
 30
0.0
  0
SPLINE
  5
6D
330
1F
100
AcDbEntity
  8
layer 2
 62
     1
370
     9
100
AcDbSpline
210
0.0
220
0.0
230
1.0
 70
    24
 71
     3
 72
     8
 73
     4
 74
     0
 42
0.0000000001
 43
0.0000000001
 12
1.0
 22
0.0
 32
0.0
 13
1.0
 23
0.0
 33
0.0
 40
0.0
 40
0.0
 40
0.0
 40
0.0
 40
1.0
 40
1.0
 40
1.0
 40
1.0
 10
11.76665
 20
5.5878
 30
0.0
 10
11.76665
 20
5.5878
 30
0.0
 10
11.86061
 20
6.15155
 30
0.0
 10
11.86061
 20
6.15155
 30
0.0
  0
SPLINE
  5
6E
330
1F
100
AcDbEntity
  8
layer 2
 62
     1
370
     9
100
AcDbSpline
210
0.0
220
0.0
230
1.0
 70
     8
 71
     3
 72
    12
 73
     8
 74
     0
 42
0.0000000001
 43
0.0000000001
 12
1.0
 22
0.0
 32
0.0
 13
1.0
 23
0.0
 33
0.0
 40
0.0
 40
0.0
 40
0.0
 40
0.0
 40
0.3333333333333333
 40
0.3333333333333333
 40
0.3333333333333333
 40
0.3333333333333333
 40
1.0
 40
1.0
 40
1.0
 40
1.0
 10
11.86061
 20
6.15155
 30
0.0
 10
11.86061
 20
6.15155
 30
0.0
 10
11.95456
 20
5.5878
 30
0.0
 10
11.95456
 20
5.5878
 30
0.0
 10
11.95456
 20
5.5878
 30
0.0
 10
11.95456
 20
5.5878
 30
0.0
 10
11.76665
 20
5.5878
 30
0.0
 10
11.76665
 20
5.5878
 30
0.0
  0
SPLINE
  5
6F
330
1F
100
AcDbEntity
  8
layer 2
 62
     1
100
AcDbSpline
210
0.0
220
0.0
230
1.0
 70
    27
 71
     3
 72
    12
 73
     8
 74
     0
 42
0.0000000001
 43
0.0000000001
 12
1.0
 22
0.0
 32
0.0
 13
1.0
 23
0.0
 33
0.0
 40
0.0
 40
0.0
 40
0.0
 40
0.0
 40
0.3333333333333333
 40
0.3333333333333333
 40
0.3333333333333333
 40
0.3333333333333333
 40
1.0
 40
1.0
 40
1.0
 40
1.0
 10
11.76665
 20
-4.73996
 30
0.0
 10
11.76665
 20
-4.73996
 30
0.0
 10
11.86061
 20
-5.3037
 30
0.0
 10
11.86061
 20
-5.3037
 30
0.0
 10
11.86061
 20
-5.3037
 30
0.0
 10
11.86061
 20
-5.3037
 30
0.0
 10
11.76665
 20
-4.73996
 30
0.0
 10
11.76665
 20
-4.73996
 30
0.0
  0
SPLINE
  5
70
330
1F
100
AcDbEntity
  8
layer 2
 62
     1
100
AcDbSpline
210
0.0
220
0.0
230
1.0
 70
     8
 71
     3
 72
    12
 73
     8
 74
     0
 42
0.0000000001
 43
0.0000000001
 12
1.0
 22
0.0
 32
0.0
 13
1.0
 23
0.0
 33
0.0
 40
0.0
 40
0.0
 40
0.0
 40
0.0
 40
0.3333333333333333
 40
0.3333333333333333
 40
0.3333333333333333
 40
0.3333333333333333
 40
1.0
 40
1.0
 40
1.0
 40
1.0
 10
11.86061
 20
-5.3037
 30
0.0
 10
11.86061
 20
-5.3037
 30
0.0
 10
11.95456
 20
-4.73996
 30
0.0
 10
11.95456
 20
-4.73996
 30
0.0
 10
11.95456
 20
-4.73996
 30
0.0
 10
11.95456
 20
-4.73996
 30
0.0
 10
11.76665
 20
-4.73996
 30
0.0
 10
11.76665
 20
-4.73996
 30
0.0
  0
SPLINE
  5
71
330
1F
100
AcDbEntity
  8
layer 2
 62
     1
370
     9
100
AcDbSpline
210
0.0
220
0.0
230
1.0
 70
    24
 71
     3
 72
     8
 73
     4
 74
     0
 42
0.0000000001
 43
0.0000000001
 12
1.0
 22
0.0
 32
0.0
 13
1.0
 23
0.0
 33
0.0
 40
0.0
 40
0.0
 40
0.0
 40
0.0
 40
1.0
 40
1.0
 40
1.0
 40
1.0
 10
11.76665
 20
-4.73996
 30
0.0
 10
11.76665
 20
-4.73996
 30
0.0
 10
11.86061
 20
-5.3037
 30
0.0
 10
11.86061
 20
-5.3037
 30
0.0
  0
SPLINE
  5
72
330
1F
100
AcDbEntity
  8
layer 2
 62
     1
370
     9
100
AcDbSpline
210
0.0
220
0.0
230
1.0
 70
     8
 71
     3
 72
    12
 73
     8
 74
     0
 42
0.0000000001
 43
0.0000000001
 12
1.0
 22
0.0
 32
0.0
 13
1.0
 23
0.0
 33
0.0
 40
0.0
 40
0.0
 40
0.0
 40
0.0
 40
0.3333333333333333
 40
0.3333333333333333
 40
0.3333333333333333
 40
0.3333333333333333
 40
1.0
 40
1.0
 40
1.0
 40
1.0
 10
11.86061
 20
-5.3037
 30
0.0
 10
11.86061
 20
-5.3037
 30
0.0
 10
11.95456
 20
-4.73996
 30
0.0
 10
11.95456
 20
-4.73996
 30
0.0
 10
11.95456
 20
-4.73996
 30
0.0
 10
11.95456
 20
-4.73996
 30
0.0
 10
11.76665
 20
-4.73996
 30
0.0
 10
11.76665
 20
-4.73996
 30
0.0
  0
SPLINE
  5
73
330
1F
100
AcDbEntity
  8
layer 2
 62
     1
100
AcDbSpline
210
0.0
220
0.0
230
1.0
 70
    11
 71
     3
 72
    40
 73
    36
 74
     0
 42
0.0000000001
 43
0.0000000001
 12
1.0
 22
0.0
 32
0.0
 13
1.0
 23
0.0
 33
0.0
 40
0.0
 40
0.0
 40
0.0
 40
0.0
 40
0.1
 40
0.1
 40
0.1
 40
0.1
 40
0.2
 40
0.2
 40
0.2
 40
0.2
 40
0.3
 40
0.3
 40
0.3
 40
0.3
 40
0.4
 40
0.4
 40
0.4
 40
0.4
 40
0.5
 40
0.5
 40
0.5
 40
0.5
 40
0.6
 40
0.6
 40
0.6
 40
0.6
 40
0.7
 40
0.7
 40
0.7
 40
0.7
 40
0.8
 40
0.8
 40
0.8
 40
0.8
 40
1.0
 40
1.0
 40
1.0
 40
1.0
 10
11.61961
 20
1.37242
 30
0.0
 10
11.61961
 20
1.37242
 30
0.0
 10
11.61961
 20
1.32678
 30
0.0
 10
11.61961
 20
1.32678
 30
0.0
 10
11.61961
 20
1.32678
 30
0.0
 10
11.61961
 20
1.32678
 30
0.0
 10
11.329
 20
1.32678
 30
0.0
 10
11.329
 20
1.32678
 30
0.0
 10
11.329
 20
1.32678
 30
0.0
 10
11.33954
 20
1.3158
 30
0.0
 10
11.35
 20
1.30137
 30
0.0
 10
11.36046
 20
1.28356
 30
0.0
 10
11.36046
 20
1.28356
 30
0.0
 10
11.37092
 20
1.26575
 30
0.0
 10
11.37879
 20
1.24967
 30
0.0
 10
11.38397
 20
1.2355
 30
0.0
 10
11.38397
 20
1.2355
 30
0.0
 10
11.38397
 20
1.2355
 30
0.0
 10
11.33989
 20
1.2355
 30
0.0
 10
11.33989
 20
1.2355
 30
0.0
 10
11.33989
 20
1.2355
 30
0.0
 10
11.32796
 20
1.261
 30
0.0
 10
11.31344
 20
1.2833
 30
0.0
 10
11.29632
 20
1.3024
 30
0.0
 10
11.29632
 20
1.3024
 30
0.0
 10
11.27929
 20
1.32151
 30
0.0
 10
11.26278
 20
1.33508
 30
0.0
 10
11.2467
 20
1.34303
 30
0.0
 10
11.2467
 20
1.34303
 30
0.0
 10
11.2467
 20
1.34303
 30
0.0
 10
11.2467
 20
1.37242
 30
0.0
 10
11.2467
 20
1.37242
 30
0.0
 10
11.2467
 20
1.37242
 30
0.0
 10
11.2467
 20
1.37242
 30
0.0
 10
11.61961
 20
1.37242
 30
0.0
 10
11.61961
 20
1.37242
 30
0.0
  0
SPLINE
  5
74
330
1F
100
AcDbEntity
  8
layer 2
 62
     1
100
AcDbSpline
210
0.0
220
0.0
230
1.0
 70
    11
 71
     3
 72
    80
 73
    76
 74
     0
 42
0.0000000001
 43
0.0000000001
 12
1.0
 22
0.0
 32
0.0
 13
1.0
 23
0.0
 33
0.0
 40
0.0
 40
0.0
 40
0.0
 40
0.0
 40
0.05
 40
0.05
 40
0.05
 40
0.05
 40
0.1
 40
0.1
 40
0.1
 40
0.1
 40
0.15
 40
0.15
 40
0.15
 40
0.15
 40
0.2
 40
0.2
 40
0.2
 40
0.2
 40
0.25
 40
0.25
 40
0.25
 40
0.25
 40
0.3
 40
0.3
 40
0.3
 40
0.3
 40
0.35
 40
0.35
 40
0.35
 40
0.35
 40
0.4
 40
0.4
 40
0.4
 40
0.4
 40
0.45
 40
0.45
 40
0.45
 40
0.45
 40
0.5
 40
0.5
 40
0.5
 40
0.5
 40
0.55
 40
0.55
 40
0.55
 40
0.55
 40
0.6
 40
0.6
 40
0.6
 40
0.6
 40
0.65
 40
0.65
 40
0.65
 40
0.65
 40
0.7
 40
0.7
 40
0.7
 40
0.7
 40
0.75
 40
0.75
 40
0.75
 40
0.75
 40
0.8
 40
0.8
 40
0.8
 40
0.8
 40
0.85
 40
0.85
 40
0.85
 40
0.85
 40
0.9
 40
0.9
 40
0.9
 40
0.9
 40
1.0
 40
1.0
 40
1.0
 40
1.0
 10
11.33902
 20
1.72674
 30
0.0
 10
11.33902
 20
1.72674
 30
0.0
 10
11.34265
 20
1.68162
 30
0.0
 10
11.34265
 20
1.68162
 30
0.0
 10
11.34265
 20
1.68162
 30
0.0
 10
11.32476
 20
1.67756
 30
0.0
 10
11.31171
 20
1.67177
 30
0.0
 10
11.30358
 20
1.66424
 30
0.0
 10
11.30358
 20
1.66424
 30
0.0
 10
11.29053
 20
1.65188
 30
0.0
 10
11.28405
 20
1.63658
 30
0.0
 10
11.28405
 20
1.61843
 30
0.0
 10
11.28405
 20
1.61843
 30
0.0
 10
11.28405
 20
1.60382
 30
0.0
 10
11.28811
 20
1.59086
 30
0.0
 10
11.29623
 20
1.57971
 30
0.0
 10
11.29623
 20
1.57971
 30
0.0
 10
11.3067
 20
1.56536
 30
0.0
 10
11.32191
 20
1.55412
 30
0.0
 10
11.34196
 20
1.54573
 30
0.0
 10
11.34196
 20
1.54573
 30
0.0
 10
11.3621
 20
1.53744
 30
0.0
 10
11.39072
 20
1.53312
 30
0.0
 10
11.4278
 20
1.53277
 30
0.0
 10
11.4278
 20
1.53277
 30
0.0
 10
11.41111
 20
1.54375
 30
0.0
 10
11.39867
 20
1.55723
 30
0.0
 10
11.39063
 20
1.57314
 30
0.0
 10
11.39063
 20
1.57314
 30
0.0
 10
11.3825
 20
1.58904
 30
0.0
 10
11.37844
 20
1.60564
 30
0.0
 10
11.37844
 20
1.6231
 30
0.0
 10
11.37844
 20
1.6231
 30
0.0
 10
11.37844
 20
1.65353
 30
0.0
 10
11.38968
 20
1.67946
 30
0.0
 10
11.41206
 20
1.7009
 30
0.0
 10
11.41206
 20
1.7009
 30
0.0
 10
11.43445
 20
1.72225
 30
0.0
 10
11.46333
 20
1.73297
 30
0.0
 10
11.49885
 20
1.73297
 30
0.0
 10
11.49885
 20
1.73297
 30
0.0
 10
11.52219
 20
1.73297
 30
0.0
 10
11.5438
 20
1.72795
 30
0.0
 10
11.56385
 20
1.71792
 30
0.0
 10
11.56385
 20
1.71792
 30
0.0
 10
11.58391
 20
1.70781
 30
0.0
 10
11.59921
 20
1.69407
 30
0.0
 10
11.60984
 20
1.67643
 30
0.0
 10
11.60984
 20
1.67643
 30
0.0
 10
11.62047
 20
1.65889
 30
0.0
 10
11.62583
 20
1.63892
 30
0.0
 10
11.62583
 20
1.61662
 30
0.0
 10
11.62583
 20
1.61662
 30
0.0
 10
11.62583
 20
1.57867
 30
0.0
 10
11.61183
 20
1.54764
 30
0.0
 10
11.58391
 20
1.52361
 30
0.0
 10
11.58391
 20
1.52361
 30
0.0
 10
11.55599
 20
1.49966
 30
0.0
 10
11.50992
 20
1.48765
 30
0.0
 10
11.44578
 20
1.48765
 30
0.0
 10
11.44578
 20
1.48765
 30
0.0
 10
11.37403
 20
1.48765
 30
0.0
 10
11.32182
 20
1.50096
 30
0.0
 10
11.28923
 20
1.52749
 30
0.0
 10
11.28923
 20
1.52749
 30
0.0
 10
11.26088
 20
1.55066
 30
0.0
 10
11.2467
 20
1.58187
 30
0.0
 10
11.2467
 20
1.6212
 30
0.0
 10
11.2467
 20
1.6212
 30
0.0
 10
11.2467
 20
1.65041
 30
0.0
 10
11.25492
 20
1.67445
 30
0.0
 10
11.27125
 20
1.69312
 30
0.0
 10
11.27125
 20
1.69312
 30
0.0
 10
11.28759
 20
1.71179
 30
0.0
 10
11.31015
 20
1.72302
 30
0.0
 10
11.33902
 20
1.72674
 30
0.0
  0
SPLINE
  5
75
330
1F
100
AcDbEntity
  8
layer 2
 62
     1
100
AcDbSpline
210
0.0
220
0.0
230
1.0
 70
    11
 71
     3
 72
    40
 73
    36
 74
     0
 42
0.0000000001
 43
0.0000000001
 12
1.0
 22
0.0
 32
0.0
 13
1.0
 23
0.0
 33
0.0
 40
0.0
 40
0.0
 40
0.0
 40
0.0
 40
0.1
 40
0.1
 40
0.1
 40
0.1
 40
0.2
 40
0.2
 40
0.2
 40
0.2
 40
0.3
 40
0.3
 40
0.3
 40
0.3
 40
0.4
 40
0.4
 40
0.4
 40
0.4
 40
0.5
 40
0.5
 40
0.5
 40
0.5
 40
0.6
 40
0.6
 40
0.6
 40
0.6
 40
0.7
 40
0.7
 40
0.7
 40
0.7
 40
0.8
 40
0.8
 40
0.8
 40
0.8
 40
1.0
 40
1.0
 40
1.0
 40
1.0
 10
11.49928
 20
1.54003
 30
0.0
 10
11.51501
 20
1.54003
 30
0.0
 10
11.53006
 20
1.5434
 30
0.0
 10
11.54441
 20
1.55006
 30
0.0
 10
11.54441
 20
1.55006
 30
0.0
 10
11.55876
 20
1.55671
 30
0.0
 10
11.56965
 20
1.56605
 30
0.0
 10
11.57717
 20
1.57789
 30
0.0
 10
11.57717
 20
1.57789
 30
0.0
 10
11.58469
 20
1.58982
 30
0.0
 10
11.58849
 20
1.60244
 30
0.0
 10
11.58849
 20
1.61584
 30
0.0
 10
11.58849
 20
1.61584
 30
0.0
 10
11.58849
 20
1.63529
 30
0.0
 10
11.58071
 20
1.65188
 30
0.0
 10
11.56515
 20
1.66563
 30
0.0
 10
11.56515
 20
1.66563
 30
0.0
 10
11.54959
 20
1.67937
 30
0.0
 10
11.5285
 20
1.68629
 30
0.0
 10
11.50179
 20
1.68629
 30
0.0
 10
11.50179
 20
1.68629
 30
0.0
 10
11.47612
 20
1.68629
 30
0.0
 10
11.45589
 20
1.67946
 30
0.0
 10
11.44111
 20
1.66589
 30
0.0
 10
11.44111
 20
1.66589
 30
0.0
 10
11.42633
 20
1.65232
 30
0.0
 10
11.41889
 20
1.63503
 30
0.0
 10
11.41889
 20
1.61402
 30
0.0
 10
11.41889
 20
1.61402
 30
0.0
 10
11.41889
 20
1.59345
 30
0.0
 10
11.42633
 20
1.5759
 30
0.0
 10
11.44111
 20
1.56155
 30
0.0
 10
11.44111
 20
1.56155
 30
0.0
 10
11.45589
 20
1.5472
 30
0.0
 10
11.47525
 20
1.54003
 30
0.0
 10
11.49928
 20
1.54003
 30
0.0
  0
SPLINE
  5
76
330
1F
100
AcDbEntity
  8
layer 2
 62
     1
100
AcDbSpline
210
0.0
220
0.0
230
1.0
 70
    11
 71
     3
 72
    28
 73
    24
 74
     0
 42
0.0000000001
 43
0.0000000001
 12
1.0
 22
0.0
 32
0.0
 13
1.0
 23
0.0
 33
0.0
 40
0.0
 40
0.0
 40
0.0
 40
0.0
 40
0.1428571428571428
 40
0.1428571428571428
 40
0.1428571428571428
 40
0.1428571428571428
 40
0.2857142857142857
 40
0.2857142857142857
 40
0.2857142857142857
 40
0.2857142857142857
 40
0.4285714285714285
 40
0.4285714285714285
 40
0.4285714285714285
 40
0.4285714285714285
 40
0.5714285714285714
 40
0.5714285714285714
 40
0.5714285714285714
 40
0.5714285714285714
 40
0.7142857142857143
 40
0.7142857142857143
 40
0.7142857142857143
 40
0.7142857142857143
 40
1.0
 40
1.0
 40
1.0
 40
1.0
 10
11.37948
 20
1.79287
 30
0.0
 10
11.37948
 20
1.79287
 30
0.0
 10
11.30894
 20
1.78025
 30
0.0
 10
11.30894
 20
1.78025
 30
0.0
 10
11.30894
 20
1.78025
 30
0.0
 10
11.30894
 20
1.78025
 30
0.0
 10
11.24826
 20
1.78025
 30
0.0
 10
11.24826
 20
1.78025
 30
0.0
 10
11.24826
 20
1.78025
 30
0.0
 10
11.24826
 20
1.78025
 30
0.0
 10
11.24826
 20
1.83211
 30
0.0
 10
11.24826
 20
1.83211
 30
0.0
 10
11.24826
 20
1.83211
 30
0.0
 10
11.24826
 20
1.83211
 30
0.0
 10
11.30894
 20
1.83211
 30
0.0
 10
11.30894
 20
1.83211
 30
0.0
 10
11.30894
 20
1.83211
 30
0.0
 10
11.30894
 20
1.83211
 30
0.0
 10
11.37948
 20
1.8207
 30
0.0
 10
11.37948
 20
1.8207
 30
0.0
 10
11.37948
 20
1.8207
 30
0.0
 10
11.37948
 20
1.8207
 30
0.0
 10
11.37948
 20
1.79287
 30
0.0
 10
11.37948
 20
1.79287
 30
0.0
  0
SPLINE
  5
77
330
1F
100
AcDbEntity
  8
layer 2
 62
     1
100
AcDbSpline
210
0.0
220
0.0
230
1.0
 70
    11
 71
     3
 72
    28
 73
    24
 74
     0
 42
0.0000000001
 43
0.0000000001
 12
1.0
 22
0.0
 32
0.0
 13
1.0
 23
0.0
 33
0.0
 40
0.0
 40
0.0
 40
0.0
 40
0.0
 40
0.1428571428571428
 40
0.1428571428571428
 40
0.1428571428571428
 40
0.1428571428571428
 40
0.2857142857142857
 40
0.2857142857142857
 40
0.2857142857142857
 40
0.2857142857142857
 40
0.4285714285714285
 40
0.4285714285714285
 40
0.4285714285714285
 40
0.4285714285714285
 40
0.5714285714285714
 40
0.5714285714285714
 40
0.5714285714285714
 40
0.5714285714285714
 40
0.7142857142857143
 40
0.7142857142857143
 40
0.7142857142857143
 40
0.7142857142857143
 40
1.0
 40
1.0
 40
1.0
 40
1.0
 10
11.37948
 20
1.87663
 30
0.0
 10
11.37948
 20
1.87663
 30
0.0
 10
11.30894
 20
1.86427
 30
0.0
 10
11.30894
 20
1.86427
 30
0.0
 10
11.30894
 20
1.86427
 30
0.0
 10
11.30894
 20
1.86427
 30
0.0
 10
11.24826
 20
1.86427
 30
0.0
 10
11.24826
 20
1.86427
 30
0.0
 10
11.24826
 20
1.86427
 30
0.0
 10
11.24826
 20
1.86427
 30
0.0
 10
11.24826
 20
1.91613
 30
0.0
 10
11.24826
 20
1.91613
 30
0.0
 10
11.24826
 20
1.91613
 30
0.0
 10
11.24826
 20
1.91613
 30
0.0
 10
11.30894
 20
1.91613
 30
0.0
 10
11.30894
 20
1.91613
 30
0.0
 10
11.30894
 20
1.91613
 30
0.0
 10
11.30894
 20
1.91613
 30
0.0
 10
11.37948
 20
1.90395
 30
0.0
 10
11.37948
 20
1.90395
 30
0.0
 10
11.37948
 20
1.90395
 30
0.0
 10
11.37948
 20
1.90395
 30
0.0
 10
11.37948
 20
1.87663
 30
0.0
 10
11.37948
 20
1.87663
 30
0.0
  0
SPLINE
  5
78
330
1F
100
AcDbEntity
  8
layer 2
 62
     1
370
     0
100
AcDbSpline
210
0.0
220
0.0
230
1.0
 70
    24
 71
     3
 72
     8
 73
     4
 74
     0
 42
0.0000000001
 43
0.0000000001
 12
1.0
 22
0.0
 32
0.0
 13
1.0
 23
0.0
 33
0.0
 40
0.0
 40
0.0
 40
0.0
 40
0.0
 40
1.0
 40
1.0
 40
1.0
 40
1.0
 10
-12.62295
 20
-6.57511
 30
0.0
 10
-12.62295
 20
-6.57511
 30
0.0
 10
-11.06504
 20
-5.39606
 30
0.0
 10
-11.06504
 20
-5.39606
 30
0.0
  0
SPLINE
  5
79
330
1F
100
AcDbEntity
  8
layer 2
 62
     1
100
AcDbSpline
210
0.0
220
0.0
230
1.0
 70
    11
 71
     3
 72
    80
 73
    76
 74
     0
 42
0.0000000001
 43
0.0000000001
 12
1.0
 22
0.0
 32
0.0
 13
1.0
 23
0.0
 33
0.0
 40
0.0
 40
0.0
 40
0.0
 40
0.0
 40
0.05
 40
0.05
 40
0.05
 40
0.05
 40
0.1
 40
0.1
 40
0.1
 40
0.1
 40
0.15
 40
0.15
 40
0.15
 40
0.15
 40
0.2
 40
0.2
 40
0.2
 40
0.2
 40
0.25
 40
0.25
 40
0.25
 40
0.25
 40
0.3
 40
0.3
 40
0.3
 40
0.3
 40
0.35
 40
0.35
 40
0.35
 40
0.35
 40
0.4
 40
0.4
 40
0.4
 40
0.4
 40
0.45
 40
0.45
 40
0.45
 40
0.45
 40
0.5
 40
0.5
 40
0.5
 40
0.5
 40
0.55
 40
0.55
 40
0.55
 40
0.55
 40
0.6
 40
0.6
 40
0.6
 40
0.6
 40
0.65
 40
0.65
 40
0.65
 40
0.65
 40
0.7
 40
0.7
 40
0.7
 40
0.7
 40
0.75
 40
0.75
 40
0.75
 40
0.75
 40
0.8
 40
0.8
 40
0.8
 40
0.8
 40
0.85
 40
0.85
 40
0.85
 40
0.85
 40
0.9
 40
0.9
 40
0.9
 40
0.9
 40
1.0
 40
1.0
 40
1.0
 40
1.0
 10
-12.44114
 20
-5.36659
 30
0.0
 10
-12.44114
 20
-5.36659
 30
0.0
 10
-12.66524
 20
-5.07048
 30
0.0
 10
-12.66524
 20
-5.07048
 30
0.0
 10
-12.66524
 20
-5.07048
 30
0.0
 10
-12.66524
 20
-5.07048
 30
0.0
 10
-12.534
 20
-4.97116
 30
0.0
 10
-12.534
 20
-4.97116
 30
0.0
 10
-12.534
 20
-4.97116
 30
0.0
 10
-12.5076
 20
-4.95118
 30
0.0
 10
-12.48551
 20
-4.93869
 30
0.0
 10
-12.46778
 20
-4.93362
 30
0.0
 10
-12.46778
 20
-4.93362
 30
0.0
 10
-12.45005
 20
-4.92854
 30
0.0
 10
-12.43199
 20
-4.92962
 30
0.0
 10
-12.41362
 20
-4.93686
 30
0.0
 10
-12.41362
 20
-4.93686
 30
0.0
 10
-12.39524
 20
-4.94409
 30
0.0
 10
-12.37991
 20
-4.9559
 30
0.0
 10
-12.3676
 20
-4.97217
 30
0.0
 10
-12.3676
 20
-4.97217
 30
0.0
 10
-12.35169
 20
-4.99319
 30
0.0
 10
-12.34511
 20
-5.01607
 30
0.0
 10
-12.34778
 20
-5.04075
 30
0.0
 10
-12.34778
 20
-5.04075
 30
0.0
 10
-12.35046
 20
-5.06543
 30
0.0
 10
-12.36453
 20
-5.09039
 30
0.0
 10
-12.38995
 20
-5.11581
 30
0.0
 10
-12.38995
 20
-5.11581
 30
0.0
 10
-12.37579
 20
-5.11289
 30
0.0
 10
-12.36417
 20
-5.11191
 30
0.0
 10
-12.35515
 20
-5.11267
 30
0.0
 10
-12.35515
 20
-5.11267
 30
0.0
 10
-12.33577
 20
-5.11448
 30
0.0
 10
-12.31499
 20
-5.11946
 30
0.0
 10
-12.29291
 20
-5.12757
 30
0.0
 10
-12.29291
 20
-5.12757
 30
0.0
 10
-12.29291
 20
-5.12757
 30
0.0
 10
-12.18067
 20
-5.16946
 30
0.0
 10
-12.18067
 20
-5.16946
 30
0.0
 10
-12.18067
 20
-5.16946
 30
0.0
 10
-12.18067
 20
-5.16946
 30
0.0
 10
-12.22961
 20
-5.2065
 30
0.0
 10
-12.22961
 20
-5.2065
 30
0.0
 10
-12.22961
 20
-5.2065
 30
0.0
 10
-12.22961
 20
-5.2065
 30
0.0
 10
-12.31539
 20
-5.17451
 30
0.0
 10
-12.31539
 20
-5.17451
 30
0.0
 10
-12.31539
 20
-5.17451
 30
0.0
 10
-12.34028
 20
-5.16526
 30
0.0
 10
-12.35999
 20
-5.15883
 30
0.0
 10
-12.37452
 20
-5.15497
 30
0.0
 10
-12.37452
 20
-5.15497
 30
0.0
 10
-12.3891
 20
-5.15116
 30
0.0
 10
-12.40068
 20
-5.14962
 30
0.0
 10
-12.40941
 20
-5.15026
 30
0.0
 10
-12.40941
 20
-5.15026
 30
0.0
 10
-12.41801
 20
-5.15092
 30
0.0
 10
-12.42599
 20
-5.15284
 30
0.0
 10
-12.43321
 20
-5.15592
 30
0.0
 10
-12.43321
 20
-5.15592
 30
0.0
 10
-12.43829
 20
-5.15836
 30
0.0
 10
-12.4459
 20
-5.16335
 30
0.0
 10
-12.45603
 20
-5.17102
 30
0.0
 10
-12.45603
 20
-5.17102
 30
0.0
 10
-12.45603
 20
-5.17102
 30
0.0
 10
-12.50138
 20
-5.20535
 30
0.0
 10
-12.50138
 20
-5.20535
 30
0.0
 10
-12.50138
 20
-5.20535
 30
0.0
 10
-12.50138
 20
-5.20535
 30
0.0
 10
-12.40185
 20
-5.33686
 30
0.0
 10
-12.40185
 20
-5.33686
 30
0.0
 10
-12.40185
 20
-5.33686
 30
0.0
 10
-12.40185
 20
-5.33686
 30
0.0
 10
-12.44114
 20
-5.36659
 30
0.0
 10
-12.44114
 20
-5.36659
 30
0.0
  0
SPLINE
  5
7A
330
1F
100
AcDbEntity
  8
layer 2
 62
     1
100
AcDbSpline
210
0.0
220
0.0
230
1.0
 70
    11
 71
     3
 72
    36
 73
    32
 74
     0
 42
0.0000000001
 43
0.0000000001
 12
1.0
 22
0.0
 32
0.0
 13
1.0
 23
0.0
 33
0.0
 40
0.0
 40
0.0
 40
0.0
 40
0.0
 40
0.1111111111111111
 40
0.1111111111111111
 40
0.1111111111111111
 40
0.1111111111111111
 40
0.2222222222222222
 40
0.2222222222222222
 40
0.2222222222222222
 40
0.2222222222222222
 40
0.3333333333333333
 40
0.3333333333333333
 40
0.3333333333333333
 40
0.3333333333333333
 40
0.4444444444444444
 40
0.4444444444444444
 40
0.4444444444444444
 40
0.4444444444444444
 40
0.5555555555555556
 40
0.5555555555555556
 40
0.5555555555555556
 40
0.5555555555555556
 40
0.6666666666666666
 40
0.6666666666666666
 40
0.6666666666666666
 40
0.6666666666666666
 40
0.7777777777777778
 40
0.7777777777777778
 40
0.7777777777777778
 40
0.7777777777777778
 40
1.0
 40
1.0
 40
1.0
 40
1.0
 10
-12.52705
 20
-5.17143
 30
0.0
 10
-12.52705
 20
-5.17143
 30
0.0
 10
-12.44296
 20
-5.10779
 30
0.0
 10
-12.44296
 20
-5.10779
 30
0.0
 10
-12.44296
 20
-5.10779
 30
0.0
 10
-12.42504
 20
-5.09423
 30
0.0
 10
-12.41252
 20
-5.08183
 30
0.0
 10
-12.40528
 20
-5.07049
 30
0.0
 10
-12.40528
 20
-5.07049
 30
0.0
 10
-12.39798
 20
-5.05923
 30
0.0
 10
-12.39481
 20
-5.04751
 30
0.0
 10
-12.39585
 20
-5.03539
 30
0.0
 10
-12.39585
 20
-5.03539
 30
0.0
 10
-12.39677
 20
-5.02329
 30
0.0
 10
-12.40083
 20
-5.01249
 30
0.0
 10
-12.40808
 20
-5.00291
 30
0.0
 10
-12.40808
 20
-5.00291
 30
0.0
 10
-12.41866
 20
-4.98892
 30
0.0
 10
-12.43246
 20
-4.98114
 30
0.0
 10
-12.44943
 20
-4.97979
 30
0.0
 10
-12.44943
 20
-4.97979
 30
0.0
 10
-12.46639
 20
-4.97842
 30
0.0
 10
-12.48577
 20
-4.98604
 30
0.0
 10
-12.50762
 20
-5.00258
 30
0.0
 10
-12.50762
 20
-5.00258
 30
0.0
 10
-12.50762
 20
-5.00258
 30
0.0
 10
-12.60122
 20
-5.07342
 30
0.0
 10
-12.60122
 20
-5.07342
 30
0.0
 10
-12.60122
 20
-5.07342
 30
0.0
 10
-12.60122
 20
-5.07342
 30
0.0
 10
-12.52705
 20
-5.17143
 30
0.0
 10
-12.52705
 20
-5.17143
 30
0.0
  0
SPLINE
  5
7B
330
1F
100
AcDbEntity
  8
layer 2
 62
     1
100
AcDbSpline
210
0.0
220
0.0
230
1.0
 70
    11
 71
     3
 72
    40
 73
    36
 74
     0
 42
0.0000000001
 43
0.0000000001
 12
1.0
 22
0.0
 32
0.0
 13
1.0
 23
0.0
 33
0.0
 40
0.0
 40
0.0
 40
0.0
 40
0.0
 40
0.1
 40
0.1
 40
0.1
 40
0.1
 40
0.2
 40
0.2
 40
0.2
 40
0.2
 40
0.3
 40
0.3
 40
0.3
 40
0.3
 40
0.4
 40
0.4
 40
0.4
 40
0.4
 40
0.5
 40
0.5
 40
0.5
 40
0.5
 40
0.6
 40
0.6
 40
0.6
 40
0.6
 40
0.7
 40
0.7
 40
0.7
 40
0.7
 40
0.8
 40
0.8
 40
0.8
 40
0.8
 40
1.0
 40
1.0
 40
1.0
 40
1.0
 10
-12.02131
 20
-5.04886
 30
0.0
 10
-12.02131
 20
-5.04886
 30
0.0
 10
-12.0577
 20
-5.0764
 30
0.0
 10
-12.0577
 20
-5.0764
 30
0.0
 10
-12.0577
 20
-5.0764
 30
0.0
 10
-12.0577
 20
-5.0764
 30
0.0
 10
-12.23308
 20
-4.84467
 30
0.0
 10
-12.23308
 20
-4.84467
 30
0.0
 10
-12.23308
 20
-4.84467
 30
0.0
 10
-12.23547
 20
-4.8597
 30
0.0
 10
-12.24067
 20
-4.87675
 30
0.0
 10
-12.24856
 20
-4.89584
 30
0.0
 10
-12.24856
 20
-4.89584
 30
0.0
 10
-12.25644
 20
-4.91492
 30
0.0
 10
-12.26451
 20
-4.9309
 30
0.0
 10
-12.27269
 20
-4.94359
 30
0.0
 10
-12.27269
 20
-4.94359
 30
0.0
 10
-12.27269
 20
-4.94359
 30
0.0
 10
-12.29929
 20
-4.90844
 30
0.0
 10
-12.29929
 20
-4.90844
 30
0.0
 10
-12.29929
 20
-4.90844
 30
0.0
 10
-12.28616
 20
-4.88354
 30
0.0
 10
-12.27714
 20
-4.8585
 30
0.0
 10
-12.27224
 20
-4.83333
 30
0.0
 10
-12.27224
 20
-4.83333
 30
0.0
 10
-12.26728
 20
-4.80822
 30
0.0
 10
-12.26642
 20
-4.78686
 30
0.0
 10
-12.26978
 20
-4.76925
 30
0.0
 10
-12.26978
 20
-4.76925
 30
0.0
 10
-12.26978
 20
-4.76925
 30
0.0
 10
-12.24635
 20
-4.75151
 30
0.0
 10
-12.24635
 20
-4.75151
 30
0.0
 10
-12.24635
 20
-4.75151
 30
0.0
 10
-12.24635
 20
-4.75151
 30
0.0
 10
-12.02131
 20
-5.04886
 30
0.0
 10
-12.02131
 20
-5.04886
 30
0.0
  0
SPLINE
  5
7C
330
1F
100
AcDbEntity
  8
layer 2
 62
     1
100
AcDbSpline
210
0.0
220
0.0
230
1.0
 70
    11
 71
     3
 72
    52
 73
    48
 74
     0
 42
0.0000000001
 43
0.0000000001
 12
1.0
 22
0.0
 32
0.0
 13
1.0
 23
0.0
 33
0.0
 40
0.0
 40
0.0
 40
0.0
 40
0.0
 40
0.0769230769230769
 40
0.0769230769230769
 40
0.0769230769230769
 40
0.0769230769230769
 40
0.1538461538461539
 40
0.1538461538461539
 40
0.1538461538461539
 40
0.1538461538461539
 40
0.2307692307692308
 40
0.2307692307692308
 40
0.2307692307692308
 40
0.2307692307692308
 40
0.3076923076923077
 40
0.3076923076923077
 40
0.3076923076923077
 40
0.3076923076923077
 40
0.3846153846153846
 40
0.3846153846153846
 40
0.3846153846153846
 40
0.3846153846153846
 40
0.4615384615384616
 40
0.4615384615384616
 40
0.4615384615384616
 40
0.4615384615384616
 40
0.5384615384615384
 40
0.5384615384615384
 40
0.5384615384615384
 40
0.5384615384615384
 40
0.6153846153846154
 40
0.6153846153846154
 40
0.6153846153846154
 40
0.6153846153846154
 40
0.6923076923076923
 40
0.6923076923076923
 40
0.6923076923076923
 40
0.6923076923076923
 40
0.7692307692307693
 40
0.7692307692307693
 40
0.7692307692307693
 40
0.7692307692307693
 40
0.8461538461538461
 40
0.8461538461538461
 40
0.8461538461538461
 40
0.8461538461538461
 40
1.0
 40
1.0
 40
1.0
 40
1.0
 10
-12.03836
 20
-4.83194
 30
0.0
 10
-12.06481
 20
-4.797
 30
0.0
 10
-12.08261
 20
-4.76602
 30
0.0
 10
-12.09162
 20
-4.73923
 30
0.0
 10
-12.09162
 20
-4.73923
 30
0.0
 10
-12.1006
 20
-4.71232
 30
0.0
 10
-12.10239
 20
-4.68776
 30
0.0
 10
-12.0969
 20
-4.66551
 30
0.0
 10
-12.0969
 20
-4.66551
 30
0.0
 10
-12.09149
 20
-4.6433
 30
0.0
 10
-12.07796
 20
-4.62407
 30
0.0
 10
-12.05645
 20
-4.60779
 30
0.0
 10
-12.05645
 20
-4.60779
 30
0.0
 10
-12.0406
 20
-4.5958
 30
0.0
 10
-12.02428
 20
-4.58843
 30
0.0
 10
-12.00736
 20
-4.58571
 30
0.0
 10
-12.00736
 20
-4.58571
 30
0.0
 10
-11.99052
 20
-4.58304
 30
0.0
 10
-11.97361
 20
-4.58477
 30
0.0
 10
-11.95676
 20
-4.59099
 30
0.0
 10
-11.95676
 20
-4.59099
 30
0.0
 10
-11.93996
 20
-4.59714
 30
0.0
 10
-11.92278
 20
-4.60723
 30
0.0
 10
-11.90528
 20
-4.62119
 30
0.0
 10
-11.90528
 20
-4.62119
 30
0.0
 10
-11.88771
 20
-4.6351
 30
0.0
 10
-11.86782
 20
-4.6568
 30
0.0
 10
-11.84565
 20
-4.68609
 30
0.0
 10
-11.84565
 20
-4.68609
 30
0.0
 10
-11.81936
 20
-4.72083
 30
0.0
 10
-11.80166
 20
-4.75167
 30
0.0
 10
-11.79259
 20
-4.7784
 30
0.0
 10
-11.79259
 20
-4.7784
 30
0.0
 10
-11.78346
 20
-4.80521
 30
0.0
 10
-11.78168
 20
-4.82977
 30
0.0
 10
-11.78712
 20
-4.8521
 30
0.0
 10
-11.78712
 20
-4.8521
 30
0.0
 10
-11.79248
 20
-4.87437
 30
0.0
 10
-11.80602
 20
-4.89373
 30
0.0
 10
-11.82766
 20
-4.9101
 30
0.0
 10
-11.82766
 20
-4.9101
 30
0.0
 10
-11.85613
 20
-4.93165
 30
0.0
 10
-11.8862
 20
-4.93847
 30
0.0
 10
-11.91785
 20
-4.93044
 30
0.0
 10
-11.91785
 20
-4.93044
 30
0.0
 10
-11.95614
 20
-4.9204
 30
0.0
 10
-11.99627
 20
-4.88757
 30
0.0
 10
-12.03836
 20
-4.83194
 30
0.0
  0
SPLINE
  5
7D
330
1F
100
AcDbEntity
  8
layer 2
 62
     1
100
AcDbSpline
210
0.0
220
0.0
230
1.0
 70
    11
 71
     3
 72
    36
 73
    32
 74
     0
 42
0.0000000001
 43
0.0000000001
 12
1.0
 22
0.0
 32
0.0
 13
1.0
 23
0.0
 33
0.0
 40
0.0
 40
0.0
 40
0.0
 40
0.0
 40
0.1111111111111111
 40
0.1111111111111111
 40
0.1111111111111111
 40
0.1111111111111111
 40
0.2222222222222222
 40
0.2222222222222222
 40
0.2222222222222222
 40
0.2222222222222222
 40
0.3333333333333333
 40
0.3333333333333333
 40
0.3333333333333333
 40
0.3333333333333333
 40
0.4444444444444444
 40
0.4444444444444444
 40
0.4444444444444444
 40
0.4444444444444444
 40
0.5555555555555556
 40
0.5555555555555556
 40
0.5555555555555556
 40
0.5555555555555556
 40
0.6666666666666666
 40
0.6666666666666666
 40
0.6666666666666666
 40
0.6666666666666666
 40
0.7777777777777778
 40
0.7777777777777778
 40
0.7777777777777778
 40
0.7777777777777778
 40
1.0
 40
1.0
 40
1.0
 40
1.0
 10
-12.00104
 20
-4.80391
 30
0.0
 10
-11.96416
 20
-4.85264
 30
0.0
 10
-11.93399
 20
-4.88076
 30
0.0
 10
-11.91052
 20
-4.88814
 30
0.0
 10
-11.91052
 20
-4.88814
 30
0.0
 10
-11.88699
 20
-4.8956
 30
0.0
 10
-11.86688
 20
-4.89295
 30
0.0
 10
-11.8502
 20
-4.88033
 30
0.0
 10
-11.8502
 20
-4.88033
 30
0.0
 10
-11.83352
 20
-4.86771
 30
0.0
 10
-11.82556
 20
-4.849
 30
0.0
 10
-11.82634
 20
-4.82433
 30
0.0
 10
-11.82634
 20
-4.82433
 30
0.0
 10
-11.82717
 20
-4.7996
 30
0.0
 10
-11.84599
 20
-4.76299
 30
0.0
 10
-11.88276
 20
-4.7144
 30
0.0
 10
-11.88276
 20
-4.7144
 30
0.0
 10
-11.91964
 20
-4.66567
 30
0.0
 10
-11.94981
 20
-4.63755
 30
0.0
 10
-11.97329
 20
-4.63017
 30
0.0
 10
-11.97329
 20
-4.63017
 30
0.0
 10
-11.99675
 20
-4.62266
 30
0.0
 10
-12.017
 20
-4.62541
 30
0.0
 10
-12.03402
 20
-4.6383
 30
0.0
 10
-12.03402
 20
-4.6383
 30
0.0
 10
-12.0507
 20
-4.65092
 30
0.0
 10
-12.0587
 20
-4.66814
 30
0.0
 10
-12.058
 20
-4.68983
 30
0.0
 10
-12.058
 20
-4.68983
 30
0.0
 10
-12.05686
 20
-4.71726
 30
0.0
 10
-12.03782
 20
-4.75532
 30
0.0
 10
-12.00104
 20
-4.80391
 30
0.0
  0
SPLINE
  5
7E
330
1F
100
AcDbEntity
  8
layer 2
 62
     1
370
     0
100
AcDbSpline
210
0.0
220
0.0
230
1.0
 70
    24
 71
     3
 72
     8
 73
     4
 74
     0
 42
0.0000000001
 43
0.0000000001
 12
1.0
 22
0.0
 32
0.0
 13
1.0
 23
0.0
 33
0.0
 40
0.0
 40
0.0
 40
0.0
 40
0.0
 40
1.0
 40
1.0
 40
1.0
 40
1.0
 10
-10.57057
 20
-5.02183
 30
0.0
 10
-10.57057
 20
-5.02183
 30
0.0
 10
-10.79533
 20
-5.19194
 30
0.0
 10
-10.79533
 20
-5.19194
 30
0.0
  0
SPLINE
  5
7F
330
1F
100
AcDbEntity
  8
layer 2
 62
     1
100
AcDbSpline
210
0.0
220
0.0
230
1.0
 70
    27
 71
     3
 72
    12
 73
     8
 74
     0
 42
0.0000000001
 43
0.0000000001
 12
1.0
 22
0.0
 32
0.0
 13
1.0
 23
0.0
 33
0.0
 40
0.0
 40
0.0
 40
0.0
 40
0.0
 40
0.3333333333333333
 40
0.3333333333333333
 40
0.3333333333333333
 40
0.3333333333333333
 40
1.0
 40
1.0
 40
1.0
 40
1.0
 10
-11.09906
 20
-5.35111
 30
0.0
 10
-11.09906
 20
-5.35111
 30
0.0
 10
-10.79533
 20
-5.19194
 30
0.0
 10
-10.79533
 20
-5.19194
 30
0.0
 10
-10.79533
 20
-5.19194
 30
0.0
 10
-10.79533
 20
-5.19194
 30
0.0
 10
-11.09906
 20
-5.35111
 30
0.0
 10
-11.09906
 20
-5.35111
 30
0.0
  0
SPLINE
  5
80
330
1F
100
AcDbEntity
  8
layer 2
 62
     1
100
AcDbSpline
210
0.0
220
0.0
230
1.0
 70
     8
 71
     3
 72
    12
 73
     8
 74
     0
 42
0.0000000001
 43
0.0000000001
 12
1.0
 22
0.0
 32
0.0
 13
1.0
 23
0.0
 33
0.0
 40
0.0
 40
0.0
 40
0.0
 40
0.0
 40
0.3333333333333333
 40
0.3333333333333333
 40
0.3333333333333333
 40
0.3333333333333333
 40
1.0
 40
1.0
 40
1.0
 40
1.0
 10
-10.79533
 20
-5.19194
 30
0.0
 10
-10.79533
 20
-5.19194
 30
0.0
 10
-11.03102
 20
-5.44101
 30
0.0
 10
-11.03102
 20
-5.44101
 30
0.0
 10
-11.03102
 20
-5.44101
 30
0.0
 10
-11.03102
 20
-5.44101
 30
0.0
 10
-11.09906
 20
-5.35111
 30
0.0
 10
-11.09906
 20
-5.35111
 30
0.0
  0
SPLINE
  5
81
330
1F
100
AcDbEntity
  8
layer 2
 62
     1
370
     9
100
AcDbSpline
210
0.0
220
0.0
230
1.0
 70
    24
 71
     3
 72
     8
 73
     4
 74
     0
 42
0.0000000001
 43
0.0000000001
 12
1.0
 22
0.0
 32
0.0
 13
1.0
 23
0.0
 33
0.0
 40
0.0
 40
0.0
 40
0.0
 40
0.0
 40
1.0
 40
1.0
 40
1.0
 40
1.0
 10
-11.09906
 20
-5.35111
 30
0.0
 10
-11.09906
 20
-5.35111
 30
0.0
 10
-10.79533
 20
-5.19194
 30
0.0
 10
-10.79533
 20
-5.19194
 30
0.0
  0
SPLINE
  5
82
330
1F
100
AcDbEntity
  8
layer 2
 62
     1
370
     9
100
AcDbSpline
210
0.0
220
0.0
230
1.0
 70
     8
 71
     3
 72
    12
 73
     8
 74
     0
 42
0.0000000001
 43
0.0000000001
 12
1.0
 22
0.0
 32
0.0
 13
1.0
 23
0.0
 33
0.0
 40
0.0
 40
0.0
 40
0.0
 40
0.0
 40
0.3333333333333333
 40
0.3333333333333333
 40
0.3333333333333333
 40
0.3333333333333333
 40
1.0
 40
1.0
 40
1.0
 40
1.0
 10
-10.79533
 20
-5.19194
 30
0.0
 10
-10.79533
 20
-5.19194
 30
0.0
 10
-11.03102
 20
-5.44101
 30
0.0
 10
-11.03102
 20
-5.44101
 30
0.0
 10
-11.03102
 20
-5.44101
 30
0.0
 10
-11.03102
 20
-5.44101
 30
0.0
 10
-11.09906
 20
-5.35111
 30
0.0
 10
-11.09906
 20
-5.35111
 30
0.0
  0
ENDSEC
  0
SECTION
  2
OBJECTS
  0
DICTIONARY
  5
C
330
0
100
AcDbDictionary
281
     1
  3
ACAD_GROUP
350
D
  3
ACAD_LAYOUT
350
1A
  3
ACAD_MATERIAL
350
3B
  3
ACAD_MLEADERSTYLE
350
A4
  3
ACAD_MLINESTYLE
350
17
  3
ACAD_PLOTSETTINGS
350
19
  3
ACAD_PLOTSTYLENAME
350
E
  3
ACAD_TABLESTYLE
350
A3
  3
ACAD_VISUALSTYLE
350
2A
  0
DICTIONARY
  5
D
102
{ACAD_REACTORS
330
C
102
}
330
C
100
AcDbDictionary
281
     1
  0
DICTIONARY
  5
1A
102
{ACAD_REACTORS
330
C
102
}
330
C
100
AcDbDictionary
281
     1
  3
Layout1
350
1E
  3
Layout2
350
26
  3
Model
350
22
  0
DICTIONARY
  5
3B
102
{ACAD_REACTORS
330
C
102
}
330
C
100
AcDbDictionary
281
     1
  3
ByBlock
350
3D
  3
ByLayer
350
3C
  3
Global
350
3E
  0
DICTIONARY
  5
A4
102
{ACAD_REACTORS
330
C
102
}
330
C
100
AcDbDictionary
281
     1
  0
DICTIONARY
  5
17
102
{ACAD_REACTORS
330
C
102
}
330
C
100
AcDbDictionary
281
     1
  3
Standard
350
18
  0
DICTIONARY
  5
19
102
{ACAD_REACTORS
330
C
102
}
330
C
100
AcDbDictionary
281
     1
  0
ACDBDICTIONARYWDFLT
  5
E
102
{ACAD_REACTORS
330
C
102
}
330
C
100
AcDbDictionary
281
     1
  3
Normal
350
F
100
AcDbDictionaryWithDefault
340
F
  0
DICTIONARY
  5
A3
102
{ACAD_REACTORS
330
C
102
}
330
C
100
AcDbDictionary
281
     1
  0
DICTIONARY
  5
2A
102
{ACAD_REACTORS
330
C
102
}
330
C
100
AcDbDictionary
281
     1
  3
2dWireframe
350
2F
  3
3D Hidden
350
31
  3
3dWireframe
350
30
  3
Basic
350
32
  3
Brighten
350
36
  3
ColorChange
350
3A
  3
Conceptual
350
34
  3
Dim
350
35
  3
Facepattern
350
39
  3
Flat
350
2B
  3
FlatWithEdges
350
2C
  3
Gouraud
350
2D
  3
GouraudWithEdges
350
2E
  3
Linepattern
350
38
  3
Realistic
350
33
  3
Thicken
350
37
  0
LAYOUT
  5
1E
102
{ACAD_REACTORS
330
1A
102
}
330
1A
100
AcDbPlotSettings
  1

  2
none_device
  4

  6

 40
0.0
 41
0.0
 42
0.0
 43
0.0
 44
0.0
 45
0.0
 46
0.0
 47
0.0
 48
0.0
 49
0.0
140
0.0
141
0.0
142
1.0
143
1.0
 70
   688
 72
     0
 73
     0
 74
     5
  7

 75
    16
 76
     0
 77
     2
 78
   300
147
1.0
148
0.0
149
0.0
100
AcDbLayout
  1
Layout1
 70
     1
 71
     1
 10
0.0
 20
0.0
 11
12.0
 21
9.0
 12
0.0
 22
0.0
 32
0.0
 14
1.000000000000000E+20
 24
1.000000000000000E+20
 34
1.000000000000000E+20
 15
-1.000000000000000E+20
 25
-1.000000000000000E+20
 35
-1.000000000000000E+20
146
0.0
 13
0.0
 23
0.0
 33
0.0
 16
1.0
 26
0.0
 36
0.0
 17
0.0
 27
1.0
 37
0.0
 76
     0
330
1B
  0
LAYOUT
  5
26
102
{ACAD_REACTORS
330
1A
102
}
330
1A
100
AcDbPlotSettings
  1

  2
none_device
  4

  6

 40
0.0
 41
0.0
 42
0.0
 43
0.0
 44
0.0
 45
0.0
 46
0.0
 47
0.0
 48
0.0
 49
0.0
140
0.0
141
0.0
142
1.0
143
1.0
 70
   688
 72
     0
 73
     0
 74
     5
  7

 75
    16
 76
     0
 77
     2
 78
   300
147
1.0
148
0.0
149
0.0
100
AcDbLayout
  1
Layout2
 70
     1
 71
     2
 10
0.0
 20
0.0
 11
0.0
 21
0.0
 12
0.0
 22
0.0
 32
0.0
 14
0.0
 24
0.0
 34
0.0
 15
0.0
 25
0.0
 35
0.0
146
0.0
 13
0.0
 23
0.0
 33
0.0
 16
1.0
 26
0.0
 36
0.0
 17
0.0
 27
1.0
 37
0.0
 76
     0
330
23
  0
LAYOUT
  5
22
102
{ACAD_REACTORS
330
1A
102
}
330
1A
100
AcDbPlotSettings
  1

  2
none_device
  4

  6

 40
0.0
 41
0.0
 42
0.0
 43
0.0
 44
0.0
 45
0.0
 46
0.0
 47
0.0
 48
0.0
 49
0.0
140
0.0
141
0.0
142
1.0
143
1.0
 70
  1712
 72
     0
 73
     0
 74
     0
  7

 75
     0
 76
     0
 77
     2
 78
   300
147
1.0
148
0.0
149
0.0
100
AcDbLayout
  1
Model
 70
     1
 71
     0
 10
0.0
 20
0.0
 11
12.0
 21
9.0
 12
0.0
 22
0.0
 32
0.0
 14
-12.66524
 24
-7.75511
 34
0.0
 15
12.14248
 25
7.48489
 35
0.0
146
0.0
 13
0.0
 23
0.0
 33
0.0
 16
1.0
 26
0.0
 36
0.0
 17
0.0
 27
1.0
 37
0.0
 76
     0
330
1F
331
29
  0
MATERIAL
  5
3D
102
{ACAD_REACTORS
330
3B
102
}
330
3B
100
AcDbMaterial
  1
ByBlock
 72
     1
 94
      127
  0
MATERIAL
  5
3C
102
{ACAD_REACTORS
330
3B
102
}
330
3B
100
AcDbMaterial
  1
ByLayer
 72
     1
 94
      127
  0
MATERIAL
  5
3E
102
{ACAD_REACTORS
330
3B
102
}
330
3B
100
AcDbMaterial
  1
Global
 72
     1
 94
      127
  0
MLINESTYLE
  5
18
102
{ACAD_REACTORS
330
17
102
}
330
17
100
AcDbMlineStyle
  2
Standard
 70
     0
  3

 62
   256
 51
90.0
 52
90.0
 71
     2
 49
0.5
 62
   256
  6
BYLAYER
 49
-0.5
 62
   256
  6
BYLAYER
  0
ACDBPLACEHOLDER
  5
F
102
{ACAD_REACTORS
330
E
102
}
330
E
  0
VISUALSTYLE
  5
2F
102
{ACAD_REACTORS
330
2A
102
}
102
{ACAD_XDICTIONARY
360
8B
102
}
330
2A
100
AcDbVisualStyle
  2
2dWireframe
 70
     4
 71
     0
 72
     2
 73
     0
 90
        0
 40
-0.6
 41
-30.0
 62
     5
 63
     7
421
 16777215
 74
     1
 91
        4
 64
     7
 65
   257
 75
     1
175
     1
 42
1.0
 92
        0
 66
   257
 43
1.0
 76
     1
 77
     6
 78
     2
 67
     7
 79
     5
170
     0
171
     0
290
     0
174
     0
 93
        1
 44
0.0
173
     0
291
     0
 45
0.0
  0
VISUALSTYLE
  5
31
102
{ACAD_REACTORS
330
2A
102
}
102
{ACAD_XDICTIONARY
360
8F
102
}
330
2A
100
AcDbVisualStyle
  2
3D Hidden
 70
     6
 71
     1
 72
     2
 73
     2
 90
        0
 40
-0.6
 41
-30.0
 62
     5
 63
     7
421
 16777215
 74
     2
 91
        2
 64
     7
 65
   257
 75
     2
175
     1
 42
40.0
 92
        0
 66
   257
 43
1.0
 76
     1
 77
     6
 78
     2
 67
     7
 79
     3
170
     0
171
     0
290
     0
174
     0
 93
        1
 44
0.0
173
     0
291
     0
 45
0.0
  0
VISUALSTYLE
  5
30
102
{ACAD_REACTORS
330
2A
102
}
102
{ACAD_XDICTIONARY
360
8D
102
}
330
2A
100
AcDbVisualStyle
  2
3dWireframe
 70
     5
 71
     0
 72
     2
 73
     0
 90
        0
 40
-0.6
 41
-30.0
 62
     5
 63
     7
421
 16777215
 74
     1
 91
        4
 64
     7
 65
   257
 75
     1
175
     1
 42
1.0
 92
        0
 66
   257
 43
1.0
 76
     1
 77
     6
 78
     2
 67
     7
 79
     5
170
     0
171
     0
290
     0
174
     0
 93
        1
 44
0.0
173
     0
291
     0
 45
0.0
  0
VISUALSTYLE
  5
32
102
{ACAD_REACTORS
330
2A
102
}
102
{ACAD_XDICTIONARY
360
91
102
}
330
2A
100
AcDbVisualStyle
  2
Basic
 70
     7
 71
     1
 72
     0
 73
     1
 90
        0
 40
-0.6
 41
-30.0
 62
     5
 63
     7
421
 16777215
 74
     0
 91
        4
 64
     7
 65
   257
 75
     1
175
     1
 42
1.0
 92
        8
 66
     7
 43
1.0
 76
     1
 77
     6
 78
     2
 67
     7
 79
     5
170
     0
171
     0
290
     0
174
     0
 93
        1
 44
0.0
173
     0
291
     1
 45
0.0
  0
VISUALSTYLE
  5
36
102
{ACAD_REACTORS
330
2A
102
}
102
{ACAD_XDICTIONARY
360
99
102
}
330
2A
100
AcDbVisualStyle
  2
Brighten
 70
    12
 71
     2
 72
     2
 73
     0
 90
        0
 40
-0.6
 41
-30.0
 62
     5
 63
     7
421
 16777215
 74
     1
 91
        4
 64
     7
 65
   257
 75
     1
175
     1
 42
1.0
 92
        8
 66
     7
 43
1.0
 76
     1
 77
     6
 78
     2
 67
     7
 79
     5
170
     0
171
     0
290
     0
174
     0
 93
        1
 44
50.0
173
     0
291
     1
 45
0.0
  0
VISUALSTYLE
  5
3A
102
{ACAD_REACTORS
330
2A
102
}
102
{ACAD_XDICTIONARY
360
A1
102
}
330
2A
100
AcDbVisualStyle
  2
ColorChange
 70
    16
 71
     2
 72
     2
 73
     3
 90
        0
 40
-0.6
 41
-30.0
 62
     5
 63
     8
421
  8421504
 74
     1
 91
        4
 64
     7
 65
   257
 75
     1
175
     1
 42
1.0
 92
        8
 66
     8
424
  8421504
 43
1.0
 76
     1
 77
     6
 78
     2
 67
     7
 79
     5
170
     0
171
     0
290
     0
174
     0
 93
        1
 44
0.0
173
     0
291
     1
 45
0.0
  0
VISUALSTYLE
  5
34
102
{ACAD_REACTORS
330
2A
102
}
102
{ACAD_XDICTIONARY
360
95
102
}
330
2A
100
AcDbVisualStyle
  2
Conceptual
 70
     9
 71
     3
 72
     2
 73
     0
 90
        0
 40
-0.6
 41
-30.0
 62
     5
 63
     7
421
 16777215
 74
     2
 91
        2
 64
     7
 65
   257
 75
     1
175
     1
 42
40.0
 92
        8
 66
     7
 43
1.0
 76
     1
 77
     6
 78
     2
 67
     7
 79
     3
170
     0
171
     0
290
     0
174
     0
 93
        1
 44
0.0
173
     0
291
     0
 45
0.0
  0
VISUALSTYLE
  5
35
102
{ACAD_REACTORS
330
2A
102
}
102
{ACAD_XDICTIONARY
360
97
102
}
330
2A
100
AcDbVisualStyle
  2
Dim
 70
    11
 71
     2
 72
     2
 73
     0
 90
        0
 40
-0.6
 41
-30.0
 62
     5
 63
     7
421
 16777215
 74
     1
 91
        4
 64
     7
 65
   257
 75
     1
175
     1
 42
1.0
 92
        8
 66
     7
 43
1.0
 76
     1
 77
     6
 78
     2
 67
     7
 79
     5
170
     0
171
     0
290
     0
174
     0
 93
        1
 44
-50.0
173
     0
291
     1
 45
0.0
  0
VISUALSTYLE
  5
39
102
{ACAD_REACTORS
330
2A
102
}
102
{ACAD_XDICTIONARY
360
9F
102
}
330
2A
100
AcDbVisualStyle
  2
Facepattern
 70
    15
 71
     2
 72
     2
 73
     0
 90
        0
 40
-0.6
 41
-30.0
 62
     5
 63
     7
421
 16777215
 74
     1
 91
        4
 64
     7
 65
   257
 75
     1
175
     1
 42
1.0
 92
        8
 66
     7
 43
1.0
 76
     1
 77
     6
 78
     2
 67
     7
 79
     5
170
     0
171
     0
290
     0
174
     0
 93
        1
 44
0.0
173
     0
291
     1
 45
0.0
  0
VISUALSTYLE
  5
2B
102
{ACAD_REACTORS
330
2A
102
}
102
{ACAD_XDICTIONARY
360
83
102
}
330
2A
100
AcDbVisualStyle
  2
Flat
 70
     0
 71
     2
 72
     1
 73
     1
 90
        2
 40
-0.6
 41
30.0
 62
     5
 63
     7
421
 16777215
 74
     0
 91
        4
 64
     7
 65
   257
 75
     1
175
     1
 42
1.0
 92
        8
 66
     7
 43
1.0
 76
     1
 77
     6
 78
     2
 67
     7
 79
     5
170
     0
171
     0
290
     0
174
     0
 93
       13
 44
0.0
173
     0
291
     1
 45
0.0
  0
VISUALSTYLE
  5
2C
102
{ACAD_REACTORS
330
2A
102
}
102
{ACAD_XDICTIONARY
360
85
102
}
330
2A
100
AcDbVisualStyle
  2
FlatWithEdges
 70
     1
 71
     2
 72
     1
 73
     1
 90
        2
 40
-0.6
 41
30.0
 62
     5
 63
     7
421
 16777215
 74
     1
 91
        4
 64
     7
 65
   257
 75
     1
175
     1
 42
1.0
 92
        0
 66
   257
 43
1.0
 76
     1
 77
     6
 78
     2
 67
     7
 79
     5
170
     0
171
     0
290
     0
174
     0
 93
       13
 44
0.0
173
     0
291
     1
 45
0.0
  0
VISUALSTYLE
  5
2D
102
{ACAD_REACTORS
330
2A
102
}
102
{ACAD_XDICTIONARY
360
87
102
}
330
2A
100
AcDbVisualStyle
  2
Gouraud
 70
     2
 71
     2
 72
     2
 73
     1
 90
        2
 40
-0.6
 41
30.0
 62
     5
 63
     7
421
 16777215
 74
     0
 91
        4
 64
     7
 65
   257
 75
     1
175
     1
 42
1.0
 92
        0
 66
     7
 43
1.0
 76
     1
 77
     6
 78
     2
 67
     7
 79
     5
170
     0
171
     0
290
     0
174
     0
 93
       13
 44
0.0
173
     0
291
     1
 45
0.0
  0
VISUALSTYLE
  5
2E
102
{ACAD_REACTORS
330
2A
102
}
102
{ACAD_XDICTIONARY
360
89
102
}
330
2A
100
AcDbVisualStyle
  2
GouraudWithEdges
 70
     3
 71
     2
 72
     2
 73
     1
 90
        2
 40
-0.6
 41
30.0
 62
     5
 63
     7
421
 16777215
 74
     1
 91
        4
 64
     7
 65
   257
 75
     1
175
     1
 42
1.0
 92
        0
 66
   257
 43
1.0
 76
     1
 77
     6
 78
     2
 67
     7
 79
     5
170
     0
171
     0
290
     0
174
     0
 93
       13
 44
0.0
173
     0
291
     1
 45
0.0
  0
VISUALSTYLE
  5
38
102
{ACAD_REACTORS
330
2A
102
}
102
{ACAD_XDICTIONARY
360
9D
102
}
330
2A
100
AcDbVisualStyle
  2
Linepattern
 70
    14
 71
     2
 72
     2
 73
     0
 90
        0
 40
-0.6
 41
-30.0
 62
     5
 63
     7
421
 16777215
 74
     1
 91
        4
 64
     7
 65
   257
 75
     7
175
     7
 42
1.0
 92
        8
 66
     7
 43
1.0
 76
     1
 77
     6
 78
     2
 67
     7
 79
     5
170
     0
171
     0
290
     0
174
     0
 93
        1
 44
0.0
173
     0
291
     1
 45
0.0
  0
VISUALSTYLE
  5
33
102
{ACAD_REACTORS
330
2A
102
}
102
{ACAD_XDICTIONARY
360
93
102
}
330
2A
100
AcDbVisualStyle
  2
Realistic
 70
     8
 71
     2
 72
     2
 73
     0
 90
        0
 40
-0.6
 41
-30.0
 62
     5
 63
     7
421
 16777215
 74
     1
 91
        0
 64
     7
 65
   257
 75
     1
175
     1
 42
1.0
 92
        8
 66
     8
424
  7895160
 43
1.0
 76
     1
 77
     6
 78
     2
 67
     7
 79
     5
170
     0
171
     0
290
     0
174
     0
 93
       13
 44
0.0
173
     0
291
     0
 45
0.0
  0
VISUALSTYLE
  5
37
102
{ACAD_REACTORS
330
2A
102
}
102
{ACAD_XDICTIONARY
360
9B
102
}
330
2A
100
AcDbVisualStyle
  2
Thicken
 70
    13
 71
     2
 72
     2
 73
     0
 90
        0
 40
-0.6
 41
-30.0
 62
     5
 63
     7
421
 16777215
 74
     1
 91
        4
 64
     7
 65
   257
 75
     1
175
     1
 42
1.0
 92
       12
 66
     7
 43
1.0
 76
     1
 77
     6
 78
     2
 67
     7
 79
     5
170
     0
171
     0
290
     0
174
     0
 93
        1
 44
0.0
173
     0
291
     1
 45
0.0
  0
DICTIONARY
  5
8B
330
2F
100
AcDbDictionary
280
     1
281
     1
  3
ACAD_XREC_ROUNDTRIP
360
8C
  0
DICTIONARY
  5
8F
330
31
100
AcDbDictionary
280
     1
281
     1
  3
ACAD_XREC_ROUNDTRIP
360
90
  0
DICTIONARY
  5
8D
330
30
100
AcDbDictionary
280
     1
281
     1
  3
ACAD_XREC_ROUNDTRIP
360
8E
  0
DICTIONARY
  5
91
330
32
100
AcDbDictionary
280
     1
281
     1
  3
ACAD_XREC_ROUNDTRIP
360
92
  0
DICTIONARY
  5
99
330
36
100
AcDbDictionary
280
     1
281
     1
  3
ACAD_XREC_ROUNDTRIP
360
9A
  0
DICTIONARY
  5
A1
330
3A
100
AcDbDictionary
280
     1
281
     1
  3
ACAD_XREC_ROUNDTRIP
360
A2
  0
DICTIONARY
  5
95
330
34
100
AcDbDictionary
280
     1
281
     1
  3
ACAD_XREC_ROUNDTRIP
360
96
  0
DICTIONARY
  5
97
330
35
100
AcDbDictionary
280
     1
281
     1
  3
ACAD_XREC_ROUNDTRIP
360
98
  0
DICTIONARY
  5
9F
330
39
100
AcDbDictionary
280
     1
281
     1
  3
ACAD_XREC_ROUNDTRIP
360
A0
  0
DICTIONARY
  5
83
330
2B
100
AcDbDictionary
280
     1
281
     1
  3
ACAD_XREC_ROUNDTRIP
360
84
  0
DICTIONARY
  5
85
330
2C
100
AcDbDictionary
280
     1
281
     1
  3
ACAD_XREC_ROUNDTRIP
360
86
  0
DICTIONARY
  5
87
330
2D
100
AcDbDictionary
280
     1
281
     1
  3
ACAD_XREC_ROUNDTRIP
360
88
  0
DICTIONARY
  5
89
330
2E
100
AcDbDictionary
280
     1
281
     1
  3
ACAD_XREC_ROUNDTRIP
360
8A
  0
DICTIONARY
  5
9D
330
38
100
AcDbDictionary
280
     1
281
     1
  3
ACAD_XREC_ROUNDTRIP
360
9E
  0
DICTIONARY
  5
93
330
33
100
AcDbDictionary
280
     1
281
     1
  3
ACAD_XREC_ROUNDTRIP
360
94
  0
DICTIONARY
  5
9B
330
37
100
AcDbDictionary
280
     1
281
     1
  3
ACAD_XREC_ROUNDTRIP
360
9C
  0
XRECORD
  5
8C
102
{ACAD_REACTORS
330
8B
102
}
330
8B
100
AcDbXrecord
280
     1
102
RTVSPropertyOp0
 70
     1
102
RTVSPropertyOp1
 70
     1
102
RTVSPropertyOp2
 70
     1
102
RTVSPropertyOp3
 70
     1
102
RTVSPropertyOp4
 70
     1
102
RTVSPropertyOp5
 70
     1
102
RTVSPropertyOp6
 70
     1
102
RTVSPropertyOp7
 70
     1
102
RTVSPropertyOp8
 70
     1
102
RTVSPropertyOp9
 70
     1
102
RTVSPropertyOp10
 70
     1
102
RTVSPropertyOp11
 70
     1
102
RTVSPropertyOp12
 70
     1
102
RTVSPropertyOp13
 70
     1
102
RTVSPropertyOp14
 70
     1
102
RTVSPropertyOp15
 70
     1
102
RTVSPropertyOp16
 70
     1
102
RTVSPropertyOp17
 70
     1
102
RTVSPropertyOp18
 70
     1
102
RTVSPropertyOp19
 70
     1
102
RTVSPropertyOp20
 70
     1
102
RTVSPropertyOp21
 70
     1
102
RTVSPropertyOp22
 70
     1
102
RTVSPropertyOp23
 70
     1
102
RTVSPropertyOp24
 70
     1
102
RTVSPropertyOp25
 70
     1
102
RTVSPropertyOp26
 70
     1
102
RTVSPropertyOp27
 70
     1
102
RTVSPropertyOp28
 70
     1
102
RTVSPropertyOp29
 70
     1
102
RTVSPropertyOp30
 70
     1
102
RTVSPropertyOp31
 70
     1
102
RTVSPropertyOp32
 70
     1
  0
XRECORD
  5
90
102
{ACAD_REACTORS
330
8F
102
}
330
8F
100
AcDbXrecord
280
     1
102
RTVSPropertyOp0
 70
     1
102
RTVSPropertyOp1
 70
     1
102
RTVSPropertyOp2
 70
     1
102
RTVSPropertyOp3
 70
     1
102
RTVSPropertyOp4
 70
     1
102
RTVSPropertyOp5
 70
     1
102
RTVSPropertyOp6
 70
     1
102
RTVSPropertyOp7
 70
     1
102
RTVSPropertyOp8
 70
     1
102
RTVSPropertyOp9
 70
     1
102
RTVSPropertyOp10
 70
     1
102
RTVSPropertyOp11
 70
     1
102
RTVSPropertyOp12
 70
     1
102
RTVSPropertyOp13
 70
     1
102
RTVSPropertyOp14
 70
     1
102
RTVSPropertyOp15
 70
     1
102
RTVSPropertyOp16
 70
     1
102
RTVSPropertyOp17
 70
     1
102
RTVSPropertyOp18
 70
     1
102
RTVSPropertyOp19
 70
     1
102
RTVSPropertyOp20
 70
     1
102
RTVSPropertyOp21
 70
     1
102
RTVSPropertyOp22
 70
     1
102
RTVSPropertyOp23
 70
     1
102
RTVSPropertyOp24
 70
     1
102
RTVSPropertyOp25
 70
     1
102
RTVSPropertyOp26
 70
     1
102
RTVSPropertyOp27
 70
     1
102
RTVSPropertyOp28
 70
     1
102
RTVSPropertyOp29
 70
     1
102
RTVSPropertyOp30
 70
     1
102
RTVSPropertyOp31
 70
     1
102
RTVSPropertyOp32
 70
     1
  0
XRECORD
  5
8E
102
{ACAD_REACTORS
330
8D
102
}
330
8D
100
AcDbXrecord
280
     1
102
RTVSPropertyOp0
 70
     1
102
RTVSPropertyOp1
 70
     1
102
RTVSPropertyOp2
 70
     1
102
RTVSPropertyOp3
 70
     1
102
RTVSPropertyOp4
 70
     1
102
RTVSPropertyOp5
 70
     1
102
RTVSPropertyOp6
 70
     1
102
RTVSPropertyOp7
 70
     1
102
RTVSPropertyOp8
 70
     1
102
RTVSPropertyOp9
 70
     1
102
RTVSPropertyOp10
 70
     1
102
RTVSPropertyOp11
 70
     1
102
RTVSPropertyOp12
 70
     1
102
RTVSPropertyOp13
 70
     1
102
RTVSPropertyOp14
 70
     1
102
RTVSPropertyOp15
 70
     1
102
RTVSPropertyOp16
 70
     1
102
RTVSPropertyOp17
 70
     1
102
RTVSPropertyOp18
 70
     1
102
RTVSPropertyOp19
 70
     1
102
RTVSPropertyOp20
 70
     1
102
RTVSPropertyOp21
 70
     1
102
RTVSPropertyOp22
 70
     1
102
RTVSPropertyOp23
 70
     1
102
RTVSPropertyOp24
 70
     1
102
RTVSPropertyOp25
 70
     1
102
RTVSPropertyOp26
 70
     1
102
RTVSPropertyOp27
 70
     1
102
RTVSPropertyOp28
 70
     1
102
RTVSPropertyOp29
 70
     1
102
RTVSPropertyOp30
 70
     1
102
RTVSPropertyOp31
 70
     1
102
RTVSPropertyOp32
 70
     1
  0
XRECORD
  5
92
102
{ACAD_REACTORS
330
91
102
}
330
91
100
AcDbXrecord
280
     1
102
RTVSPropertyOp0
 70
     1
102
RTVSPropertyOp1
 70
     1
102
RTVSPropertyOp2
 70
     1
102
RTVSPropertyOp3
 70
     1
102
RTVSPropertyOp4
 70
     1
102
RTVSPropertyOp5
 70
     1
102
RTVSPropertyOp6
 70
     1
102
RTVSPropertyOp7
 70
     1
102
RTVSPropertyOp8
 70
     1
102
RTVSPropertyOp9
 70
     1
102
RTVSPropertyOp10
 70
     1
102
RTVSPropertyOp11
 70
     1
102
RTVSPropertyOp12
 70
     1
102
RTVSPropertyOp13
 70
     1
102
RTVSPropertyOp14
 70
     1
102
RTVSPropertyOp15
 70
     1
102
RTVSPropertyOp16
 70
     1
102
RTVSPropertyOp17
 70
     1
102
RTVSPropertyOp18
 70
     1
102
RTVSPropertyOp19
 70
     1
102
RTVSPropertyOp20
 70
     1
102
RTVSPropertyOp21
 70
     1
102
RTVSPropertyOp22
 70
     1
102
RTVSPropertyOp23
 70
     1
102
RTVSPropertyOp24
 70
     1
102
RTVSPropertyOp25
 70
     1
102
RTVSPropertyOp26
 70
     1
102
RTVSPropertyOp27
 70
     1
102
RTVSPropertyOp28
 70
     1
102
RTVSPropertyOp29
 70
     1
102
RTVSPropertyOp30
 70
     1
102
RTVSPropertyOp31
 70
     1
102
RTVSPropertyOp32
 70
     1
  0
XRECORD
  5
9A
102
{ACAD_REACTORS
330
99
102
}
330
99
100
AcDbXrecord
280
     1
102
RTVSPropertyOp0
 70
     1
102
RTVSPropertyOp1
 70
     1
102
RTVSPropertyOp2
 70
     1
102
RTVSPropertyOp3
 70
     1
102
RTVSPropertyOp4
 70
     1
102
RTVSPropertyOp5
 70
     1
102
RTVSPropertyOp6
 70
     1
102
RTVSPropertyOp7
 70
     1
102
RTVSPropertyOp8
 70
     1
102
RTVSPropertyOp9
 70
     1
102
RTVSPropertyOp10
 70
     1
102
RTVSPropertyOp11
 70
     1
102
RTVSPropertyOp12
 70
     1
102
RTVSPropertyOp13
 70
     1
102
RTVSPropertyOp14
 70
     1
102
RTVSPropertyOp15
 70
     1
102
RTVSPropertyOp16
 70
     1
102
RTVSPropertyOp17
 70
     1
102
RTVSPropertyOp18
 70
     1
102
RTVSPropertyOp19
 70
     1
102
RTVSPropertyOp20
 70
     1
102
RTVSPropertyOp21
 70
     1
102
RTVSPropertyOp22
 70
     1
102
RTVSPropertyOp23
 70
     1
102
RTVSPropertyOp24
 70
     1
102
RTVSPropertyOp25
 70
     1
102
RTVSPropertyOp26
 70
     1
102
RTVSPropertyOp27
 70
     1
102
RTVSPropertyOp28
 70
     1
102
RTVSPropertyOp29
 70
     1
102
RTVSPropertyOp30
 70
     1
102
RTVSPropertyOp31
 70
     1
102
RTVSPropertyOp32
 70
     1
  0
XRECORD
  5
A2
102
{ACAD_REACTORS
330
A1
102
}
330
A1
100
AcDbXrecord
280
     1
102
RTVSPropertyOp0
 70
     1
102
RTVSPropertyOp1
 70
     1
102
RTVSPropertyOp2
 70
     1
102
RTVSPropertyOp3
 70
     1
102
RTVSPropertyOp4
 70
     1
102
RTVSPropertyOp5
 70
     1
102
RTVSPropertyOp6
 70
     1
102
RTVSPropertyOp7
 70
     1
102
RTVSPropertyOp8
 70
     1
102
RTVSPropertyOp9
 70
     1
102
RTVSPropertyOp10
 70
     1
102
RTVSPropertyOp11
 70
     1
102
RTVSPropertyOp12
 70
     1
102
RTVSPropertyOp13
 70
     1
102
RTVSPropertyOp14
 70
     1
102
RTVSPropertyOp15
 70
     1
102
RTVSPropertyOp16
 70
     1
102
RTVSPropertyOp17
 70
     1
102
RTVSPropertyOp18
 70
     1
102
RTVSPropertyOp19
 70
     1
102
RTVSPropertyOp20
 70
     1
102
RTVSPropertyOp21
 70
     1
102
RTVSPropertyOp22
 70
     1
102
RTVSPropertyOp23
 70
     1
102
RTVSPropertyOp24
 70
     1
102
RTVSPropertyOp25
 70
     1
102
RTVSPropertyOp26
 70
     1
102
RTVSPropertyOp27
 70
     1
102
RTVSPropertyOp28
 70
     1
102
RTVSPropertyOp29
 70
     1
102
RTVSPropertyOp30
 70
     1
102
RTVSPropertyOp31
 70
     1
102
RTVSPropertyOp32
 70
     1
  0
XRECORD
  5
96
102
{ACAD_REACTORS
330
95
102
}
330
95
100
AcDbXrecord
280
     1
102
RTVSPropertyOp0
 70
     1
102
RTVSPropertyOp1
 70
     1
102
RTVSPropertyOp2
 70
     1
102
RTVSPropertyOp3
 70
     1
102
RTVSPropertyOp4
 70
     1
102
RTVSPropertyOp5
 70
     1
102
RTVSPropertyOp6
 70
     1
102
RTVSPropertyOp7
 70
     1
102
RTVSPropertyOp8
 70
     1
102
RTVSPropertyOp9
 70
     1
102
RTVSPropertyOp10
 70
     1
102
RTVSPropertyOp11
 70
     1
102
RTVSPropertyOp12
 70
     1
102
RTVSPropertyOp13
 70
     1
102
RTVSPropertyOp14
 70
     1
102
RTVSPropertyOp15
 70
     1
102
RTVSPropertyOp16
 70
     1
102
RTVSPropertyOp17
 70
     1
102
RTVSPropertyOp18
 70
     1
102
RTVSPropertyOp19
 70
     1
102
RTVSPropertyOp20
 70
     1
102
RTVSPropertyOp21
 70
     1
102
RTVSPropertyOp22
 70
     1
102
RTVSPropertyOp23
 70
     1
102
RTVSPropertyOp24
 70
     1
102
RTVSPropertyOp25
 70
     1
102
RTVSPropertyOp26
 70
     1
102
RTVSPropertyOp27
 70
     1
102
RTVSPropertyOp28
 70
     1
102
RTVSPropertyOp29
 70
     1
102
RTVSPropertyOp30
 70
     1
102
RTVSPropertyOp31
 70
     1
102
RTVSPropertyOp32
 70
     1
  0
XRECORD
  5
98
102
{ACAD_REACTORS
330
97
102
}
330
97
100
AcDbXrecord
280
     1
102
RTVSPropertyOp0
 70
     1
102
RTVSPropertyOp1
 70
     1
102
RTVSPropertyOp2
 70
     1
102
RTVSPropertyOp3
 70
     1
102
RTVSPropertyOp4
 70
     1
102
RTVSPropertyOp5
 70
     1
102
RTVSPropertyOp6
 70
     1
102
RTVSPropertyOp7
 70
     1
102
RTVSPropertyOp8
 70
     1
102
RTVSPropertyOp9
 70
     1
102
RTVSPropertyOp10
 70
     1
102
RTVSPropertyOp11
 70
     1
102
RTVSPropertyOp12
 70
     1
102
RTVSPropertyOp13
 70
     1
102
RTVSPropertyOp14
 70
     1
102
RTVSPropertyOp15
 70
     1
102
RTVSPropertyOp16
 70
     1
102
RTVSPropertyOp17
 70
     1
102
RTVSPropertyOp18
 70
     1
102
RTVSPropertyOp19
 70
     1
102
RTVSPropertyOp20
 70
     1
102
RTVSPropertyOp21
 70
     1
102
RTVSPropertyOp22
 70
     1
102
RTVSPropertyOp23
 70
     1
102
RTVSPropertyOp24
 70
     1
102
RTVSPropertyOp25
 70
     1
102
RTVSPropertyOp26
 70
     1
102
RTVSPropertyOp27
 70
     1
102
RTVSPropertyOp28
 70
     1
102
RTVSPropertyOp29
 70
     1
102
RTVSPropertyOp30
 70
     1
102
RTVSPropertyOp31
 70
     1
102
RTVSPropertyOp32
 70
     1
  0
XRECORD
  5
A0
102
{ACAD_REACTORS
330
9F
102
}
330
9F
100
AcDbXrecord
280
     1
102
RTVSPropertyOp0
 70
     1
102
RTVSPropertyOp1
 70
     1
102
RTVSPropertyOp2
 70
     1
102
RTVSPropertyOp3
 70
     1
102
RTVSPropertyOp4
 70
     1
102
RTVSPropertyOp5
 70
     1
102
RTVSPropertyOp6
 70
     1
102
RTVSPropertyOp7
 70
     1
102
RTVSPropertyOp8
 70
     1
102
RTVSPropertyOp9
 70
     1
102
RTVSPropertyOp10
 70
     1
102
RTVSPropertyOp11
 70
     1
102
RTVSPropertyOp12
 70
     1
102
RTVSPropertyOp13
 70
     1
102
RTVSPropertyOp14
 70
     1
102
RTVSPropertyOp15
 70
     1
102
RTVSPropertyOp16
 70
     1
102
RTVSPropertyOp17
 70
     1
102
RTVSPropertyOp18
 70
     1
102
RTVSPropertyOp19
 70
     1
102
RTVSPropertyOp20
 70
     1
102
RTVSPropertyOp21
 70
     1
102
RTVSPropertyOp22
 70
     1
102
RTVSPropertyOp23
 70
     1
102
RTVSPropertyOp24
 70
     1
102
RTVSPropertyOp25
 70
     1
102
RTVSPropertyOp26
 70
     1
102
RTVSPropertyOp27
 70
     1
102
RTVSPropertyOp28
 70
     1
102
RTVSPropertyOp29
 70
     1
102
RTVSPropertyOp30
 70
     1
102
RTVSPropertyOp31
 70
     1
102
RTVSPropertyOp32
 70
     1
  0
XRECORD
  5
84
102
{ACAD_REACTORS
330
83
102
}
330
83
100
AcDbXrecord
280
     1
102
RTVSPropertyOp0
 70
     1
102
RTVSPropertyOp1
 70
     1
102
RTVSPropertyOp2
 70
     1
102
RTVSPropertyOp3
 70
     1
102
RTVSPropertyOp4
 70
     1
102
RTVSPropertyOp5
 70
     1
102
RTVSPropertyOp6
 70
     1
102
RTVSPropertyOp7
 70
     1
102
RTVSPropertyOp8
 70
     1
102
RTVSPropertyOp9
 70
     1
102
RTVSPropertyOp10
 70
     1
102
RTVSPropertyOp11
 70
     1
102
RTVSPropertyOp12
 70
     1
102
RTVSPropertyOp13
 70
     1
102
RTVSPropertyOp14
 70
     1
102
RTVSPropertyOp15
 70
     1
102
RTVSPropertyOp16
 70
     1
102
RTVSPropertyOp17
 70
     1
102
RTVSPropertyOp18
 70
     1
102
RTVSPropertyOp19
 70
     1
102
RTVSPropertyOp20
 70
     1
102
RTVSPropertyOp21
 70
     1
102
RTVSPropertyOp22
 70
     1
102
RTVSPropertyOp23
 70
     1
102
RTVSPropertyOp24
 70
     1
102
RTVSPropertyOp25
 70
     1
102
RTVSPropertyOp26
 70
     1
102
RTVSPropertyOp27
 70
     1
102
RTVSPropertyOp28
 70
     1
102
RTVSPropertyOp29
 70
     1
102
RTVSPropertyOp30
 70
     1
102
RTVSPropertyOp31
 70
     1
102
RTVSPropertyOp32
 70
     1
  0
XRECORD
  5
86
102
{ACAD_REACTORS
330
85
102
}
330
85
100
AcDbXrecord
280
     1
102
RTVSPropertyOp0
 70
     1
102
RTVSPropertyOp1
 70
     1
102
RTVSPropertyOp2
 70
     1
102
RTVSPropertyOp3
 70
     1
102
RTVSPropertyOp4
 70
     1
102
RTVSPropertyOp5
 70
     1
102
RTVSPropertyOp6
 70
     1
102
RTVSPropertyOp7
 70
     1
102
RTVSPropertyOp8
 70
     1
102
RTVSPropertyOp9
 70
     1
102
RTVSPropertyOp10
 70
     1
102
RTVSPropertyOp11
 70
     1
102
RTVSPropertyOp12
 70
     1
102
RTVSPropertyOp13
 70
     1
102
RTVSPropertyOp14
 70
     1
102
RTVSPropertyOp15
 70
     1
102
RTVSPropertyOp16
 70
     1
102
RTVSPropertyOp17
 70
     1
102
RTVSPropertyOp18
 70
     1
102
RTVSPropertyOp19
 70
     1
102
RTVSPropertyOp20
 70
     1
102
RTVSPropertyOp21
 70
     1
102
RTVSPropertyOp22
 70
     1
102
RTVSPropertyOp23
 70
     1
102
RTVSPropertyOp24
 70
     1
102
RTVSPropertyOp25
 70
     1
102
RTVSPropertyOp26
 70
     1
102
RTVSPropertyOp27
 70
     1
102
RTVSPropertyOp28
 70
     1
102
RTVSPropertyOp29
 70
     1
102
RTVSPropertyOp30
 70
     1
102
RTVSPropertyOp31
 70
     1
102
RTVSPropertyOp32
 70
     1
  0
XRECORD
  5
88
102
{ACAD_REACTORS
330
87
102
}
330
87
100
AcDbXrecord
280
     1
102
RTVSPropertyOp0
 70
     1
102
RTVSPropertyOp1
 70
     1
102
RTVSPropertyOp2
 70
     1
102
RTVSPropertyOp3
 70
     1
102
RTVSPropertyOp4
 70
     1
102
RTVSPropertyOp5
 70
     1
102
RTVSPropertyOp6
 70
     1
102
RTVSPropertyOp7
 70
     1
102
RTVSPropertyOp8
 70
     1
102
RTVSPropertyOp9
 70
     1
102
RTVSPropertyOp10
 70
     1
102
RTVSPropertyOp11
 70
     1
102
RTVSPropertyOp12
 70
     1
102
RTVSPropertyOp13
 70
     1
102
RTVSPropertyOp14
 70
     1
102
RTVSPropertyOp15
 70
     1
102
RTVSPropertyOp16
 70
     1
102
RTVSPropertyOp17
 70
     1
102
RTVSPropertyOp18
 70
     1
102
RTVSPropertyOp19
 70
     1
102
RTVSPropertyOp20
 70
     1
102
RTVSPropertyOp21
 70
     1
102
RTVSPropertyOp22
 70
     1
102
RTVSPropertyOp23
 70
     1
102
RTVSPropertyOp24
 70
     1
102
RTVSPropertyOp25
 70
     1
102
RTVSPropertyOp26
 70
     1
102
RTVSPropertyOp27
 70
     1
102
RTVSPropertyOp28
 70
     1
102
RTVSPropertyOp29
 70
     1
102
RTVSPropertyOp30
 70
     1
102
RTVSPropertyOp31
 70
     1
102
RTVSPropertyOp32
 70
     1
  0
XRECORD
  5
8A
102
{ACAD_REACTORS
330
89
102
}
330
89
100
AcDbXrecord
280
     1
102
RTVSPropertyOp0
 70
     1
102
RTVSPropertyOp1
 70
     1
102
RTVSPropertyOp2
 70
     1
102
RTVSPropertyOp3
 70
     1
102
RTVSPropertyOp4
 70
     1
102
RTVSPropertyOp5
 70
     1
102
RTVSPropertyOp6
 70
     1
102
RTVSPropertyOp7
 70
     1
102
RTVSPropertyOp8
 70
     1
102
RTVSPropertyOp9
 70
     1
102
RTVSPropertyOp10
 70
     1
102
RTVSPropertyOp11
 70
     1
102
RTVSPropertyOp12
 70
     1
102
RTVSPropertyOp13
 70
     1
102
RTVSPropertyOp14
 70
     1
102
RTVSPropertyOp15
 70
     1
102
RTVSPropertyOp16
 70
     1
102
RTVSPropertyOp17
 70
     1
102
RTVSPropertyOp18
 70
     1
102
RTVSPropertyOp19
 70
     1
102
RTVSPropertyOp20
 70
     1
102
RTVSPropertyOp21
 70
     1
102
RTVSPropertyOp22
 70
     1
102
RTVSPropertyOp23
 70
     1
102
RTVSPropertyOp24
 70
     1
102
RTVSPropertyOp25
 70
     1
102
RTVSPropertyOp26
 70
     1
102
RTVSPropertyOp27
 70
     1
102
RTVSPropertyOp28
 70
     1
102
RTVSPropertyOp29
 70
     1
102
RTVSPropertyOp30
 70
     1
102
RTVSPropertyOp31
 70
     1
102
RTVSPropertyOp32
 70
     1
  0
XRECORD
  5
9E
102
{ACAD_REACTORS
330
9D
102
}
330
9D
100
AcDbXrecord
280
     1
102
RTVSPropertyOp0
 70
     1
102
RTVSPropertyOp1
 70
     1
102
RTVSPropertyOp2
 70
     1
102
RTVSPropertyOp3
 70
     1
102
RTVSPropertyOp4
 70
     1
102
RTVSPropertyOp5
 70
     1
102
RTVSPropertyOp6
 70
     1
102
RTVSPropertyOp7
 70
     1
102
RTVSPropertyOp8
 70
     1
102
RTVSPropertyOp9
 70
     1
102
RTVSPropertyOp10
 70
     1
102
RTVSPropertyOp11
 70
     1
102
RTVSPropertyOp12
 70
     1
102
RTVSPropertyOp13
 70
     1
102
RTVSPropertyOp14
 70
     1
102
RTVSPropertyOp15
 70
     1
102
RTVSPropertyOp16
 70
     1
102
RTVSPropertyOp17
 70
     1
102
RTVSPropertyOp18
 70
     1
102
RTVSPropertyOp19
 70
     1
102
RTVSPropertyOp20
 70
     1
102
RTVSPropertyOp21
 70
     1
102
RTVSPropertyOp22
 70
     1
102
RTVSPropertyOp23
 70
     1
102
RTVSPropertyOp24
 70
     1
102
RTVSPropertyOp25
 70
     1
102
RTVSPropertyOp26
 70
     1
102
RTVSPropertyOp27
 70
     1
102
RTVSPropertyOp28
 70
     1
102
RTVSPropertyOp29
 70
     1
102
RTVSPropertyOp30
 70
     1
102
RTVSPropertyOp31
 70
     1
102
RTVSPropertyOp32
 70
     1
  0
XRECORD
  5
94
102
{ACAD_REACTORS
330
93
102
}
330
93
100
AcDbXrecord
280
     1
102
RTVSPropertyOp0
 70
     1
102
RTVSPropertyOp1
 70
     1
102
RTVSPropertyOp2
 70
     1
102
RTVSPropertyOp3
 70
     1
102
RTVSPropertyOp4
 70
     1
102
RTVSPropertyOp5
 70
     1
102
RTVSPropertyOp6
 70
     1
102
RTVSPropertyOp7
 70
     1
102
RTVSPropertyOp8
 70
     1
102
RTVSPropertyOp9
 70
     1
102
RTVSPropertyOp10
 70
     1
102
RTVSPropertyOp11
 70
     1
102
RTVSPropertyOp12
 70
     1
102
RTVSPropertyOp13
 70
     1
102
RTVSPropertyOp14
 70
     1
102
RTVSPropertyOp15
 70
     1
102
RTVSPropertyOp16
 70
     1
102
RTVSPropertyOp17
 70
     1
102
RTVSPropertyOp18
 70
     1
102
RTVSPropertyOp19
 70
     1
102
RTVSPropertyOp20
 70
     1
102
RTVSPropertyOp21
 70
     1
102
RTVSPropertyOp22
 70
     1
102
RTVSPropertyOp23
 70
     1
102
RTVSPropertyOp24
 70
     1
102
RTVSPropertyOp25
 70
     1
102
RTVSPropertyOp26
 70
     1
102
RTVSPropertyOp27
 70
     1
102
RTVSPropertyOp28
 70
     1
102
RTVSPropertyOp29
 70
     1
102
RTVSPropertyOp30
 70
     1
102
RTVSPropertyOp31
 70
     1
102
RTVSPropertyOp32
 70
     1
  0
XRECORD
  5
9C
102
{ACAD_REACTORS
330
9B
102
}
330
9B
100
AcDbXrecord
280
     1
102
RTVSPropertyOp0
 70
     1
102
RTVSPropertyOp1
 70
     1
102
RTVSPropertyOp2
 70
     1
102
RTVSPropertyOp3
 70
     1
102
RTVSPropertyOp4
 70
     1
102
RTVSPropertyOp5
 70
     1
102
RTVSPropertyOp6
 70
     1
102
RTVSPropertyOp7
 70
     1
102
RTVSPropertyOp8
 70
     1
102
RTVSPropertyOp9
 70
     1
102
RTVSPropertyOp10
 70
     1
102
RTVSPropertyOp11
 70
     1
102
RTVSPropertyOp12
 70
     1
102
RTVSPropertyOp13
 70
     1
102
RTVSPropertyOp14
 70
     1
102
RTVSPropertyOp15
 70
     1
102
RTVSPropertyOp16
 70
     1
102
RTVSPropertyOp17
 70
     1
102
RTVSPropertyOp18
 70
     1
102
RTVSPropertyOp19
 70
     1
102
RTVSPropertyOp20
 70
     1
102
RTVSPropertyOp21
 70
     1
102
RTVSPropertyOp22
 70
     1
102
RTVSPropertyOp23
 70
     1
102
RTVSPropertyOp24
 70
     1
102
RTVSPropertyOp25
 70
     1
102
RTVSPropertyOp26
 70
     1
102
RTVSPropertyOp27
 70
     1
102
RTVSPropertyOp28
 70
     1
102
RTVSPropertyOp29
 70
     1
102
RTVSPropertyOp30
 70
     1
102
RTVSPropertyOp31
 70
     1
102
RTVSPropertyOp32
 70
     1
  0
ENDSEC
  0
EOF
