  0
SECTION
  2
HEADER
  9
$ACADVER
  1
AC1021
  9
$ACADMAINTVER
 70
    25
  9
$DWGCODEPAGE
  3
ANSI_1252
  9
$INSBASE
 10
0.0
 20
0.0
 30
0.0
  9
$EXTMIN
 10
-12.19964
 20
-8.75932
 30
0.0
  9
$EXTMAX
 10
12.78088
 20
6.69511
 30
0.0
  9
$LIMMIN
 10
0.0
 20
0.0
  9
$LIMMAX
 10
12.0
 20
9.0
  9
$ORTHOMODE
 70
     0
  9
$REGENMODE
 70
     1
  9
$FILLMODE
 70
     1
  9
$QTEXTMODE
 70
     0
  9
$MIRRTEXT
 70
     1
  9
$LTSCALE
 40
1.0
  9
$ATTMODE
 70
     1
  9
$TEXTSIZE
 40
0.2
  9
$TRACEWID
 40
0.05
  9
$TEXTSTYLE
  7
Standard
  9
$CLAYER
  8
0
  9
$CELTYPE
  6
ByLayer
  9
$CECOLOR
 62
   256
  9
$CELTSCALE
 40
1.0
  9
$DISPSILH
 70
     0
  9
$DIMSCALE
 40
1.0
  9
$DIMASZ
 40
0.18
  9
$DIMEXO
 40
0.0625
  9
$DIMDLI
 40
0.38
  9
$DIMRND
 40
0.0
  9
$DIMDLE
 40
0.0
  9
$DIMEXE
 40
0.18
  9
$DIMTP
 40
0.0
  9
$DIMTM
 40
0.0
  9
$DIMTXT
 40
0.18
  9
$DIMCEN
 40
0.09
  9
$DIMTSZ
 40
0.0
  9
$DIMTOL
 70
     0
  9
$DIMLIM
 70
     0
  9
$DIMTIH
 70
     1
  9
$DIMTOH
 70
     1
  9
$DIMSE1
 70
     0
  9
$DIMSE2
 70
     0
  9
$DIMTAD
 70
     0
  9
$DIMZIN
 70
     0
  9
$DIMBLK
  1

  9
$DIMASO
 70
     1
  9
$DIMSHO
 70
     1
  9
$DIMPOST
  1

  9
$DIMAPOST
  1

  9
$DIMALT
 70
     0
  9
$DIMALTD
 70
     2
  9
$DIMALTF
 40
25.4
  9
$DIMLFAC
 40
1.0
  9
$DIMTOFL
 70
     0
  9
$DIMTVP
 40
0.0
  9
$DIMTIX
 70
     0
  9
$DIMSOXD
 70
     0
  9
$DIMSAH
 70
     0
  9
$DIMBLK1
  1

  9
$DIMBLK2
  1

  9
$DIMSTYLE
  2
Standard
  9
$DIMCLRD
 70
     0
  9
$DIMCLRE
 70
     0
  9
$DIMCLRT
 70
     0
  9
$DIMTFAC
 40
1.0
  9
$DIMGAP
 40
0.09
  9
$DIMJUST
 70
     0
  9
$DIMSD1
 70
     0
  9
$DIMSD2
 70
     0
  9
$DIMTOLJ
 70
     1
  9
$DIMTZIN
 70
     0
  9
$DIMALTZ
 70
     0
  9
$DIMALTTZ
 70
     0
  9
$DIMUPT
 70
     0
  9
$DIMDEC
 70
     4
  9
$DIMTDEC
 70
     4
  9
$DIMALTU
 70
     2
  9
$DIMALTTD
 70
     2
  9
$DIMTXSTY
  7
Standard
  9
$DIMAUNIT
 70
     0
  9
$DIMADEC
 70
     0
  9
$DIMALTRND
 40
0.0
  9
$DIMAZIN
 70
     0
  9
$DIMDSEP
 70
    46
  9
$DIMATFIT
 70
     3
  9
$DIMFRAC
 70
     0
  9
$DIMLDRBLK
  1

  9
$DIMLUNIT
 70
     2
  9
$DIMLWD
 70
    -2
  9
$DIMLWE
 70
    -2
  9
$DIMTMOVE
 70
     0
  9
$DIMFXL
 40
1.0
  9
$DIMFXLON
 70
     0
  9
$DIMJOGANG
 40
0.7853981633974483
  9
$DIMTFILL
 70
     0
  9
$DIMTFILLCLR
 70
     0
  9
$DIMARCSYM
 70
     0
  9
$DIMLTYPE
  6

  9
$DIMLTEX1
  6

  9
$DIMLTEX2
  6

  9
$LUNITS
 70
     2
  9
$LUPREC
 70
     4
  9
$SKETCHINC
 40
0.1
  9
$FILLETRAD
 40
0.5
  9
$AUNITS
 70
     0
  9
$AUPREC
 70
     0
  9
$MENU
  1
.
  9
$ELEVATION
 40
0.0
  9
$PELEVATION
 40
0.0
  9
$THICKNESS
 40
0.0
  9
$LIMCHECK
 70
     0
  9
$CHAMFERA
 40
0.5
  9
$CHAMFERB
 40
0.5
  9
$CHAMFERC
 40
1.0
  9
$CHAMFERD
 40
0.0
  9
$SKPOLY
 70
     0
  9
$TDCREATE
 40
2456231.952009931
  9
$TDUCREATE
 40
2456232.118676597
  9
$TDUPDATE
 40
2456231.952009977
  9
$TDUUPDATE
 40
2456232.118676643
  9
$TDINDWG
 40
0.0000000116
  9
$TDUSRTIMER
 40
0.0000000116
  9
$USRTIMER
 70
     1
  9
$ANGBASE
 50
0.0
  9
$ANGDIR
 70
     0
  9
$PDMODE
 70
     0
  9
$PDSIZE
 40
0.0
  9
$PLINEWID
 40
0.0
  9
$SPLFRAME
 70
     0
  9
$SPLINETYPE
 70
     6
  9
$SPLINESEGS
 70
     8
  9
$HANDSEED
  5
A3
  9
$SURFTAB1
 70
     6
  9
$SURFTAB2
 70
     6
  9
$SURFTYPE
 70
     6
  9
$SURFU
 70
     6
  9
$SURFV
 70
     6
  9
$UCSBASE
  2

  9
$UCSNAME
  2

  9
$UCSORG
 10
0.0
 20
0.0
 30
0.0
  9
$UCSXDIR
 10
1.0
 20
0.0
 30
0.0
  9
$UCSYDIR
 10
0.0
 20
1.0
 30
0.0
  9
$UCSORTHOREF
  2

  9
$UCSORTHOVIEW
 70
     0
  9
$UCSORGTOP
 10
0.0
 20
0.0
 30
0.0
  9
$UCSORGBOTTOM
 10
0.0
 20
0.0
 30
0.0
  9
$UCSORGLEFT
 10
0.0
 20
0.0
 30
0.0
  9
$UCSORGRIGHT
 10
0.0
 20
0.0
 30
0.0
  9
$UCSORGFRONT
 10
0.0
 20
0.0
 30
0.0
  9
$UCSORGBACK
 10
0.0
 20
0.0
 30
0.0
  9
$PUCSBASE
  2

  9
$PUCSNAME
  2

  9
$PUCSORG
 10
0.0
 20
0.0
 30
0.0
  9
$PUCSXDIR
 10
1.0
 20
0.0
 30
0.0
  9
$PUCSYDIR
 10
0.0
 20
1.0
 30
0.0
  9
$PUCSORTHOREF
  2

  9
$PUCSORTHOVIEW
 70
     0
  9
$PUCSORGTOP
 10
0.0
 20
0.0
 30
0.0
  9
$PUCSORGBOTTOM
 10
0.0
 20
0.0
 30
0.0
  9
$PUCSORGLEFT
 10
0.0
 20
0.0
 30
0.0
  9
$PUCSORGRIGHT
 10
0.0
 20
0.0
 30
0.0
  9
$PUCSORGFRONT
 10
0.0
 20
0.0
 30
0.0
  9
$PUCSORGBACK
 10
0.0
 20
0.0
 30
0.0
  9
$USERI1
 70
     0
  9
$USERI2
 70
     0
  9
$USERI3
 70
     0
  9
$USERI4
 70
     0
  9
$USERI5
 70
     0
  9
$USERR1
 40
0.0
  9
$USERR2
 40
0.0
  9
$USERR3
 40
0.0
  9
$USERR4
 40
0.0
  9
$USERR5
 40
0.0
  9
$WORLDVIEW
 70
     1
  9
$SHADEDGE
 70
     3
  9
$SHADEDIF
 70
    70
  9
$TILEMODE
 70
     1
  9
$MAXACTVP
 70
    64
  9
$PINSBASE
 10
0.0
 20
0.0
 30
0.0
  9
$PLIMCHECK
 70
     0
  9
$PEXTMIN
 10
1.000000000000000E+20
 20
1.000000000000000E+20
 30
1.000000000000000E+20
  9
$PEXTMAX
 10
-1.000000000000000E+20
 20
-1.000000000000000E+20
 30
-1.000000000000000E+20
  9
$PLIMMIN
 10
0.0
 20
0.0
  9
$PLIMMAX
 10
12.0
 20
9.0
  9
$UNITMODE
 70
     0
  9
$VISRETAIN
 70
     1
  9
$PLINEGEN
 70
     0
  9
$PSLTSCALE
 70
     1
  9
$TREEDEPTH
 70
  3020
  9
$CMLSTYLE
  2
Standard
  9
$CMLJUST
 70
     0
  9
$CMLSCALE
 40
1.0
  9
$PROXYGRAPHICS
 70
     1
  9
$MEASUREMENT
 70
     0
  9
$CELWEIGHT
370
    -1
  9
$ENDCAPS
280
     0
  9
$JOINSTYLE
280
     0
  9
$LWDISPLAY
290
     0
  9
$INSUNITS
 70
     5
  9
$HYPERLINKBASE
  1

  9
$STYLESHEET
  1

  9
$XEDIT
290
     1
  9
$CEPSNTYPE
380
     0
  9
$PSTYLEMODE
290
     1
  9
$FINGERPRINTGUID
  2
{F219E162-6024-4B34-906E-D6E6540D354B}
  9
$VERSIONGUID
  2
{FAEB1C32-E019-11D5-929B-00C0DF256EC4}
  9
$EXTNAMES
290
     1
  9
$PSVPSCALE
 40
0.0
  9
$OLESTARTUP
290
     0
  9
$SORTENTS
280
   127
  9
$INDEXCTL
280
     0
  9
$HIDETEXT
280
     1
  9
$XCLIPFRAME
290
     0
  9
$HALOGAP
280
     0
  9
$OBSCOLOR
 70
   257
  9
$OBSLTYPE
280
     0
  9
$INTERSECTIONDISPLAY
280
     0
  9
$INTERSECTIONCOLOR
 70
   257
  9
$DIMASSOC
280
     2
  9
$PROJECTNAME
  1

  9
$CAMERADISPLAY
290
     0
  9
$LENSLENGTH
 40
50.0
  9
$CAMERAHEIGHT
 40
0.0
  9
$STEPSPERSEC
 40
2.0
  9
$STEPSIZE
 40
6.0
  9
$3DDWFPREC
 40
2.0
  9
$PSOLWIDTH
 40
0.25
  9
$PSOLHEIGHT
 40
4.0
  9
$LOFTANG1
 40
1.570796326794897
  9
$LOFTANG2
 40
1.570796326794897
  9
$LOFTMAG1
 40
0.0
  9
$LOFTMAG2
 40
0.0
  9
$LOFTPARAM
 70
     7
  9
$LOFTNORMALS
280
     1
  9
$LATITUDE
 40
37.795
  9
$LONGITUDE
 40
-122.394
  9
$NORTHDIRECTION
 40
0.0
  9
$TIMEZONE
 70
 -8000
  9
$LIGHTGLYPHDISPLAY
280
     1
  9
$TILEMODELIGHTSYNCH
280
     1
  9
$SOLIDHIST
280
     1
  9
$SHOWHIST
280
     1
  9
$DWFFRAME
280
     2
  9
$DGNFRAME
280
     2
  9
$REALWORLDSCALE
290
     1
  9
$INTERFERECOLOR
 62
   256
  9
$CSHADOW
280
     0
  9
$SHADOWPLANELOCATION
 40
0.0
  0
ENDSEC
  0
SECTION
  2
CLASSES
  0
CLASS
  1
ACDBDICTIONARYWDFLT
  2
AcDbDictionaryWithDefault
  3
ObjectDBX Classes
 90
        0
 91
        4
280
     0
281
     0
  0
CLASS
  1
VISUALSTYLE
  2
AcDbVisualStyle
  3
ObjectDBX Classes
 90
     4095
 91
        4
280
     0
281
     0
  0
CLASS
  1
MATERIAL
  2
AcDbMaterial
  3
ObjectDBX Classes
 90
     1153
 91
        4
280
     0
281
     0
  0
ENDSEC
  0
SECTION
  2
TABLES
  0
TABLE
  2
VPORT
  5
8
330
0
100
AcDbSymbolTable
 70
     1
  0
VPORT
  5
29
330
8
100
AcDbSymbolTableRecord
100
AcDbViewportTableRecord
  2
*Active
 70
     0
 10
0.0
 20
0.0
 11
1.0
 21
1.0
 12
10.42990654205607
 22
4.5
 13
0.0
 23
0.0
 14
0.5
 24
0.5
 15
0.5
 25
0.5
 16
0.0
 26
0.0
 36
1.0
 17
0.0
 27
0.0
 37
0.0
 40
9.0
 41
1.972972972850329
 42
50.0
 43
0.0
 44
0.0
 50
0.0
 51
0.0
 71
     0
 72
   100
 73
     1
 74
     3
 75
     0
 76
     0
 77
     0
 78
     0
281
     0
 65
     1
110
0.0
120
0.0
130
0.0
111
1.0
121
0.0
131
0.0
112
0.0
122
1.0
132
0.0
 79
     0
146
0.0
 60
     3
 61
     5
292
     1
282
     1
141
0.0
142
0.0
 63
   250
  0
ENDTAB
  0
TABLE
  2
LTYPE
  5
5
330
0
100
AcDbSymbolTable
 70
     1
  0
LTYPE
  5
14
330
5
100
AcDbSymbolTableRecord
100
AcDbLinetypeTableRecord
  2
ByBlock
 70
     0
  3

 72
    65
 73
     0
 40
0.0
  0
LTYPE
  5
15
330
5
100
AcDbSymbolTableRecord
100
AcDbLinetypeTableRecord
  2
ByLayer
 70
     0
  3

 72
    65
 73
     0
 40
0.0
  0
LTYPE
  5
16
330
5
100
AcDbSymbolTableRecord
100
AcDbLinetypeTableRecord
  2
Continuous
 70
     0
  3
Solid line
 72
    65
 73
     0
 40
0.0
  0
ENDTAB
  0
TABLE
  2
LAYER
  5
2
330
0
100
AcDbSymbolTable
 70
     3
  0
LAYER
  5
10
330
2
100
AcDbSymbolTableRecord
100
AcDbLayerTableRecord
  2
0
 70
     0
 62
     7
  6
Continuous
370
    -3
390
F
347
3E
  0
LAYER
  5
40
330
2
100
AcDbSymbolTableRecord
100
AcDbLayerTableRecord
  2
Layer 1
 70
     0
 62
     7
  6
Continuous
370
    -3
390
F
347
3E
  0
LAYER
  5
57
330
2
100
AcDbSymbolTableRecord
100
AcDbLayerTableRecord
  2
layer 2
 70
     0
 62
     7
  6
Continuous
370
    -3
390
F
347
3E
  0
ENDTAB
  0
TABLE
  2
STYLE
  5
3
330
0
100
AcDbSymbolTable
 70
     1
  0
STYLE
  5
11
330
3
100
AcDbSymbolTableRecord
100
AcDbTextStyleTableRecord
  2
Standard
 70
     0
 40
0.0
 41
1.0
 50
0.0
 71
     0
 42
0.2
  3
txt
  4

  0
ENDTAB
  0
TABLE
  2
VIEW
  5
6
330
0
100
AcDbSymbolTable
 70
     0
  0
ENDTAB
  0
TABLE
  2
UCS
  5
7
330
0
100
AcDbSymbolTable
 70
     0
  0
ENDTAB
  0
TABLE
  2
APPID
  5
9
330
0
100
AcDbSymbolTable
 70
     2
  0
APPID
  5
12
330
9
100
AcDbSymbolTableRecord
100
AcDbRegAppTableRecord
  2
ACAD
 70
     0
  0
APPID
  5
3F
330
9
100
AcDbSymbolTableRecord
100
AcDbRegAppTableRecord
  2
ODA
 70
     0
  0
ENDTAB
  0
TABLE
  2
DIMSTYLE
  5
A
330
0
100
AcDbSymbolTable
 70
     1
100
AcDbDimStyleTable
  0
DIMSTYLE
105
27
330
A
100
AcDbSymbolTableRecord
100
AcDbDimStyleTableRecord
  2
Standard
 70
     0
178
     0
340
11
  0
ENDTAB
  0
TABLE
  2
BLOCK_RECORD
  5
1
330
0
100
AcDbSymbolTable
 70
     1
  0
BLOCK_RECORD
  5
1F
330
1
100
AcDbSymbolTableRecord
100
AcDbBlockTableRecord
  2
*Model_Space
340
22
 70
     0
280
     1
281
     0
  0
BLOCK_RECORD
  5
1B
330
1
100
AcDbSymbolTableRecord
100
AcDbBlockTableRecord
  2
*Paper_Space
340
1E
 70
     0
280
     1
281
     0
  0
BLOCK_RECORD
  5
23
330
1
100
AcDbSymbolTableRecord
100
AcDbBlockTableRecord
  2
*Paper_Space0
340
26
 70
     0
280
     1
281
     0
  0
ENDTAB
  0
ENDSEC
  0
SECTION
  2
BLOCKS
  0
BLOCK
  5
20
330
1F
100
AcDbEntity
  8
0
100
AcDbBlockBegin
  2
*Model_Space
 70
     0
 10
0.0
 20
0.0
 30
0.0
  3
*Model_Space
  1

  0
ENDBLK
  5
21
330
1F
100
AcDbEntity
  8
0
100
AcDbBlockEnd
  0
BLOCK
  5
1C
330
1B
100
AcDbEntity
 67
     1
  8
0
100
AcDbBlockBegin
  2
*Paper_Space
 70
     0
 10
0.0
 20
0.0
 30
0.0
  3
*Paper_Space
  1

  0
ENDBLK
  5
1D
330
1B
100
AcDbEntity
 67
     1
  8
0
100
AcDbBlockEnd
  0
BLOCK
  5
24
330
23
100
AcDbEntity
  8
0
100
AcDbBlockBegin
  2
*Paper_Space0
 70
     0
 10
0.0
 20
0.0
 30
0.0
  3
*Paper_Space0
  1

  0
ENDBLK
  5
25
330
23
100
AcDbEntity
  8
0
100
AcDbBlockEnd
  0
ENDSEC
  0
SECTION
  2
ENTITIES
  0
SPLINE
  5
41
330
1F
100
AcDbEntity
  8
Layer 1
 62
   250
100
AcDbSpline
210
0.0
220
0.0
230
1.0
 70
    11
 71
     3
 72
    92
 73
    88
 74
     0
 42
0.0000000001
 43
0.0000000001
 12
1.0
 22
0.0
 32
0.0
 13
1.0
 23
0.0
 33
0.0
 40
0.0
 40
0.0
 40
0.0
 40
0.0
 40
0.0434782608695652
 40
0.0434782608695652
 40
0.0434782608695652
 40
0.0434782608695652
 40
0.0869565217391304
 40
0.0869565217391304
 40
0.0869565217391304
 40
0.0869565217391304
 40
0.1304347826086956
 40
0.1304347826086956
 40
0.1304347826086956
 40
0.1304347826086956
 40
0.1739130434782609
 40
0.1739130434782609
 40
0.1739130434782609
 40
0.1739130434782609
 40
0.2173913043478261
 40
0.2173913043478261
 40
0.2173913043478261
 40
0.2173913043478261
 40
0.2608695652173913
 40
0.2608695652173913
 40
0.2608695652173913
 40
0.2608695652173913
 40
0.3043478260869565
 40
0.3043478260869565
 40
0.3043478260869565
 40
0.3043478260869565
 40
0.3478260869565217
 40
0.3478260869565217
 40
0.3478260869565217
 40
0.3478260869565217
 40
0.391304347826087
 40
0.391304347826087
 40
0.391304347826087
 40
0.391304347826087
 40
0.4347826086956522
 40
0.4347826086956522
 40
0.4347826086956522
 40
0.4347826086956522
 40
0.4782608695652174
 40
0.4782608695652174
 40
0.4782608695652174
 40
0.4782608695652174
 40
0.5217391304347826
 40
0.5217391304347826
 40
0.5217391304347826
 40
0.5217391304347826
 40
0.5652173913043478
 40
0.5652173913043478
 40
0.5652173913043478
 40
0.5652173913043478
 40
0.6086956521739131
 40
0.6086956521739131
 40
0.6086956521739131
 40
0.6086956521739131
 40
0.6521739130434783
 40
0.6521739130434783
 40
0.6521739130434783
 40
0.6521739130434783
 40
0.6956521739130435
 40
0.6956521739130435
 40
0.6956521739130435
 40
0.6956521739130435
 40
0.7391304347826086
 40
0.7391304347826086
 40
0.7391304347826086
 40
0.7391304347826086
 40
0.782608695652174
 40
0.782608695652174
 40
0.782608695652174
 40
0.782608695652174
 40
0.8260869565217391
 40
0.8260869565217391
 40
0.8260869565217391
 40
0.8260869565217391
 40
0.8695652173913043
 40
0.8695652173913043
 40
0.8695652173913043
 40
0.8695652173913043
 40
0.9130434782608695
 40
0.9130434782608695
 40
0.9130434782608695
 40
0.9130434782608695
 40
1.0
 40
1.0
 40
1.0
 40
1.0
 10
-5.79807
 20
-8.67804
 30
0.0
 10
-5.79807
 20
-8.67804
 30
0.0
 10
-5.79807
 20
-8.74916
 30
0.0
 10
-5.79807
 20
-8.74916
 30
0.0
 10
-5.79807
 20
-8.74916
 30
0.0
 10
-5.79807
 20
-8.74916
 30
0.0
 10
-6.1994
 20
-8.74916
 30
0.0
 10
-6.1994
 20
-8.74916
 30
0.0
 10
-6.1994
 20
-8.74916
 30
0.0
 10
-6.19996
 20
-8.73124
 30
0.0
 10
-6.197
 20
-8.71402
 30
0.0
 10
-6.19065
 20
-8.69737
 30
0.0
 10
-6.19065
 20
-8.69737
 30
0.0
 10
-6.18035
 20
-8.67014
 30
0.0
 10
-6.16384
 20
-8.64319
 30
0.0
 10
-6.14112
 20
-8.6168
 30
0.0
 10
-6.14112
 20
-8.6168
 30
0.0
 10
-6.1184
 20
-8.59041
 30
0.0
 10
-6.08594
 20
-8.55993
 30
0.0
 10
-6.04375
 20
-8.52536
 30
0.0
 10
-6.04375
 20
-8.52536
 30
0.0
 10
-5.97813
 20
-8.47131
 30
0.0
 10
-5.93354
 20
-8.42855
 30
0.0
 10
-5.91026
 20
-8.39695
 30
0.0
 10
-5.91026
 20
-8.39695
 30
0.0
 10
-5.88683
 20
-8.36534
 30
0.0
 10
-5.87512
 20
-8.33542
 30
0.0
 10
-5.87512
 20
-8.3072
 30
0.0
 10
-5.87512
 20
-8.3072
 30
0.0
 10
-5.87512
 20
-8.27771
 30
0.0
 10
-5.88571
 20
-8.25287
 30
0.0
 10
-5.90687
 20
-8.23255
 30
0.0
 10
-5.90687
 20
-8.23255
 30
0.0
 10
-5.92804
 20
-8.21237
 30
0.0
 10
-5.9557
 20
-8.20221
 30
0.0
 10
-5.9897
 20
-8.20221
 30
0.0
 10
-5.9897
 20
-8.20221
 30
0.0
 10
-6.02569
 20
-8.20221
 30
0.0
 10
-6.05447
 20
-8.21294
 30
0.0
 10
-6.07606
 20
-8.23438
 30
0.0
 10
-6.07606
 20
-8.23438
 30
0.0
 10
-6.09766
 20
-8.25569
 30
0.0
 10
-6.10852
 20
-8.28533
 30
0.0
 10
-6.1088
 20
-8.32328
 30
0.0
 10
-6.1088
 20
-8.32328
 30
0.0
 10
-6.1088
 20
-8.32328
 30
0.0
 10
-6.185
 20
-8.31566
 30
0.0
 10
-6.185
 20
-8.31566
 30
0.0
 10
-6.185
 20
-8.31566
 30
0.0
 10
-6.17978
 20
-8.25866
 30
0.0
 10
-6.16003
 20
-8.21519
 30
0.0
 10
-6.12588
 20
-8.18528
 30
0.0
 10
-6.12588
 20
-8.18528
 30
0.0
 10
-6.09159
 20
-8.15536
 30
0.0
 10
-6.04573
 20
-8.1404
 30
0.0
 10
-5.98801
 20
-8.1404
 30
0.0
 10
-5.98801
 20
-8.1404
 30
0.0
 10
-5.92987
 20
-8.1404
 30
0.0
 10
-5.88373
 20
-8.15649
 30
0.0
 10
-5.84986
 20
-8.18881
 30
0.0
 10
-5.84986
 20
-8.18881
 30
0.0
 10
-5.81586
 20
-8.22112
 30
0.0
 10
-5.79892
 20
-8.2612
 30
0.0
 10
-5.79892
 20
-8.30889
 30
0.0
 10
-5.79892
 20
-8.30889
 30
0.0
 10
-5.79892
 20
-8.33316
 30
0.0
 10
-5.80386
 20
-8.35701
 30
0.0
 10
-5.81388
 20
-8.38044
 30
0.0
 10
-5.81388
 20
-8.38044
 30
0.0
 10
-5.82376
 20
-8.404
 30
0.0
 10
-5.84027
 20
-8.4287
 30
0.0
 10
-5.86327
 20
-8.45466
 30
0.0
 10
-5.86327
 20
-8.45466
 30
0.0
 10
-5.88641
 20
-8.48048
 30
0.0
 10
-5.92465
 20
-8.51618
 30
0.0
 10
-5.97799
 20
-8.56134
 30
0.0
 10
-5.97799
 20
-8.56134
 30
0.0
 10
-6.02272
 20
-8.59888
 30
0.0
 10
-6.05151
 20
-8.62428
 30
0.0
 10
-6.06421
 20
-8.63768
 30
0.0
 10
-6.06421
 20
-8.63768
 30
0.0
 10
-6.07691
 20
-8.65109
 30
0.0
 10
-6.08735
 20
-8.66449
 30
0.0
 10
-6.09568
 20
-8.67804
 30
0.0
 10
-6.09568
 20
-8.67804
 30
0.0
 10
-6.09568
 20
-8.67804
 30
0.0
 10
-5.79807
 20
-8.67804
 30
0.0
 10
-5.79807
 20
-8.67804
 30
0.0
  0
SPLINE
  5
42
330
1F
100
AcDbEntity
  8
Layer 1
 62
   250
100
AcDbSpline
210
0.0
220
0.0
230
1.0
 70
    11
 71
     3
 72
    52
 73
    48
 74
     0
 42
0.0000000001
 43
0.0000000001
 12
1.0
 22
0.0
 32
0.0
 13
1.0
 23
0.0
 33
0.0
 40
0.0
 40
0.0
 40
0.0
 40
0.0
 40
0.0769230769230769
 40
0.0769230769230769
 40
0.0769230769230769
 40
0.0769230769230769
 40
0.1538461538461539
 40
0.1538461538461539
 40
0.1538461538461539
 40
0.1538461538461539
 40
0.2307692307692308
 40
0.2307692307692308
 40
0.2307692307692308
 40
0.2307692307692308
 40
0.3076923076923077
 40
0.3076923076923077
 40
0.3076923076923077
 40
0.3076923076923077
 40
0.3846153846153846
 40
0.3846153846153846
 40
0.3846153846153846
 40
0.3846153846153846
 40
0.4615384615384616
 40
0.4615384615384616
 40
0.4615384615384616
 40
0.4615384615384616
 40
0.5384615384615384
 40
0.5384615384615384
 40
0.5384615384615384
 40
0.5384615384615384
 40
0.6153846153846154
 40
0.6153846153846154
 40
0.6153846153846154
 40
0.6153846153846154
 40
0.6923076923076923
 40
0.6923076923076923
 40
0.6923076923076923
 40
0.6923076923076923
 40
0.7692307692307693
 40
0.7692307692307693
 40
0.7692307692307693
 40
0.7692307692307693
 40
0.8461538461538461
 40
0.8461538461538461
 40
0.8461538461538461
 40
0.8461538461538461
 40
1.0
 40
1.0
 40
1.0
 40
1.0
 10
-5.7175
 20
-8.45
 30
0.0
 10
-5.7175
 20
-8.37846
 30
0.0
 10
-5.71016
 20
-8.3206
 30
0.0
 10
-5.69549
 20
-8.27686
 30
0.0
 10
-5.69549
 20
-8.27686
 30
0.0
 10
-5.68067
 20
-8.23297
 30
0.0
 10
-5.6588
 20
-8.19925
 30
0.0
 10
-5.62973
 20
-8.17568
 30
0.0
 10
-5.62973
 20
-8.17568
 30
0.0
 10
-5.6008
 20
-8.15212
 30
0.0
 10
-5.56425
 20
-8.1404
 30
0.0
 10
-5.52023
 20
-8.1404
 30
0.0
 10
-5.52023
 20
-8.1404
 30
0.0
 10
-5.48777
 20
-8.1404
 30
0.0
 10
-5.45927
 20
-8.1469
 30
0.0
 10
-5.43457
 20
-8.16002
 30
0.0
 10
-5.43457
 20
-8.16002
 30
0.0
 10
-5.41002
 20
-8.17314
 30
0.0
 10
-5.3897
 20
-8.19205
 30
0.0
 10
-5.37389
 20
-8.21675
 30
0.0
 10
-5.37389
 20
-8.21675
 30
0.0
 10
-5.35809
 20
-8.2413
 30
0.0
 10
-5.34567
 20
-8.27136
 30
0.0
 10
-5.33664
 20
-8.30677
 30
0.0
 10
-5.33664
 20
-8.30677
 30
0.0
 10
-5.32747
 20
-8.34219
 30
0.0
 10
-5.32295
 20
-8.39003
 30
0.0
 10
-5.32295
 20
-8.45
 30
0.0
 10
-5.32295
 20
-8.45
 30
0.0
 10
-5.32295
 20
-8.52112
 30
0.0
 10
-5.33029
 20
-8.5787
 30
0.0
 10
-5.34482
 20
-8.62244
 30
0.0
 10
-5.34482
 20
-8.62244
 30
0.0
 10
-5.35936
 20
-8.66633
 30
0.0
 10
-5.38123
 20
-8.70005
 30
0.0
 10
-5.4103
 20
-8.72376
 30
0.0
 10
-5.4103
 20
-8.72376
 30
0.0
 10
-5.43923
 20
-8.74747
 30
0.0
 10
-5.47592
 20
-8.75932
 30
0.0
 10
-5.52023
 20
-8.75932
 30
0.0
 10
-5.52023
 20
-8.75932
 30
0.0
 10
-5.5785
 20
-8.75932
 30
0.0
 10
-5.62437
 20
-8.73858
 30
0.0
 10
-5.65767
 20
-8.69695
 30
0.0
 10
-5.65767
 20
-8.69695
 30
0.0
 10
-5.6976
 20
-8.64615
 30
0.0
 10
-5.7175
 20
-8.56388
 30
0.0
 10
-5.7175
 20
-8.45
 30
0.0
  0
SPLINE
  5
43
330
1F
100
AcDbEntity
  8
Layer 1
 62
   250
100
AcDbSpline
210
0.0
220
0.0
230
1.0
 70
    11
 71
     3
 72
    36
 73
    32
 74
     0
 42
0.0000000001
 43
0.0000000001
 12
1.0
 22
0.0
 32
0.0
 13
1.0
 23
0.0
 33
0.0
 40
0.0
 40
0.0
 40
0.0
 40
0.0
 40
0.1111111111111111
 40
0.1111111111111111
 40
0.1111111111111111
 40
0.1111111111111111
 40
0.2222222222222222
 40
0.2222222222222222
 40
0.2222222222222222
 40
0.2222222222222222
 40
0.3333333333333333
 40
0.3333333333333333
 40
0.3333333333333333
 40
0.3333333333333333
 40
0.4444444444444444
 40
0.4444444444444444
 40
0.4444444444444444
 40
0.4444444444444444
 40
0.5555555555555556
 40
0.5555555555555556
 40
0.5555555555555556
 40
0.5555555555555556
 40
0.6666666666666666
 40
0.6666666666666666
 40
0.6666666666666666
 40
0.6666666666666666
 40
0.7777777777777778
 40
0.7777777777777778
 40
0.7777777777777778
 40
0.7777777777777778
 40
1.0
 40
1.0
 40
1.0
 40
1.0
 10
-5.6413
 20
-8.45029
 30
0.0
 10
-5.6413
 20
-8.55005
 30
0.0
 10
-5.62973
 20
-8.61637
 30
0.0
 10
-5.60644
 20
-8.64911
 30
0.0
 10
-5.60644
 20
-8.64911
 30
0.0
 10
-5.58316
 20
-8.68199
 30
0.0
 10
-5.55437
 20
-8.69836
 30
0.0
 10
-5.52023
 20
-8.69836
 30
0.0
 10
-5.52023
 20
-8.69836
 30
0.0
 10
-5.48608
 20
-8.69836
 30
0.0
 10
-5.45729
 20
-8.68185
 30
0.0
 10
-5.43401
 20
-8.64897
 30
0.0
 10
-5.43401
 20
-8.64897
 30
0.0
 10
-5.41072
 20
-8.61595
 30
0.0
 10
-5.39915
 20
-8.54977
 30
0.0
 10
-5.39915
 20
-8.45029
 30
0.0
 10
-5.39915
 20
-8.45029
 30
0.0
 10
-5.39915
 20
-8.35052
 30
0.0
 10
-5.41072
 20
-8.2842
 30
0.0
 10
-5.43401
 20
-8.25146
 30
0.0
 10
-5.43401
 20
-8.25146
 30
0.0
 10
-5.45715
 20
-8.21858
 30
0.0
 10
-5.48622
 20
-8.20221
 30
0.0
 10
-5.52107
 20
-8.20221
 30
0.0
 10
-5.52107
 20
-8.20221
 30
0.0
 10
-5.55522
 20
-8.20221
 30
0.0
 10
-5.5826
 20
-8.21675
 30
0.0
 10
-5.60306
 20
-8.24567
 30
0.0
 10
-5.60306
 20
-8.24567
 30
0.0
 10
-5.6286
 20
-8.2825
 30
0.0
 10
-5.6413
 20
-8.3508
 30
0.0
 10
-5.6413
 20
-8.45029
 30
0.0
  0
SPLINE
  5
44
330
1F
100
AcDbEntity
  8
Layer 1
 62
   250
100
AcDbSpline
210
0.0
220
0.0
230
1.0
 70
    11
 71
     3
 72
   124
 73
   120
 74
     0
 42
0.0000000001
 43
0.0000000001
 12
1.0
 22
0.0
 32
0.0
 13
1.0
 23
0.0
 33
0.0
 40
0.0
 40
0.0
 40
0.0
 40
0.0
 40
0.032258064516129
 40
0.032258064516129
 40
0.032258064516129
 40
0.032258064516129
 40
0.0645161290322581
 40
0.0645161290322581
 40
0.0645161290322581
 40
0.0645161290322581
 40
0.0967741935483871
 40
0.0967741935483871
 40
0.0967741935483871
 40
0.0967741935483871
 40
0.1290322580645161
 40
0.1290322580645161
 40
0.1290322580645161
 40
0.1290322580645161
 40
0.1612903225806452
 40
0.1612903225806452
 40
0.1612903225806452
 40
0.1612903225806452
 40
0.1935483870967742
 40
0.1935483870967742
 40
0.1935483870967742
 40
0.1935483870967742
 40
0.2258064516129032
 40
0.2258064516129032
 40
0.2258064516129032
 40
0.2258064516129032
 40
0.2580645161290323
 40
0.2580645161290323
 40
0.2580645161290323
 40
0.2580645161290323
 40
0.2903225806451613
 40
0.2903225806451613
 40
0.2903225806451613
 40
0.2903225806451613
 40
0.3225806451612903
 40
0.3225806451612903
 40
0.3225806451612903
 40
0.3225806451612903
 40
0.3548387096774194
 40
0.3548387096774194
 40
0.3548387096774194
 40
0.3548387096774194
 40
0.3870967741935484
 40
0.3870967741935484
 40
0.3870967741935484
 40
0.3870967741935484
 40
0.4193548387096774
 40
0.4193548387096774
 40
0.4193548387096774
 40
0.4193548387096774
 40
0.4516129032258064
 40
0.4516129032258064
 40
0.4516129032258064
 40
0.4516129032258064
 40
0.4838709677419355
 40
0.4838709677419355
 40
0.4838709677419355
 40
0.4838709677419355
 40
0.5161290322580645
 40
0.5161290322580645
 40
0.5161290322580645
 40
0.5161290322580645
 40
0.5483870967741935
 40
0.5483870967741935
 40
0.5483870967741935
 40
0.5483870967741935
 40
0.5806451612903226
 40
0.5806451612903226
 40
0.5806451612903226
 40
0.5806451612903226
 40
0.6129032258064516
 40
0.6129032258064516
 40
0.6129032258064516
 40
0.6129032258064516
 40
0.6451612903225806
 40
0.6451612903225806
 40
0.6451612903225806
 40
0.6451612903225806
 40
0.6774193548387096
 40
0.6774193548387096
 40
0.6774193548387096
 40
0.6774193548387096
 40
0.7096774193548387
 40
0.7096774193548387
 40
0.7096774193548387
 40
0.7096774193548387
 40
0.7419354838709677
 40
0.7419354838709677
 40
0.7419354838709677
 40
0.7419354838709677
 40
0.7741935483870968
 40
0.7741935483870968
 40
0.7741935483870968
 40
0.7741935483870968
 40
0.8064516129032258
 40
0.8064516129032258
 40
0.8064516129032258
 40
0.8064516129032258
 40
0.8387096774193549
 40
0.8387096774193549
 40
0.8387096774193549
 40
0.8387096774193549
 40
0.8709677419354839
 40
0.8709677419354839
 40
0.8709677419354839
 40
0.8709677419354839
 40
0.9032258064516129
 40
0.9032258064516129
 40
0.9032258064516129
 40
0.9032258064516129
 40
0.9354838709677419
 40
0.9354838709677419
 40
0.9354838709677419
 40
0.9354838709677419
 40
1.0
 40
1.0
 40
1.0
 40
1.0
 10
-5.24661
 20
-8.58829
 30
0.0
 10
-5.24661
 20
-8.58829
 30
0.0
 10
-5.1721
 20
-8.57813
 30
0.0
 10
-5.1721
 20
-8.57813
 30
0.0
 10
-5.1721
 20
-8.57813
 30
0.0
 10
-5.1635
 20
-8.62047
 30
0.0
 10
-5.1491
 20
-8.65095
 30
0.0
 10
-5.12864
 20
-8.66957
 30
0.0
 10
-5.12864
 20
-8.66957
 30
0.0
 10
-5.10818
 20
-8.6882
 30
0.0
 10
-5.08306
 20
-8.69751
 30
0.0
 10
-5.05329
 20
-8.69751
 30
0.0
 10
-5.05329
 20
-8.69751
 30
0.0
 10
-5.01801
 20
-8.69751
 30
0.0
 10
-4.98823
 20
-8.68538
 30
0.0
 10
-4.96425
 20
-8.66111
 30
0.0
 10
-4.96425
 20
-8.66111
 30
0.0
 10
-4.94026
 20
-8.63684
 30
0.0
 10
-4.92826
 20
-8.60678
 30
0.0
 10
-4.92826
 20
-8.57094
 30
0.0
 10
-4.92826
 20
-8.57094
 30
0.0
 10
-4.92826
 20
-8.53679
 30
0.0
 10
-4.93941
 20
-8.50856
 30
0.0
 10
-4.96185
 20
-8.48627
 30
0.0
 10
-4.96185
 20
-8.48627
 30
0.0
 10
-4.98414
 20
-8.46411
 30
0.0
 10
-5.01251
 20
-8.45297
 30
0.0
 10
-5.04708
 20
-8.45297
 30
0.0
 10
-5.04708
 20
-8.45297
 30
0.0
 10
-5.06119
 20
-8.45297
 30
0.0
 10
-5.07869
 20
-8.45579
 30
0.0
 10
-5.09971
 20
-8.46129
 30
0.0
 10
-5.09971
 20
-8.46129
 30
0.0
 10
-5.09971
 20
-8.46129
 30
0.0
 10
-5.09139
 20
-8.3961
 30
0.0
 10
-5.09139
 20
-8.3961
 30
0.0
 10
-5.09139
 20
-8.3961
 30
0.0
 10
-5.08645
 20
-8.39666
 30
0.0
 10
-5.08236
 20
-8.39695
 30
0.0
 10
-5.07939
 20
-8.39695
 30
0.0
 10
-5.07939
 20
-8.39695
 30
0.0
 10
-5.0475
 20
-8.39695
 30
0.0
 10
-5.019
 20
-8.38862
 30
0.0
 10
-4.99346
 20
-8.37211
 30
0.0
 10
-4.99346
 20
-8.37211
 30
0.0
 10
-4.96806
 20
-8.3556
 30
0.0
 10
-4.95536
 20
-8.3302
 30
0.0
 10
-4.95536
 20
-8.29591
 30
0.0
 10
-4.95536
 20
-8.29591
 30
0.0
 10
-4.95536
 20
-8.26867
 30
0.0
 10
-4.96467
 20
-8.2461
 30
0.0
 10
-4.98315
 20
-8.22818
 30
0.0
 10
-4.98315
 20
-8.22818
 30
0.0
 10
-5.00164
 20
-8.21025
 30
0.0
 10
-5.02549
 20
-8.20136
 30
0.0
 10
-5.0547
 20
-8.20136
 30
0.0
 10
-5.0547
 20
-8.20136
 30
0.0
 10
-5.08377
 20
-8.20136
 30
0.0
 10
-5.1079
 20
-8.21054
 30
0.0
 10
-5.12723
 20
-8.22888
 30
0.0
 10
-5.12723
 20
-8.22888
 30
0.0
 10
-5.14656
 20
-8.24723
 30
0.0
 10
-5.15898
 20
-8.27474
 30
0.0
 10
-5.16448
 20
-8.31143
 30
0.0
 10
-5.16448
 20
-8.31143
 30
0.0
 10
-5.16448
 20
-8.31143
 30
0.0
 10
-5.23899
 20
-8.29788
 30
0.0
 10
-5.23899
 20
-8.29788
 30
0.0
 10
-5.23899
 20
-8.29788
 30
0.0
 10
-5.22982
 20
-8.24793
 30
0.0
 10
-5.20922
 20
-8.20913
 30
0.0
 10
-5.1769
 20
-8.18161
 30
0.0
 10
-5.1769
 20
-8.18161
 30
0.0
 10
-5.14473
 20
-8.15409
 30
0.0
 10
-5.10451
 20
-8.1404
 30
0.0
 10
-5.05653
 20
-8.1404
 30
0.0
 10
-5.05653
 20
-8.1404
 30
0.0
 10
-5.02351
 20
-8.1404
 30
0.0
 10
-4.99303
 20
-8.14746
 30
0.0
 10
-4.96523
 20
-8.16171
 30
0.0
 10
-4.96523
 20
-8.16171
 30
0.0
 10
-4.93729
 20
-8.17582
 30
0.0
 10
-4.91599
 20
-8.19516
 30
0.0
 10
-4.90131
 20
-8.21957
 30
0.0
 10
-4.90131
 20
-8.21957
 30
0.0
 10
-4.88649
 20
-8.24412
 30
0.0
 10
-4.87916
 20
-8.27009
 30
0.0
 10
-4.87916
 20
-8.2976
 30
0.0
 10
-4.87916
 20
-8.2976
 30
0.0
 10
-4.87916
 20
-8.32371
 30
0.0
 10
-4.88621
 20
-8.34742
 30
0.0
 10
-4.90018
 20
-8.36886
 30
0.0
 10
-4.90018
 20
-8.36886
 30
0.0
 10
-4.91429
 20
-8.39031
 30
0.0
 10
-4.93518
 20
-8.40739
 30
0.0
 10
-4.96269
 20
-8.42009
 30
0.0
 10
-4.96269
 20
-8.42009
 30
0.0
 10
-4.92685
 20
-8.42827
 30
0.0
 10
-4.89905
 20
-8.44549
 30
0.0
 10
-4.87916
 20
-8.47159
 30
0.0
 10
-4.87916
 20
-8.47159
 30
0.0
 10
-4.8594
 20
-8.49756
 30
0.0
 10
-4.84952
 20
-8.5303
 30
0.0
 10
-4.84952
 20
-8.56938
 30
0.0
 10
-4.84952
 20
-8.56938
 30
0.0
 10
-4.84952
 20
-8.6223
 30
0.0
 10
-4.86885
 20
-8.66732
 30
0.0
 10
-4.90738
 20
-8.70415
 30
0.0
 10
-4.90738
 20
-8.70415
 30
0.0
 10
-4.94604
 20
-8.74098
 30
0.0
 10
-4.99487
 20
-8.75932
 30
0.0
 10
-5.05385
 20
-8.75932
 30
0.0
 10
-5.05385
 20
-8.75932
 30
0.0
 10
-5.10705
 20
-8.75932
 30
0.0
 10
-5.15122
 20
-8.74337
 30
0.0
 10
-5.18636
 20
-8.71162
 30
0.0
 10
-5.18636
 20
-8.71162
 30
0.0
 10
-5.22163
 20
-8.67987
 30
0.0
 10
-5.24167
 20
-8.63881
 30
0.0
 10
-5.24661
 20
-8.58829
 30
0.0
  0
SPLINE
  5
45
330
1F
100
AcDbEntity
  8
Layer 1
 62
   250
100
AcDbSpline
210
0.0
220
0.0
230
1.0
 70
    11
 71
     3
 72
   124
 73
   120
 74
     0
 42
0.0000000001
 43
0.0000000001
 12
1.0
 22
0.0
 32
0.0
 13
1.0
 23
0.0
 33
0.0
 40
0.0
 40
0.0
 40
0.0
 40
0.0
 40
0.032258064516129
 40
0.032258064516129
 40
0.032258064516129
 40
0.032258064516129
 40
0.0645161290322581
 40
0.0645161290322581
 40
0.0645161290322581
 40
0.0645161290322581
 40
0.0967741935483871
 40
0.0967741935483871
 40
0.0967741935483871
 40
0.0967741935483871
 40
0.1290322580645161
 40
0.1290322580645161
 40
0.1290322580645161
 40
0.1290322580645161
 40
0.1612903225806452
 40
0.1612903225806452
 40
0.1612903225806452
 40
0.1612903225806452
 40
0.1935483870967742
 40
0.1935483870967742
 40
0.1935483870967742
 40
0.1935483870967742
 40
0.2258064516129032
 40
0.2258064516129032
 40
0.2258064516129032
 40
0.2258064516129032
 40
0.2580645161290323
 40
0.2580645161290323
 40
0.2580645161290323
 40
0.2580645161290323
 40
0.2903225806451613
 40
0.2903225806451613
 40
0.2903225806451613
 40
0.2903225806451613
 40
0.3225806451612903
 40
0.3225806451612903
 40
0.3225806451612903
 40
0.3225806451612903
 40
0.3548387096774194
 40
0.3548387096774194
 40
0.3548387096774194
 40
0.3548387096774194
 40
0.3870967741935484
 40
0.3870967741935484
 40
0.3870967741935484
 40
0.3870967741935484
 40
0.4193548387096774
 40
0.4193548387096774
 40
0.4193548387096774
 40
0.4193548387096774
 40
0.4516129032258064
 40
0.4516129032258064
 40
0.4516129032258064
 40
0.4516129032258064
 40
0.4838709677419355
 40
0.4838709677419355
 40
0.4838709677419355
 40
0.4838709677419355
 40
0.5161290322580645
 40
0.5161290322580645
 40
0.5161290322580645
 40
0.5161290322580645
 40
0.5483870967741935
 40
0.5483870967741935
 40
0.5483870967741935
 40
0.5483870967741935
 40
0.5806451612903226
 40
0.5806451612903226
 40
0.5806451612903226
 40
0.5806451612903226
 40
0.6129032258064516
 40
0.6129032258064516
 40
0.6129032258064516
 40
0.6129032258064516
 40
0.6451612903225806
 40
0.6451612903225806
 40
0.6451612903225806
 40
0.6451612903225806
 40
0.6774193548387096
 40
0.6774193548387096
 40
0.6774193548387096
 40
0.6774193548387096
 40
0.7096774193548387
 40
0.7096774193548387
 40
0.7096774193548387
 40
0.7096774193548387
 40
0.7419354838709677
 40
0.7419354838709677
 40
0.7419354838709677
 40
0.7419354838709677
 40
0.7741935483870968
 40
0.7741935483870968
 40
0.7741935483870968
 40
0.7741935483870968
 40
0.8064516129032258
 40
0.8064516129032258
 40
0.8064516129032258
 40
0.8064516129032258
 40
0.8387096774193549
 40
0.8387096774193549
 40
0.8387096774193549
 40
0.8387096774193549
 40
0.8709677419354839
 40
0.8709677419354839
 40
0.8709677419354839
 40
0.8709677419354839
 40
0.9032258064516129
 40
0.9032258064516129
 40
0.9032258064516129
 40
0.9032258064516129
 40
0.9354838709677419
 40
0.9354838709677419
 40
0.9354838709677419
 40
0.9354838709677419
 40
1.0
 40
1.0
 40
1.0
 40
1.0
 10
-4.77572
 20
-8.58829
 30
0.0
 10
-4.77572
 20
-8.58829
 30
0.0
 10
-4.70121
 20
-8.57813
 30
0.0
 10
-4.70121
 20
-8.57813
 30
0.0
 10
-4.70121
 20
-8.57813
 30
0.0
 10
-4.69261
 20
-8.62047
 30
0.0
 10
-4.67821
 20
-8.65095
 30
0.0
 10
-4.65775
 20
-8.66957
 30
0.0
 10
-4.65775
 20
-8.66957
 30
0.0
 10
-4.63729
 20
-8.6882
 30
0.0
 10
-4.61217
 20
-8.69751
 30
0.0
 10
-4.5824
 20
-8.69751
 30
0.0
 10
-4.5824
 20
-8.69751
 30
0.0
 10
-4.54712
 20
-8.69751
 30
0.0
 10
-4.51734
 20
-8.68538
 30
0.0
 10
-4.49336
 20
-8.66111
 30
0.0
 10
-4.49336
 20
-8.66111
 30
0.0
 10
-4.46937
 20
-8.63684
 30
0.0
 10
-4.45737
 20
-8.60678
 30
0.0
 10
-4.45737
 20
-8.57094
 30
0.0
 10
-4.45737
 20
-8.57094
 30
0.0
 10
-4.45737
 20
-8.53679
 30
0.0
 10
-4.46852
 20
-8.50856
 30
0.0
 10
-4.49096
 20
-8.48627
 30
0.0
 10
-4.49096
 20
-8.48627
 30
0.0
 10
-4.51325
 20
-8.46411
 30
0.0
 10
-4.54162
 20
-8.45297
 30
0.0
 10
-4.57619
 20
-8.45297
 30
0.0
 10
-4.57619
 20
-8.45297
 30
0.0
 10
-4.5903
 20
-8.45297
 30
0.0
 10
-4.6078
 20
-8.45579
 30
0.0
 10
-4.62882
 20
-8.46129
 30
0.0
 10
-4.62882
 20
-8.46129
 30
0.0
 10
-4.62882
 20
-8.46129
 30
0.0
 10
-4.6205
 20
-8.3961
 30
0.0
 10
-4.6205
 20
-8.3961
 30
0.0
 10
-4.6205
 20
-8.3961
 30
0.0
 10
-4.61556
 20
-8.39666
 30
0.0
 10
-4.61147
 20
-8.39695
 30
0.0
 10
-4.6085
 20
-8.39695
 30
0.0
 10
-4.6085
 20
-8.39695
 30
0.0
 10
-4.57661
 20
-8.39695
 30
0.0
 10
-4.54811
 20
-8.38862
 30
0.0
 10
-4.52257
 20
-8.37211
 30
0.0
 10
-4.52257
 20
-8.37211
 30
0.0
 10
-4.49717
 20
-8.3556
 30
0.0
 10
-4.48447
 20
-8.3302
 30
0.0
 10
-4.48447
 20
-8.29591
 30
0.0
 10
-4.48447
 20
-8.29591
 30
0.0
 10
-4.48447
 20
-8.26867
 30
0.0
 10
-4.49378
 20
-8.2461
 30
0.0
 10
-4.51226
 20
-8.22818
 30
0.0
 10
-4.51226
 20
-8.22818
 30
0.0
 10
-4.53075
 20
-8.21025
 30
0.0
 10
-4.5546
 20
-8.20136
 30
0.0
 10
-4.58381
 20
-8.20136
 30
0.0
 10
-4.58381
 20
-8.20136
 30
0.0
 10
-4.61288
 20
-8.20136
 30
0.0
 10
-4.63701
 20
-8.21054
 30
0.0
 10
-4.65634
 20
-8.22888
 30
0.0
 10
-4.65634
 20
-8.22888
 30
0.0
 10
-4.67567
 20
-8.24723
 30
0.0
 10
-4.68809
 20
-8.27474
 30
0.0
 10
-4.69359
 20
-8.31143
 30
0.0
 10
-4.69359
 20
-8.31143
 30
0.0
 10
-4.69359
 20
-8.31143
 30
0.0
 10
-4.7681
 20
-8.29788
 30
0.0
 10
-4.7681
 20
-8.29788
 30
0.0
 10
-4.7681
 20
-8.29788
 30
0.0
 10
-4.75893
 20
-8.24793
 30
0.0
 10
-4.73833
 20
-8.20913
 30
0.0
 10
-4.70601
 20
-8.18161
 30
0.0
 10
-4.70601
 20
-8.18161
 30
0.0
 10
-4.67384
 20
-8.15409
 30
0.0
 10
-4.63362
 20
-8.1404
 30
0.0
 10
-4.58564
 20
-8.1404
 30
0.0
 10
-4.58564
 20
-8.1404
 30
0.0
 10
-4.55262
 20
-8.1404
 30
0.0
 10
-4.52214
 20
-8.14746
 30
0.0
 10
-4.49434
 20
-8.16171
 30
0.0
 10
-4.49434
 20
-8.16171
 30
0.0
 10
-4.4664
 20
-8.17582
 30
0.0
 10
-4.4451
 20
-8.19516
 30
0.0
 10
-4.43042
 20
-8.21957
 30
0.0
 10
-4.43042
 20
-8.21957
 30
0.0
 10
-4.4156
 20
-8.24412
 30
0.0
 10
-4.40827
 20
-8.27009
 30
0.0
 10
-4.40827
 20
-8.2976
 30
0.0
 10
-4.40827
 20
-8.2976
 30
0.0
 10
-4.40827
 20
-8.32371
 30
0.0
 10
-4.41532
 20
-8.34742
 30
0.0
 10
-4.42929
 20
-8.36886
 30
0.0
 10
-4.42929
 20
-8.36886
 30
0.0
 10
-4.4434
 20
-8.39031
 30
0.0
 10
-4.46429
 20
-8.40739
 30
0.0
 10
-4.4918
 20
-8.42009
 30
0.0
 10
-4.4918
 20
-8.42009
 30
0.0
 10
-4.45596
 20
-8.42827
 30
0.0
 10
-4.42816
 20
-8.44549
 30
0.0
 10
-4.40827
 20
-8.47159
 30
0.0
 10
-4.40827
 20
-8.47159
 30
0.0
 10
-4.38851
 20
-8.49756
 30
0.0
 10
-4.37863
 20
-8.5303
 30
0.0
 10
-4.37863
 20
-8.56938
 30
0.0
 10
-4.37863
 20
-8.56938
 30
0.0
 10
-4.37863
 20
-8.6223
 30
0.0
 10
-4.39796
 20
-8.66732
 30
0.0
 10
-4.43649
 20
-8.70415
 30
0.0
 10
-4.43649
 20
-8.70415
 30
0.0
 10
-4.47515
 20
-8.74098
 30
0.0
 10
-4.52398
 20
-8.75932
 30
0.0
 10
-4.58296
 20
-8.75932
 30
0.0
 10
-4.58296
 20
-8.75932
 30
0.0
 10
-4.63616
 20
-8.75932
 30
0.0
 10
-4.68033
 20
-8.74337
 30
0.0
 10
-4.71547
 20
-8.71162
 30
0.0
 10
-4.71547
 20
-8.71162
 30
0.0
 10
-4.75074
 20
-8.67987
 30
0.0
 10
-4.77078
 20
-8.63881
 30
0.0
 10
-4.77572
 20
-8.58829
 30
0.0
  0
SPLINE
  5
46
330
1F
100
AcDbEntity
  8
Layer 1
 62
   250
100
AcDbSpline
210
0.0
220
0.0
230
1.0
 70
    11
 71
     3
 72
    92
 73
    88
 74
     0
 42
0.0000000001
 43
0.0000000001
 12
1.0
 22
0.0
 32
0.0
 13
1.0
 23
0.0
 33
0.0
 40
0.0
 40
0.0
 40
0.0
 40
0.0
 40
0.0434782608695652
 40
0.0434782608695652
 40
0.0434782608695652
 40
0.0434782608695652
 40
0.0869565217391304
 40
0.0869565217391304
 40
0.0869565217391304
 40
0.0869565217391304
 40
0.1304347826086956
 40
0.1304347826086956
 40
0.1304347826086956
 40
0.1304347826086956
 40
0.1739130434782609
 40
0.1739130434782609
 40
0.1739130434782609
 40
0.1739130434782609
 40
0.2173913043478261
 40
0.2173913043478261
 40
0.2173913043478261
 40
0.2173913043478261
 40
0.2608695652173913
 40
0.2608695652173913
 40
0.2608695652173913
 40
0.2608695652173913
 40
0.3043478260869565
 40
0.3043478260869565
 40
0.3043478260869565
 40
0.3043478260869565
 40
0.3478260869565217
 40
0.3478260869565217
 40
0.3478260869565217
 40
0.3478260869565217
 40
0.391304347826087
 40
0.391304347826087
 40
0.391304347826087
 40
0.391304347826087
 40
0.4347826086956522
 40
0.4347826086956522
 40
0.4347826086956522
 40
0.4347826086956522
 40
0.4782608695652174
 40
0.4782608695652174
 40
0.4782608695652174
 40
0.4782608695652174
 40
0.5217391304347826
 40
0.5217391304347826
 40
0.5217391304347826
 40
0.5217391304347826
 40
0.5652173913043478
 40
0.5652173913043478
 40
0.5652173913043478
 40
0.5652173913043478
 40
0.6086956521739131
 40
0.6086956521739131
 40
0.6086956521739131
 40
0.6086956521739131
 40
0.6521739130434783
 40
0.6521739130434783
 40
0.6521739130434783
 40
0.6521739130434783
 40
0.6956521739130435
 40
0.6956521739130435
 40
0.6956521739130435
 40
0.6956521739130435
 40
0.7391304347826086
 40
0.7391304347826086
 40
0.7391304347826086
 40
0.7391304347826086
 40
0.782608695652174
 40
0.782608695652174
 40
0.782608695652174
 40
0.782608695652174
 40
0.8260869565217391
 40
0.8260869565217391
 40
0.8260869565217391
 40
0.8260869565217391
 40
0.8695652173913043
 40
0.8695652173913043
 40
0.8695652173913043
 40
0.8695652173913043
 40
0.9130434782608695
 40
0.9130434782608695
 40
0.9130434782608695
 40
0.9130434782608695
 40
1.0
 40
1.0
 40
1.0
 40
1.0
 10
-3.91451
 20
-8.67804
 30
0.0
 10
-3.91451
 20
-8.67804
 30
0.0
 10
-3.91451
 20
-8.74916
 30
0.0
 10
-3.91451
 20
-8.74916
 30
0.0
 10
-3.91451
 20
-8.74916
 30
0.0
 10
-3.91451
 20
-8.74916
 30
0.0
 10
-4.31584
 20
-8.74916
 30
0.0
 10
-4.31584
 20
-8.74916
 30
0.0
 10
-4.31584
 20
-8.74916
 30
0.0
 10
-4.3164
 20
-8.73124
 30
0.0
 10
-4.31344
 20
-8.71402
 30
0.0
 10
-4.30709
 20
-8.69737
 30
0.0
 10
-4.30709
 20
-8.69737
 30
0.0
 10
-4.29679
 20
-8.67014
 30
0.0
 10
-4.28028
 20
-8.64319
 30
0.0
 10
-4.25756
 20
-8.6168
 30
0.0
 10
-4.25756
 20
-8.6168
 30
0.0
 10
-4.23484
 20
-8.59041
 30
0.0
 10
-4.20238
 20
-8.55993
 30
0.0
 10
-4.16019
 20
-8.52536
 30
0.0
 10
-4.16019
 20
-8.52536
 30
0.0
 10
-4.09457
 20
-8.47131
 30
0.0
 10
-4.04998
 20
-8.42855
 30
0.0
 10
-4.0267
 20
-8.39695
 30
0.0
 10
-4.0267
 20
-8.39695
 30
0.0
 10
-4.00327
 20
-8.36534
 30
0.0
 10
-3.99156
 20
-8.33542
 30
0.0
 10
-3.99156
 20
-8.3072
 30
0.0
 10
-3.99156
 20
-8.3072
 30
0.0
 10
-3.99156
 20
-8.27771
 30
0.0
 10
-4.00215
 20
-8.25287
 30
0.0
 10
-4.02331
 20
-8.23255
 30
0.0
 10
-4.02331
 20
-8.23255
 30
0.0
 10
-4.04448
 20
-8.21237
 30
0.0
 10
-4.07214
 20
-8.20221
 30
0.0
 10
-4.10614
 20
-8.20221
 30
0.0
 10
-4.10614
 20
-8.20221
 30
0.0
 10
-4.14213
 20
-8.20221
 30
0.0
 10
-4.17091
 20
-8.21294
 30
0.0
 10
-4.1925
 20
-8.23438
 30
0.0
 10
-4.1925
 20
-8.23438
 30
0.0
 10
-4.2141
 20
-8.25569
 30
0.0
 10
-4.22496
 20
-8.28533
 30
0.0
 10
-4.22524
 20
-8.32328
 30
0.0
 10
-4.22524
 20
-8.32328
 30
0.0
 10
-4.22524
 20
-8.32328
 30
0.0
 10
-4.30144
 20
-8.31566
 30
0.0
 10
-4.30144
 20
-8.31566
 30
0.0
 10
-4.30144
 20
-8.31566
 30
0.0
 10
-4.29622
 20
-8.25866
 30
0.0
 10
-4.27647
 20
-8.21519
 30
0.0
 10
-4.24232
 20
-8.18528
 30
0.0
 10
-4.24232
 20
-8.18528
 30
0.0
 10
-4.20803
 20
-8.15536
 30
0.0
 10
-4.16217
 20
-8.1404
 30
0.0
 10
-4.10445
 20
-8.1404
 30
0.0
 10
-4.10445
 20
-8.1404
 30
0.0
 10
-4.04631
 20
-8.1404
 30
0.0
 10
-4.00017
 20
-8.15649
 30
0.0
 10
-3.9663
 20
-8.18881
 30
0.0
 10
-3.9663
 20
-8.18881
 30
0.0
 10
-3.9323
 20
-8.22112
 30
0.0
 10
-3.91536
 20
-8.2612
 30
0.0
 10
-3.91536
 20
-8.30889
 30
0.0
 10
-3.91536
 20
-8.30889
 30
0.0
 10
-3.91536
 20
-8.33316
 30
0.0
 10
-3.9203
 20
-8.35701
 30
0.0
 10
-3.93032
 20
-8.38044
 30
0.0
 10
-3.93032
 20
-8.38044
 30
0.0
 10
-3.9402
 20
-8.404
 30
0.0
 10
-3.95671
 20
-8.4287
 30
0.0
 10
-3.97971
 20
-8.45466
 30
0.0
 10
-3.97971
 20
-8.45466
 30
0.0
 10
-4.00285
 20
-8.48048
 30
0.0
 10
-4.04109
 20
-8.51618
 30
0.0
 10
-4.09443
 20
-8.56134
 30
0.0
 10
-4.09443
 20
-8.56134
 30
0.0
 10
-4.13916
 20
-8.59888
 30
0.0
 10
-4.16795
 20
-8.62428
 30
0.0
 10
-4.18065
 20
-8.63768
 30
0.0
 10
-4.18065
 20
-8.63768
 30
0.0
 10
-4.19335
 20
-8.65109
 30
0.0
 10
-4.20379
 20
-8.66449
 30
0.0
 10
-4.21212
 20
-8.67804
 30
0.0
 10
-4.21212
 20
-8.67804
 30
0.0
 10
-4.21212
 20
-8.67804
 30
0.0
 10
-3.91451
 20
-8.67804
 30
0.0
 10
-3.91451
 20
-8.67804
 30
0.0
  0
SPLINE
  5
47
330
1F
100
AcDbEntity
  8
Layer 1
 62
   250
100
AcDbSpline
210
0.0
220
0.0
230
1.0
 70
    11
 71
     3
 72
    92
 73
    88
 74
     0
 42
0.0000000001
 43
0.0000000001
 12
1.0
 22
0.0
 32
0.0
 13
1.0
 23
0.0
 33
0.0
 40
0.0
 40
0.0
 40
0.0
 40
0.0
 40
0.0434782608695652
 40
0.0434782608695652
 40
0.0434782608695652
 40
0.0434782608695652
 40
0.0869565217391304
 40
0.0869565217391304
 40
0.0869565217391304
 40
0.0869565217391304
 40
0.1304347826086956
 40
0.1304347826086956
 40
0.1304347826086956
 40
0.1304347826086956
 40
0.1739130434782609
 40
0.1739130434782609
 40
0.1739130434782609
 40
0.1739130434782609
 40
0.2173913043478261
 40
0.2173913043478261
 40
0.2173913043478261
 40
0.2173913043478261
 40
0.2608695652173913
 40
0.2608695652173913
 40
0.2608695652173913
 40
0.2608695652173913
 40
0.3043478260869565
 40
0.3043478260869565
 40
0.3043478260869565
 40
0.3043478260869565
 40
0.3478260869565217
 40
0.3478260869565217
 40
0.3478260869565217
 40
0.3478260869565217
 40
0.391304347826087
 40
0.391304347826087
 40
0.391304347826087
 40
0.391304347826087
 40
0.4347826086956522
 40
0.4347826086956522
 40
0.4347826086956522
 40
0.4347826086956522
 40
0.4782608695652174
 40
0.4782608695652174
 40
0.4782608695652174
 40
0.4782608695652174
 40
0.5217391304347826
 40
0.5217391304347826
 40
0.5217391304347826
 40
0.5217391304347826
 40
0.5652173913043478
 40
0.5652173913043478
 40
0.5652173913043478
 40
0.5652173913043478
 40
0.6086956521739131
 40
0.6086956521739131
 40
0.6086956521739131
 40
0.6086956521739131
 40
0.6521739130434783
 40
0.6521739130434783
 40
0.6521739130434783
 40
0.6521739130434783
 40
0.6956521739130435
 40
0.6956521739130435
 40
0.6956521739130435
 40
0.6956521739130435
 40
0.7391304347826086
 40
0.7391304347826086
 40
0.7391304347826086
 40
0.7391304347826086
 40
0.782608695652174
 40
0.782608695652174
 40
0.782608695652174
 40
0.782608695652174
 40
0.8260869565217391
 40
0.8260869565217391
 40
0.8260869565217391
 40
0.8260869565217391
 40
0.8695652173913043
 40
0.8695652173913043
 40
0.8695652173913043
 40
0.8695652173913043
 40
0.9130434782608695
 40
0.9130434782608695
 40
0.9130434782608695
 40
0.9130434782608695
 40
1.0
 40
1.0
 40
1.0
 40
1.0
 10
-3.44362
 20
-8.67804
 30
0.0
 10
-3.44362
 20
-8.67804
 30
0.0
 10
-3.44362
 20
-8.74916
 30
0.0
 10
-3.44362
 20
-8.74916
 30
0.0
 10
-3.44362
 20
-8.74916
 30
0.0
 10
-3.44362
 20
-8.74916
 30
0.0
 10
-3.84495
 20
-8.74916
 30
0.0
 10
-3.84495
 20
-8.74916
 30
0.0
 10
-3.84495
 20
-8.74916
 30
0.0
 10
-3.84551
 20
-8.73124
 30
0.0
 10
-3.84255
 20
-8.71402
 30
0.0
 10
-3.8362
 20
-8.69737
 30
0.0
 10
-3.8362
 20
-8.69737
 30
0.0
 10
-3.8259
 20
-8.67014
 30
0.0
 10
-3.80939
 20
-8.64319
 30
0.0
 10
-3.78667
 20
-8.6168
 30
0.0
 10
-3.78667
 20
-8.6168
 30
0.0
 10
-3.76395
 20
-8.59041
 30
0.0
 10
-3.73149
 20
-8.55993
 30
0.0
 10
-3.6893
 20
-8.52536
 30
0.0
 10
-3.6893
 20
-8.52536
 30
0.0
 10
-3.62368
 20
-8.47131
 30
0.0
 10
-3.57909
 20
-8.42855
 30
0.0
 10
-3.55581
 20
-8.39695
 30
0.0
 10
-3.55581
 20
-8.39695
 30
0.0
 10
-3.53238
 20
-8.36534
 30
0.0
 10
-3.52067
 20
-8.33542
 30
0.0
 10
-3.52067
 20
-8.3072
 30
0.0
 10
-3.52067
 20
-8.3072
 30
0.0
 10
-3.52067
 20
-8.27771
 30
0.0
 10
-3.53126
 20
-8.25287
 30
0.0
 10
-3.55242
 20
-8.23255
 30
0.0
 10
-3.55242
 20
-8.23255
 30
0.0
 10
-3.57359
 20
-8.21237
 30
0.0
 10
-3.60125
 20
-8.20221
 30
0.0
 10
-3.63525
 20
-8.20221
 30
0.0
 10
-3.63525
 20
-8.20221
 30
0.0
 10
-3.67124
 20
-8.20221
 30
0.0
 10
-3.70002
 20
-8.21294
 30
0.0
 10
-3.72161
 20
-8.23438
 30
0.0
 10
-3.72161
 20
-8.23438
 30
0.0
 10
-3.74321
 20
-8.25569
 30
0.0
 10
-3.75407
 20
-8.28533
 30
0.0
 10
-3.75435
 20
-8.32328
 30
0.0
 10
-3.75435
 20
-8.32328
 30
0.0
 10
-3.75435
 20
-8.32328
 30
0.0
 10
-3.83055
 20
-8.31566
 30
0.0
 10
-3.83055
 20
-8.31566
 30
0.0
 10
-3.83055
 20
-8.31566
 30
0.0
 10
-3.82533
 20
-8.25866
 30
0.0
 10
-3.80558
 20
-8.21519
 30
0.0
 10
-3.77143
 20
-8.18528
 30
0.0
 10
-3.77143
 20
-8.18528
 30
0.0
 10
-3.73714
 20
-8.15536
 30
0.0
 10
-3.69128
 20
-8.1404
 30
0.0
 10
-3.63356
 20
-8.1404
 30
0.0
 10
-3.63356
 20
-8.1404
 30
0.0
 10
-3.57542
 20
-8.1404
 30
0.0
 10
-3.52928
 20
-8.15649
 30
0.0
 10
-3.49541
 20
-8.18881
 30
0.0
 10
-3.49541
 20
-8.18881
 30
0.0
 10
-3.46141
 20
-8.22112
 30
0.0
 10
-3.44447
 20
-8.2612
 30
0.0
 10
-3.44447
 20
-8.30889
 30
0.0
 10
-3.44447
 20
-8.30889
 30
0.0
 10
-3.44447
 20
-8.33316
 30
0.0
 10
-3.44941
 20
-8.35701
 30
0.0
 10
-3.45943
 20
-8.38044
 30
0.0
 10
-3.45943
 20
-8.38044
 30
0.0
 10
-3.46931
 20
-8.404
 30
0.0
 10
-3.48582
 20
-8.4287
 30
0.0
 10
-3.50882
 20
-8.45466
 30
0.0
 10
-3.50882
 20
-8.45466
 30
0.0
 10
-3.53196
 20
-8.48048
 30
0.0
 10
-3.5702
 20
-8.51618
 30
0.0
 10
-3.62354
 20
-8.56134
 30
0.0
 10
-3.62354
 20
-8.56134
 30
0.0
 10
-3.66827
 20
-8.59888
 30
0.0
 10
-3.69706
 20
-8.62428
 30
0.0
 10
-3.70976
 20
-8.63768
 30
0.0
 10
-3.70976
 20
-8.63768
 30
0.0
 10
-3.72246
 20
-8.65109
 30
0.0
 10
-3.7329
 20
-8.66449
 30
0.0
 10
-3.74123
 20
-8.67804
 30
0.0
 10
-3.74123
 20
-8.67804
 30
0.0
 10
-3.74123
 20
-8.67804
 30
0.0
 10
-3.44362
 20
-8.67804
 30
0.0
 10
-3.44362
 20
-8.67804
 30
0.0
  0
SPLINE
  5
48
330
1F
100
AcDbEntity
  8
Layer 1
 62
   250
100
AcDbSpline
210
0.0
220
0.0
230
1.0
 70
    11
 71
     3
 72
    20
 73
    16
 74
     0
 42
0.0000000001
 43
0.0000000001
 12
1.0
 22
0.0
 32
0.0
 13
1.0
 23
0.0
 33
0.0
 40
0.0
 40
0.0
 40
0.0
 40
0.0
 40
0.2
 40
0.2
 40
0.2
 40
0.2
 40
0.4
 40
0.4
 40
0.4
 40
0.4
 40
0.6
 40
0.6
 40
0.6
 40
0.6
 40
1.0
 40
1.0
 40
1.0
 40
1.0
 10
-3.37236
 20
-8.56713
 30
0.0
 10
-3.37236
 20
-8.56713
 30
0.0
 10
-3.37236
 20
-8.49262
 30
0.0
 10
-3.37236
 20
-8.49262
 30
0.0
 10
-3.37236
 20
-8.49262
 30
0.0
 10
-3.37236
 20
-8.49262
 30
0.0
 10
-3.14207
 20
-8.49262
 30
0.0
 10
-3.14207
 20
-8.49262
 30
0.0
 10
-3.14207
 20
-8.49262
 30
0.0
 10
-3.14207
 20
-8.49262
 30
0.0
 10
-3.14207
 20
-8.56713
 30
0.0
 10
-3.14207
 20
-8.56713
 30
0.0
 10
-3.14207
 20
-8.56713
 30
0.0
 10
-3.14207
 20
-8.56713
 30
0.0
 10
-3.37236
 20
-8.56713
 30
0.0
 10
-3.37236
 20
-8.56713
 30
0.0
  0
SPLINE
  5
49
330
1F
100
AcDbEntity
  8
Layer 1
 62
   250
100
AcDbSpline
210
0.0
220
0.0
230
1.0
 70
    11
 71
     3
 72
    80
 73
    76
 74
     0
 42
0.0000000001
 43
0.0000000001
 12
1.0
 22
0.0
 32
0.0
 13
1.0
 23
0.0
 33
0.0
 40
0.0
 40
0.0
 40
0.0
 40
0.0
 40
0.05
 40
0.05
 40
0.05
 40
0.05
 40
0.1
 40
0.1
 40
0.1
 40
0.1
 40
0.15
 40
0.15
 40
0.15
 40
0.15
 40
0.2
 40
0.2
 40
0.2
 40
0.2
 40
0.25
 40
0.25
 40
0.25
 40
0.25
 40
0.3
 40
0.3
 40
0.3
 40
0.3
 40
0.35
 40
0.35
 40
0.35
 40
0.35
 40
0.4
 40
0.4
 40
0.4
 40
0.4
 40
0.45
 40
0.45
 40
0.45
 40
0.45
 40
0.5
 40
0.5
 40
0.5
 40
0.5
 40
0.55
 40
0.55
 40
0.55
 40
0.55
 40
0.6
 40
0.6
 40
0.6
 40
0.6
 40
0.65
 40
0.65
 40
0.65
 40
0.65
 40
0.7
 40
0.7
 40
0.7
 40
0.7
 40
0.75
 40
0.75
 40
0.75
 40
0.75
 40
0.8
 40
0.8
 40
0.8
 40
0.8
 40
0.85
 40
0.85
 40
0.85
 40
0.85
 40
0.9
 40
0.9
 40
0.9
 40
0.9
 40
1.0
 40
1.0
 40
1.0
 40
1.0
 10
-3.04978
 20
-8.74916
 30
0.0
 10
-3.04978
 20
-8.74916
 30
0.0
 10
-3.04978
 20
-8.14294
 30
0.0
 10
-3.04978
 20
-8.14294
 30
0.0
 10
-3.04978
 20
-8.14294
 30
0.0
 10
-3.04978
 20
-8.14294
 30
0.0
 10
-2.78111
 20
-8.14294
 30
0.0
 10
-2.78111
 20
-8.14294
 30
0.0
 10
-2.78111
 20
-8.14294
 30
0.0
 10
-2.72706
 20
-8.14294
 30
0.0
 10
-2.686
 20
-8.14845
 30
0.0
 10
-2.65792
 20
-8.15931
 30
0.0
 10
-2.65792
 20
-8.15931
 30
0.0
 10
-2.62983
 20
-8.17018
 30
0.0
 10
-2.6074
 20
-8.18937
 30
0.0
 10
-2.59061
 20
-8.21689
 30
0.0
 10
-2.59061
 20
-8.21689
 30
0.0
 10
-2.57381
 20
-8.2444
 30
0.0
 10
-2.56549
 20
-8.27488
 30
0.0
 10
-2.56549
 20
-8.30819
 30
0.0
 10
-2.56549
 20
-8.30819
 30
0.0
 10
-2.56549
 20
-8.35123
 30
0.0
 10
-2.57946
 20
-8.38749
 30
0.0
 10
-2.60726
 20
-8.41698
 30
0.0
 10
-2.60726
 20
-8.41698
 30
0.0
 10
-2.63506
 20
-8.44648
 30
0.0
 10
-2.67795
 20
-8.4651
 30
0.0
 10
-2.73609
 20
-8.47315
 30
0.0
 10
-2.73609
 20
-8.47315
 30
0.0
 10
-2.71478
 20
-8.48331
 30
0.0
 10
-2.6987
 20
-8.49347
 30
0.0
 10
-2.68769
 20
-8.50334
 30
0.0
 10
-2.68769
 20
-8.50334
 30
0.0
 10
-2.66427
 20
-8.52479
 30
0.0
 10
-2.64211
 20
-8.55174
 30
0.0
 10
-2.62137
 20
-8.58406
 30
0.0
 10
-2.62137
 20
-8.58406
 30
0.0
 10
-2.62137
 20
-8.58406
 30
0.0
 10
-2.51652
 20
-8.74916
 30
0.0
 10
-2.51652
 20
-8.74916
 30
0.0
 10
-2.51652
 20
-8.74916
 30
0.0
 10
-2.51652
 20
-8.74916
 30
0.0
 10
-2.61671
 20
-8.74916
 30
0.0
 10
-2.61671
 20
-8.74916
 30
0.0
 10
-2.61671
 20
-8.74916
 30
0.0
 10
-2.61671
 20
-8.74916
 30
0.0
 10
-2.69686
 20
-8.62301
 30
0.0
 10
-2.69686
 20
-8.62301
 30
0.0
 10
-2.69686
 20
-8.62301
 30
0.0
 10
-2.72015
 20
-8.58646
 30
0.0
 10
-2.73948
 20
-8.55866
 30
0.0
 10
-2.75458
 20
-8.53933
 30
0.0
 10
-2.75458
 20
-8.53933
 30
0.0
 10
-2.76982
 20
-8.51999
 30
0.0
 10
-2.78336
 20
-8.50659
 30
0.0
 10
-2.79536
 20
-8.49883
 30
0.0
 10
-2.79536
 20
-8.49883
 30
0.0
 10
-2.80721
 20
-8.49121
 30
0.0
 10
-2.81949
 20
-8.48585
 30
0.0
 10
-2.83191
 20
-8.48274
 30
0.0
 10
-2.83191
 20
-8.48274
 30
0.0
 10
-2.84094
 20
-8.48091
 30
0.0
 10
-2.85575
 20
-8.47992
 30
0.0
 10
-2.8765
 20
-8.47992
 30
0.0
 10
-2.8765
 20
-8.47992
 30
0.0
 10
-2.8765
 20
-8.47992
 30
0.0
 10
-2.96935
 20
-8.47992
 30
0.0
 10
-2.96935
 20
-8.47992
 30
0.0
 10
-2.96935
 20
-8.47992
 30
0.0
 10
-2.96935
 20
-8.47992
 30
0.0
 10
-2.96935
 20
-8.74916
 30
0.0
 10
-2.96935
 20
-8.74916
 30
0.0
 10
-2.96935
 20
-8.74916
 30
0.0
 10
-2.96935
 20
-8.74916
 30
0.0
 10
-3.04978
 20
-8.74916
 30
0.0
 10
-3.04978
 20
-8.74916
 30
0.0
  0
SPLINE
  5
4A
330
1F
100
AcDbEntity
  8
Layer 1
 62
   250
100
AcDbSpline
210
0.0
220
0.0
230
1.0
 70
    11
 71
     3
 72
    36
 73
    32
 74
     0
 42
0.0000000001
 43
0.0000000001
 12
1.0
 22
0.0
 32
0.0
 13
1.0
 23
0.0
 33
0.0
 40
0.0
 40
0.0
 40
0.0
 40
0.0
 40
0.1111111111111111
 40
0.1111111111111111
 40
0.1111111111111111
 40
0.1111111111111111
 40
0.2222222222222222
 40
0.2222222222222222
 40
0.2222222222222222
 40
0.2222222222222222
 40
0.3333333333333333
 40
0.3333333333333333
 40
0.3333333333333333
 40
0.3333333333333333
 40
0.4444444444444444
 40
0.4444444444444444
 40
0.4444444444444444
 40
0.4444444444444444
 40
0.5555555555555556
 40
0.5555555555555556
 40
0.5555555555555556
 40
0.5555555555555556
 40
0.6666666666666666
 40
0.6666666666666666
 40
0.6666666666666666
 40
0.6666666666666666
 40
0.7777777777777778
 40
0.7777777777777778
 40
0.7777777777777778
 40
0.7777777777777778
 40
1.0
 40
1.0
 40
1.0
 40
1.0
 10
-2.96935
 20
-8.41049
 30
0.0
 10
-2.96935
 20
-8.41049
 30
0.0
 10
-2.79719
 20
-8.41049
 30
0.0
 10
-2.79719
 20
-8.41049
 30
0.0
 10
-2.79719
 20
-8.41049
 30
0.0
 10
-2.7605
 20
-8.41049
 30
0.0
 10
-2.732
 20
-8.40668
 30
0.0
 10
-2.7114
 20
-8.39906
 30
0.0
 10
-2.7114
 20
-8.39906
 30
0.0
 10
-2.69079
 20
-8.39158
 30
0.0
 10
-2.67513
 20
-8.37945
 30
0.0
 10
-2.66455
 20
-8.36266
 30
0.0
 10
-2.66455
 20
-8.36266
 30
0.0
 10
-2.65382
 20
-8.346
 30
0.0
 10
-2.64846
 20
-8.32794
 30
0.0
 10
-2.64846
 20
-8.30833
 30
0.0
 10
-2.64846
 20
-8.30833
 30
0.0
 10
-2.64846
 20
-8.27968
 30
0.0
 10
-2.65876
 20
-8.25597
 30
0.0
 10
-2.67951
 20
-8.23749
 30
0.0
 10
-2.67951
 20
-8.23749
 30
0.0
 10
-2.70025
 20
-8.219
 30
0.0
 10
-2.73299
 20
-8.20983
 30
0.0
 10
-2.77772
 20
-8.20983
 30
0.0
 10
-2.77772
 20
-8.20983
 30
0.0
 10
-2.77772
 20
-8.20983
 30
0.0
 10
-2.96935
 20
-8.20983
 30
0.0
 10
-2.96935
 20
-8.20983
 30
0.0
 10
-2.96935
 20
-8.20983
 30
0.0
 10
-2.96935
 20
-8.20983
 30
0.0
 10
-2.96935
 20
-8.41049
 30
0.0
 10
-2.96935
 20
-8.41049
 30
0.0
  0
SPLINE
  5
4B
330
1F
100
AcDbEntity
  8
Layer 1
 62
   250
100
AcDbSpline
210
0.0
220
0.0
230
1.0
 70
    11
 71
     3
 72
    36
 73
    32
 74
     0
 42
0.0000000001
 43
0.0000000001
 12
1.0
 22
0.0
 32
0.0
 13
1.0
 23
0.0
 33
0.0
 40
0.0
 40
0.0
 40
0.0
 40
0.0
 40
0.1111111111111111
 40
0.1111111111111111
 40
0.1111111111111111
 40
0.1111111111111111
 40
0.2222222222222222
 40
0.2222222222222222
 40
0.2222222222222222
 40
0.2222222222222222
 40
0.3333333333333333
 40
0.3333333333333333
 40
0.3333333333333333
 40
0.3333333333333333
 40
0.4444444444444444
 40
0.4444444444444444
 40
0.4444444444444444
 40
0.4444444444444444
 40
0.5555555555555556
 40
0.5555555555555556
 40
0.5555555555555556
 40
0.5555555555555556
 40
0.6666666666666666
 40
0.6666666666666666
 40
0.6666666666666666
 40
0.6666666666666666
 40
0.7777777777777778
 40
0.7777777777777778
 40
0.7777777777777778
 40
0.7777777777777778
 40
1.0
 40
1.0
 40
1.0
 40
1.0
 10
-2.06595
 20
-8.74916
 30
0.0
 10
-2.06595
 20
-8.74916
 30
0.0
 10
-2.06595
 20
-8.21406
 30
0.0
 10
-2.06595
 20
-8.21406
 30
0.0
 10
-2.06595
 20
-8.21406
 30
0.0
 10
-2.06595
 20
-8.21406
 30
0.0
 10
-2.26577
 20
-8.21406
 30
0.0
 10
-2.26577
 20
-8.21406
 30
0.0
 10
-2.26577
 20
-8.21406
 30
0.0
 10
-2.26577
 20
-8.21406
 30
0.0
 10
-2.26577
 20
-8.14294
 30
0.0
 10
-2.26577
 20
-8.14294
 30
0.0
 10
-2.26577
 20
-8.14294
 30
0.0
 10
-2.26577
 20
-8.14294
 30
0.0
 10
-1.7857
 20
-8.14294
 30
0.0
 10
-1.7857
 20
-8.14294
 30
0.0
 10
-1.7857
 20
-8.14294
 30
0.0
 10
-1.7857
 20
-8.14294
 30
0.0
 10
-1.7857
 20
-8.21406
 30
0.0
 10
-1.7857
 20
-8.21406
 30
0.0
 10
-1.7857
 20
-8.21406
 30
0.0
 10
-1.7857
 20
-8.21406
 30
0.0
 10
-1.98552
 20
-8.21406
 30
0.0
 10
-1.98552
 20
-8.21406
 30
0.0
 10
-1.98552
 20
-8.21406
 30
0.0
 10
-1.98552
 20
-8.21406
 30
0.0
 10
-1.98552
 20
-8.74916
 30
0.0
 10
-1.98552
 20
-8.74916
 30
0.0
 10
-1.98552
 20
-8.74916
 30
0.0
 10
-1.98552
 20
-8.74916
 30
0.0
 10
-2.06595
 20
-8.74916
 30
0.0
 10
-2.06595
 20
-8.74916
 30
0.0
  0
SPLINE
  5
4C
330
1F
100
AcDbEntity
  8
Layer 1
 62
   250
100
AcDbSpline
210
0.0
220
0.0
230
1.0
 70
    11
 71
     3
 72
    52
 73
    48
 74
     0
 42
0.0000000001
 43
0.0000000001
 12
1.0
 22
0.0
 32
0.0
 13
1.0
 23
0.0
 33
0.0
 40
0.0
 40
0.0
 40
0.0
 40
0.0
 40
0.0769230769230769
 40
0.0769230769230769
 40
0.0769230769230769
 40
0.0769230769230769
 40
0.1538461538461539
 40
0.1538461538461539
 40
0.1538461538461539
 40
0.1538461538461539
 40
0.2307692307692308
 40
0.2307692307692308
 40
0.2307692307692308
 40
0.2307692307692308
 40
0.3076923076923077
 40
0.3076923076923077
 40
0.3076923076923077
 40
0.3076923076923077
 40
0.3846153846153846
 40
0.3846153846153846
 40
0.3846153846153846
 40
0.3846153846153846
 40
0.4615384615384616
 40
0.4615384615384616
 40
0.4615384615384616
 40
0.4615384615384616
 40
0.5384615384615384
 40
0.5384615384615384
 40
0.5384615384615384
 40
0.5384615384615384
 40
0.6153846153846154
 40
0.6153846153846154
 40
0.6153846153846154
 40
0.6153846153846154
 40
0.6923076923076923
 40
0.6923076923076923
 40
0.6923076923076923
 40
0.6923076923076923
 40
0.7692307692307693
 40
0.7692307692307693
 40
0.7692307692307693
 40
0.7692307692307693
 40
0.8461538461538461
 40
0.8461538461538461
 40
0.8461538461538461
 40
0.8461538461538461
 40
1.0
 40
1.0
 40
1.0
 40
1.0
 10
-1.70118
 20
-8.74916
 30
0.0
 10
-1.70118
 20
-8.74916
 30
0.0
 10
-1.70118
 20
-8.14294
 30
0.0
 10
-1.70118
 20
-8.14294
 30
0.0
 10
-1.70118
 20
-8.14294
 30
0.0
 10
-1.70118
 20
-8.14294
 30
0.0
 10
-1.26345
 20
-8.14294
 30
0.0
 10
-1.26345
 20
-8.14294
 30
0.0
 10
-1.26345
 20
-8.14294
 30
0.0
 10
-1.26345
 20
-8.14294
 30
0.0
 10
-1.26345
 20
-8.21406
 30
0.0
 10
-1.26345
 20
-8.21406
 30
0.0
 10
-1.26345
 20
-8.21406
 30
0.0
 10
-1.26345
 20
-8.21406
 30
0.0
 10
-1.62075
 20
-8.21406
 30
0.0
 10
-1.62075
 20
-8.21406
 30
0.0
 10
-1.62075
 20
-8.21406
 30
0.0
 10
-1.62075
 20
-8.21406
 30
0.0
 10
-1.62075
 20
-8.40033
 30
0.0
 10
-1.62075
 20
-8.40033
 30
0.0
 10
-1.62075
 20
-8.40033
 30
0.0
 10
-1.62075
 20
-8.40033
 30
0.0
 10
-1.28631
 20
-8.40033
 30
0.0
 10
-1.28631
 20
-8.40033
 30
0.0
 10
-1.28631
 20
-8.40033
 30
0.0
 10
-1.28631
 20
-8.40033
 30
0.0
 10
-1.28631
 20
-8.47145
 30
0.0
 10
-1.28631
 20
-8.47145
 30
0.0
 10
-1.28631
 20
-8.47145
 30
0.0
 10
-1.28631
 20
-8.47145
 30
0.0
 10
-1.62075
 20
-8.47145
 30
0.0
 10
-1.62075
 20
-8.47145
 30
0.0
 10
-1.62075
 20
-8.47145
 30
0.0
 10
-1.62075
 20
-8.47145
 30
0.0
 10
-1.62075
 20
-8.67804
 30
0.0
 10
-1.62075
 20
-8.67804
 30
0.0
 10
-1.62075
 20
-8.67804
 30
0.0
 10
-1.62075
 20
-8.67804
 30
0.0
 10
-1.24906
 20
-8.67804
 30
0.0
 10
-1.24906
 20
-8.67804
 30
0.0
 10
-1.24906
 20
-8.67804
 30
0.0
 10
-1.24906
 20
-8.67804
 30
0.0
 10
-1.24906
 20
-8.74916
 30
0.0
 10
-1.24906
 20
-8.74916
 30
0.0
 10
-1.24906
 20
-8.74916
 30
0.0
 10
-1.24906
 20
-8.74916
 30
0.0
 10
-1.70118
 20
-8.74916
 30
0.0
 10
-1.70118
 20
-8.74916
 30
0.0
  0
SPLINE
  5
4D
330
1F
100
AcDbEntity
  8
Layer 1
 62
   250
100
AcDbSpline
210
0.0
220
0.0
230
1.0
 70
    11
 71
     3
 72
    64
 73
    60
 74
     0
 42
0.0000000001
 43
0.0000000001
 12
1.0
 22
0.0
 32
0.0
 13
1.0
 23
0.0
 33
0.0
 40
0.0
 40
0.0
 40
0.0
 40
0.0
 40
0.0625
 40
0.0625
 40
0.0625
 40
0.0625
 40
0.125
 40
0.125
 40
0.125
 40
0.125
 40
0.1875
 40
0.1875
 40
0.1875
 40
0.1875
 40
0.25
 40
0.25
 40
0.25
 40
0.25
 40
0.3125
 40
0.3125
 40
0.3125
 40
0.3125
 40
0.375
 40
0.375
 40
0.375
 40
0.375
 40
0.4375
 40
0.4375
 40
0.4375
 40
0.4375
 40
0.5
 40
0.5
 40
0.5
 40
0.5
 40
0.5625
 40
0.5625
 40
0.5625
 40
0.5625
 40
0.625
 40
0.625
 40
0.625
 40
0.625
 40
0.6875
 40
0.6875
 40
0.6875
 40
0.6875
 40
0.75
 40
0.75
 40
0.75
 40
0.75
 40
0.8125
 40
0.8125
 40
0.8125
 40
0.8125
 40
0.875
 40
0.875
 40
0.875
 40
0.875
 40
1.0
 40
1.0
 40
1.0
 40
1.0
 10
-1.13984
 20
-8.74916
 30
0.0
 10
-1.13984
 20
-8.74916
 30
0.0
 10
-1.13984
 20
-8.14294
 30
0.0
 10
-1.13984
 20
-8.14294
 30
0.0
 10
-1.13984
 20
-8.14294
 30
0.0
 10
-1.13984
 20
-8.14294
 30
0.0
 10
-1.01961
 20
-8.14294
 30
0.0
 10
-1.01961
 20
-8.14294
 30
0.0
 10
-1.01961
 20
-8.14294
 30
0.0
 10
-1.01961
 20
-8.14294
 30
0.0
 10
-0.87624
 20
-8.57206
 30
0.0
 10
-0.87624
 20
-8.57206
 30
0.0
 10
-0.87624
 20
-8.57206
 30
0.0
 10
-0.86298
 20
-8.612
 30
0.0
 10
-0.85338
 20
-8.64192
 30
0.0
 10
-0.84732
 20
-8.66181
 30
0.0
 10
-0.84732
 20
-8.66181
 30
0.0
 10
-0.8404
 20
-8.6398
 30
0.0
 10
-0.82954
 20
-8.60734
 30
0.0
 10
-0.81486
 20
-8.56459
 30
0.0
 10
-0.81486
 20
-8.56459
 30
0.0
 10
-0.81486
 20
-8.56459
 30
0.0
 10
-0.66895
 20
-8.14294
 30
0.0
 10
-0.66895
 20
-8.14294
 30
0.0
 10
-0.66895
 20
-8.14294
 30
0.0
 10
-0.66895
 20
-8.14294
 30
0.0
 10
-0.56156
 20
-8.14294
 30
0.0
 10
-0.56156
 20
-8.14294
 30
0.0
 10
-0.56156
 20
-8.14294
 30
0.0
 10
-0.56156
 20
-8.14294
 30
0.0
 10
-0.56156
 20
-8.74916
 30
0.0
 10
-0.56156
 20
-8.74916
 30
0.0
 10
-0.56156
 20
-8.74916
 30
0.0
 10
-0.56156
 20
-8.74916
 30
0.0
 10
-0.63861
 20
-8.74916
 30
0.0
 10
-0.63861
 20
-8.74916
 30
0.0
 10
-0.63861
 20
-8.74916
 30
0.0
 10
-0.63861
 20
-8.74916
 30
0.0
 10
-0.63861
 20
-8.242
 30
0.0
 10
-0.63861
 20
-8.242
 30
0.0
 10
-0.63861
 20
-8.242
 30
0.0
 10
-0.63861
 20
-8.242
 30
0.0
 10
-0.81557
 20
-8.74916
 30
0.0
 10
-0.81557
 20
-8.74916
 30
0.0
 10
-0.81557
 20
-8.74916
 30
0.0
 10
-0.81557
 20
-8.74916
 30
0.0
 10
-0.88781
 20
-8.74916
 30
0.0
 10
-0.88781
 20
-8.74916
 30
0.0
 10
-0.88781
 20
-8.74916
 30
0.0
 10
-0.88781
 20
-8.74916
 30
0.0
 10
-1.06279
 20
-8.23269
 30
0.0
 10
-1.06279
 20
-8.23269
 30
0.0
 10
-1.06279
 20
-8.23269
 30
0.0
 10
-1.06279
 20
-8.23269
 30
0.0
 10
-1.06279
 20
-8.74916
 30
0.0
 10
-1.06279
 20
-8.74916
 30
0.0
 10
-1.06279
 20
-8.74916
 30
0.0
 10
-1.06279
 20
-8.74916
 30
0.0
 10
-1.13984
 20
-8.74916
 30
0.0
 10
-1.13984
 20
-8.74916
 30
0.0
  0
SPLINE
  5
4E
330
1F
100
AcDbEntity
  8
Layer 1
 62
   250
100
AcDbSpline
210
0.0
220
0.0
230
1.0
 70
    11
 71
     3
 72
    48
 73
    44
 74
     0
 42
0.0000000001
 43
0.0000000001
 12
1.0
 22
0.0
 32
0.0
 13
1.0
 23
0.0
 33
0.0
 40
0.0
 40
0.0
 40
0.0
 40
0.0
 40
0.0833333333333333
 40
0.0833333333333333
 40
0.0833333333333333
 40
0.0833333333333333
 40
0.1666666666666667
 40
0.1666666666666667
 40
0.1666666666666667
 40
0.1666666666666667
 40
0.25
 40
0.25
 40
0.25
 40
0.25
 40
0.3333333333333333
 40
0.3333333333333333
 40
0.3333333333333333
 40
0.3333333333333333
 40
0.4166666666666667
 40
0.4166666666666667
 40
0.4166666666666667
 40
0.4166666666666667
 40
0.5
 40
0.5
 40
0.5
 40
0.5
 40
0.5833333333333334
 40
0.5833333333333334
 40
0.5833333333333334
 40
0.5833333333333334
 40
0.6666666666666666
 40
0.6666666666666666
 40
0.6666666666666666
 40
0.6666666666666666
 40
0.75
 40
0.75
 40
0.75
 40
0.75
 40
0.8333333333333334
 40
0.8333333333333334
 40
0.8333333333333334
 40
0.8333333333333334
 40
1.0
 40
1.0
 40
1.0
 40
1.0
 10
-0.43287
 20
-8.74916
 30
0.0
 10
-0.43287
 20
-8.74916
 30
0.0
 10
-0.43287
 20
-8.14294
 30
0.0
 10
-0.43287
 20
-8.14294
 30
0.0
 10
-0.43287
 20
-8.14294
 30
0.0
 10
-0.43287
 20
-8.14294
 30
0.0
 10
-0.20398
 20
-8.14294
 30
0.0
 10
-0.20398
 20
-8.14294
 30
0.0
 10
-0.20398
 20
-8.14294
 30
0.0
 10
-0.16377
 20
-8.14294
 30
0.0
 10
-0.133
 20
-8.14492
 30
0.0
 10
-0.1117
 20
-8.14873
 30
0.0
 10
-0.1117
 20
-8.14873
 30
0.0
 10
-0.08192
 20
-8.15367
 30
0.0
 10
-0.05694
 20
-8.16312
 30
0.0
 10
-0.03677
 20
-8.17695
 30
0.0
 10
-0.03677
 20
-8.17695
 30
0.0
 10
-0.01659
 20
-8.19092
 30
0.0
 10
-0.00036
 20
-8.2104
 30
0.0
 10
0.01192
 20
-8.23537
 30
0.0
 10
0.01192
 20
-8.23537
 30
0.0
 10
0.02419
 20
-8.26035
 30
0.0
 10
0.03026
 20
-8.28787
 30
0.0
 10
0.03026
 20
-8.31792
 30
0.0
 10
0.03026
 20
-8.31792
 30
0.0
 10
0.03026
 20
-8.36929
 30
0.0
 10
0.01389
 20
-8.41289
 30
0.0
 10
-0.01899
 20
-8.44845
 30
0.0
 10
-0.01899
 20
-8.44845
 30
0.0
 10
-0.05172
 20
-8.48415
 30
0.0
 10
-0.11113
 20
-8.50193
 30
0.0
 10
-0.19693
 20
-8.50193
 30
0.0
 10
-0.19693
 20
-8.50193
 30
0.0
 10
-0.19693
 20
-8.50193
 30
0.0
 10
-0.35243
 20
-8.50193
 30
0.0
 10
-0.35243
 20
-8.50193
 30
0.0
 10
-0.35243
 20
-8.50193
 30
0.0
 10
-0.35243
 20
-8.50193
 30
0.0
 10
-0.35243
 20
-8.74916
 30
0.0
 10
-0.35243
 20
-8.74916
 30
0.0
 10
-0.35243
 20
-8.74916
 30
0.0
 10
-0.35243
 20
-8.74916
 30
0.0
 10
-0.43287
 20
-8.74916
 30
0.0
 10
-0.43287
 20
-8.74916
 30
0.0
  0
SPLINE
  5
4F
330
1F
100
AcDbEntity
  8
Layer 1
 62
   250
100
AcDbSpline
210
0.0
220
0.0
230
1.0
 70
    11
 71
     3
 72
    36
 73
    32
 74
     0
 42
0.0000000001
 43
0.0000000001
 12
1.0
 22
0.0
 32
0.0
 13
1.0
 23
0.0
 33
0.0
 40
0.0
 40
0.0
 40
0.0
 40
0.0
 40
0.1111111111111111
 40
0.1111111111111111
 40
0.1111111111111111
 40
0.1111111111111111
 40
0.2222222222222222
 40
0.2222222222222222
 40
0.2222222222222222
 40
0.2222222222222222
 40
0.3333333333333333
 40
0.3333333333333333
 40
0.3333333333333333
 40
0.3333333333333333
 40
0.4444444444444444
 40
0.4444444444444444
 40
0.4444444444444444
 40
0.4444444444444444
 40
0.5555555555555556
 40
0.5555555555555556
 40
0.5555555555555556
 40
0.5555555555555556
 40
0.6666666666666666
 40
0.6666666666666666
 40
0.6666666666666666
 40
0.6666666666666666
 40
0.7777777777777778
 40
0.7777777777777778
 40
0.7777777777777778
 40
0.7777777777777778
 40
1.0
 40
1.0
 40
1.0
 40
1.0
 10
-0.35243
 20
-8.43081
 30
0.0
 10
-0.35243
 20
-8.43081
 30
0.0
 10
-0.1958
 20
-8.43081
 30
0.0
 10
-0.1958
 20
-8.43081
 30
0.0
 10
-0.1958
 20
-8.43081
 30
0.0
 10
-0.14387
 20
-8.43081
 30
0.0
 10
-0.10718
 20
-8.42122
 30
0.0
 10
-0.08531
 20
-8.40188
 30
0.0
 10
-0.08531
 20
-8.40188
 30
0.0
 10
-0.06358
 20
-8.38255
 30
0.0
 10
-0.05271
 20
-8.35546
 30
0.0
 10
-0.05271
 20
-8.32032
 30
0.0
 10
-0.05271
 20
-8.32032
 30
0.0
 10
-0.05271
 20
-8.29506
 30
0.0
 10
-0.05906
 20
-8.27333
 30
0.0
 10
-0.0719
 20
-8.25527
 30
0.0
 10
-0.0719
 20
-8.25527
 30
0.0
 10
-0.08474
 20
-8.23721
 30
0.0
 10
-0.10168
 20
-8.22521
 30
0.0
 10
-0.12256
 20
-8.21943
 30
0.0
 10
-0.12256
 20
-8.21943
 30
0.0
 10
-0.13611
 20
-8.2159
 30
0.0
 10
-0.16109
 20
-8.21406
 30
0.0
 10
-0.19735
 20
-8.21406
 30
0.0
 10
-0.19735
 20
-8.21406
 30
0.0
 10
-0.19735
 20
-8.21406
 30
0.0
 10
-0.35243
 20
-8.21406
 30
0.0
 10
-0.35243
 20
-8.21406
 30
0.0
 10
-0.35243
 20
-8.21406
 30
0.0
 10
-0.35243
 20
-8.21406
 30
0.0
 10
-0.35243
 20
-8.43081
 30
0.0
 10
-0.35243
 20
-8.43081
 30
0.0
  0
SPLINE
  5
50
330
1F
100
AcDbEntity
  8
Layer 1
 62
   250
100
AcDbSpline
210
0.0
220
0.0
230
1.0
 70
    11
 71
     3
 72
    28
 73
    24
 74
     0
 42
0.0000000001
 43
0.0000000001
 12
1.0
 22
0.0
 32
0.0
 13
1.0
 23
0.0
 33
0.0
 40
0.0
 40
0.0
 40
0.0
 40
0.0
 40
0.1428571428571428
 40
0.1428571428571428
 40
0.1428571428571428
 40
0.1428571428571428
 40
0.2857142857142857
 40
0.2857142857142857
 40
0.2857142857142857
 40
0.2857142857142857
 40
0.4285714285714285
 40
0.4285714285714285
 40
0.4285714285714285
 40
0.4285714285714285
 40
0.5714285714285714
 40
0.5714285714285714
 40
0.5714285714285714
 40
0.5714285714285714
 40
0.7142857142857143
 40
0.7142857142857143
 40
0.7142857142857143
 40
0.7142857142857143
 40
1.0
 40
1.0
 40
1.0
 40
1.0
 10
0.12848
 20
-8.74916
 30
0.0
 10
0.12848
 20
-8.74916
 30
0.0
 10
0.12848
 20
-8.14294
 30
0.0
 10
0.12848
 20
-8.14294
 30
0.0
 10
0.12848
 20
-8.14294
 30
0.0
 10
0.12848
 20
-8.14294
 30
0.0
 10
0.20891
 20
-8.14294
 30
0.0
 10
0.20891
 20
-8.14294
 30
0.0
 10
0.20891
 20
-8.14294
 30
0.0
 10
0.20891
 20
-8.14294
 30
0.0
 10
0.20891
 20
-8.67804
 30
0.0
 10
0.20891
 20
-8.67804
 30
0.0
 10
0.20891
 20
-8.67804
 30
0.0
 10
0.20891
 20
-8.67804
 30
0.0
 10
0.50694
 20
-8.67804
 30
0.0
 10
0.50694
 20
-8.67804
 30
0.0
 10
0.50694
 20
-8.67804
 30
0.0
 10
0.50694
 20
-8.67804
 30
0.0
 10
0.50694
 20
-8.74916
 30
0.0
 10
0.50694
 20
-8.74916
 30
0.0
 10
0.50694
 20
-8.74916
 30
0.0
 10
0.50694
 20
-8.74916
 30
0.0
 10
0.12848
 20
-8.74916
 30
0.0
 10
0.12848
 20
-8.74916
 30
0.0
  0
SPLINE
  5
51
330
1F
100
AcDbEntity
  8
Layer 1
 62
   250
100
AcDbSpline
210
0.0
220
0.0
230
1.0
 70
    11
 71
     3
 72
    36
 73
    32
 74
     0
 42
0.0000000001
 43
0.0000000001
 12
1.0
 22
0.0
 32
0.0
 13
1.0
 23
0.0
 33
0.0
 40
0.0
 40
0.0
 40
0.0
 40
0.0
 40
0.1111111111111111
 40
0.1111111111111111
 40
0.1111111111111111
 40
0.1111111111111111
 40
0.2222222222222222
 40
0.2222222222222222
 40
0.2222222222222222
 40
0.2222222222222222
 40
0.3333333333333333
 40
0.3333333333333333
 40
0.3333333333333333
 40
0.3333333333333333
 40
0.4444444444444444
 40
0.4444444444444444
 40
0.4444444444444444
 40
0.4444444444444444
 40
0.5555555555555556
 40
0.5555555555555556
 40
0.5555555555555556
 40
0.5555555555555556
 40
0.6666666666666666
 40
0.6666666666666666
 40
0.6666666666666666
 40
0.6666666666666666
 40
0.7777777777777778
 40
0.7777777777777778
 40
0.7777777777777778
 40
0.7777777777777778
 40
1.0
 40
1.0
 40
1.0
 40
1.0
 10
0.53629
 20
-8.74916
 30
0.0
 10
0.53629
 20
-8.74916
 30
0.0
 10
0.76884
 20
-8.14294
 30
0.0
 10
0.76884
 20
-8.14294
 30
0.0
 10
0.76884
 20
-8.14294
 30
0.0
 10
0.76884
 20
-8.14294
 30
0.0
 10
0.85704
 20
-8.14294
 30
0.0
 10
0.85704
 20
-8.14294
 30
0.0
 10
0.85704
 20
-8.14294
 30
0.0
 10
0.85704
 20
-8.14294
 30
0.0
 10
1.10384
 20
-8.74916
 30
0.0
 10
1.10384
 20
-8.74916
 30
0.0
 10
1.10384
 20
-8.74916
 30
0.0
 10
1.10384
 20
-8.74916
 30
0.0
 10
1.01254
 20
-8.74916
 30
0.0
 10
1.01254
 20
-8.74916
 30
0.0
 10
1.01254
 20
-8.74916
 30
0.0
 10
1.01254
 20
-8.74916
 30
0.0
 10
0.94241
 20
-8.56543
 30
0.0
 10
0.94241
 20
-8.56543
 30
0.0
 10
0.94241
 20
-8.56543
 30
0.0
 10
0.94241
 20
-8.56543
 30
0.0
 10
0.68714
 20
-8.56543
 30
0.0
 10
0.68714
 20
-8.56543
 30
0.0
 10
0.68714
 20
-8.56543
 30
0.0
 10
0.68714
 20
-8.56543
 30
0.0
 10
0.62138
 20
-8.74916
 30
0.0
 10
0.62138
 20
-8.74916
 30
0.0
 10
0.62138
 20
-8.74916
 30
0.0
 10
0.62138
 20
-8.74916
 30
0.0
 10
0.53629
 20
-8.74916
 30
0.0
 10
0.53629
 20
-8.74916
 30
0.0
  0
SPLINE
  5
52
330
1F
100
AcDbEntity
  8
Layer 1
 62
   250
100
AcDbSpline
210
0.0
220
0.0
230
1.0
 70
    11
 71
     3
 72
    24
 73
    20
 74
     0
 42
0.0000000001
 43
0.0000000001
 12
1.0
 22
0.0
 32
0.0
 13
1.0
 23
0.0
 33
0.0
 40
0.0
 40
0.0
 40
0.0
 40
0.0
 40
0.1666666666666667
 40
0.1666666666666667
 40
0.1666666666666667
 40
0.1666666666666667
 40
0.3333333333333333
 40
0.3333333333333333
 40
0.3333333333333333
 40
0.3333333333333333
 40
0.5
 40
0.5
 40
0.5
 40
0.5
 40
0.6666666666666666
 40
0.6666666666666666
 40
0.6666666666666666
 40
0.6666666666666666
 40
1.0
 40
1.0
 40
1.0
 40
1.0
 10
0.7107
 20
-8.50024
 30
0.0
 10
0.7107
 20
-8.50024
 30
0.0
 10
0.91729
 20
-8.50024
 30
0.0
 10
0.91729
 20
-8.50024
 30
0.0
 10
0.91729
 20
-8.50024
 30
0.0
 10
0.91729
 20
-8.50024
 30
0.0
 10
0.85407
 20
-8.33218
 30
0.0
 10
0.85407
 20
-8.33218
 30
0.0
 10
0.85407
 20
-8.33218
 30
0.0
 10
0.83502
 20
-8.28109
 30
0.0
 10
0.82063
 20
-8.2389
 30
0.0
 10
0.81061
 20
-8.2056
 30
0.0
 10
0.81061
 20
-8.2056
 30
0.0
 10
0.80229
 20
-8.24511
 30
0.0
 10
0.79114
 20
-8.28391
 30
0.0
 10
0.77717
 20
-8.3223
 30
0.0
 10
0.77717
 20
-8.3223
 30
0.0
 10
0.77717
 20
-8.3223
 30
0.0
 10
0.7107
 20
-8.50024
 30
0.0
 10
0.7107
 20
-8.50024
 30
0.0
  0
SPLINE
  5
53
330
1F
100
AcDbEntity
  8
Layer 1
 62
   250
100
AcDbSpline
210
0.0
220
0.0
230
1.0
 70
    11
 71
     3
 72
    36
 73
    32
 74
     0
 42
0.0000000001
 43
0.0000000001
 12
1.0
 22
0.0
 32
0.0
 13
1.0
 23
0.0
 33
0.0
 40
0.0
 40
0.0
 40
0.0
 40
0.0
 40
0.1111111111111111
 40
0.1111111111111111
 40
0.1111111111111111
 40
0.1111111111111111
 40
0.2222222222222222
 40
0.2222222222222222
 40
0.2222222222222222
 40
0.2222222222222222
 40
0.3333333333333333
 40
0.3333333333333333
 40
0.3333333333333333
 40
0.3333333333333333
 40
0.4444444444444444
 40
0.4444444444444444
 40
0.4444444444444444
 40
0.4444444444444444
 40
0.5555555555555556
 40
0.5555555555555556
 40
0.5555555555555556
 40
0.5555555555555556
 40
0.6666666666666666
 40
0.6666666666666666
 40
0.6666666666666666
 40
0.6666666666666666
 40
0.7777777777777778
 40
0.7777777777777778
 40
0.7777777777777778
 40
0.7777777777777778
 40
1.0
 40
1.0
 40
1.0
 40
1.0
 10
1.25879
 20
-8.74916
 30
0.0
 10
1.25879
 20
-8.74916
 30
0.0
 10
1.25879
 20
-8.21406
 30
0.0
 10
1.25879
 20
-8.21406
 30
0.0
 10
1.25879
 20
-8.21406
 30
0.0
 10
1.25879
 20
-8.21406
 30
0.0
 10
1.05897
 20
-8.21406
 30
0.0
 10
1.05897
 20
-8.21406
 30
0.0
 10
1.05897
 20
-8.21406
 30
0.0
 10
1.05897
 20
-8.21406
 30
0.0
 10
1.05897
 20
-8.14294
 30
0.0
 10
1.05897
 20
-8.14294
 30
0.0
 10
1.05897
 20
-8.14294
 30
0.0
 10
1.05897
 20
-8.14294
 30
0.0
 10
1.53904
 20
-8.14294
 30
0.0
 10
1.53904
 20
-8.14294
 30
0.0
 10
1.53904
 20
-8.14294
 30
0.0
 10
1.53904
 20
-8.14294
 30
0.0
 10
1.53904
 20
-8.21406
 30
0.0
 10
1.53904
 20
-8.21406
 30
0.0
 10
1.53904
 20
-8.21406
 30
0.0
 10
1.53904
 20
-8.21406
 30
0.0
 10
1.33922
 20
-8.21406
 30
0.0
 10
1.33922
 20
-8.21406
 30
0.0
 10
1.33922
 20
-8.21406
 30
0.0
 10
1.33922
 20
-8.21406
 30
0.0
 10
1.33922
 20
-8.74916
 30
0.0
 10
1.33922
 20
-8.74916
 30
0.0
 10
1.33922
 20
-8.74916
 30
0.0
 10
1.33922
 20
-8.74916
 30
0.0
 10
1.25879
 20
-8.74916
 30
0.0
 10
1.25879
 20
-8.74916
 30
0.0
  0
SPLINE
  5
54
330
1F
100
AcDbEntity
  8
Layer 1
 62
   250
100
AcDbSpline
210
0.0
220
0.0
230
1.0
 70
    11
 71
     3
 72
    52
 73
    48
 74
     0
 42
0.0000000001
 43
0.0000000001
 12
1.0
 22
0.0
 32
0.0
 13
1.0
 23
0.0
 33
0.0
 40
0.0
 40
0.0
 40
0.0
 40
0.0
 40
0.0769230769230769
 40
0.0769230769230769
 40
0.0769230769230769
 40
0.0769230769230769
 40
0.1538461538461539
 40
0.1538461538461539
 40
0.1538461538461539
 40
0.1538461538461539
 40
0.2307692307692308
 40
0.2307692307692308
 40
0.2307692307692308
 40
0.2307692307692308
 40
0.3076923076923077
 40
0.3076923076923077
 40
0.3076923076923077
 40
0.3076923076923077
 40
0.3846153846153846
 40
0.3846153846153846
 40
0.3846153846153846
 40
0.3846153846153846
 40
0.4615384615384616
 40
0.4615384615384616
 40
0.4615384615384616
 40
0.4615384615384616
 40
0.5384615384615384
 40
0.5384615384615384
 40
0.5384615384615384
 40
0.5384615384615384
 40
0.6153846153846154
 40
0.6153846153846154
 40
0.6153846153846154
 40
0.6153846153846154
 40
0.6923076923076923
 40
0.6923076923076923
 40
0.6923076923076923
 40
0.6923076923076923
 40
0.7692307692307693
 40
0.7692307692307693
 40
0.7692307692307693
 40
0.7692307692307693
 40
0.8461538461538461
 40
0.8461538461538461
 40
0.8461538461538461
 40
0.8461538461538461
 40
1.0
 40
1.0
 40
1.0
 40
1.0
 10
1.62356
 20
-8.74916
 30
0.0
 10
1.62356
 20
-8.74916
 30
0.0
 10
1.62356
 20
-8.14294
 30
0.0
 10
1.62356
 20
-8.14294
 30
0.0
 10
1.62356
 20
-8.14294
 30
0.0
 10
1.62356
 20
-8.14294
 30
0.0
 10
2.06129
 20
-8.14294
 30
0.0
 10
2.06129
 20
-8.14294
 30
0.0
 10
2.06129
 20
-8.14294
 30
0.0
 10
2.06129
 20
-8.14294
 30
0.0
 10
2.06129
 20
-8.21406
 30
0.0
 10
2.06129
 20
-8.21406
 30
0.0
 10
2.06129
 20
-8.21406
 30
0.0
 10
2.06129
 20
-8.21406
 30
0.0
 10
1.70399
 20
-8.21406
 30
0.0
 10
1.70399
 20
-8.21406
 30
0.0
 10
1.70399
 20
-8.21406
 30
0.0
 10
1.70399
 20
-8.21406
 30
0.0
 10
1.70399
 20
-8.40033
 30
0.0
 10
1.70399
 20
-8.40033
 30
0.0
 10
1.70399
 20
-8.40033
 30
0.0
 10
1.70399
 20
-8.40033
 30
0.0
 10
2.03843
 20
-8.40033
 30
0.0
 10
2.03843
 20
-8.40033
 30
0.0
 10
2.03843
 20
-8.40033
 30
0.0
 10
2.03843
 20
-8.40033
 30
0.0
 10
2.03843
 20
-8.47145
 30
0.0
 10
2.03843
 20
-8.47145
 30
0.0
 10
2.03843
 20
-8.47145
 30
0.0
 10
2.03843
 20
-8.47145
 30
0.0
 10
1.70399
 20
-8.47145
 30
0.0
 10
1.70399
 20
-8.47145
 30
0.0
 10
1.70399
 20
-8.47145
 30
0.0
 10
1.70399
 20
-8.47145
 30
0.0
 10
1.70399
 20
-8.67804
 30
0.0
 10
1.70399
 20
-8.67804
 30
0.0
 10
1.70399
 20
-8.67804
 30
0.0
 10
1.70399
 20
-8.67804
 30
0.0
 10
2.07568
 20
-8.67804
 30
0.0
 10
2.07568
 20
-8.67804
 30
0.0
 10
2.07568
 20
-8.67804
 30
0.0
 10
2.07568
 20
-8.67804
 30
0.0
 10
2.07568
 20
-8.74916
 30
0.0
 10
2.07568
 20
-8.74916
 30
0.0
 10
2.07568
 20
-8.74916
 30
0.0
 10
2.07568
 20
-8.74916
 30
0.0
 10
1.62356
 20
-8.74916
 30
0.0
 10
1.62356
 20
-8.74916
 30
0.0
  0
SPLINE
  5
55
330
1F
100
AcDbEntity
  8
Layer 1
 62
     3
370
     9
100
AcDbSpline
210
0.0
220
0.0
230
1.0
 70
     8
 71
     3
 72
    32
 73
    28
 74
     0
 42
0.0000000001
 43
0.0000000001
 12
1.0
 22
0.0
 32
0.0
 13
1.0
 23
0.0
 33
0.0
 40
0.0
 40
0.0
 40
0.0
 40
0.0
 40
0.125
 40
0.125
 40
0.125
 40
0.125
 40
0.25
 40
0.25
 40
0.25
 40
0.25
 40
0.375
 40
0.375
 40
0.375
 40
0.375
 40
0.5
 40
0.5
 40
0.5
 40
0.5
 40
0.625
 40
0.625
 40
0.625
 40
0.625
 40
0.75
 40
0.75
 40
0.75
 40
0.75
 40
1.0
 40
1.0
 40
1.0
 40
1.0
 10
-4.78472
 20
5.20345
 30
0.0
 10
-4.78472
 20
5.20345
 30
0.0
 10
10.67852
 20
5.20345
 30
0.0
 10
10.67852
 20
5.20345
 30
0.0
 10
10.67852
 20
5.20345
 30
0.0
 10
10.78755
 20
5.20351
 30
0.0
 10
10.89214
 20
5.16027
 30
0.0
 10
10.96928
 20
5.08322
 30
0.0
 10
10.96928
 20
5.08322
 30
0.0
 10
11.04643
 20
5.00618
 30
0.0
 10
11.0898
 20
4.90112
 30
0.0
 10
11.08987
 20
4.79209
 30
0.0
 10
11.08987
 20
4.79209
 30
0.0
 10
11.08987
 20
4.79209
 30
0.0
 10
11.08987
 20
-5.53019
 30
0.0
 10
11.08987
 20
-5.53019
 30
0.0
 10
11.08987
 20
-5.53019
 30
0.0
 10
11.08994
 20
-5.63922
 30
0.0
 10
11.04669
 20
-5.74381
 30
0.0
 10
10.96965
 20
-5.82095
 30
0.0
 10
10.96965
 20
-5.82095
 30
0.0
 10
10.8926
 20
-5.8981
 30
0.0
 10
10.78755
 20
-5.94147
 30
0.0
 10
10.67852
 20
-5.94154
 30
0.0
 10
10.67852
 20
-5.94154
 30
0.0
 10
10.67852
 20
-5.94154
 30
0.0
 10
-4.40795
 20
-5.94154
 30
0.0
 10
-4.40795
 20
-5.94154
 30
0.0
  0
SPLINE
  5
56
330
1F
100
AcDbEntity
  8
Layer 1
 62
     3
370
     9
100
AcDbSpline
210
0.0
220
0.0
230
1.0
 70
     8
 71
     3
 72
    32
 73
    28
 74
     0
 42
0.0000000001
 43
0.0000000001
 12
1.0
 22
0.0
 32
0.0
 13
1.0
 23
0.0
 33
0.0
 40
0.0
 40
0.0
 40
0.0
 40
0.0
 40
0.125
 40
0.125
 40
0.125
 40
0.125
 40
0.25
 40
0.25
 40
0.25
 40
0.25
 40
0.375
 40
0.375
 40
0.375
 40
0.375
 40
0.5
 40
0.5
 40
0.5
 40
0.5
 40
0.625
 40
0.625
 40
0.625
 40
0.625
 40
0.75
 40
0.75
 40
0.75
 40
0.75
 40
1.0
 40
1.0
 40
1.0
 40
1.0
 10
-4.72706
 20
5.20345
 30
0.0
 10
-4.72706
 20
5.20345
 30
0.0
 10
-10.09219
 20
5.20345
 30
0.0
 10
-10.09219
 20
5.20345
 30
0.0
 10
-10.09219
 20
5.20345
 30
0.0
 10
-10.20136
 20
5.20338
 30
0.0
 10
-10.30602
 20
5.15994
 30
0.0
 10
-10.38317
 20
5.0827
 30
0.0
 10
-10.38317
 20
5.0827
 30
0.0
 10
-10.46031
 20
5.00546
 30
0.0
 10
-10.50361
 20
4.90126
 30
0.0
 10
-10.50354
 20
4.79209
 30
0.0
 10
-10.50354
 20
4.79209
 30
0.0
 10
-10.50354
 20
4.79209
 30
0.0
 10
-10.50354
 20
-5.53019
 30
0.0
 10
-10.50354
 20
-5.53019
 30
0.0
 10
-10.50354
 20
-5.53019
 30
0.0
 10
-10.50347
 20
-5.63936
 30
0.0
 10
-10.46004
 20
-5.74402
 30
0.0
 10
-10.3828
 20
-5.82117
 30
0.0
 10
-10.3828
 20
-5.82117
 30
0.0
 10
-10.30556
 20
-5.89831
 30
0.0
 10
-10.20136
 20
-5.94161
 30
0.0
 10
-10.09219
 20
-5.94154
 30
0.0
 10
-10.09219
 20
-5.94154
 30
0.0
 10
-10.09219
 20
-5.94154
 30
0.0
 10
-4.40795
 20
-5.94154
 30
0.0
 10
-4.40795
 20
-5.94154
 30
0.0
  0
SPLINE
  5
58
330
1F
100
AcDbEntity
  8
layer 2
 62
     1
370
     0
100
AcDbSpline
210
0.0
220
0.0
230
1.0
 70
    24
 71
     3
 72
     8
 73
     4
 74
     0
 42
0.0000000001
 43
0.0000000001
 12
1.0
 22
0.0
 32
0.0
 13
1.0
 23
0.0
 33
0.0
 40
0.0
 40
0.0
 40
0.0
 40
0.0
 40
1.0
 40
1.0
 40
1.0
 40
1.0
 10
-10.50354
 20
4.92921
 30
0.0
 10
-10.50354
 20
4.92921
 30
0.0
 10
-10.50354
 20
6.37208
 30
0.0
 10
-10.50354
 20
6.37208
 30
0.0
  0
SPLINE
  5
59
330
1F
100
AcDbEntity
  8
layer 2
 62
     1
370
     0
100
AcDbSpline
210
0.0
220
0.0
230
1.0
 70
    24
 71
     3
 72
     8
 73
     4
 74
     0
 42
0.0000000001
 43
0.0000000001
 12
1.0
 22
0.0
 32
0.0
 13
1.0
 23
0.0
 33
0.0
 40
0.0
 40
0.0
 40
0.0
 40
0.0
 40
1.0
 40
1.0
 40
1.0
 40
1.0
 10
11.08987
 20
4.92921
 30
0.0
 10
11.08987
 20
4.92921
 30
0.0
 10
11.08987
 20
6.37208
 30
0.0
 10
11.08987
 20
6.37208
 30
0.0
  0
SPLINE
  5
5A
330
1F
100
AcDbEntity
  8
layer 2
 62
     1
370
     0
100
AcDbSpline
210
0.0
220
0.0
230
1.0
 70
    24
 71
     3
 72
     8
 73
     4
 74
     0
 42
0.0000000001
 43
0.0000000001
 12
1.0
 22
0.0
 32
0.0
 13
1.0
 23
0.0
 33
0.0
 40
0.0
 40
0.0
 40
0.0
 40
0.0
 40
1.0
 40
1.0
 40
1.0
 40
1.0
 10
-9.95507
 20
6.09784
 30
0.0
 10
-9.95507
 20
6.09784
 30
0.0
 10
10.5414
 20
6.09784
 30
0.0
 10
10.5414
 20
6.09784
 30
0.0
  0
SPLINE
  5
5B
330
1F
100
AcDbEntity
  8
layer 2
 62
     1
100
AcDbSpline
210
0.0
220
0.0
230
1.0
 70
    27
 71
     3
 72
    12
 73
     8
 74
     0
 42
0.0000000001
 43
0.0000000001
 12
1.0
 22
0.0
 32
0.0
 13
1.0
 23
0.0
 33
0.0
 40
0.0
 40
0.0
 40
0.0
 40
0.0
 40
0.3333333333333333
 40
0.3333333333333333
 40
0.3333333333333333
 40
0.3333333333333333
 40
1.0
 40
1.0
 40
1.0
 40
1.0
 10
-9.95507
 20
6.18925
 30
0.0
 10
-9.95507
 20
6.18925
 30
0.0
 10
-10.50354
 20
6.09784
 30
0.0
 10
-10.50354
 20
6.09784
 30
0.0
 10
-10.50354
 20
6.09784
 30
0.0
 10
-10.50354
 20
6.09784
 30
0.0
 10
-9.95507
 20
6.18925
 30
0.0
 10
-9.95507
 20
6.18925
 30
0.0
  0
SPLINE
  5
5C
330
1F
100
AcDbEntity
  8
layer 2
 62
     1
100
AcDbSpline
210
0.0
220
0.0
230
1.0
 70
     8
 71
     3
 72
    12
 73
     8
 74
     0
 42
0.0000000001
 43
0.0000000001
 12
1.0
 22
0.0
 32
0.0
 13
1.0
 23
0.0
 33
0.0
 40
0.0
 40
0.0
 40
0.0
 40
0.0
 40
0.3333333333333333
 40
0.3333333333333333
 40
0.3333333333333333
 40
0.3333333333333333
 40
1.0
 40
1.0
 40
1.0
 40
1.0
 10
-10.50354
 20
6.09784
 30
0.0
 10
-10.50354
 20
6.09784
 30
0.0
 10
-9.95507
 20
6.00643
 30
0.0
 10
-9.95507
 20
6.00643
 30
0.0
 10
-9.95507
 20
6.00643
 30
0.0
 10
-9.95507
 20
6.00643
 30
0.0
 10
-9.95507
 20
6.18925
 30
0.0
 10
-9.95507
 20
6.18925
 30
0.0
  0
SPLINE
  5
5D
330
1F
100
AcDbEntity
  8
layer 2
 62
     1
370
     9
100
AcDbSpline
210
0.0
220
0.0
230
1.0
 70
    24
 71
     3
 72
     8
 73
     4
 74
     0
 42
0.0000000001
 43
0.0000000001
 12
1.0
 22
0.0
 32
0.0
 13
1.0
 23
0.0
 33
0.0
 40
0.0
 40
0.0
 40
0.0
 40
0.0
 40
1.0
 40
1.0
 40
1.0
 40
1.0
 10
-9.95507
 20
6.18925
 30
0.0
 10
-9.95507
 20
6.18925
 30
0.0
 10
-10.50354
 20
6.09784
 30
0.0
 10
-10.50354
 20
6.09784
 30
0.0
  0
SPLINE
  5
5E
330
1F
100
AcDbEntity
  8
layer 2
 62
     1
370
     9
100
AcDbSpline
210
0.0
220
0.0
230
1.0
 70
     8
 71
     3
 72
    12
 73
     8
 74
     0
 42
0.0000000001
 43
0.0000000001
 12
1.0
 22
0.0
 32
0.0
 13
1.0
 23
0.0
 33
0.0
 40
0.0
 40
0.0
 40
0.0
 40
0.0
 40
0.3333333333333333
 40
0.3333333333333333
 40
0.3333333333333333
 40
0.3333333333333333
 40
1.0
 40
1.0
 40
1.0
 40
1.0
 10
-10.50354
 20
6.09784
 30
0.0
 10
-10.50354
 20
6.09784
 30
0.0
 10
-9.95507
 20
6.00643
 30
0.0
 10
-9.95507
 20
6.00643
 30
0.0
 10
-9.95507
 20
6.00643
 30
0.0
 10
-9.95507
 20
6.00643
 30
0.0
 10
-9.95507
 20
6.18925
 30
0.0
 10
-9.95507
 20
6.18925
 30
0.0
  0
SPLINE
  5
5F
330
1F
100
AcDbEntity
  8
layer 2
 62
     1
100
AcDbSpline
210
0.0
220
0.0
230
1.0
 70
    27
 71
     3
 72
    12
 73
     8
 74
     0
 42
0.0000000001
 43
0.0000000001
 12
1.0
 22
0.0
 32
0.0
 13
1.0
 23
0.0
 33
0.0
 40
0.0
 40
0.0
 40
0.0
 40
0.0
 40
0.3333333333333333
 40
0.3333333333333333
 40
0.3333333333333333
 40
0.3333333333333333
 40
1.0
 40
1.0
 40
1.0
 40
1.0
 10
10.5414
 20
6.18925
 30
0.0
 10
10.5414
 20
6.18925
 30
0.0
 10
11.08987
 20
6.09784
 30
0.0
 10
11.08987
 20
6.09784
 30
0.0
 10
11.08987
 20
6.09784
 30
0.0
 10
11.08987
 20
6.09784
 30
0.0
 10
10.5414
 20
6.18925
 30
0.0
 10
10.5414
 20
6.18925
 30
0.0
  0
SPLINE
  5
60
330
1F
100
AcDbEntity
  8
layer 2
 62
     1
100
AcDbSpline
210
0.0
220
0.0
230
1.0
 70
     8
 71
     3
 72
    12
 73
     8
 74
     0
 42
0.0000000001
 43
0.0000000001
 12
1.0
 22
0.0
 32
0.0
 13
1.0
 23
0.0
 33
0.0
 40
0.0
 40
0.0
 40
0.0
 40
0.0
 40
0.3333333333333333
 40
0.3333333333333333
 40
0.3333333333333333
 40
0.3333333333333333
 40
1.0
 40
1.0
 40
1.0
 40
1.0
 10
11.08987
 20
6.09784
 30
0.0
 10
11.08987
 20
6.09784
 30
0.0
 10
10.5414
 20
6.00643
 30
0.0
 10
10.5414
 20
6.00643
 30
0.0
 10
10.5414
 20
6.00643
 30
0.0
 10
10.5414
 20
6.00643
 30
0.0
 10
10.5414
 20
6.18925
 30
0.0
 10
10.5414
 20
6.18925
 30
0.0
  0
SPLINE
  5
61
330
1F
100
AcDbEntity
  8
layer 2
 62
     1
370
     9
100
AcDbSpline
210
0.0
220
0.0
230
1.0
 70
    24
 71
     3
 72
     8
 73
     4
 74
     0
 42
0.0000000001
 43
0.0000000001
 12
1.0
 22
0.0
 32
0.0
 13
1.0
 23
0.0
 33
0.0
 40
0.0
 40
0.0
 40
0.0
 40
0.0
 40
1.0
 40
1.0
 40
1.0
 40
1.0
 10
10.5414
 20
6.18925
 30
0.0
 10
10.5414
 20
6.18925
 30
0.0
 10
11.08987
 20
6.09784
 30
0.0
 10
11.08987
 20
6.09784
 30
0.0
  0
SPLINE
  5
62
330
1F
100
AcDbEntity
  8
layer 2
 62
     1
370
     9
100
AcDbSpline
210
0.0
220
0.0
230
1.0
 70
     8
 71
     3
 72
    12
 73
     8
 74
     0
 42
0.0000000001
 43
0.0000000001
 12
1.0
 22
0.0
 32
0.0
 13
1.0
 23
0.0
 33
0.0
 40
0.0
 40
0.0
 40
0.0
 40
0.0
 40
0.3333333333333333
 40
0.3333333333333333
 40
0.3333333333333333
 40
0.3333333333333333
 40
1.0
 40
1.0
 40
1.0
 40
1.0
 10
11.08987
 20
6.09784
 30
0.0
 10
11.08987
 20
6.09784
 30
0.0
 10
10.5414
 20
6.00643
 30
0.0
 10
10.5414
 20
6.00643
 30
0.0
 10
10.5414
 20
6.00643
 30
0.0
 10
10.5414
 20
6.00643
 30
0.0
 10
10.5414
 20
6.18925
 30
0.0
 10
10.5414
 20
6.18925
 30
0.0
  0
SPLINE
  5
63
330
1F
100
AcDbEntity
  8
layer 2
 62
     1
100
AcDbSpline
210
0.0
220
0.0
230
1.0
 70
    11
 71
     3
 72
   124
 73
   120
 74
     0
 42
0.0000000001
 43
0.0000000001
 12
1.0
 22
0.0
 32
0.0
 13
1.0
 23
0.0
 33
0.0
 40
0.0
 40
0.0
 40
0.0
 40
0.0
 40
0.032258064516129
 40
0.032258064516129
 40
0.032258064516129
 40
0.032258064516129
 40
0.0645161290322581
 40
0.0645161290322581
 40
0.0645161290322581
 40
0.0645161290322581
 40
0.0967741935483871
 40
0.0967741935483871
 40
0.0967741935483871
 40
0.0967741935483871
 40
0.1290322580645161
 40
0.1290322580645161
 40
0.1290322580645161
 40
0.1290322580645161
 40
0.1612903225806452
 40
0.1612903225806452
 40
0.1612903225806452
 40
0.1612903225806452
 40
0.1935483870967742
 40
0.1935483870967742
 40
0.1935483870967742
 40
0.1935483870967742
 40
0.2258064516129032
 40
0.2258064516129032
 40
0.2258064516129032
 40
0.2258064516129032
 40
0.2580645161290323
 40
0.2580645161290323
 40
0.2580645161290323
 40
0.2580645161290323
 40
0.2903225806451613
 40
0.2903225806451613
 40
0.2903225806451613
 40
0.2903225806451613
 40
0.3225806451612903
 40
0.3225806451612903
 40
0.3225806451612903
 40
0.3225806451612903
 40
0.3548387096774194
 40
0.3548387096774194
 40
0.3548387096774194
 40
0.3548387096774194
 40
0.3870967741935484
 40
0.3870967741935484
 40
0.3870967741935484
 40
0.3870967741935484
 40
0.4193548387096774
 40
0.4193548387096774
 40
0.4193548387096774
 40
0.4193548387096774
 40
0.4516129032258064
 40
0.4516129032258064
 40
0.4516129032258064
 40
0.4516129032258064
 40
0.4838709677419355
 40
0.4838709677419355
 40
0.4838709677419355
 40
0.4838709677419355
 40
0.5161290322580645
 40
0.5161290322580645
 40
0.5161290322580645
 40
0.5161290322580645
 40
0.5483870967741935
 40
0.5483870967741935
 40
0.5483870967741935
 40
0.5483870967741935
 40
0.5806451612903226
 40
0.5806451612903226
 40
0.5806451612903226
 40
0.5806451612903226
 40
0.6129032258064516
 40
0.6129032258064516
 40
0.6129032258064516
 40
0.6129032258064516
 40
0.6451612903225806
 40
0.6451612903225806
 40
0.6451612903225806
 40
0.6451612903225806
 40
0.6774193548387096
 40
0.6774193548387096
 40
0.6774193548387096
 40
0.6774193548387096
 40
0.7096774193548387
 40
0.7096774193548387
 40
0.7096774193548387
 40
0.7096774193548387
 40
0.7419354838709677
 40
0.7419354838709677
 40
0.7419354838709677
 40
0.7419354838709677
 40
0.7741935483870968
 40
0.7741935483870968
 40
0.7741935483870968
 40
0.7741935483870968
 40
0.8064516129032258
 40
0.8064516129032258
 40
0.8064516129032258
 40
0.8064516129032258
 40
0.8387096774193549
 40
0.8387096774193549
 40
0.8387096774193549
 40
0.8387096774193549
 40
0.8709677419354839
 40
0.8709677419354839
 40
0.8709677419354839
 40
0.8709677419354839
 40
0.9032258064516129
 40
0.9032258064516129
 40
0.9032258064516129
 40
0.9032258064516129
 40
0.9354838709677419
 40
0.9354838709677419
 40
0.9354838709677419
 40
0.9354838709677419
 40
1.0
 40
1.0
 40
1.0
 40
1.0
 10
-0.05585
 20
6.42818
 30
0.0
 10
-0.05585
 20
6.42818
 30
0.0
 10
-0.01145
 20
6.43424
 30
0.0
 10
-0.01145
 20
6.43424
 30
0.0
 10
-0.01145
 20
6.43424
 30
0.0
 10
-0.00632
 20
6.40901
 30
0.0
 10
0.00226
 20
6.39084
 30
0.0
 10
0.01446
 20
6.37974
 30
0.0
 10
0.01446
 20
6.37974
 30
0.0
 10
0.02665
 20
6.36864
 30
0.0
 10
0.04162
 20
6.36309
 30
0.0
 10
0.05936
 20
6.36309
 30
0.0
 10
0.05936
 20
6.36309
 30
0.0
 10
0.08039
 20
6.36309
 30
0.0
 10
0.09814
 20
6.37032
 30
0.0
 10
0.11243
 20
6.38479
 30
0.0
 10
0.11243
 20
6.38479
 30
0.0
 10
0.12673
 20
6.39925
 30
0.0
 10
0.13388
 20
6.41717
 30
0.0
 10
0.13388
 20
6.43853
 30
0.0
 10
0.13388
 20
6.43853
 30
0.0
 10
0.13388
 20
6.45888
 30
0.0
 10
0.12723
 20
6.4757
 30
0.0
 10
0.11386
 20
6.48899
 30
0.0
 10
0.11386
 20
6.48899
 30
0.0
 10
0.10057
 20
6.50219
 30
0.0
 10
0.08367
 20
6.50883
 30
0.0
 10
0.06307
 20
6.50883
 30
0.0
 10
0.06307
 20
6.50883
 30
0.0
 10
0.05466
 20
6.50883
 30
0.0
 10
0.04423
 20
6.50715
 30
0.0
 10
0.0317
 20
6.50387
 30
0.0
 10
0.0317
 20
6.50387
 30
0.0
 10
0.0317
 20
6.50387
 30
0.0
 10
0.03666
 20
6.54273
 30
0.0
 10
0.03666
 20
6.54273
 30
0.0
 10
0.03666
 20
6.54273
 30
0.0
 10
0.0396
 20
6.54239
 30
0.0
 10
0.04204
 20
6.54222
 30
0.0
 10
0.04381
 20
6.54222
 30
0.0
 10
0.04381
 20
6.54222
 30
0.0
 10
0.06281
 20
6.54222
 30
0.0
 10
0.0798
 20
6.54718
 30
0.0
 10
0.09502
 20
6.55702
 30
0.0
 10
0.09502
 20
6.55702
 30
0.0
 10
0.11016
 20
6.56686
 30
0.0
 10
0.11773
 20
6.582
 30
0.0
 10
0.11773
 20
6.60244
 30
0.0
 10
0.11773
 20
6.60244
 30
0.0
 10
0.11773
 20
6.61867
 30
0.0
 10
0.11218
 20
6.63212
 30
0.0
 10
0.10116
 20
6.6428
 30
0.0
 10
0.10116
 20
6.6428
 30
0.0
 10
0.09014
 20
6.65348
 30
0.0
 10
0.07593
 20
6.65878
 30
0.0
 10
0.05853
 20
6.65878
 30
0.0
 10
0.05853
 20
6.65878
 30
0.0
 10
0.0412
 20
6.65878
 30
0.0
 10
0.02682
 20
6.65332
 30
0.0
 10
0.0153
 20
6.64238
 30
0.0
 10
0.0153
 20
6.64238
 30
0.0
 10
0.00378
 20
6.63145
 30
0.0
 10
-0.00363
 20
6.61505
 30
0.0
 10
-0.00691
 20
6.59319
 30
0.0
 10
-0.00691
 20
6.59319
 30
0.0
 10
-0.00691
 20
6.59319
 30
0.0
 10
-0.05131
 20
6.60126
 30
0.0
 10
-0.05131
 20
6.60126
 30
0.0
 10
-0.05131
 20
6.60126
 30
0.0
 10
-0.04584
 20
6.63103
 30
0.0
 10
-0.03356
 20
6.65416
 30
0.0
 10
-0.01431
 20
6.67056
 30
0.0
 10
-0.01431
 20
6.67056
 30
0.0
 10
0.00487
 20
6.68696
 30
0.0
 10
0.02884
 20
6.69511
 30
0.0
 10
0.05743
 20
6.69511
 30
0.0
 10
0.05743
 20
6.69511
 30
0.0
 10
0.07711
 20
6.69511
 30
0.0
 10
0.09528
 20
6.69091
 30
0.0
 10
0.11184
 20
6.68241
 30
0.0
 10
0.11184
 20
6.68241
 30
0.0
 10
0.12849
 20
6.67401
 30
0.0
 10
0.14119
 20
6.66248
 30
0.0
 10
0.14994
 20
6.64793
 30
0.0
 10
0.14994
 20
6.64793
 30
0.0
 10
0.15877
 20
6.6333
 30
0.0
 10
0.16314
 20
6.61783
 30
0.0
 10
0.16314
 20
6.60143
 30
0.0
 10
0.16314
 20
6.60143
 30
0.0
 10
0.16314
 20
6.58587
 30
0.0
 10
0.15894
 20
6.57174
 30
0.0
 10
0.15061
 20
6.55896
 30
0.0
 10
0.15061
 20
6.55896
 30
0.0
 10
0.1422
 20
6.54617
 30
0.0
 10
0.12976
 20
6.536
 30
0.0
 10
0.11336
 20
6.52843
 30
0.0
 10
0.11336
 20
6.52843
 30
0.0
 10
0.13472
 20
6.52355
 30
0.0
 10
0.15129
 20
6.51329
 30
0.0
 10
0.16314
 20
6.49773
 30
0.0
 10
0.16314
 20
6.49773
 30
0.0
 10
0.17492
 20
6.48226
 30
0.0
 10
0.1808
 20
6.46275
 30
0.0
 10
0.1808
 20
6.43945
 30
0.0
 10
0.1808
 20
6.43945
 30
0.0
 10
0.1808
 20
6.40791
 30
0.0
 10
0.16928
 20
6.38109
 30
0.0
 10
0.14632
 20
6.35914
 30
0.0
 10
0.14632
 20
6.35914
 30
0.0
 10
0.12328
 20
6.33719
 30
0.0
 10
0.09418
 20
6.32625
 30
0.0
 10
0.05903
 20
6.32625
 30
0.0
 10
0.05903
 20
6.32625
 30
0.0
 10
0.02732
 20
6.32625
 30
0.0
 10
0.001
 20
6.33576
 30
0.0
 10
-0.01994
 20
6.35468
 30
0.0
 10
-0.01994
 20
6.35468
 30
0.0
 10
-0.04097
 20
6.3736
 30
0.0
 10
-0.05291
 20
6.39807
 30
0.0
 10
-0.05585
 20
6.42818
 30
0.0
  0
SPLINE
  5
64
330
1F
100
AcDbEntity
  8
layer 2
 62
     1
100
AcDbSpline
210
0.0
220
0.0
230
1.0
 70
    11
 71
     3
 72
    40
 73
    36
 74
     0
 42
0.0000000001
 43
0.0000000001
 12
1.0
 22
0.0
 32
0.0
 13
1.0
 23
0.0
 33
0.0
 40
0.0
 40
0.0
 40
0.0
 40
0.0
 40
0.1
 40
0.1
 40
0.1
 40
0.1
 40
0.2
 40
0.2
 40
0.2
 40
0.2
 40
0.3
 40
0.3
 40
0.3
 40
0.3
 40
0.4
 40
0.4
 40
0.4
 40
0.4
 40
0.5
 40
0.5
 40
0.5
 40
0.5
 40
0.6
 40
0.6
 40
0.6
 40
0.6
 40
0.7
 40
0.7
 40
0.7
 40
0.7
 40
0.8
 40
0.8
 40
0.8
 40
0.8
 40
1.0
 40
1.0
 40
1.0
 40
1.0
 10
0.39131
 20
6.33231
 30
0.0
 10
0.39131
 20
6.33231
 30
0.0
 10
0.3469
 20
6.33231
 30
0.0
 10
0.3469
 20
6.33231
 30
0.0
 10
0.3469
 20
6.33231
 30
0.0
 10
0.3469
 20
6.33231
 30
0.0
 10
0.3469
 20
6.61505
 30
0.0
 10
0.3469
 20
6.61505
 30
0.0
 10
0.3469
 20
6.61505
 30
0.0
 10
0.33622
 20
6.60479
 30
0.0
 10
0.32218
 20
6.59461
 30
0.0
 10
0.30485
 20
6.58444
 30
0.0
 10
0.30485
 20
6.58444
 30
0.0
 10
0.28753
 20
6.57426
 30
0.0
 10
0.27188
 20
6.56661
 30
0.0
 10
0.25809
 20
6.56156
 30
0.0
 10
0.25809
 20
6.56156
 30
0.0
 10
0.25809
 20
6.56156
 30
0.0
 10
0.25809
 20
6.60445
 30
0.0
 10
0.25809
 20
6.60445
 30
0.0
 10
0.25809
 20
6.60445
 30
0.0
 10
0.2829
 20
6.61606
 30
0.0
 10
0.3046
 20
6.63019
 30
0.0
 10
0.32319
 20
6.64684
 30
0.0
 10
0.32319
 20
6.64684
 30
0.0
 10
0.34177
 20
6.66341
 30
0.0
 10
0.35498
 20
6.67947
 30
0.0
 10
0.36271
 20
6.69511
 30
0.0
 10
0.36271
 20
6.69511
 30
0.0
 10
0.36271
 20
6.69511
 30
0.0
 10
0.39131
 20
6.69511
 30
0.0
 10
0.39131
 20
6.69511
 30
0.0
 10
0.39131
 20
6.69511
 30
0.0
 10
0.39131
 20
6.69511
 30
0.0
 10
0.39131
 20
6.33231
 30
0.0
 10
0.39131
 20
6.33231
 30
0.0
  0
SPLINE
  5
65
330
1F
100
AcDbEntity
  8
layer 2
 62
     1
100
AcDbSpline
210
0.0
220
0.0
230
1.0
 70
    11
 71
     3
 72
    28
 73
    24
 74
     0
 42
0.0000000001
 43
0.0000000001
 12
1.0
 22
0.0
 32
0.0
 13
1.0
 23
0.0
 33
0.0
 40
0.0
 40
0.0
 40
0.0
 40
0.0
 40
0.1428571428571428
 40
0.1428571428571428
 40
0.1428571428571428
 40
0.1428571428571428
 40
0.2857142857142857
 40
0.2857142857142857
 40
0.2857142857142857
 40
0.2857142857142857
 40
0.4285714285714285
 40
0.4285714285714285
 40
0.4285714285714285
 40
0.4285714285714285
 40
0.5714285714285714
 40
0.5714285714285714
 40
0.5714285714285714
 40
0.5714285714285714
 40
0.7142857142857143
 40
0.7142857142857143
 40
0.7142857142857143
 40
0.7142857142857143
 40
1.0
 40
1.0
 40
1.0
 40
1.0
 10
0.51973
 20
6.56594
 30
0.0
 10
0.51973
 20
6.56594
 30
0.0
 10
0.50745
 20
6.63456
 30
0.0
 10
0.50745
 20
6.63456
 30
0.0
 10
0.50745
 20
6.63456
 30
0.0
 10
0.50745
 20
6.63456
 30
0.0
 10
0.50745
 20
6.6936
 30
0.0
 10
0.50745
 20
6.6936
 30
0.0
 10
0.50745
 20
6.6936
 30
0.0
 10
0.50745
 20
6.6936
 30
0.0
 10
0.55791
 20
6.6936
 30
0.0
 10
0.55791
 20
6.6936
 30
0.0
 10
0.55791
 20
6.6936
 30
0.0
 10
0.55791
 20
6.6936
 30
0.0
 10
0.55791
 20
6.63456
 30
0.0
 10
0.55791
 20
6.63456
 30
0.0
 10
0.55791
 20
6.63456
 30
0.0
 10
0.55791
 20
6.63456
 30
0.0
 10
0.54681
 20
6.56594
 30
0.0
 10
0.54681
 20
6.56594
 30
0.0
 10
0.54681
 20
6.56594
 30
0.0
 10
0.54681
 20
6.56594
 30
0.0
 10
0.51973
 20
6.56594
 30
0.0
 10
0.51973
 20
6.56594
 30
0.0
  0
SPLINE
  5
66
330
1F
100
AcDbEntity
  8
layer 2
 62
     1
100
AcDbSpline
210
0.0
220
0.0
230
1.0
 70
    11
 71
     3
 72
    28
 73
    24
 74
     0
 42
0.0000000001
 43
0.0000000001
 12
1.0
 22
0.0
 32
0.0
 13
1.0
 23
0.0
 33
0.0
 40
0.0
 40
0.0
 40
0.0
 40
0.0
 40
0.1428571428571428
 40
0.1428571428571428
 40
0.1428571428571428
 40
0.1428571428571428
 40
0.2857142857142857
 40
0.2857142857142857
 40
0.2857142857142857
 40
0.2857142857142857
 40
0.4285714285714285
 40
0.4285714285714285
 40
0.4285714285714285
 40
0.4285714285714285
 40
0.5714285714285714
 40
0.5714285714285714
 40
0.5714285714285714
 40
0.5714285714285714
 40
0.7142857142857143
 40
0.7142857142857143
 40
0.7142857142857143
 40
0.7142857142857143
 40
1.0
 40
1.0
 40
1.0
 40
1.0
 10
0.60122
 20
6.56594
 30
0.0
 10
0.60122
 20
6.56594
 30
0.0
 10
0.58919
 20
6.63456
 30
0.0
 10
0.58919
 20
6.63456
 30
0.0
 10
0.58919
 20
6.63456
 30
0.0
 10
0.58919
 20
6.63456
 30
0.0
 10
0.58919
 20
6.6936
 30
0.0
 10
0.58919
 20
6.6936
 30
0.0
 10
0.58919
 20
6.6936
 30
0.0
 10
0.58919
 20
6.6936
 30
0.0
 10
0.63965
 20
6.6936
 30
0.0
 10
0.63965
 20
6.6936
 30
0.0
 10
0.63965
 20
6.6936
 30
0.0
 10
0.63965
 20
6.6936
 30
0.0
 10
0.63965
 20
6.63456
 30
0.0
 10
0.63965
 20
6.63456
 30
0.0
 10
0.63965
 20
6.63456
 30
0.0
 10
0.63965
 20
6.63456
 30
0.0
 10
0.62779
 20
6.56594
 30
0.0
 10
0.62779
 20
6.56594
 30
0.0
 10
0.62779
 20
6.56594
 30
0.0
 10
0.62779
 20
6.56594
 30
0.0
 10
0.60122
 20
6.56594
 30
0.0
 10
0.60122
 20
6.56594
 30
0.0
  0
SPLINE
  5
67
330
1F
100
AcDbEntity
  8
layer 2
 62
     1
370
     0
100
AcDbSpline
210
0.0
220
0.0
230
1.0
 70
    24
 71
     3
 72
     8
 73
     4
 74
     0
 42
0.0000000001
 43
0.0000000001
 12
1.0
 22
0.0
 32
0.0
 13
1.0
 23
0.0
 33
0.0
 40
0.0
 40
0.0
 40
0.0
 40
0.0
 40
1.0
 40
1.0
 40
1.0
 40
1.0
 10
10.81564
 20
5.20345
 30
0.0
 10
10.81564
 20
5.20345
 30
0.0
 10
12.78088
 20
5.20345
 30
0.0
 10
12.78088
 20
5.20345
 30
0.0
  0
SPLINE
  5
68
330
1F
100
AcDbEntity
  8
layer 2
 62
     1
370
     0
100
AcDbSpline
210
0.0
220
0.0
230
1.0
 70
    24
 71
     3
 72
     8
 73
     4
 74
     0
 42
0.0000000001
 43
0.0000000001
 12
1.0
 22
0.0
 32
0.0
 13
1.0
 23
0.0
 33
0.0
 40
0.0
 40
0.0
 40
0.0
 40
0.0
 40
1.0
 40
1.0
 40
1.0
 40
1.0
 10
10.81564
 20
-5.94154
 30
0.0
 10
10.81564
 20
-5.94154
 30
0.0
 10
12.78088
 20
-5.94154
 30
0.0
 10
12.78088
 20
-5.94154
 30
0.0
  0
SPLINE
  5
69
330
1F
100
AcDbEntity
  8
layer 2
 62
     1
370
     0
100
AcDbSpline
210
0.0
220
0.0
230
1.0
 70
    24
 71
     3
 72
     8
 73
     4
 74
     0
 42
0.0000000001
 43
0.0000000001
 12
1.0
 22
0.0
 32
0.0
 13
1.0
 23
0.0
 33
0.0
 40
0.0
 40
0.0
 40
0.0
 40
0.0
 40
1.0
 40
1.0
 40
1.0
 40
1.0
 10
12.50664
 20
4.65497
 30
0.0
 10
12.50664
 20
4.65497
 30
0.0
 10
12.50664
 20
-5.39307
 30
0.0
 10
12.50664
 20
-5.39307
 30
0.0
  0
SPLINE
  5
6A
330
1F
100
AcDbEntity
  8
layer 2
 62
     1
100
AcDbSpline
210
0.0
220
0.0
230
1.0
 70
    27
 71
     3
 72
    12
 73
     8
 74
     0
 42
0.0000000001
 43
0.0000000001
 12
1.0
 22
0.0
 32
0.0
 13
1.0
 23
0.0
 33
0.0
 40
0.0
 40
0.0
 40
0.0
 40
0.0
 40
0.3333333333333333
 40
0.3333333333333333
 40
0.3333333333333333
 40
0.3333333333333333
 40
1.0
 40
1.0
 40
1.0
 40
1.0
 10
12.41523
 20
4.65497
 30
0.0
 10
12.41523
 20
4.65497
 30
0.0
 10
12.50664
 20
5.20345
 30
0.0
 10
12.50664
 20
5.20345
 30
0.0
 10
12.50664
 20
5.20345
 30
0.0
 10
12.50664
 20
5.20345
 30
0.0
 10
12.41523
 20
4.65497
 30
0.0
 10
12.41523
 20
4.65497
 30
0.0
  0
SPLINE
  5
6B
330
1F
100
AcDbEntity
  8
layer 2
 62
     1
100
AcDbSpline
210
0.0
220
0.0
230
1.0
 70
     8
 71
     3
 72
    12
 73
     8
 74
     0
 42
0.0000000001
 43
0.0000000001
 12
1.0
 22
0.0
 32
0.0
 13
1.0
 23
0.0
 33
0.0
 40
0.0
 40
0.0
 40
0.0
 40
0.0
 40
0.3333333333333333
 40
0.3333333333333333
 40
0.3333333333333333
 40
0.3333333333333333
 40
1.0
 40
1.0
 40
1.0
 40
1.0
 10
12.50664
 20
5.20345
 30
0.0
 10
12.50664
 20
5.20345
 30
0.0
 10
12.59806
 20
4.65497
 30
0.0
 10
12.59806
 20
4.65497
 30
0.0
 10
12.59806
 20
4.65497
 30
0.0
 10
12.59806
 20
4.65497
 30
0.0
 10
12.41523
 20
4.65497
 30
0.0
 10
12.41523
 20
4.65497
 30
0.0
  0
SPLINE
  5
6C
330
1F
100
AcDbEntity
  8
layer 2
 62
     1
370
     9
100
AcDbSpline
210
0.0
220
0.0
230
1.0
 70
    24
 71
     3
 72
     8
 73
     4
 74
     0
 42
0.0000000001
 43
0.0000000001
 12
1.0
 22
0.0
 32
0.0
 13
1.0
 23
0.0
 33
0.0
 40
0.0
 40
0.0
 40
0.0
 40
0.0
 40
1.0
 40
1.0
 40
1.0
 40
1.0
 10
12.41523
 20
4.65497
 30
0.0
 10
12.41523
 20
4.65497
 30
0.0
 10
12.50664
 20
5.20345
 30
0.0
 10
12.50664
 20
5.20345
 30
0.0
  0
SPLINE
  5
6D
330
1F
100
AcDbEntity
  8
layer 2
 62
     1
370
     9
100
AcDbSpline
210
0.0
220
0.0
230
1.0
 70
     8
 71
     3
 72
    12
 73
     8
 74
     0
 42
0.0000000001
 43
0.0000000001
 12
1.0
 22
0.0
 32
0.0
 13
1.0
 23
0.0
 33
0.0
 40
0.0
 40
0.0
 40
0.0
 40
0.0
 40
0.3333333333333333
 40
0.3333333333333333
 40
0.3333333333333333
 40
0.3333333333333333
 40
1.0
 40
1.0
 40
1.0
 40
1.0
 10
12.50664
 20
5.20345
 30
0.0
 10
12.50664
 20
5.20345
 30
0.0
 10
12.59806
 20
4.65497
 30
0.0
 10
12.59806
 20
4.65497
 30
0.0
 10
12.59806
 20
4.65497
 30
0.0
 10
12.59806
 20
4.65497
 30
0.0
 10
12.41523
 20
4.65497
 30
0.0
 10
12.41523
 20
4.65497
 30
0.0
  0
SPLINE
  5
6E
330
1F
100
AcDbEntity
  8
layer 2
 62
     1
100
AcDbSpline
210
0.0
220
0.0
230
1.0
 70
    27
 71
     3
 72
    12
 73
     8
 74
     0
 42
0.0000000001
 43
0.0000000001
 12
1.0
 22
0.0
 32
0.0
 13
1.0
 23
0.0
 33
0.0
 40
0.0
 40
0.0
 40
0.0
 40
0.0
 40
0.3333333333333333
 40
0.3333333333333333
 40
0.3333333333333333
 40
0.3333333333333333
 40
1.0
 40
1.0
 40
1.0
 40
1.0
 10
12.41523
 20
-5.39307
 30
0.0
 10
12.41523
 20
-5.39307
 30
0.0
 10
12.50664
 20
-5.94154
 30
0.0
 10
12.50664
 20
-5.94154
 30
0.0
 10
12.50664
 20
-5.94154
 30
0.0
 10
12.50664
 20
-5.94154
 30
0.0
 10
12.41523
 20
-5.39307
 30
0.0
 10
12.41523
 20
-5.39307
 30
0.0
  0
SPLINE
  5
6F
330
1F
100
AcDbEntity
  8
layer 2
 62
     1
100
AcDbSpline
210
0.0
220
0.0
230
1.0
 70
     8
 71
     3
 72
    12
 73
     8
 74
     0
 42
0.0000000001
 43
0.0000000001
 12
1.0
 22
0.0
 32
0.0
 13
1.0
 23
0.0
 33
0.0
 40
0.0
 40
0.0
 40
0.0
 40
0.0
 40
0.3333333333333333
 40
0.3333333333333333
 40
0.3333333333333333
 40
0.3333333333333333
 40
1.0
 40
1.0
 40
1.0
 40
1.0
 10
12.50664
 20
-5.94154
 30
0.0
 10
12.50664
 20
-5.94154
 30
0.0
 10
12.59806
 20
-5.39307
 30
0.0
 10
12.59806
 20
-5.39307
 30
0.0
 10
12.59806
 20
-5.39307
 30
0.0
 10
12.59806
 20
-5.39307
 30
0.0
 10
12.41523
 20
-5.39307
 30
0.0
 10
12.41523
 20
-5.39307
 30
0.0
  0
SPLINE
  5
70
330
1F
100
AcDbEntity
  8
layer 2
 62
     1
370
     9
100
AcDbSpline
210
0.0
220
0.0
230
1.0
 70
    24
 71
     3
 72
     8
 73
     4
 74
     0
 42
0.0000000001
 43
0.0000000001
 12
1.0
 22
0.0
 32
0.0
 13
1.0
 23
0.0
 33
0.0
 40
0.0
 40
0.0
 40
0.0
 40
0.0
 40
1.0
 40
1.0
 40
1.0
 40
1.0
 10
12.41523
 20
-5.39307
 30
0.0
 10
12.41523
 20
-5.39307
 30
0.0
 10
12.50664
 20
-5.94154
 30
0.0
 10
12.50664
 20
-5.94154
 30
0.0
  0
SPLINE
  5
71
330
1F
100
AcDbEntity
  8
layer 2
 62
     1
370
     9
100
AcDbSpline
210
0.0
220
0.0
230
1.0
 70
     8
 71
     3
 72
    12
 73
     8
 74
     0
 42
0.0000000001
 43
0.0000000001
 12
1.0
 22
0.0
 32
0.0
 13
1.0
 23
0.0
 33
0.0
 40
0.0
 40
0.0
 40
0.0
 40
0.0
 40
0.3333333333333333
 40
0.3333333333333333
 40
0.3333333333333333
 40
0.3333333333333333
 40
1.0
 40
1.0
 40
1.0
 40
1.0
 10
12.50664
 20
-5.94154
 30
0.0
 10
12.50664
 20
-5.94154
 30
0.0
 10
12.59806
 20
-5.39307
 30
0.0
 10
12.59806
 20
-5.39307
 30
0.0
 10
12.59806
 20
-5.39307
 30
0.0
 10
12.59806
 20
-5.39307
 30
0.0
 10
12.41523
 20
-5.39307
 30
0.0
 10
12.41523
 20
-5.39307
 30
0.0
  0
SPLINE
  5
72
330
1F
100
AcDbEntity
  8
layer 2
 62
     1
100
AcDbSpline
210
0.0
220
0.0
230
1.0
 70
    11
 71
     3
 72
    40
 73
    36
 74
     0
 42
0.0000000001
 43
0.0000000001
 12
1.0
 22
0.0
 32
0.0
 13
1.0
 23
0.0
 33
0.0
 40
0.0
 40
0.0
 40
0.0
 40
0.0
 40
0.1
 40
0.1
 40
0.1
 40
0.1
 40
0.2
 40
0.2
 40
0.2
 40
0.2
 40
0.3
 40
0.3
 40
0.3
 40
0.3
 40
0.4
 40
0.4
 40
0.4
 40
0.4
 40
0.5
 40
0.5
 40
0.5
 40
0.5
 40
0.6
 40
0.6
 40
0.6
 40
0.6
 40
0.7
 40
0.7
 40
0.7
 40
0.7
 40
0.8
 40
0.8
 40
0.8
 40
0.8
 40
1.0
 40
1.0
 40
1.0
 40
1.0
 10
12.27217
 20
0.55376
 30
0.0
 10
12.27217
 20
0.55376
 30
0.0
 10
12.27217
 20
0.50936
 30
0.0
 10
12.27217
 20
0.50936
 30
0.0
 10
12.27217
 20
0.50936
 30
0.0
 10
12.27217
 20
0.50936
 30
0.0
 10
11.98943
 20
0.50936
 30
0.0
 10
11.98943
 20
0.50936
 30
0.0
 10
11.98943
 20
0.50936
 30
0.0
 10
11.99969
 20
0.49868
 30
0.0
 10
12.00987
 20
0.48463
 30
0.0
 10
12.02004
 20
0.46731
 30
0.0
 10
12.02004
 20
0.46731
 30
0.0
 10
12.03022
 20
0.44998
 30
0.0
 10
12.03787
 20
0.43434
 30
0.0
 10
12.04292
 20
0.42055
 30
0.0
 10
12.04292
 20
0.42055
 30
0.0
 10
12.04292
 20
0.42055
 30
0.0
 10
12.00003
 20
0.42055
 30
0.0
 10
12.00003
 20
0.42055
 30
0.0
 10
12.00003
 20
0.42055
 30
0.0
 10
11.98842
 20
0.44536
 30
0.0
 10
11.97429
 20
0.46706
 30
0.0
 10
11.95764
 20
0.48564
 30
0.0
 10
11.95764
 20
0.48564
 30
0.0
 10
11.94107
 20
0.50423
 30
0.0
 10
11.92501
 20
0.51743
 30
0.0
 10
11.90937
 20
0.52517
 30
0.0
 10
11.90937
 20
0.52517
 30
0.0
 10
11.90937
 20
0.52517
 30
0.0
 10
11.90937
 20
0.55376
 30
0.0
 10
11.90937
 20
0.55376
 30
0.0
 10
11.90937
 20
0.55376
 30
0.0
 10
11.90937
 20
0.55376
 30
0.0
 10
12.27217
 20
0.55376
 30
0.0
 10
12.27217
 20
0.55376
 30
0.0
  0
SPLINE
  5
73
330
1F
100
AcDbEntity
  8
layer 2
 62
     1
100
AcDbSpline
210
0.0
220
0.0
230
1.0
 70
    11
 71
     3
 72
    80
 73
    76
 74
     0
 42
0.0000000001
 43
0.0000000001
 12
1.0
 22
0.0
 32
0.0
 13
1.0
 23
0.0
 33
0.0
 40
0.0
 40
0.0
 40
0.0
 40
0.0
 40
0.05
 40
0.05
 40
0.05
 40
0.05
 40
0.1
 40
0.1
 40
0.1
 40
0.1
 40
0.15
 40
0.15
 40
0.15
 40
0.15
 40
0.2
 40
0.2
 40
0.2
 40
0.2
 40
0.25
 40
0.25
 40
0.25
 40
0.25
 40
0.3
 40
0.3
 40
0.3
 40
0.3
 40
0.35
 40
0.35
 40
0.35
 40
0.35
 40
0.4
 40
0.4
 40
0.4
 40
0.4
 40
0.45
 40
0.45
 40
0.45
 40
0.45
 40
0.5
 40
0.5
 40
0.5
 40
0.5
 40
0.55
 40
0.55
 40
0.55
 40
0.55
 40
0.6
 40
0.6
 40
0.6
 40
0.6
 40
0.65
 40
0.65
 40
0.65
 40
0.65
 40
0.7
 40
0.7
 40
0.7
 40
0.7
 40
0.75
 40
0.75
 40
0.75
 40
0.75
 40
0.8
 40
0.8
 40
0.8
 40
0.8
 40
0.85
 40
0.85
 40
0.85
 40
0.85
 40
0.9
 40
0.9
 40
0.9
 40
0.9
 40
1.0
 40
1.0
 40
1.0
 40
1.0
 10
11.99919
 20
0.89849
 30
0.0
 10
11.99919
 20
0.89849
 30
0.0
 10
12.00272
 20
0.85459
 30
0.0
 10
12.00272
 20
0.85459
 30
0.0
 10
12.00272
 20
0.85459
 30
0.0
 10
11.98531
 20
0.85063
 30
0.0
 10
11.97261
 20
0.845
 30
0.0
 10
11.96471
 20
0.83768
 30
0.0
 10
11.96471
 20
0.83768
 30
0.0
 10
11.95201
 20
0.82566
 30
0.0
 10
11.9457
 20
0.81077
 30
0.0
 10
11.9457
 20
0.79311
 30
0.0
 10
11.9457
 20
0.79311
 30
0.0
 10
11.9457
 20
0.7789
 30
0.0
 10
11.94965
 20
0.76628
 30
0.0
 10
11.95756
 20
0.75543
 30
0.0
 10
11.95756
 20
0.75543
 30
0.0
 10
11.96773
 20
0.74147
 30
0.0
 10
11.98254
 20
0.73054
 30
0.0
 10
12.00205
 20
0.72238
 30
0.0
 10
12.00205
 20
0.72238
 30
0.0
 10
12.02164
 20
0.71431
 30
0.0
 10
12.04948
 20
0.7101
 30
0.0
 10
12.08556
 20
0.70977
 30
0.0
 10
12.08556
 20
0.70977
 30
0.0
 10
12.06933
 20
0.72045
 30
0.0
 10
12.05722
 20
0.73357
 30
0.0
 10
12.04939
 20
0.74904
 30
0.0
 10
12.04939
 20
0.74904
 30
0.0
 10
12.04149
 20
0.76452
 30
0.0
 10
12.03754
 20
0.78066
 30
0.0
 10
12.03754
 20
0.79765
 30
0.0
 10
12.03754
 20
0.79765
 30
0.0
 10
12.03754
 20
0.82725
 30
0.0
 10
12.04847
 20
0.85248
 30
0.0
 10
12.07025
 20
0.87334
 30
0.0
 10
12.07025
 20
0.87334
 30
0.0
 10
12.09203
 20
0.89411
 30
0.0
 10
12.12012
 20
0.90454
 30
0.0
 10
12.15469
 20
0.90454
 30
0.0
 10
12.15469
 20
0.90454
 30
0.0
 10
12.17739
 20
0.90454
 30
0.0
 10
12.19842
 20
0.89966
 30
0.0
 10
12.21793
 20
0.88991
 30
0.0
 10
12.21793
 20
0.88991
 30
0.0
 10
12.23744
 20
0.88007
 30
0.0
 10
12.25233
 20
0.8667
 30
0.0
 10
12.26267
 20
0.84954
 30
0.0
 10
12.26267
 20
0.84954
 30
0.0
 10
12.27302
 20
0.83247
 30
0.0
 10
12.27823
 20
0.81304
 30
0.0
 10
12.27823
 20
0.79134
 30
0.0
 10
12.27823
 20
0.79134
 30
0.0
 10
12.27823
 20
0.75442
 30
0.0
 10
12.2646
 20
0.72423
 30
0.0
 10
12.23744
 20
0.70085
 30
0.0
 10
12.23744
 20
0.70085
 30
0.0
 10
12.21028
 20
0.67756
 30
0.0
 10
12.16545
 20
0.66587
 30
0.0
 10
12.10305
 20
0.66587
 30
0.0
 10
12.10305
 20
0.66587
 30
0.0
 10
12.03325
 20
0.66587
 30
0.0
 10
11.98245
 20
0.67882
 30
0.0
 10
11.95075
 20
0.70464
 30
0.0
 10
11.95075
 20
0.70464
 30
0.0
 10
11.92316
 20
0.72718
 30
0.0
 10
11.90937
 20
0.75754
 30
0.0
 10
11.90937
 20
0.7958
 30
0.0
 10
11.90937
 20
0.7958
 30
0.0
 10
11.90937
 20
0.82423
 30
0.0
 10
11.91736
 20
0.84761
 30
0.0
 10
11.93325
 20
0.86577
 30
0.0
 10
11.93325
 20
0.86577
 30
0.0
 10
11.94915
 20
0.88394
 30
0.0
 10
11.9711
 20
0.89487
 30
0.0
 10
11.99919
 20
0.89849
 30
0.0
  0
SPLINE
  5
74
330
1F
100
AcDbEntity
  8
layer 2
 62
     1
100
AcDbSpline
210
0.0
220
0.0
230
1.0
 70
    11
 71
     3
 72
    40
 73
    36
 74
     0
 42
0.0000000001
 43
0.0000000001
 12
1.0
 22
0.0
 32
0.0
 13
1.0
 23
0.0
 33
0.0
 40
0.0
 40
0.0
 40
0.0
 40
0.0
 40
0.1
 40
0.1
 40
0.1
 40
0.1
 40
0.2
 40
0.2
 40
0.2
 40
0.2
 40
0.3
 40
0.3
 40
0.3
 40
0.3
 40
0.4
 40
0.4
 40
0.4
 40
0.4
 40
0.5
 40
0.5
 40
0.5
 40
0.5
 40
0.6
 40
0.6
 40
0.6
 40
0.6
 40
0.7
 40
0.7
 40
0.7
 40
0.7
 40
0.8
 40
0.8
 40
0.8
 40
0.8
 40
1.0
 40
1.0
 40
1.0
 40
1.0
 10
12.15511
 20
0.71683
 30
0.0
 10
12.17041
 20
0.71683
 30
0.0
 10
12.18505
 20
0.72011
 30
0.0
 10
12.19901
 20
0.72659
 30
0.0
 10
12.19901
 20
0.72659
 30
0.0
 10
12.21297
 20
0.73306
 30
0.0
 10
12.22357
 20
0.74215
 30
0.0
 10
12.23088
 20
0.75367
 30
0.0
 10
12.23088
 20
0.75367
 30
0.0
 10
12.2382
 20
0.76527
 30
0.0
 10
12.2419
 20
0.77755
 30
0.0
 10
12.2419
 20
0.79059
 30
0.0
 10
12.2419
 20
0.79059
 30
0.0
 10
12.2419
 20
0.80951
 30
0.0
 10
12.23433
 20
0.82566
 30
0.0
 10
12.21919
 20
0.83903
 30
0.0
 10
12.21919
 20
0.83903
 30
0.0
 10
12.20405
 20
0.8524
 30
0.0
 10
12.18353
 20
0.85913
 30
0.0
 10
12.15755
 20
0.85913
 30
0.0
 10
12.15755
 20
0.85913
 30
0.0
 10
12.13257
 20
0.85913
 30
0.0
 10
12.11289
 20
0.85248
 30
0.0
 10
12.09851
 20
0.83928
 30
0.0
 10
12.09851
 20
0.83928
 30
0.0
 10
12.08413
 20
0.82608
 30
0.0
 10
12.07689
 20
0.80926
 30
0.0
 10
12.07689
 20
0.78882
 30
0.0
 10
12.07689
 20
0.78882
 30
0.0
 10
12.07689
 20
0.7688
 30
0.0
 10
12.08413
 20
0.75173
 30
0.0
 10
12.09851
 20
0.73777
 30
0.0
 10
12.09851
 20
0.73777
 30
0.0
 10
12.11289
 20
0.72381
 30
0.0
 10
12.13173
 20
0.71683
 30
0.0
 10
12.15511
 20
0.71683
 30
0.0
  0
SPLINE
  5
75
330
1F
100
AcDbEntity
  8
layer 2
 62
     1
100
AcDbSpline
210
0.0
220
0.0
230
1.0
 70
    11
 71
     3
 72
    28
 73
    24
 74
     0
 42
0.0000000001
 43
0.0000000001
 12
1.0
 22
0.0
 32
0.0
 13
1.0
 23
0.0
 33
0.0
 40
0.0
 40
0.0
 40
0.0
 40
0.0
 40
0.1428571428571428
 40
0.1428571428571428
 40
0.1428571428571428
 40
0.1428571428571428
 40
0.2857142857142857
 40
0.2857142857142857
 40
0.2857142857142857
 40
0.2857142857142857
 40
0.4285714285714285
 40
0.4285714285714285
 40
0.4285714285714285
 40
0.4285714285714285
 40
0.5714285714285714
 40
0.5714285714285714
 40
0.5714285714285714
 40
0.5714285714285714
 40
0.7142857142857143
 40
0.7142857142857143
 40
0.7142857142857143
 40
0.7142857142857143
 40
1.0
 40
1.0
 40
1.0
 40
1.0
 10
12.03855
 20
0.96282
 30
0.0
 10
12.03855
 20
0.96282
 30
0.0
 10
11.96992
 20
0.95054
 30
0.0
 10
11.96992
 20
0.95054
 30
0.0
 10
11.96992
 20
0.95054
 30
0.0
 10
11.96992
 20
0.95054
 30
0.0
 10
11.91088
 20
0.95054
 30
0.0
 10
11.91088
 20
0.95054
 30
0.0
 10
11.91088
 20
0.95054
 30
0.0
 10
11.91088
 20
0.95054
 30
0.0
 10
11.91088
 20
1.001
 30
0.0
 10
11.91088
 20
1.001
 30
0.0
 10
11.91088
 20
1.001
 30
0.0
 10
11.91088
 20
1.001
 30
0.0
 10
11.96992
 20
1.001
 30
0.0
 10
11.96992
 20
1.001
 30
0.0
 10
11.96992
 20
1.001
 30
0.0
 10
11.96992
 20
1.001
 30
0.0
 10
12.03855
 20
0.9899
 30
0.0
 10
12.03855
 20
0.9899
 30
0.0
 10
12.03855
 20
0.9899
 30
0.0
 10
12.03855
 20
0.9899
 30
0.0
 10
12.03855
 20
0.96282
 30
0.0
 10
12.03855
 20
0.96282
 30
0.0
  0
SPLINE
  5
76
330
1F
100
AcDbEntity
  8
layer 2
 62
     1
100
AcDbSpline
210
0.0
220
0.0
230
1.0
 70
    11
 71
     3
 72
    28
 73
    24
 74
     0
 42
0.0000000001
 43
0.0000000001
 12
1.0
 22
0.0
 32
0.0
 13
1.0
 23
0.0
 33
0.0
 40
0.0
 40
0.0
 40
0.0
 40
0.0
 40
0.1428571428571428
 40
0.1428571428571428
 40
0.1428571428571428
 40
0.1428571428571428
 40
0.2857142857142857
 40
0.2857142857142857
 40
0.2857142857142857
 40
0.2857142857142857
 40
0.4285714285714285
 40
0.4285714285714285
 40
0.4285714285714285
 40
0.4285714285714285
 40
0.5714285714285714
 40
0.5714285714285714
 40
0.5714285714285714
 40
0.5714285714285714
 40
0.7142857142857143
 40
0.7142857142857143
 40
0.7142857142857143
 40
0.7142857142857143
 40
1.0
 40
1.0
 40
1.0
 40
1.0
 10
12.03855
 20
1.04431
 30
0.0
 10
12.03855
 20
1.04431
 30
0.0
 10
11.96992
 20
1.03229
 30
0.0
 10
11.96992
 20
1.03229
 30
0.0
 10
11.96992
 20
1.03229
 30
0.0
 10
11.96992
 20
1.03229
 30
0.0
 10
11.91088
 20
1.03229
 30
0.0
 10
11.91088
 20
1.03229
 30
0.0
 10
11.91088
 20
1.03229
 30
0.0
 10
11.91088
 20
1.03229
 30
0.0
 10
11.91088
 20
1.08275
 30
0.0
 10
11.91088
 20
1.08275
 30
0.0
 10
11.91088
 20
1.08275
 30
0.0
 10
11.91088
 20
1.08275
 30
0.0
 10
11.96992
 20
1.08275
 30
0.0
 10
11.96992
 20
1.08275
 30
0.0
 10
11.96992
 20
1.08275
 30
0.0
 10
11.96992
 20
1.08275
 30
0.0
 10
12.03855
 20
1.07089
 30
0.0
 10
12.03855
 20
1.07089
 30
0.0
 10
12.03855
 20
1.07089
 30
0.0
 10
12.03855
 20
1.07089
 30
0.0
 10
12.03855
 20
1.04431
 30
0.0
 10
12.03855
 20
1.04431
 30
0.0
  0
SPLINE
  5
77
330
1F
100
AcDbEntity
  8
layer 2
 62
     1
370
     0
100
AcDbSpline
210
0.0
220
0.0
230
1.0
 70
    24
 71
     3
 72
     8
 73
     4
 74
     0
 42
0.0000000001
 43
0.0000000001
 12
1.0
 22
0.0
 32
0.0
 13
1.0
 23
0.0
 33
0.0
 40
0.0
 40
0.0
 40
0.0
 40
0.0
 40
1.0
 40
1.0
 40
1.0
 40
1.0
 10
-12.13193
 20
-7.20825
 30
0.0
 10
-12.13193
 20
-7.20825
 30
0.0
 10
-10.66399
 20
-6.0006
 30
0.0
 10
-10.66399
 20
-6.0006
 30
0.0
  0
SPLINE
  5
78
330
1F
100
AcDbEntity
  8
layer 2
 62
     1
100
AcDbSpline
210
0.0
220
0.0
230
1.0
 70
    11
 71
     3
 72
    80
 73
    76
 74
     0
 42
0.0000000001
 43
0.0000000001
 12
1.0
 22
0.0
 32
0.0
 13
1.0
 23
0.0
 33
0.0
 40
0.0
 40
0.0
 40
0.0
 40
0.0
 40
0.05
 40
0.05
 40
0.05
 40
0.05
 40
0.1
 40
0.1
 40
0.1
 40
0.1
 40
0.15
 40
0.15
 40
0.15
 40
0.15
 40
0.2
 40
0.2
 40
0.2
 40
0.2
 40
0.25
 40
0.25
 40
0.25
 40
0.25
 40
0.3
 40
0.3
 40
0.3
 40
0.3
 40
0.35
 40
0.35
 40
0.35
 40
0.35
 40
0.4
 40
0.4
 40
0.4
 40
0.4
 40
0.45
 40
0.45
 40
0.45
 40
0.45
 40
0.5
 40
0.5
 40
0.5
 40
0.5
 40
0.55
 40
0.55
 40
0.55
 40
0.55
 40
0.6
 40
0.6
 40
0.6
 40
0.6
 40
0.65
 40
0.65
 40
0.65
 40
0.65
 40
0.7
 40
0.7
 40
0.7
 40
0.7
 40
0.75
 40
0.75
 40
0.75
 40
0.75
 40
0.8
 40
0.8
 40
0.8
 40
0.8
 40
0.85
 40
0.85
 40
0.85
 40
0.85
 40
0.9
 40
0.9
 40
0.9
 40
0.9
 40
1.0
 40
1.0
 40
1.0
 40
1.0
 10
-11.9701
 20
-5.99346
 30
0.0
 10
-11.9701
 20
-5.99346
 30
0.0
 10
-12.19964
 20
-5.71446
 30
0.0
 10
-12.19964
 20
-5.71446
 30
0.0
 10
-12.19964
 20
-5.71446
 30
0.0
 10
-12.19964
 20
-5.71446
 30
0.0
 10
-12.07598
 20
-5.61272
 30
0.0
 10
-12.07598
 20
-5.61272
 30
0.0
 10
-12.07598
 20
-5.61272
 30
0.0
 10
-12.05111
 20
-5.59226
 30
0.0
 10
-12.03013
 20
-5.57925
 30
0.0
 10
-12.01309
 20
-5.57361
 30
0.0
 10
-12.01309
 20
-5.57361
 30
0.0
 10
-11.99605
 20
-5.56798
 30
0.0
 10
-11.97846
 20
-5.56832
 30
0.0
 10
-11.96031
 20
-5.57462
 30
0.0
 10
-11.96031
 20
-5.57462
 30
0.0
 10
-11.94216
 20
-5.58093
 30
0.0
 10
-11.92679
 20
-5.59181
 30
0.0
 10
-11.91418
 20
-5.60714
 30
0.0
 10
-11.91418
 20
-5.60714
 30
0.0
 10
-11.89788
 20
-5.62694
 30
0.0
 10
-11.89058
 20
-5.64892
 30
0.0
 10
-11.89221
 20
-5.67302
 30
0.0
 10
-11.89221
 20
-5.67302
 30
0.0
 10
-11.89384
 20
-5.69712
 30
0.0
 10
-11.90652
 20
-5.72194
 30
0.0
 10
-11.93024
 20
-5.74765
 30
0.0
 10
-11.93024
 20
-5.74765
 30
0.0
 10
-11.91658
 20
-5.74426
 30
0.0
 10
-11.90533
 20
-5.74285
 30
0.0
 10
-11.89653
 20
-5.74323
 30
0.0
 10
-11.89653
 20
-5.74323
 30
0.0
 10
-11.87763
 20
-5.74423
 30
0.0
 10
-11.85723
 20
-5.74824
 30
0.0
 10
-11.83544
 20
-5.75526
 30
0.0
 10
-11.83544
 20
-5.75526
 30
0.0
 10
-11.83544
 20
-5.75526
 30
0.0
 10
-11.72468
 20
-5.79155
 30
0.0
 10
-11.72468
 20
-5.79155
 30
0.0
 10
-11.72468
 20
-5.79155
 30
0.0
 10
-11.72468
 20
-5.79155
 30
0.0
 10
-11.77079
 20
-5.82948
 30
0.0
 10
-11.77079
 20
-5.82948
 30
0.0
 10
-11.77079
 20
-5.82948
 30
0.0
 10
-11.77079
 20
-5.82948
 30
0.0
 10
-11.85544
 20
-5.80177
 30
0.0
 10
-11.85544
 20
-5.80177
 30
0.0
 10
-11.85544
 20
-5.80177
 30
0.0
 10
-11.88
 20
-5.79377
 30
0.0
 10
-11.89942
 20
-5.78829
 30
0.0
 10
-11.91369
 20
-5.78511
 30
0.0
 10
-11.91369
 20
-5.78511
 30
0.0
 10
-11.92802
 20
-5.78198
 30
0.0
 10
-11.93933
 20
-5.78094
 30
0.0
 10
-11.94779
 20
-5.78191
 30
0.0
 10
-11.94779
 20
-5.78191
 30
0.0
 10
-11.95613
 20
-5.78289
 30
0.0
 10
-11.96381
 20
-5.78507
 30
0.0
 10
-11.9707
 20
-5.78835
 30
0.0
 10
-11.9707
 20
-5.78835
 30
0.0
 10
-11.97555
 20
-5.79092
 30
0.0
 10
-11.98275
 20
-5.79608
 30
0.0
 10
-11.9923
 20
-5.80393
 30
0.0
 10
-11.9923
 20
-5.80393
 30
0.0
 10
-11.9923
 20
-5.80393
 30
0.0
 10
-12.03503
 20
-5.83909
 30
0.0
 10
-12.03503
 20
-5.83909
 30
0.0
 10
-12.03503
 20
-5.83909
 30
0.0
 10
-12.03503
 20
-5.83909
 30
0.0
 10
-11.93308
 20
-5.96301
 30
0.0
 10
-11.93308
 20
-5.96301
 30
0.0
 10
-11.93308
 20
-5.96301
 30
0.0
 10
-11.93308
 20
-5.96301
 30
0.0
 10
-11.9701
 20
-5.99346
 30
0.0
 10
-11.9701
 20
-5.99346
 30
0.0
  0
SPLINE
  5
79
330
1F
100
AcDbEntity
  8
layer 2
 62
     1
100
AcDbSpline
210
0.0
220
0.0
230
1.0
 70
    11
 71
     3
 72
    36
 73
    32
 74
     0
 42
0.0000000001
 43
0.0000000001
 12
1.0
 22
0.0
 32
0.0
 13
1.0
 23
0.0
 33
0.0
 40
0.0
 40
0.0
 40
0.0
 40
0.0
 40
0.1111111111111111
 40
0.1111111111111111
 40
0.1111111111111111
 40
0.1111111111111111
 40
0.2222222222222222
 40
0.2222222222222222
 40
0.2222222222222222
 40
0.2222222222222222
 40
0.3333333333333333
 40
0.3333333333333333
 40
0.3333333333333333
 40
0.3333333333333333
 40
0.4444444444444444
 40
0.4444444444444444
 40
0.4444444444444444
 40
0.4444444444444444
 40
0.5555555555555556
 40
0.5555555555555556
 40
0.5555555555555556
 40
0.5555555555555556
 40
0.6666666666666666
 40
0.6666666666666666
 40
0.6666666666666666
 40
0.6666666666666666
 40
0.7777777777777778
 40
0.7777777777777778
 40
0.7777777777777778
 40
0.7777777777777778
 40
1.0
 40
1.0
 40
1.0
 40
1.0
 10
-12.06132
 20
-5.80714
 30
0.0
 10
-12.06132
 20
-5.80714
 30
0.0
 10
-11.98209
 20
-5.74195
 30
0.0
 10
-11.98209
 20
-5.74195
 30
0.0
 10
-11.98209
 20
-5.74195
 30
0.0
 10
-11.9652
 20
-5.72806
 30
0.0
 10
-11.95352
 20
-5.71551
 30
0.0
 10
-11.94692
 20
-5.70421
 30
0.0
 10
-11.94692
 20
-5.70421
 30
0.0
 10
-11.94027
 20
-5.69296
 30
0.0
 10
-11.93766
 20
-5.68145
 30
0.0
 10
-11.93915
 20
-5.66971
 30
0.0
 10
-11.93915
 20
-5.66971
 30
0.0
 10
-11.94052
 20
-5.65799
 30
0.0
 10
-11.94489
 20
-5.64764
 30
0.0
 10
-11.95231
 20
-5.63861
 30
0.0
 10
-11.95231
 20
-5.63861
 30
0.0
 10
-11.96316
 20
-5.62543
 30
0.0
 10
-11.97688
 20
-5.61842
 30
0.0
 10
-11.99343
 20
-5.61777
 30
0.0
 10
-11.99343
 20
-5.61777
 30
0.0
 10
-12.00997
 20
-5.61711
 30
0.0
 10
-12.02851
 20
-5.62529
 30
0.0
 10
-12.0491
 20
-5.64223
 30
0.0
 10
-12.0491
 20
-5.64223
 30
0.0
 10
-12.0491
 20
-5.64223
 30
0.0
 10
-12.1373
 20
-5.71478
 30
0.0
 10
-12.1373
 20
-5.71478
 30
0.0
 10
-12.1373
 20
-5.71478
 30
0.0
 10
-12.1373
 20
-5.71478
 30
0.0
 10
-12.06132
 20
-5.80714
 30
0.0
 10
-12.06132
 20
-5.80714
 30
0.0
  0
SPLINE
  5
7A
330
1F
100
AcDbEntity
  8
layer 2
 62
     1
100
AcDbSpline
210
0.0
220
0.0
230
1.0
 70
    11
 71
     3
 72
    40
 73
    36
 74
     0
 42
0.0000000001
 43
0.0000000001
 12
1.0
 22
0.0
 32
0.0
 13
1.0
 23
0.0
 33
0.0
 40
0.0
 40
0.0
 40
0.0
 40
0.0
 40
0.1
 40
0.1
 40
0.1
 40
0.1
 40
0.2
 40
0.2
 40
0.2
 40
0.2
 40
0.3
 40
0.3
 40
0.3
 40
0.3
 40
0.4
 40
0.4
 40
0.4
 40
0.4
 40
0.5
 40
0.5
 40
0.5
 40
0.5
 40
0.6
 40
0.6
 40
0.6
 40
0.6
 40
0.7
 40
0.7
 40
0.7
 40
0.7
 40
0.8
 40
0.8
 40
0.8
 40
0.8
 40
1.0
 40
1.0
 40
1.0
 40
1.0
 10
-11.57452
 20
-5.66802
 30
0.0
 10
-11.57452
 20
-5.66802
 30
0.0
 10
-11.60881
 20
-5.69623
 30
0.0
 10
-11.60881
 20
-5.69623
 30
0.0
 10
-11.60881
 20
-5.69623
 30
0.0
 10
-11.60881
 20
-5.69623
 30
0.0
 10
-11.78844
 20
-5.47788
 30
0.0
 10
-11.78844
 20
-5.47788
 30
0.0
 10
-11.78844
 20
-5.47788
 30
0.0
 10
-11.79017
 20
-5.49259
 30
0.0
 10
-11.79455
 20
-5.50937
 30
0.0
 10
-11.80147
 20
-5.52824
 30
0.0
 10
-11.80147
 20
-5.52824
 30
0.0
 10
-11.80838
 20
-5.5471
 30
0.0
 10
-11.8156
 20
-5.56295
 30
0.0
 10
-11.82304
 20
-5.57561
 30
0.0
 10
-11.82304
 20
-5.57561
 30
0.0
 10
-11.82304
 20
-5.57561
 30
0.0
 10
-11.85029
 20
-5.54249
 30
0.0
 10
-11.85029
 20
-5.54249
 30
0.0
 10
-11.85029
 20
-5.54249
 30
0.0
 10
-11.83851
 20
-5.51776
 30
0.0
 10
-11.83073
 20
-5.49307
 30
0.0
 10
-11.82695
 20
-5.4684
 30
0.0
 10
-11.82695
 20
-5.4684
 30
0.0
 10
-11.82313
 20
-5.4438
 30
0.0
 10
-11.82313
 20
-5.423
 30
0.0
 10
-11.8271
 20
-5.40601
 30
0.0
 10
-11.8271
 20
-5.40601
 30
0.0
 10
-11.8271
 20
-5.40601
 30
0.0
 10
-11.80502
 20
-5.38784
 30
0.0
 10
-11.80502
 20
-5.38784
 30
0.0
 10
-11.80502
 20
-5.38784
 30
0.0
 10
-11.80502
 20
-5.38784
 30
0.0
 10
-11.57452
 20
-5.66802
 30
0.0
 10
-11.57452
 20
-5.66802
 30
0.0
  0
SPLINE
  5
7B
330
1F
100
AcDbEntity
  8
layer 2
 62
     1
100
AcDbSpline
210
0.0
220
0.0
230
1.0
 70
    11
 71
     3
 72
    92
 73
    88
 74
     0
 42
0.0000000001
 43
0.0000000001
 12
1.0
 22
0.0
 32
0.0
 13
1.0
 23
0.0
 33
0.0
 40
0.0
 40
0.0
 40
0.0
 40
0.0
 40
0.0434782608695652
 40
0.0434782608695652
 40
0.0434782608695652
 40
0.0434782608695652
 40
0.0869565217391304
 40
0.0869565217391304
 40
0.0869565217391304
 40
0.0869565217391304
 40
0.1304347826086956
 40
0.1304347826086956
 40
0.1304347826086956
 40
0.1304347826086956
 40
0.1739130434782609
 40
0.1739130434782609
 40
0.1739130434782609
 40
0.1739130434782609
 40
0.2173913043478261
 40
0.2173913043478261
 40
0.2173913043478261
 40
0.2173913043478261
 40
0.2608695652173913
 40
0.2608695652173913
 40
0.2608695652173913
 40
0.2608695652173913
 40
0.3043478260869565
 40
0.3043478260869565
 40
0.3043478260869565
 40
0.3043478260869565
 40
0.3478260869565217
 40
0.3478260869565217
 40
0.3478260869565217
 40
0.3478260869565217
 40
0.391304347826087
 40
0.391304347826087
 40
0.391304347826087
 40
0.391304347826087
 40
0.4347826086956522
 40
0.4347826086956522
 40
0.4347826086956522
 40
0.4347826086956522
 40
0.4782608695652174
 40
0.4782608695652174
 40
0.4782608695652174
 40
0.4782608695652174
 40
0.5217391304347826
 40
0.5217391304347826
 40
0.5217391304347826
 40
0.5217391304347826
 40
0.5652173913043478
 40
0.5652173913043478
 40
0.5652173913043478
 40
0.5652173913043478
 40
0.6086956521739131
 40
0.6086956521739131
 40
0.6086956521739131
 40
0.6086956521739131
 40
0.6521739130434783
 40
0.6521739130434783
 40
0.6521739130434783
 40
0.6521739130434783
 40
0.6956521739130435
 40
0.6956521739130435
 40
0.6956521739130435
 40
0.6956521739130435
 40
0.7391304347826086
 40
0.7391304347826086
 40
0.7391304347826086
 40
0.7391304347826086
 40
0.782608695652174
 40
0.782608695652174
 40
0.782608695652174
 40
0.782608695652174
 40
0.8260869565217391
 40
0.8260869565217391
 40
0.8260869565217391
 40
0.8260869565217391
 40
0.8695652173913043
 40
0.8695652173913043
 40
0.8695652173913043
 40
0.8695652173913043
 40
0.9130434782608695
 40
0.9130434782608695
 40
0.9130434782608695
 40
0.9130434782608695
 40
1.0
 40
1.0
 40
1.0
 40
1.0
 10
-11.54666
 20
-5.52226
 30
0.0
 10
-11.54666
 20
-5.52226
 30
0.0
 10
-11.51305
 20
-5.49003
 30
0.0
 10
-11.51305
 20
-5.49003
 30
0.0
 10
-11.51305
 20
-5.49003
 30
0.0
 10
-11.49602
 20
-5.50531
 30
0.0
 10
-11.47905
 20
-5.51336
 30
0.0
 10
-11.46217
 20
-5.51428
 30
0.0
 10
-11.46217
 20
-5.51428
 30
0.0
 10
-11.44535
 20
-5.51514
 30
0.0
 10
-11.42996
 20
-5.50989
 30
0.0
 10
-11.41613
 20
-5.49851
 30
0.0
 10
-11.41613
 20
-5.49851
 30
0.0
 10
-11.39944
 20
-5.48478
 30
0.0
 10
-11.3906
 20
-5.46705
 30
0.0
 10
-11.38944
 20
-5.4453
 30
0.0
 10
-11.38944
 20
-5.4453
 30
0.0
 10
-11.3884
 20
-5.42353
 30
0.0
 10
-11.39632
 20
-5.40239
 30
0.0
 10
-11.4132
 20
-5.38187
 30
0.0
 10
-11.4132
 20
-5.38187
 30
0.0
 10
-11.42929
 20
-5.36232
 30
0.0
 10
-11.44734
 20
-5.35136
 30
0.0
 10
-11.46748
 20
-5.34898
 30
0.0
 10
-11.46748
 20
-5.34898
 30
0.0
 10
-11.48763
 20
-5.3466
 30
0.0
 10
-11.50663
 20
-5.35276
 30
0.0
 10
-11.52449
 20
-5.36745
 30
0.0
 10
-11.52449
 20
-5.36745
 30
0.0
 10
-11.53559
 20
-5.37659
 30
0.0
 10
-11.54345
 20
-5.3873
 30
0.0
 10
-11.54811
 20
-5.39963
 30
0.0
 10
-11.54811
 20
-5.39963
 30
0.0
 10
-11.55271
 20
-5.41191
 30
0.0
 10
-11.5542
 20
-5.42413
 30
0.0
 10
-11.55264
 20
-5.43635
 30
0.0
 10
-11.55264
 20
-5.43635
 30
0.0
 10
-11.55264
 20
-5.43635
 30
0.0
 10
-11.58883
 20
-5.45828
 30
0.0
 10
-11.58883
 20
-5.45828
 30
0.0
 10
-11.58883
 20
-5.45828
 30
0.0
 10
-11.58883
 20
-5.45828
 30
0.0
 10
-11.67991
 20
-5.29277
 30
0.0
 10
-11.67991
 20
-5.29277
 30
0.0
 10
-11.67991
 20
-5.29277
 30
0.0
 10
-11.67991
 20
-5.29277
 30
0.0
 10
-11.54158
 20
-5.17896
 30
0.0
 10
-11.54158
 20
-5.17896
 30
0.0
 10
-11.54158
 20
-5.17896
 30
0.0
 10
-11.54158
 20
-5.17896
 30
0.0
 10
-11.51465
 20
-5.21169
 30
0.0
 10
-11.51465
 20
-5.21169
 30
0.0
 10
-11.51465
 20
-5.21169
 30
0.0
 10
-11.51465
 20
-5.21169
 30
0.0
 10
-11.62564
 20
-5.303
 30
0.0
 10
-11.62564
 20
-5.303
 30
0.0
 10
-11.62564
 20
-5.303
 30
0.0
 10
-11.62564
 20
-5.303
 30
0.0
 10
-11.57859
 20
-5.39051
 30
0.0
 10
-11.57859
 20
-5.39051
 30
0.0
 10
-11.57859
 20
-5.39051
 30
0.0
 10
-11.57157
 20
-5.36503
 30
0.0
 10
-11.55884
 20
-5.34475
 30
0.0
 10
-11.54053
 20
-5.32969
 30
0.0
 10
-11.54053
 20
-5.32969
 30
0.0
 10
-11.51624
 20
-5.3097
 30
0.0
 10
-11.48877
 20
-5.30127
 30
0.0
 10
-11.45819
 20
-5.30442
 30
0.0
 10
-11.45819
 20
-5.30442
 30
0.0
 10
-11.42761
 20
-5.30757
 30
0.0
 10
-11.40138
 20
-5.32237
 30
0.0
 10
-11.37958
 20
-5.34887
 30
0.0
 10
-11.37958
 20
-5.34887
 30
0.0
 10
-11.3588
 20
-5.37413
 30
0.0
 10
-11.34818
 20
-5.40199
 30
0.0
 10
-11.34774
 20
-5.43245
 30
0.0
 10
-11.34774
 20
-5.43245
 30
0.0
 10
-11.34701
 20
-5.46974
 30
0.0
 10
-11.36213
 20
-5.50113
 30
0.0
 10
-11.39304
 20
-5.52656
 30
0.0
 10
-11.39304
 20
-5.52656
 30
0.0
 10
-11.41837
 20
-5.5474
 30
0.0
 10
-11.4449
 20
-5.55725
 30
0.0
 10
-11.47265
 20
-5.55622
 30
0.0
 10
-11.47265
 20
-5.55622
 30
0.0
 10
-11.50039
 20
-5.5552
 30
0.0
 10
-11.52504
 20
-5.5439
 30
0.0
 10
-11.54666
 20
-5.52226
 30
0.0
  0
SPLINE
  5
7C
330
1F
100
AcDbEntity
  8
layer 2
 62
     1
370
     0
100
AcDbSpline
210
0.0
220
0.0
230
1.0
 70
    24
 71
     3
 72
     8
 73
     4
 74
     0
 42
0.0000000001
 43
0.0000000001
 12
1.0
 22
0.0
 32
0.0
 13
1.0
 23
0.0
 33
0.0
 40
0.0
 40
0.0
 40
0.0
 40
0.0
 40
1.0
 40
1.0
 40
1.0
 40
1.0
 10
-10.09219
 20
-5.53019
 30
0.0
 10
-10.09219
 20
-5.53019
 30
0.0
 10
-10.40986
 20
-5.79153
 30
0.0
 10
-10.40986
 20
-5.79153
 30
0.0
  0
SPLINE
  5
7D
330
1F
100
AcDbEntity
  8
layer 2
 62
     1
100
AcDbSpline
210
0.0
220
0.0
230
1.0
 70
    27
 71
     3
 72
    12
 73
     8
 74
     0
 42
0.0000000001
 43
0.0000000001
 12
1.0
 22
0.0
 32
0.0
 13
1.0
 23
0.0
 33
0.0
 40
0.0
 40
0.0
 40
0.0
 40
0.0
 40
0.3333333333333333
 40
0.3333333333333333
 40
0.3333333333333333
 40
0.3333333333333333
 40
1.0
 40
1.0
 40
1.0
 40
1.0
 10
-10.69884
 20
-5.95825
 30
0.0
 10
-10.69884
 20
-5.95825
 30
0.0
 10
-10.40986
 20
-5.79153
 30
0.0
 10
-10.40986
 20
-5.79153
 30
0.0
 10
-10.40986
 20
-5.79153
 30
0.0
 10
-10.40986
 20
-5.79153
 30
0.0
 10
-10.69884
 20
-5.95825
 30
0.0
 10
-10.69884
 20
-5.95825
 30
0.0
  0
SPLINE
  5
7E
330
1F
100
AcDbEntity
  8
layer 2
 62
     1
100
AcDbSpline
210
0.0
220
0.0
230
1.0
 70
     8
 71
     3
 72
    12
 73
     8
 74
     0
 42
0.0000000001
 43
0.0000000001
 12
1.0
 22
0.0
 32
0.0
 13
1.0
 23
0.0
 33
0.0
 40
0.0
 40
0.0
 40
0.0
 40
0.0
 40
0.3333333333333333
 40
0.3333333333333333
 40
0.3333333333333333
 40
0.3333333333333333
 40
1.0
 40
1.0
 40
1.0
 40
1.0
 10
-10.40986
 20
-5.79153
 30
0.0
 10
-10.40986
 20
-5.79153
 30
0.0
 10
-10.62915
 20
-6.04296
 30
0.0
 10
-10.62915
 20
-6.04296
 30
0.0
 10
-10.62915
 20
-6.04296
 30
0.0
 10
-10.62915
 20
-6.04296
 30
0.0
 10
-10.69884
 20
-5.95825
 30
0.0
 10
-10.69884
 20
-5.95825
 30
0.0
  0
SPLINE
  5
7F
330
1F
100
AcDbEntity
  8
layer 2
 62
     1
370
     9
100
AcDbSpline
210
0.0
220
0.0
230
1.0
 70
    24
 71
     3
 72
     8
 73
     4
 74
     0
 42
0.0000000001
 43
0.0000000001
 12
1.0
 22
0.0
 32
0.0
 13
1.0
 23
0.0
 33
0.0
 40
0.0
 40
0.0
 40
0.0
 40
0.0
 40
1.0
 40
1.0
 40
1.0
 40
1.0
 10
-10.69884
 20
-5.95825
 30
0.0
 10
-10.69884
 20
-5.95825
 30
0.0
 10
-10.40986
 20
-5.79153
 30
0.0
 10
-10.40986
 20
-5.79153
 30
0.0
  0
SPLINE
  5
80
330
1F
100
AcDbEntity
  8
layer 2
 62
     1
370
     9
100
AcDbSpline
210
0.0
220
0.0
230
1.0
 70
     8
 71
     3
 72
    12
 73
     8
 74
     0
 42
0.0000000001
 43
0.0000000001
 12
1.0
 22
0.0
 32
0.0
 13
1.0
 23
0.0
 33
0.0
 40
0.0
 40
0.0
 40
0.0
 40
0.0
 40
0.3333333333333333
 40
0.3333333333333333
 40
0.3333333333333333
 40
0.3333333333333333
 40
1.0
 40
1.0
 40
1.0
 40
1.0
 10
-10.40986
 20
-5.79153
 30
0.0
 10
-10.40986
 20
-5.79153
 30
0.0
 10
-10.62915
 20
-6.04296
 30
0.0
 10
-10.62915
 20
-6.04296
 30
0.0
 10
-10.62915
 20
-6.04296
 30
0.0
 10
-10.62915
 20
-6.04296
 30
0.0
 10
-10.69884
 20
-5.95825
 30
0.0
 10
-10.69884
 20
-5.95825
 30
0.0
  0
ENDSEC
  0
SECTION
  2
OBJECTS
  0
DICTIONARY
  5
C
330
0
100
AcDbDictionary
281
     1
  3
ACAD_GROUP
350
D
  3
ACAD_LAYOUT
350
1A
  3
ACAD_MATERIAL
350
3B
  3
ACAD_MLEADERSTYLE
350
A2
  3
ACAD_MLINESTYLE
350
17
  3
ACAD_PLOTSETTINGS
350
19
  3
ACAD_PLOTSTYLENAME
350
E
  3
ACAD_TABLESTYLE
350
A1
  3
ACAD_VISUALSTYLE
350
2A
  0
DICTIONARY
  5
D
102
{ACAD_REACTORS
330
C
102
}
330
C
100
AcDbDictionary
281
     1
  0
DICTIONARY
  5
1A
102
{ACAD_REACTORS
330
C
102
}
330
C
100
AcDbDictionary
281
     1
  3
Layout1
350
1E
  3
Layout2
350
26
  3
Model
350
22
  0
DICTIONARY
  5
3B
102
{ACAD_REACTORS
330
C
102
}
330
C
100
AcDbDictionary
281
     1
  3
ByBlock
350
3D
  3
ByLayer
350
3C
  3
Global
350
3E
  0
DICTIONARY
  5
A2
102
{ACAD_REACTORS
330
C
102
}
330
C
100
AcDbDictionary
281
     1
  0
DICTIONARY
  5
17
102
{ACAD_REACTORS
330
C
102
}
330
C
100
AcDbDictionary
281
     1
  3
Standard
350
18
  0
DICTIONARY
  5
19
102
{ACAD_REACTORS
330
C
102
}
330
C
100
AcDbDictionary
281
     1
  0
ACDBDICTIONARYWDFLT
  5
E
102
{ACAD_REACTORS
330
C
102
}
330
C
100
AcDbDictionary
281
     1
  3
Normal
350
F
100
AcDbDictionaryWithDefault
340
F
  0
DICTIONARY
  5
A1
102
{ACAD_REACTORS
330
C
102
}
330
C
100
AcDbDictionary
281
     1
  0
DICTIONARY
  5
2A
102
{ACAD_REACTORS
330
C
102
}
330
C
100
AcDbDictionary
281
     1
  3
2dWireframe
350
2F
  3
3D Hidden
350
31
  3
3dWireframe
350
30
  3
Basic
350
32
  3
Brighten
350
36
  3
ColorChange
350
3A
  3
Conceptual
350
34
  3
Dim
350
35
  3
Facepattern
350
39
  3
Flat
350
2B
  3
FlatWithEdges
350
2C
  3
Gouraud
350
2D
  3
GouraudWithEdges
350
2E
  3
Linepattern
350
38
  3
Realistic
350
33
  3
Thicken
350
37
  0
LAYOUT
  5
1E
102
{ACAD_REACTORS
330
1A
102
}
330
1A
100
AcDbPlotSettings
  1

  2
none_device
  4

  6

 40
0.0
 41
0.0
 42
0.0
 43
0.0
 44
0.0
 45
0.0
 46
0.0
 47
0.0
 48
0.0
 49
0.0
140
0.0
141
0.0
142
1.0
143
1.0
 70
   688
 72
     0
 73
     0
 74
     5
  7

 75
    16
 76
     0
 77
     2
 78
   300
147
1.0
148
0.0
149
0.0
100
AcDbLayout
  1
Layout1
 70
     1
 71
     1
 10
0.0
 20
0.0
 11
12.0
 21
9.0
 12
0.0
 22
0.0
 32
0.0
 14
1.000000000000000E+20
 24
1.000000000000000E+20
 34
1.000000000000000E+20
 15
-1.000000000000000E+20
 25
-1.000000000000000E+20
 35
-1.000000000000000E+20
146
0.0
 13
0.0
 23
0.0
 33
0.0
 16
1.0
 26
0.0
 36
0.0
 17
0.0
 27
1.0
 37
0.0
 76
     0
330
1B
  0
LAYOUT
  5
26
102
{ACAD_REACTORS
330
1A
102
}
330
1A
100
AcDbPlotSettings
  1

  2
none_device
  4

  6

 40
0.0
 41
0.0
 42
0.0
 43
0.0
 44
0.0
 45
0.0
 46
0.0
 47
0.0
 48
0.0
 49
0.0
140
0.0
141
0.0
142
1.0
143
1.0
 70
   688
 72
     0
 73
     0
 74
     5
  7

 75
    16
 76
     0
 77
     2
 78
   300
147
1.0
148
0.0
149
0.0
100
AcDbLayout
  1
Layout2
 70
     1
 71
     2
 10
0.0
 20
0.0
 11
0.0
 21
0.0
 12
0.0
 22
0.0
 32
0.0
 14
0.0
 24
0.0
 34
0.0
 15
0.0
 25
0.0
 35
0.0
146
0.0
 13
0.0
 23
0.0
 33
0.0
 16
1.0
 26
0.0
 36
0.0
 17
0.0
 27
1.0
 37
0.0
 76
     0
330
23
  0
LAYOUT
  5
22
102
{ACAD_REACTORS
330
1A
102
}
330
1A
100
AcDbPlotSettings
  1

  2
none_device
  4

  6

 40
0.0
 41
0.0
 42
0.0
 43
0.0
 44
0.0
 45
0.0
 46
0.0
 47
0.0
 48
0.0
 49
0.0
140
0.0
141
0.0
142
1.0
143
1.0
 70
  1712
 72
     0
 73
     0
 74
     0
  7

 75
     0
 76
     0
 77
     2
 78
   300
147
1.0
148
0.0
149
0.0
100
AcDbLayout
  1
Model
 70
     1
 71
     0
 10
0.0
 20
0.0
 11
12.0
 21
9.0
 12
0.0
 22
0.0
 32
0.0
 14
-12.19964
 24
-8.75932
 34
0.0
 15
12.78088
 25
6.69511
 35
0.0
146
0.0
 13
0.0
 23
0.0
 33
0.0
 16
1.0
 26
0.0
 36
0.0
 17
0.0
 27
1.0
 37
0.0
 76
     0
330
1F
331
29
  0
MATERIAL
  5
3D
102
{ACAD_REACTORS
330
3B
102
}
330
3B
100
AcDbMaterial
  1
ByBlock
 72
     1
 94
      127
  0
MATERIAL
  5
3C
102
{ACAD_REACTORS
330
3B
102
}
330
3B
100
AcDbMaterial
  1
ByLayer
 72
     1
 94
      127
  0
MATERIAL
  5
3E
102
{ACAD_REACTORS
330
3B
102
}
330
3B
100
AcDbMaterial
  1
Global
 72
     1
 94
      127
  0
MLINESTYLE
  5
18
102
{ACAD_REACTORS
330
17
102
}
330
17
100
AcDbMlineStyle
  2
Standard
 70
     0
  3

 62
   256
 51
90.0
 52
90.0
 71
     2
 49
0.5
 62
   256
  6
BYLAYER
 49
-0.5
 62
   256
  6
BYLAYER
  0
ACDBPLACEHOLDER
  5
F
102
{ACAD_REACTORS
330
E
102
}
330
E
  0
VISUALSTYLE
  5
2F
102
{ACAD_REACTORS
330
2A
102
}
102
{ACAD_XDICTIONARY
360
89
102
}
330
2A
100
AcDbVisualStyle
  2
2dWireframe
 70
     4
 71
     0
 72
     2
 73
     0
 90
        0
 40
-0.6
 41
-30.0
 62
     5
 63
     7
421
 16777215
 74
     1
 91
        4
 64
     7
 65
   257
 75
     1
175
     1
 42
1.0
 92
        0
 66
   257
 43
1.0
 76
     1
 77
     6
 78
     2
 67
     7
 79
     5
170
     0
171
     0
290
     0
174
     0
 93
        1
 44
0.0
173
     0
291
     0
 45
0.0
  0
VISUALSTYLE
  5
31
102
{ACAD_REACTORS
330
2A
102
}
102
{ACAD_XDICTIONARY
360
8D
102
}
330
2A
100
AcDbVisualStyle
  2
3D Hidden
 70
     6
 71
     1
 72
     2
 73
     2
 90
        0
 40
-0.6
 41
-30.0
 62
     5
 63
     7
421
 16777215
 74
     2
 91
        2
 64
     7
 65
   257
 75
     2
175
     1
 42
40.0
 92
        0
 66
   257
 43
1.0
 76
     1
 77
     6
 78
     2
 67
     7
 79
     3
170
     0
171
     0
290
     0
174
     0
 93
        1
 44
0.0
173
     0
291
     0
 45
0.0
  0
VISUALSTYLE
  5
30
102
{ACAD_REACTORS
330
2A
102
}
102
{ACAD_XDICTIONARY
360
8B
102
}
330
2A
100
AcDbVisualStyle
  2
3dWireframe
 70
     5
 71
     0
 72
     2
 73
     0
 90
        0
 40
-0.6
 41
-30.0
 62
     5
 63
     7
421
 16777215
 74
     1
 91
        4
 64
     7
 65
   257
 75
     1
175
     1
 42
1.0
 92
        0
 66
   257
 43
1.0
 76
     1
 77
     6
 78
     2
 67
     7
 79
     5
170
     0
171
     0
290
     0
174
     0
 93
        1
 44
0.0
173
     0
291
     0
 45
0.0
  0
VISUALSTYLE
  5
32
102
{ACAD_REACTORS
330
2A
102
}
102
{ACAD_XDICTIONARY
360
8F
102
}
330
2A
100
AcDbVisualStyle
  2
Basic
 70
     7
 71
     1
 72
     0
 73
     1
 90
        0
 40
-0.6
 41
-30.0
 62
     5
 63
     7
421
 16777215
 74
     0
 91
        4
 64
     7
 65
   257
 75
     1
175
     1
 42
1.0
 92
        8
 66
     7
 43
1.0
 76
     1
 77
     6
 78
     2
 67
     7
 79
     5
170
     0
171
     0
290
     0
174
     0
 93
        1
 44
0.0
173
     0
291
     1
 45
0.0
  0
VISUALSTYLE
  5
36
102
{ACAD_REACTORS
330
2A
102
}
102
{ACAD_XDICTIONARY
360
97
102
}
330
2A
100
AcDbVisualStyle
  2
Brighten
 70
    12
 71
     2
 72
     2
 73
     0
 90
        0
 40
-0.6
 41
-30.0
 62
     5
 63
     7
421
 16777215
 74
     1
 91
        4
 64
     7
 65
   257
 75
     1
175
     1
 42
1.0
 92
        8
 66
     7
 43
1.0
 76
     1
 77
     6
 78
     2
 67
     7
 79
     5
170
     0
171
     0
290
     0
174
     0
 93
        1
 44
50.0
173
     0
291
     1
 45
0.0
  0
VISUALSTYLE
  5
3A
102
{ACAD_REACTORS
330
2A
102
}
102
{ACAD_XDICTIONARY
360
9F
102
}
330
2A
100
AcDbVisualStyle
  2
ColorChange
 70
    16
 71
     2
 72
     2
 73
     3
 90
        0
 40
-0.6
 41
-30.0
 62
     5
 63
     8
421
  8421504
 74
     1
 91
        4
 64
     7
 65
   257
 75
     1
175
     1
 42
1.0
 92
        8
 66
     8
424
  8421504
 43
1.0
 76
     1
 77
     6
 78
     2
 67
     7
 79
     5
170
     0
171
     0
290
     0
174
     0
 93
        1
 44
0.0
173
     0
291
     1
 45
0.0
  0
VISUALSTYLE
  5
34
102
{ACAD_REACTORS
330
2A
102
}
102
{ACAD_XDICTIONARY
360
93
102
}
330
2A
100
AcDbVisualStyle
  2
Conceptual
 70
     9
 71
     3
 72
     2
 73
     0
 90
        0
 40
-0.6
 41
-30.0
 62
     5
 63
     7
421
 16777215
 74
     2
 91
        2
 64
     7
 65
   257
 75
     1
175
     1
 42
40.0
 92
        8
 66
     7
 43
1.0
 76
     1
 77
     6
 78
     2
 67
     7
 79
     3
170
     0
171
     0
290
     0
174
     0
 93
        1
 44
0.0
173
     0
291
     0
 45
0.0
  0
VISUALSTYLE
  5
35
102
{ACAD_REACTORS
330
2A
102
}
102
{ACAD_XDICTIONARY
360
95
102
}
330
2A
100
AcDbVisualStyle
  2
Dim
 70
    11
 71
     2
 72
     2
 73
     0
 90
        0
 40
-0.6
 41
-30.0
 62
     5
 63
     7
421
 16777215
 74
     1
 91
        4
 64
     7
 65
   257
 75
     1
175
     1
 42
1.0
 92
        8
 66
     7
 43
1.0
 76
     1
 77
     6
 78
     2
 67
     7
 79
     5
170
     0
171
     0
290
     0
174
     0
 93
        1
 44
-50.0
173
     0
291
     1
 45
0.0
  0
VISUALSTYLE
  5
39
102
{ACAD_REACTORS
330
2A
102
}
102
{ACAD_XDICTIONARY
360
9D
102
}
330
2A
100
AcDbVisualStyle
  2
Facepattern
 70
    15
 71
     2
 72
     2
 73
     0
 90
        0
 40
-0.6
 41
-30.0
 62
     5
 63
     7
421
 16777215
 74
     1
 91
        4
 64
     7
 65
   257
 75
     1
175
     1
 42
1.0
 92
        8
 66
     7
 43
1.0
 76
     1
 77
     6
 78
     2
 67
     7
 79
     5
170
     0
171
     0
290
     0
174
     0
 93
        1
 44
0.0
173
     0
291
     1
 45
0.0
  0
VISUALSTYLE
  5
2B
102
{ACAD_REACTORS
330
2A
102
}
102
{ACAD_XDICTIONARY
360
81
102
}
330
2A
100
AcDbVisualStyle
  2
Flat
 70
     0
 71
     2
 72
     1
 73
     1
 90
        2
 40
-0.6
 41
30.0
 62
     5
 63
     7
421
 16777215
 74
     0
 91
        4
 64
     7
 65
   257
 75
     1
175
     1
 42
1.0
 92
        8
 66
     7
 43
1.0
 76
     1
 77
     6
 78
     2
 67
     7
 79
     5
170
     0
171
     0
290
     0
174
     0
 93
       13
 44
0.0
173
     0
291
     1
 45
0.0
  0
VISUALSTYLE
  5
2C
102
{ACAD_REACTORS
330
2A
102
}
102
{ACAD_XDICTIONARY
360
83
102
}
330
2A
100
AcDbVisualStyle
  2
FlatWithEdges
 70
     1
 71
     2
 72
     1
 73
     1
 90
        2
 40
-0.6
 41
30.0
 62
     5
 63
     7
421
 16777215
 74
     1
 91
        4
 64
     7
 65
   257
 75
     1
175
     1
 42
1.0
 92
        0
 66
   257
 43
1.0
 76
     1
 77
     6
 78
     2
 67
     7
 79
     5
170
     0
171
     0
290
     0
174
     0
 93
       13
 44
0.0
173
     0
291
     1
 45
0.0
  0
VISUALSTYLE
  5
2D
102
{ACAD_REACTORS
330
2A
102
}
102
{ACAD_XDICTIONARY
360
85
102
}
330
2A
100
AcDbVisualStyle
  2
Gouraud
 70
     2
 71
     2
 72
     2
 73
     1
 90
        2
 40
-0.6
 41
30.0
 62
     5
 63
     7
421
 16777215
 74
     0
 91
        4
 64
     7
 65
   257
 75
     1
175
     1
 42
1.0
 92
        0
 66
     7
 43
1.0
 76
     1
 77
     6
 78
     2
 67
     7
 79
     5
170
     0
171
     0
290
     0
174
     0
 93
       13
 44
0.0
173
     0
291
     1
 45
0.0
  0
VISUALSTYLE
  5
2E
102
{ACAD_REACTORS
330
2A
102
}
102
{ACAD_XDICTIONARY
360
87
102
}
330
2A
100
AcDbVisualStyle
  2
GouraudWithEdges
 70
     3
 71
     2
 72
     2
 73
     1
 90
        2
 40
-0.6
 41
30.0
 62
     5
 63
     7
421
 16777215
 74
     1
 91
        4
 64
     7
 65
   257
 75
     1
175
     1
 42
1.0
 92
        0
 66
   257
 43
1.0
 76
     1
 77
     6
 78
     2
 67
     7
 79
     5
170
     0
171
     0
290
     0
174
     0
 93
       13
 44
0.0
173
     0
291
     1
 45
0.0
  0
VISUALSTYLE
  5
38
102
{ACAD_REACTORS
330
2A
102
}
102
{ACAD_XDICTIONARY
360
9B
102
}
330
2A
100
AcDbVisualStyle
  2
Linepattern
 70
    14
 71
     2
 72
     2
 73
     0
 90
        0
 40
-0.6
 41
-30.0
 62
     5
 63
     7
421
 16777215
 74
     1
 91
        4
 64
     7
 65
   257
 75
     7
175
     7
 42
1.0
 92
        8
 66
     7
 43
1.0
 76
     1
 77
     6
 78
     2
 67
     7
 79
     5
170
     0
171
     0
290
     0
174
     0
 93
        1
 44
0.0
173
     0
291
     1
 45
0.0
  0
VISUALSTYLE
  5
33
102
{ACAD_REACTORS
330
2A
102
}
102
{ACAD_XDICTIONARY
360
91
102
}
330
2A
100
AcDbVisualStyle
  2
Realistic
 70
     8
 71
     2
 72
     2
 73
     0
 90
        0
 40
-0.6
 41
-30.0
 62
     5
 63
     7
421
 16777215
 74
     1
 91
        0
 64
     7
 65
   257
 75
     1
175
     1
 42
1.0
 92
        8
 66
     8
424
  7895160
 43
1.0
 76
     1
 77
     6
 78
     2
 67
     7
 79
     5
170
     0
171
     0
290
     0
174
     0
 93
       13
 44
0.0
173
     0
291
     0
 45
0.0
  0
VISUALSTYLE
  5
37
102
{ACAD_REACTORS
330
2A
102
}
102
{ACAD_XDICTIONARY
360
99
102
}
330
2A
100
AcDbVisualStyle
  2
Thicken
 70
    13
 71
     2
 72
     2
 73
     0
 90
        0
 40
-0.6
 41
-30.0
 62
     5
 63
     7
421
 16777215
 74
     1
 91
        4
 64
     7
 65
   257
 75
     1
175
     1
 42
1.0
 92
       12
 66
     7
 43
1.0
 76
     1
 77
     6
 78
     2
 67
     7
 79
     5
170
     0
171
     0
290
     0
174
     0
 93
        1
 44
0.0
173
     0
291
     1
 45
0.0
  0
DICTIONARY
  5
89
330
2F
100
AcDbDictionary
280
     1
281
     1
  3
ACAD_XREC_ROUNDTRIP
360
8A
  0
DICTIONARY
  5
8D
330
31
100
AcDbDictionary
280
     1
281
     1
  3
ACAD_XREC_ROUNDTRIP
360
8E
  0
DICTIONARY
  5
8B
330
30
100
AcDbDictionary
280
     1
281
     1
  3
ACAD_XREC_ROUNDTRIP
360
8C
  0
DICTIONARY
  5
8F
330
32
100
AcDbDictionary
280
     1
281
     1
  3
ACAD_XREC_ROUNDTRIP
360
90
  0
DICTIONARY
  5
97
330
36
100
AcDbDictionary
280
     1
281
     1
  3
ACAD_XREC_ROUNDTRIP
360
98
  0
DICTIONARY
  5
9F
330
3A
100
AcDbDictionary
280
     1
281
     1
  3
ACAD_XREC_ROUNDTRIP
360
A0
  0
DICTIONARY
  5
93
330
34
100
AcDbDictionary
280
     1
281
     1
  3
ACAD_XREC_ROUNDTRIP
360
94
  0
DICTIONARY
  5
95
330
35
100
AcDbDictionary
280
     1
281
     1
  3
ACAD_XREC_ROUNDTRIP
360
96
  0
DICTIONARY
  5
9D
330
39
100
AcDbDictionary
280
     1
281
     1
  3
ACAD_XREC_ROUNDTRIP
360
9E
  0
DICTIONARY
  5
81
330
2B
100
AcDbDictionary
280
     1
281
     1
  3
ACAD_XREC_ROUNDTRIP
360
82
  0
DICTIONARY
  5
83
330
2C
100
AcDbDictionary
280
     1
281
     1
  3
ACAD_XREC_ROUNDTRIP
360
84
  0
DICTIONARY
  5
85
330
2D
100
AcDbDictionary
280
     1
281
     1
  3
ACAD_XREC_ROUNDTRIP
360
86
  0
DICTIONARY
  5
87
330
2E
100
AcDbDictionary
280
     1
281
     1
  3
ACAD_XREC_ROUNDTRIP
360
88
  0
DICTIONARY
  5
9B
330
38
100
AcDbDictionary
280
     1
281
     1
  3
ACAD_XREC_ROUNDTRIP
360
9C
  0
DICTIONARY
  5
91
330
33
100
AcDbDictionary
280
     1
281
     1
  3
ACAD_XREC_ROUNDTRIP
360
92
  0
DICTIONARY
  5
99
330
37
100
AcDbDictionary
280
     1
281
     1
  3
ACAD_XREC_ROUNDTRIP
360
9A
  0
XRECORD
  5
8A
102
{ACAD_REACTORS
330
89
102
}
330
89
100
AcDbXrecord
280
     1
102
RTVSPropertyOp0
 70
     1
102
RTVSPropertyOp1
 70
     1
102
RTVSPropertyOp2
 70
     1
102
RTVSPropertyOp3
 70
     1
102
RTVSPropertyOp4
 70
     1
102
RTVSPropertyOp5
 70
     1
102
RTVSPropertyOp6
 70
     1
102
RTVSPropertyOp7
 70
     1
102
RTVSPropertyOp8
 70
     1
102
RTVSPropertyOp9
 70
     1
102
RTVSPropertyOp10
 70
     1
102
RTVSPropertyOp11
 70
     1
102
RTVSPropertyOp12
 70
     1
102
RTVSPropertyOp13
 70
     1
102
RTVSPropertyOp14
 70
     1
102
RTVSPropertyOp15
 70
     1
102
RTVSPropertyOp16
 70
     1
102
RTVSPropertyOp17
 70
     1
102
RTVSPropertyOp18
 70
     1
102
RTVSPropertyOp19
 70
     1
102
RTVSPropertyOp20
 70
     1
102
RTVSPropertyOp21
 70
     1
102
RTVSPropertyOp22
 70
     1
102
RTVSPropertyOp23
 70
     1
102
RTVSPropertyOp24
 70
     1
102
RTVSPropertyOp25
 70
     1
102
RTVSPropertyOp26
 70
     1
102
RTVSPropertyOp27
 70
     1
102
RTVSPropertyOp28
 70
     1
102
RTVSPropertyOp29
 70
     1
102
RTVSPropertyOp30
 70
     1
102
RTVSPropertyOp31
 70
     1
102
RTVSPropertyOp32
 70
     1
  0
XRECORD
  5
8E
102
{ACAD_REACTORS
330
8D
102
}
330
8D
100
AcDbXrecord
280
     1
102
RTVSPropertyOp0
 70
     1
102
RTVSPropertyOp1
 70
     1
102
RTVSPropertyOp2
 70
     1
102
RTVSPropertyOp3
 70
     1
102
RTVSPropertyOp4
 70
     1
102
RTVSPropertyOp5
 70
     1
102
RTVSPropertyOp6
 70
     1
102
RTVSPropertyOp7
 70
     1
102
RTVSPropertyOp8
 70
     1
102
RTVSPropertyOp9
 70
     1
102
RTVSPropertyOp10
 70
     1
102
RTVSPropertyOp11
 70
     1
102
RTVSPropertyOp12
 70
     1
102
RTVSPropertyOp13
 70
     1
102
RTVSPropertyOp14
 70
     1
102
RTVSPropertyOp15
 70
     1
102
RTVSPropertyOp16
 70
     1
102
RTVSPropertyOp17
 70
     1
102
RTVSPropertyOp18
 70
     1
102
RTVSPropertyOp19
 70
     1
102
RTVSPropertyOp20
 70
     1
102
RTVSPropertyOp21
 70
     1
102
RTVSPropertyOp22
 70
     1
102
RTVSPropertyOp23
 70
     1
102
RTVSPropertyOp24
 70
     1
102
RTVSPropertyOp25
 70
     1
102
RTVSPropertyOp26
 70
     1
102
RTVSPropertyOp27
 70
     1
102
RTVSPropertyOp28
 70
     1
102
RTVSPropertyOp29
 70
     1
102
RTVSPropertyOp30
 70
     1
102
RTVSPropertyOp31
 70
     1
102
RTVSPropertyOp32
 70
     1
  0
XRECORD
  5
8C
102
{ACAD_REACTORS
330
8B
102
}
330
8B
100
AcDbXrecord
280
     1
102
RTVSPropertyOp0
 70
     1
102
RTVSPropertyOp1
 70
     1
102
RTVSPropertyOp2
 70
     1
102
RTVSPropertyOp3
 70
     1
102
RTVSPropertyOp4
 70
     1
102
RTVSPropertyOp5
 70
     1
102
RTVSPropertyOp6
 70
     1
102
RTVSPropertyOp7
 70
     1
102
RTVSPropertyOp8
 70
     1
102
RTVSPropertyOp9
 70
     1
102
RTVSPropertyOp10
 70
     1
102
RTVSPropertyOp11
 70
     1
102
RTVSPropertyOp12
 70
     1
102
RTVSPropertyOp13
 70
     1
102
RTVSPropertyOp14
 70
     1
102
RTVSPropertyOp15
 70
     1
102
RTVSPropertyOp16
 70
     1
102
RTVSPropertyOp17
 70
     1
102
RTVSPropertyOp18
 70
     1
102
RTVSPropertyOp19
 70
     1
102
RTVSPropertyOp20
 70
     1
102
RTVSPropertyOp21
 70
     1
102
RTVSPropertyOp22
 70
     1
102
RTVSPropertyOp23
 70
     1
102
RTVSPropertyOp24
 70
     1
102
RTVSPropertyOp25
 70
     1
102
RTVSPropertyOp26
 70
     1
102
RTVSPropertyOp27
 70
     1
102
RTVSPropertyOp28
 70
     1
102
RTVSPropertyOp29
 70
     1
102
RTVSPropertyOp30
 70
     1
102
RTVSPropertyOp31
 70
     1
102
RTVSPropertyOp32
 70
     1
  0
XRECORD
  5
90
102
{ACAD_REACTORS
330
8F
102
}
330
8F
100
AcDbXrecord
280
     1
102
RTVSPropertyOp0
 70
     1
102
RTVSPropertyOp1
 70
     1
102
RTVSPropertyOp2
 70
     1
102
RTVSPropertyOp3
 70
     1
102
RTVSPropertyOp4
 70
     1
102
RTVSPropertyOp5
 70
     1
102
RTVSPropertyOp6
 70
     1
102
RTVSPropertyOp7
 70
     1
102
RTVSPropertyOp8
 70
     1
102
RTVSPropertyOp9
 70
     1
102
RTVSPropertyOp10
 70
     1
102
RTVSPropertyOp11
 70
     1
102
RTVSPropertyOp12
 70
     1
102
RTVSPropertyOp13
 70
     1
102
RTVSPropertyOp14
 70
     1
102
RTVSPropertyOp15
 70
     1
102
RTVSPropertyOp16
 70
     1
102
RTVSPropertyOp17
 70
     1
102
RTVSPropertyOp18
 70
     1
102
RTVSPropertyOp19
 70
     1
102
RTVSPropertyOp20
 70
     1
102
RTVSPropertyOp21
 70
     1
102
RTVSPropertyOp22
 70
     1
102
RTVSPropertyOp23
 70
     1
102
RTVSPropertyOp24
 70
     1
102
RTVSPropertyOp25
 70
     1
102
RTVSPropertyOp26
 70
     1
102
RTVSPropertyOp27
 70
     1
102
RTVSPropertyOp28
 70
     1
102
RTVSPropertyOp29
 70
     1
102
RTVSPropertyOp30
 70
     1
102
RTVSPropertyOp31
 70
     1
102
RTVSPropertyOp32
 70
     1
  0
XRECORD
  5
98
102
{ACAD_REACTORS
330
97
102
}
330
97
100
AcDbXrecord
280
     1
102
RTVSPropertyOp0
 70
     1
102
RTVSPropertyOp1
 70
     1
102
RTVSPropertyOp2
 70
     1
102
RTVSPropertyOp3
 70
     1
102
RTVSPropertyOp4
 70
     1
102
RTVSPropertyOp5
 70
     1
102
RTVSPropertyOp6
 70
     1
102
RTVSPropertyOp7
 70
     1
102
RTVSPropertyOp8
 70
     1
102
RTVSPropertyOp9
 70
     1
102
RTVSPropertyOp10
 70
     1
102
RTVSPropertyOp11
 70
     1
102
RTVSPropertyOp12
 70
     1
102
RTVSPropertyOp13
 70
     1
102
RTVSPropertyOp14
 70
     1
102
RTVSPropertyOp15
 70
     1
102
RTVSPropertyOp16
 70
     1
102
RTVSPropertyOp17
 70
     1
102
RTVSPropertyOp18
 70
     1
102
RTVSPropertyOp19
 70
     1
102
RTVSPropertyOp20
 70
     1
102
RTVSPropertyOp21
 70
     1
102
RTVSPropertyOp22
 70
     1
102
RTVSPropertyOp23
 70
     1
102
RTVSPropertyOp24
 70
     1
102
RTVSPropertyOp25
 70
     1
102
RTVSPropertyOp26
 70
     1
102
RTVSPropertyOp27
 70
     1
102
RTVSPropertyOp28
 70
     1
102
RTVSPropertyOp29
 70
     1
102
RTVSPropertyOp30
 70
     1
102
RTVSPropertyOp31
 70
     1
102
RTVSPropertyOp32
 70
     1
  0
XRECORD
  5
A0
102
{ACAD_REACTORS
330
9F
102
}
330
9F
100
AcDbXrecord
280
     1
102
RTVSPropertyOp0
 70
     1
102
RTVSPropertyOp1
 70
     1
102
RTVSPropertyOp2
 70
     1
102
RTVSPropertyOp3
 70
     1
102
RTVSPropertyOp4
 70
     1
102
RTVSPropertyOp5
 70
     1
102
RTVSPropertyOp6
 70
     1
102
RTVSPropertyOp7
 70
     1
102
RTVSPropertyOp8
 70
     1
102
RTVSPropertyOp9
 70
     1
102
RTVSPropertyOp10
 70
     1
102
RTVSPropertyOp11
 70
     1
102
RTVSPropertyOp12
 70
     1
102
RTVSPropertyOp13
 70
     1
102
RTVSPropertyOp14
 70
     1
102
RTVSPropertyOp15
 70
     1
102
RTVSPropertyOp16
 70
     1
102
RTVSPropertyOp17
 70
     1
102
RTVSPropertyOp18
 70
     1
102
RTVSPropertyOp19
 70
     1
102
RTVSPropertyOp20
 70
     1
102
RTVSPropertyOp21
 70
     1
102
RTVSPropertyOp22
 70
     1
102
RTVSPropertyOp23
 70
     1
102
RTVSPropertyOp24
 70
     1
102
RTVSPropertyOp25
 70
     1
102
RTVSPropertyOp26
 70
     1
102
RTVSPropertyOp27
 70
     1
102
RTVSPropertyOp28
 70
     1
102
RTVSPropertyOp29
 70
     1
102
RTVSPropertyOp30
 70
     1
102
RTVSPropertyOp31
 70
     1
102
RTVSPropertyOp32
 70
     1
  0
XRECORD
  5
94
102
{ACAD_REACTORS
330
93
102
}
330
93
100
AcDbXrecord
280
     1
102
RTVSPropertyOp0
 70
     1
102
RTVSPropertyOp1
 70
     1
102
RTVSPropertyOp2
 70
     1
102
RTVSPropertyOp3
 70
     1
102
RTVSPropertyOp4
 70
     1
102
RTVSPropertyOp5
 70
     1
102
RTVSPropertyOp6
 70
     1
102
RTVSPropertyOp7
 70
     1
102
RTVSPropertyOp8
 70
     1
102
RTVSPropertyOp9
 70
     1
102
RTVSPropertyOp10
 70
     1
102
RTVSPropertyOp11
 70
     1
102
RTVSPropertyOp12
 70
     1
102
RTVSPropertyOp13
 70
     1
102
RTVSPropertyOp14
 70
     1
102
RTVSPropertyOp15
 70
     1
102
RTVSPropertyOp16
 70
     1
102
RTVSPropertyOp17
 70
     1
102
RTVSPropertyOp18
 70
     1
102
RTVSPropertyOp19
 70
     1
102
RTVSPropertyOp20
 70
     1
102
RTVSPropertyOp21
 70
     1
102
RTVSPropertyOp22
 70
     1
102
RTVSPropertyOp23
 70
     1
102
RTVSPropertyOp24
 70
     1
102
RTVSPropertyOp25
 70
     1
102
RTVSPropertyOp26
 70
     1
102
RTVSPropertyOp27
 70
     1
102
RTVSPropertyOp28
 70
     1
102
RTVSPropertyOp29
 70
     1
102
RTVSPropertyOp30
 70
     1
102
RTVSPropertyOp31
 70
     1
102
RTVSPropertyOp32
 70
     1
  0
XRECORD
  5
96
102
{ACAD_REACTORS
330
95
102
}
330
95
100
AcDbXrecord
280
     1
102
RTVSPropertyOp0
 70
     1
102
RTVSPropertyOp1
 70
     1
102
RTVSPropertyOp2
 70
     1
102
RTVSPropertyOp3
 70
     1
102
RTVSPropertyOp4
 70
     1
102
RTVSPropertyOp5
 70
     1
102
RTVSPropertyOp6
 70
     1
102
RTVSPropertyOp7
 70
     1
102
RTVSPropertyOp8
 70
     1
102
RTVSPropertyOp9
 70
     1
102
RTVSPropertyOp10
 70
     1
102
RTVSPropertyOp11
 70
     1
102
RTVSPropertyOp12
 70
     1
102
RTVSPropertyOp13
 70
     1
102
RTVSPropertyOp14
 70
     1
102
RTVSPropertyOp15
 70
     1
102
RTVSPropertyOp16
 70
     1
102
RTVSPropertyOp17
 70
     1
102
RTVSPropertyOp18
 70
     1
102
RTVSPropertyOp19
 70
     1
102
RTVSPropertyOp20
 70
     1
102
RTVSPropertyOp21
 70
     1
102
RTVSPropertyOp22
 70
     1
102
RTVSPropertyOp23
 70
     1
102
RTVSPropertyOp24
 70
     1
102
RTVSPropertyOp25
 70
     1
102
RTVSPropertyOp26
 70
     1
102
RTVSPropertyOp27
 70
     1
102
RTVSPropertyOp28
 70
     1
102
RTVSPropertyOp29
 70
     1
102
RTVSPropertyOp30
 70
     1
102
RTVSPropertyOp31
 70
     1
102
RTVSPropertyOp32
 70
     1
  0
XRECORD
  5
9E
102
{ACAD_REACTORS
330
9D
102
}
330
9D
100
AcDbXrecord
280
     1
102
RTVSPropertyOp0
 70
     1
102
RTVSPropertyOp1
 70
     1
102
RTVSPropertyOp2
 70
     1
102
RTVSPropertyOp3
 70
     1
102
RTVSPropertyOp4
 70
     1
102
RTVSPropertyOp5
 70
     1
102
RTVSPropertyOp6
 70
     1
102
RTVSPropertyOp7
 70
     1
102
RTVSPropertyOp8
 70
     1
102
RTVSPropertyOp9
 70
     1
102
RTVSPropertyOp10
 70
     1
102
RTVSPropertyOp11
 70
     1
102
RTVSPropertyOp12
 70
     1
102
RTVSPropertyOp13
 70
     1
102
RTVSPropertyOp14
 70
     1
102
RTVSPropertyOp15
 70
     1
102
RTVSPropertyOp16
 70
     1
102
RTVSPropertyOp17
 70
     1
102
RTVSPropertyOp18
 70
     1
102
RTVSPropertyOp19
 70
     1
102
RTVSPropertyOp20
 70
     1
102
RTVSPropertyOp21
 70
     1
102
RTVSPropertyOp22
 70
     1
102
RTVSPropertyOp23
 70
     1
102
RTVSPropertyOp24
 70
     1
102
RTVSPropertyOp25
 70
     1
102
RTVSPropertyOp26
 70
     1
102
RTVSPropertyOp27
 70
     1
102
RTVSPropertyOp28
 70
     1
102
RTVSPropertyOp29
 70
     1
102
RTVSPropertyOp30
 70
     1
102
RTVSPropertyOp31
 70
     1
102
RTVSPropertyOp32
 70
     1
  0
XRECORD
  5
82
102
{ACAD_REACTORS
330
81
102
}
330
81
100
AcDbXrecord
280
     1
102
RTVSPropertyOp0
 70
     1
102
RTVSPropertyOp1
 70
     1
102
RTVSPropertyOp2
 70
     1
102
RTVSPropertyOp3
 70
     1
102
RTVSPropertyOp4
 70
     1
102
RTVSPropertyOp5
 70
     1
102
RTVSPropertyOp6
 70
     1
102
RTVSPropertyOp7
 70
     1
102
RTVSPropertyOp8
 70
     1
102
RTVSPropertyOp9
 70
     1
102
RTVSPropertyOp10
 70
     1
102
RTVSPropertyOp11
 70
     1
102
RTVSPropertyOp12
 70
     1
102
RTVSPropertyOp13
 70
     1
102
RTVSPropertyOp14
 70
     1
102
RTVSPropertyOp15
 70
     1
102
RTVSPropertyOp16
 70
     1
102
RTVSPropertyOp17
 70
     1
102
RTVSPropertyOp18
 70
     1
102
RTVSPropertyOp19
 70
     1
102
RTVSPropertyOp20
 70
     1
102
RTVSPropertyOp21
 70
     1
102
RTVSPropertyOp22
 70
     1
102
RTVSPropertyOp23
 70
     1
102
RTVSPropertyOp24
 70
     1
102
RTVSPropertyOp25
 70
     1
102
RTVSPropertyOp26
 70
     1
102
RTVSPropertyOp27
 70
     1
102
RTVSPropertyOp28
 70
     1
102
RTVSPropertyOp29
 70
     1
102
RTVSPropertyOp30
 70
     1
102
RTVSPropertyOp31
 70
     1
102
RTVSPropertyOp32
 70
     1
  0
XRECORD
  5
84
102
{ACAD_REACTORS
330
83
102
}
330
83
100
AcDbXrecord
280
     1
102
RTVSPropertyOp0
 70
     1
102
RTVSPropertyOp1
 70
     1
102
RTVSPropertyOp2
 70
     1
102
RTVSPropertyOp3
 70
     1
102
RTVSPropertyOp4
 70
     1
102
RTVSPropertyOp5
 70
     1
102
RTVSPropertyOp6
 70
     1
102
RTVSPropertyOp7
 70
     1
102
RTVSPropertyOp8
 70
     1
102
RTVSPropertyOp9
 70
     1
102
RTVSPropertyOp10
 70
     1
102
RTVSPropertyOp11
 70
     1
102
RTVSPropertyOp12
 70
     1
102
RTVSPropertyOp13
 70
     1
102
RTVSPropertyOp14
 70
     1
102
RTVSPropertyOp15
 70
     1
102
RTVSPropertyOp16
 70
     1
102
RTVSPropertyOp17
 70
     1
102
RTVSPropertyOp18
 70
     1
102
RTVSPropertyOp19
 70
     1
102
RTVSPropertyOp20
 70
     1
102
RTVSPropertyOp21
 70
     1
102
RTVSPropertyOp22
 70
     1
102
RTVSPropertyOp23
 70
     1
102
RTVSPropertyOp24
 70
     1
102
RTVSPropertyOp25
 70
     1
102
RTVSPropertyOp26
 70
     1
102
RTVSPropertyOp27
 70
     1
102
RTVSPropertyOp28
 70
     1
102
RTVSPropertyOp29
 70
     1
102
RTVSPropertyOp30
 70
     1
102
RTVSPropertyOp31
 70
     1
102
RTVSPropertyOp32
 70
     1
  0
XRECORD
  5
86
102
{ACAD_REACTORS
330
85
102
}
330
85
100
AcDbXrecord
280
     1
102
RTVSPropertyOp0
 70
     1
102
RTVSPropertyOp1
 70
     1
102
RTVSPropertyOp2
 70
     1
102
RTVSPropertyOp3
 70
     1
102
RTVSPropertyOp4
 70
     1
102
RTVSPropertyOp5
 70
     1
102
RTVSPropertyOp6
 70
     1
102
RTVSPropertyOp7
 70
     1
102
RTVSPropertyOp8
 70
     1
102
RTVSPropertyOp9
 70
     1
102
RTVSPropertyOp10
 70
     1
102
RTVSPropertyOp11
 70
     1
102
RTVSPropertyOp12
 70
     1
102
RTVSPropertyOp13
 70
     1
102
RTVSPropertyOp14
 70
     1
102
RTVSPropertyOp15
 70
     1
102
RTVSPropertyOp16
 70
     1
102
RTVSPropertyOp17
 70
     1
102
RTVSPropertyOp18
 70
     1
102
RTVSPropertyOp19
 70
     1
102
RTVSPropertyOp20
 70
     1
102
RTVSPropertyOp21
 70
     1
102
RTVSPropertyOp22
 70
     1
102
RTVSPropertyOp23
 70
     1
102
RTVSPropertyOp24
 70
     1
102
RTVSPropertyOp25
 70
     1
102
RTVSPropertyOp26
 70
     1
102
RTVSPropertyOp27
 70
     1
102
RTVSPropertyOp28
 70
     1
102
RTVSPropertyOp29
 70
     1
102
RTVSPropertyOp30
 70
     1
102
RTVSPropertyOp31
 70
     1
102
RTVSPropertyOp32
 70
     1
  0
XRECORD
  5
88
102
{ACAD_REACTORS
330
87
102
}
330
87
100
AcDbXrecord
280
     1
102
RTVSPropertyOp0
 70
     1
102
RTVSPropertyOp1
 70
     1
102
RTVSPropertyOp2
 70
     1
102
RTVSPropertyOp3
 70
     1
102
RTVSPropertyOp4
 70
     1
102
RTVSPropertyOp5
 70
     1
102
RTVSPropertyOp6
 70
     1
102
RTVSPropertyOp7
 70
     1
102
RTVSPropertyOp8
 70
     1
102
RTVSPropertyOp9
 70
     1
102
RTVSPropertyOp10
 70
     1
102
RTVSPropertyOp11
 70
     1
102
RTVSPropertyOp12
 70
     1
102
RTVSPropertyOp13
 70
     1
102
RTVSPropertyOp14
 70
     1
102
RTVSPropertyOp15
 70
     1
102
RTVSPropertyOp16
 70
     1
102
RTVSPropertyOp17
 70
     1
102
RTVSPropertyOp18
 70
     1
102
RTVSPropertyOp19
 70
     1
102
RTVSPropertyOp20
 70
     1
102
RTVSPropertyOp21
 70
     1
102
RTVSPropertyOp22
 70
     1
102
RTVSPropertyOp23
 70
     1
102
RTVSPropertyOp24
 70
     1
102
RTVSPropertyOp25
 70
     1
102
RTVSPropertyOp26
 70
     1
102
RTVSPropertyOp27
 70
     1
102
RTVSPropertyOp28
 70
     1
102
RTVSPropertyOp29
 70
     1
102
RTVSPropertyOp30
 70
     1
102
RTVSPropertyOp31
 70
     1
102
RTVSPropertyOp32
 70
     1
  0
XRECORD
  5
9C
102
{ACAD_REACTORS
330
9B
102
}
330
9B
100
AcDbXrecord
280
     1
102
RTVSPropertyOp0
 70
     1
102
RTVSPropertyOp1
 70
     1
102
RTVSPropertyOp2
 70
     1
102
RTVSPropertyOp3
 70
     1
102
RTVSPropertyOp4
 70
     1
102
RTVSPropertyOp5
 70
     1
102
RTVSPropertyOp6
 70
     1
102
RTVSPropertyOp7
 70
     1
102
RTVSPropertyOp8
 70
     1
102
RTVSPropertyOp9
 70
     1
102
RTVSPropertyOp10
 70
     1
102
RTVSPropertyOp11
 70
     1
102
RTVSPropertyOp12
 70
     1
102
RTVSPropertyOp13
 70
     1
102
RTVSPropertyOp14
 70
     1
102
RTVSPropertyOp15
 70
     1
102
RTVSPropertyOp16
 70
     1
102
RTVSPropertyOp17
 70
     1
102
RTVSPropertyOp18
 70
     1
102
RTVSPropertyOp19
 70
     1
102
RTVSPropertyOp20
 70
     1
102
RTVSPropertyOp21
 70
     1
102
RTVSPropertyOp22
 70
     1
102
RTVSPropertyOp23
 70
     1
102
RTVSPropertyOp24
 70
     1
102
RTVSPropertyOp25
 70
     1
102
RTVSPropertyOp26
 70
     1
102
RTVSPropertyOp27
 70
     1
102
RTVSPropertyOp28
 70
     1
102
RTVSPropertyOp29
 70
     1
102
RTVSPropertyOp30
 70
     1
102
RTVSPropertyOp31
 70
     1
102
RTVSPropertyOp32
 70
     1
  0
XRECORD
  5
92
102
{ACAD_REACTORS
330
91
102
}
330
91
100
AcDbXrecord
280
     1
102
RTVSPropertyOp0
 70
     1
102
RTVSPropertyOp1
 70
     1
102
RTVSPropertyOp2
 70
     1
102
RTVSPropertyOp3
 70
     1
102
RTVSPropertyOp4
 70
     1
102
RTVSPropertyOp5
 70
     1
102
RTVSPropertyOp6
 70
     1
102
RTVSPropertyOp7
 70
     1
102
RTVSPropertyOp8
 70
     1
102
RTVSPropertyOp9
 70
     1
102
RTVSPropertyOp10
 70
     1
102
RTVSPropertyOp11
 70
     1
102
RTVSPropertyOp12
 70
     1
102
RTVSPropertyOp13
 70
     1
102
RTVSPropertyOp14
 70
     1
102
RTVSPropertyOp15
 70
     1
102
RTVSPropertyOp16
 70
     1
102
RTVSPropertyOp17
 70
     1
102
RTVSPropertyOp18
 70
     1
102
RTVSPropertyOp19
 70
     1
102
RTVSPropertyOp20
 70
     1
102
RTVSPropertyOp21
 70
     1
102
RTVSPropertyOp22
 70
     1
102
RTVSPropertyOp23
 70
     1
102
RTVSPropertyOp24
 70
     1
102
RTVSPropertyOp25
 70
     1
102
RTVSPropertyOp26
 70
     1
102
RTVSPropertyOp27
 70
     1
102
RTVSPropertyOp28
 70
     1
102
RTVSPropertyOp29
 70
     1
102
RTVSPropertyOp30
 70
     1
102
RTVSPropertyOp31
 70
     1
102
RTVSPropertyOp32
 70
     1
  0
XRECORD
  5
9A
102
{ACAD_REACTORS
330
99
102
}
330
99
100
AcDbXrecord
280
     1
102
RTVSPropertyOp0
 70
     1
102
RTVSPropertyOp1
 70
     1
102
RTVSPropertyOp2
 70
     1
102
RTVSPropertyOp3
 70
     1
102
RTVSPropertyOp4
 70
     1
102
RTVSPropertyOp5
 70
     1
102
RTVSPropertyOp6
 70
     1
102
RTVSPropertyOp7
 70
     1
102
RTVSPropertyOp8
 70
     1
102
RTVSPropertyOp9
 70
     1
102
RTVSPropertyOp10
 70
     1
102
RTVSPropertyOp11
 70
     1
102
RTVSPropertyOp12
 70
     1
102
RTVSPropertyOp13
 70
     1
102
RTVSPropertyOp14
 70
     1
102
RTVSPropertyOp15
 70
     1
102
RTVSPropertyOp16
 70
     1
102
RTVSPropertyOp17
 70
     1
102
RTVSPropertyOp18
 70
     1
102
RTVSPropertyOp19
 70
     1
102
RTVSPropertyOp20
 70
     1
102
RTVSPropertyOp21
 70
     1
102
RTVSPropertyOp22
 70
     1
102
RTVSPropertyOp23
 70
     1
102
RTVSPropertyOp24
 70
     1
102
RTVSPropertyOp25
 70
     1
102
RTVSPropertyOp26
 70
     1
102
RTVSPropertyOp27
 70
     1
102
RTVSPropertyOp28
 70
     1
102
RTVSPropertyOp29
 70
     1
102
RTVSPropertyOp30
 70
     1
102
RTVSPropertyOp31
 70
     1
102
RTVSPropertyOp32
 70
     1
  0
ENDSEC
  0
EOF
