  0
SECTION
  2
HEADER
  9
$ACADVER
  1
AC1021
  9
$ACADMAINTVER
 70
    25
  9
$DWGCODEPAGE
  3
ANSI_1252
  9
$INSBASE
 10
0.0
 20
0.0
 30
0.0
  9
$EXTMIN
 10
-12.7586
 20
-6.82744
 30
0.0
  9
$EXTMAX
 10
12.56665
 20
9.0623
 30
0.0
  9
$LIMMIN
 10
0.0
 20
0.0
  9
$LIMMAX
 10
12.0
 20
9.0
  9
$ORTHOMODE
 70
     0
  9
$REGENMODE
 70
     1
  9
$FILLMODE
 70
     1
  9
$QTEXTMODE
 70
     0
  9
$MIRRTEXT
 70
     1
  9
$LTSCALE
 40
1.0
  9
$ATTMODE
 70
     1
  9
$TEXTSIZE
 40
0.2
  9
$TRACEWID
 40
0.05
  9
$TEXTSTYLE
  7
Standard
  9
$CLAYER
  8
0
  9
$CELTYPE
  6
ByLayer
  9
$CECOLOR
 62
   256
  9
$CELTSCALE
 40
1.0
  9
$DISPSILH
 70
     0
  9
$DIMSCALE
 40
1.0
  9
$DIMASZ
 40
0.18
  9
$DIMEXO
 40
0.0625
  9
$DIMDLI
 40
0.38
  9
$DIMRND
 40
0.0
  9
$DIMDLE
 40
0.0
  9
$DIMEXE
 40
0.18
  9
$DIMTP
 40
0.0
  9
$DIMTM
 40
0.0
  9
$DIMTXT
 40
0.18
  9
$DIMCEN
 40
0.09
  9
$DIMTSZ
 40
0.0
  9
$DIMTOL
 70
     0
  9
$DIMLIM
 70
     0
  9
$DIMTIH
 70
     1
  9
$DIMTOH
 70
     1
  9
$DIMSE1
 70
     0
  9
$DIMSE2
 70
     0
  9
$DIMTAD
 70
     0
  9
$DIMZIN
 70
     0
  9
$DIMBLK
  1

  9
$DIMASO
 70
     1
  9
$DIMSHO
 70
     1
  9
$DIMPOST
  1

  9
$DIMAPOST
  1

  9
$DIMALT
 70
     0
  9
$DIMALTD
 70
     2
  9
$DIMALTF
 40
25.4
  9
$DIMLFAC
 40
1.0
  9
$DIMTOFL
 70
     0
  9
$DIMTVP
 40
0.0
  9
$DIMTIX
 70
     0
  9
$DIMSOXD
 70
     0
  9
$DIMSAH
 70
     0
  9
$DIMBLK1
  1

  9
$DIMBLK2
  1

  9
$DIMSTYLE
  2
Standard
  9
$DIMCLRD
 70
     0
  9
$DIMCLRE
 70
     0
  9
$DIMCLRT
 70
     0
  9
$DIMTFAC
 40
1.0
  9
$DIMGAP
 40
0.09
  9
$DIMJUST
 70
     0
  9
$DIMSD1
 70
     0
  9
$DIMSD2
 70
     0
  9
$DIMTOLJ
 70
     1
  9
$DIMTZIN
 70
     0
  9
$DIMALTZ
 70
     0
  9
$DIMALTTZ
 70
     0
  9
$DIMUPT
 70
     0
  9
$DIMDEC
 70
     4
  9
$DIMTDEC
 70
     4
  9
$DIMALTU
 70
     2
  9
$DIMALTTD
 70
     2
  9
$DIMTXSTY
  7
Standard
  9
$DIMAUNIT
 70
     0
  9
$DIMADEC
 70
     0
  9
$DIMALTRND
 40
0.0
  9
$DIMAZIN
 70
     0
  9
$DIMDSEP
 70
    46
  9
$DIMATFIT
 70
     3
  9
$DIMFRAC
 70
     0
  9
$DIMLDRBLK
  1

  9
$DIMLUNIT
 70
     2
  9
$DIMLWD
 70
    -2
  9
$DIMLWE
 70
    -2
  9
$DIMTMOVE
 70
     0
  9
$DIMFXL
 40
1.0
  9
$DIMFXLON
 70
     0
  9
$DIMJOGANG
 40
0.7853981633974483
  9
$DIMTFILL
 70
     0
  9
$DIMTFILLCLR
 70
     0
  9
$DIMARCSYM
 70
     0
  9
$DIMLTYPE
  6

  9
$DIMLTEX1
  6

  9
$DIMLTEX2
  6

  9
$LUNITS
 70
     2
  9
$LUPREC
 70
     4
  9
$SKETCHINC
 40
0.1
  9
$FILLETRAD
 40
0.5
  9
$AUNITS
 70
     0
  9
$AUPREC
 70
     0
  9
$MENU
  1
.
  9
$ELEVATION
 40
0.0
  9
$PELEVATION
 40
0.0
  9
$THICKNESS
 40
0.0
  9
$LIMCHECK
 70
     0
  9
$CHAMFERA
 40
0.5
  9
$CHAMFERB
 40
0.5
  9
$CHAMFERC
 40
1.0
  9
$CHAMFERD
 40
0.0
  9
$SKPOLY
 70
     0
  9
$TDCREATE
 40
2456231.953699965
  9
$TDUCREATE
 40
2456232.120366632
  9
$TDUPDATE
 40
2456231.953700012
  9
$TDUUPDATE
 40
2456232.120366678
  9
$TDINDWG
 40
0.0000000116
  9
$TDUSRTIMER
 40
0.0000000116
  9
$USRTIMER
 70
     1
  9
$ANGBASE
 50
0.0
  9
$ANGDIR
 70
     0
  9
$PDMODE
 70
     0
  9
$PDSIZE
 40
0.0
  9
$PLINEWID
 40
0.0
  9
$SPLFRAME
 70
     0
  9
$SPLINETYPE
 70
     6
  9
$SPLINESEGS
 70
     8
  9
$HANDSEED
  5
A5
  9
$SURFTAB1
 70
     6
  9
$SURFTAB2
 70
     6
  9
$SURFTYPE
 70
     6
  9
$SURFU
 70
     6
  9
$SURFV
 70
     6
  9
$UCSBASE
  2

  9
$UCSNAME
  2

  9
$UCSORG
 10
0.0
 20
0.0
 30
0.0
  9
$UCSXDIR
 10
1.0
 20
0.0
 30
0.0
  9
$UCSYDIR
 10
0.0
 20
1.0
 30
0.0
  9
$UCSORTHOREF
  2

  9
$UCSORTHOVIEW
 70
     0
  9
$UCSORGTOP
 10
0.0
 20
0.0
 30
0.0
  9
$UCSORGBOTTOM
 10
0.0
 20
0.0
 30
0.0
  9
$UCSORGLEFT
 10
0.0
 20
0.0
 30
0.0
  9
$UCSORGRIGHT
 10
0.0
 20
0.0
 30
0.0
  9
$UCSORGFRONT
 10
0.0
 20
0.0
 30
0.0
  9
$UCSORGBACK
 10
0.0
 20
0.0
 30
0.0
  9
$PUCSBASE
  2

  9
$PUCSNAME
  2

  9
$PUCSORG
 10
0.0
 20
0.0
 30
0.0
  9
$PUCSXDIR
 10
1.0
 20
0.0
 30
0.0
  9
$PUCSYDIR
 10
0.0
 20
1.0
 30
0.0
  9
$PUCSORTHOREF
  2

  9
$PUCSORTHOVIEW
 70
     0
  9
$PUCSORGTOP
 10
0.0
 20
0.0
 30
0.0
  9
$PUCSORGBOTTOM
 10
0.0
 20
0.0
 30
0.0
  9
$PUCSORGLEFT
 10
0.0
 20
0.0
 30
0.0
  9
$PUCSORGRIGHT
 10
0.0
 20
0.0
 30
0.0
  9
$PUCSORGFRONT
 10
0.0
 20
0.0
 30
0.0
  9
$PUCSORGBACK
 10
0.0
 20
0.0
 30
0.0
  9
$USERI1
 70
     0
  9
$USERI2
 70
     0
  9
$USERI3
 70
     0
  9
$USERI4
 70
     0
  9
$USERI5
 70
     0
  9
$USERR1
 40
0.0
  9
$USERR2
 40
0.0
  9
$USERR3
 40
0.0
  9
$USERR4
 40
0.0
  9
$USERR5
 40
0.0
  9
$WORLDVIEW
 70
     1
  9
$SHADEDGE
 70
     3
  9
$SHADEDIF
 70
    70
  9
$TILEMODE
 70
     1
  9
$MAXACTVP
 70
    64
  9
$PINSBASE
 10
0.0
 20
0.0
 30
0.0
  9
$PLIMCHECK
 70
     0
  9
$PEXTMIN
 10
1.000000000000000E+20
 20
1.000000000000000E+20
 30
1.000000000000000E+20
  9
$PEXTMAX
 10
-1.000000000000000E+20
 20
-1.000000000000000E+20
 30
-1.000000000000000E+20
  9
$PLIMMIN
 10
0.0
 20
0.0
  9
$PLIMMAX
 10
12.0
 20
9.0
  9
$UNITMODE
 70
     0
  9
$VISRETAIN
 70
     1
  9
$PLINEGEN
 70
     0
  9
$PSLTSCALE
 70
     1
  9
$TREEDEPTH
 70
  3020
  9
$CMLSTYLE
  2
Standard
  9
$CMLJUST
 70
     0
  9
$CMLSCALE
 40
1.0
  9
$PROXYGRAPHICS
 70
     1
  9
$MEASUREMENT
 70
     0
  9
$CELWEIGHT
370
    -1
  9
$ENDCAPS
280
     0
  9
$JOINSTYLE
280
     0
  9
$LWDISPLAY
290
     0
  9
$INSUNITS
 70
     5
  9
$HYPERLINKBASE
  1

  9
$STYLESHEET
  1

  9
$XEDIT
290
     1
  9
$CEPSNTYPE
380
     0
  9
$PSTYLEMODE
290
     1
  9
$FINGERPRINTGUID
  2
{043802BD-BA3D-4F02-AC06-CF228C3019F5}
  9
$VERSIONGUID
  2
{FAEB1C32-E019-11D5-929B-00C0DF256EC4}
  9
$EXTNAMES
290
     1
  9
$PSVPSCALE
 40
0.0
  9
$OLESTARTUP
290
     0
  9
$SORTENTS
280
   127
  9
$INDEXCTL
280
     0
  9
$HIDETEXT
280
     1
  9
$XCLIPFRAME
290
     0
  9
$HALOGAP
280
     0
  9
$OBSCOLOR
 70
   257
  9
$OBSLTYPE
280
     0
  9
$INTERSECTIONDISPLAY
280
     0
  9
$INTERSECTIONCOLOR
 70
   257
  9
$DIMASSOC
280
     2
  9
$PROJECTNAME
  1

  9
$CAMERADISPLAY
290
     0
  9
$LENSLENGTH
 40
50.0
  9
$CAMERAHEIGHT
 40
0.0
  9
$STEPSPERSEC
 40
2.0
  9
$STEPSIZE
 40
6.0
  9
$3DDWFPREC
 40
2.0
  9
$PSOLWIDTH
 40
0.25
  9
$PSOLHEIGHT
 40
4.0
  9
$LOFTANG1
 40
1.570796326794897
  9
$LOFTANG2
 40
1.570796326794897
  9
$LOFTMAG1
 40
0.0
  9
$LOFTMAG2
 40
0.0
  9
$LOFTPARAM
 70
     7
  9
$LOFTNORMALS
280
     1
  9
$LATITUDE
 40
37.795
  9
$LONGITUDE
 40
-122.394
  9
$NORTHDIRECTION
 40
0.0
  9
$TIMEZONE
 70
 -8000
  9
$LIGHTGLYPHDISPLAY
280
     1
  9
$TILEMODELIGHTSYNCH
280
     1
  9
$SOLIDHIST
280
     1
  9
$SHOWHIST
280
     1
  9
$DWFFRAME
280
     2
  9
$DGNFRAME
280
     2
  9
$REALWORLDSCALE
290
     1
  9
$INTERFERECOLOR
 62
   256
  9
$CSHADOW
280
     0
  9
$SHADOWPLANELOCATION
 40
0.0
  0
ENDSEC
  0
SECTION
  2
CLASSES
  0
CLASS
  1
ACDBDICTIONARYWDFLT
  2
AcDbDictionaryWithDefault
  3
ObjectDBX Classes
 90
        0
 91
        4
280
     0
281
     0
  0
CLASS
  1
VISUALSTYLE
  2
AcDbVisualStyle
  3
ObjectDBX Classes
 90
     4095
 91
        4
280
     0
281
     0
  0
CLASS
  1
MATERIAL
  2
AcDbMaterial
  3
ObjectDBX Classes
 90
     1153
 91
        4
280
     0
281
     0
  0
ENDSEC
  0
SECTION
  2
TABLES
  0
TABLE
  2
VPORT
  5
8
330
0
100
AcDbSymbolTable
 70
     1
  0
VPORT
  5
29
330
8
100
AcDbSymbolTableRecord
100
AcDbViewportTableRecord
  2
*Active
 70
     0
 10
0.0
 20
0.0
 11
1.0
 21
1.0
 12
10.42990654205607
 22
4.5
 13
0.0
 23
0.0
 14
0.5
 24
0.5
 15
0.5
 25
0.5
 16
0.0
 26
0.0
 36
1.0
 17
0.0
 27
0.0
 37
0.0
 40
9.0
 41
1.972972972850329
 42
50.0
 43
0.0
 44
0.0
 50
0.0
 51
0.0
 71
     0
 72
   100
 73
     1
 74
     3
 75
     0
 76
     0
 77
     0
 78
     0
281
     0
 65
     1
110
0.0
120
0.0
130
0.0
111
1.0
121
0.0
131
0.0
112
0.0
122
1.0
132
0.0
 79
     0
146
0.0
 60
     3
 61
     5
292
     1
282
     1
141
0.0
142
0.0
 63
   250
  0
ENDTAB
  0
TABLE
  2
LTYPE
  5
5
330
0
100
AcDbSymbolTable
 70
     1
  0
LTYPE
  5
14
330
5
100
AcDbSymbolTableRecord
100
AcDbLinetypeTableRecord
  2
ByBlock
 70
     0
  3

 72
    65
 73
     0
 40
0.0
  0
LTYPE
  5
15
330
5
100
AcDbSymbolTableRecord
100
AcDbLinetypeTableRecord
  2
ByLayer
 70
     0
  3

 72
    65
 73
     0
 40
0.0
  0
LTYPE
  5
16
330
5
100
AcDbSymbolTableRecord
100
AcDbLinetypeTableRecord
  2
Continuous
 70
     0
  3
Solid line
 72
    65
 73
     0
 40
0.0
  0
ENDTAB
  0
TABLE
  2
LAYER
  5
2
330
0
100
AcDbSymbolTable
 70
     3
  0
LAYER
  5
10
330
2
100
AcDbSymbolTableRecord
100
AcDbLayerTableRecord
  2
0
 70
     0
 62
     7
  6
Continuous
370
    -3
390
F
347
3E
  0
LAYER
  5
40
330
2
100
AcDbSymbolTableRecord
100
AcDbLayerTableRecord
  2
Layer 1
 70
     0
 62
     7
  6
Continuous
370
    -3
390
F
347
3E
  0
LAYER
  5
56
330
2
100
AcDbSymbolTableRecord
100
AcDbLayerTableRecord
  2
layer 2
 70
     0
 62
     7
  6
Continuous
370
    -3
390
F
347
3E
  0
ENDTAB
  0
TABLE
  2
STYLE
  5
3
330
0
100
AcDbSymbolTable
 70
     1
  0
STYLE
  5
11
330
3
100
AcDbSymbolTableRecord
100
AcDbTextStyleTableRecord
  2
Standard
 70
     0
 40
0.0
 41
1.0
 50
0.0
 71
     0
 42
0.2
  3
txt
  4

  0
ENDTAB
  0
TABLE
  2
VIEW
  5
6
330
0
100
AcDbSymbolTable
 70
     0
  0
ENDTAB
  0
TABLE
  2
UCS
  5
7
330
0
100
AcDbSymbolTable
 70
     0
  0
ENDTAB
  0
TABLE
  2
APPID
  5
9
330
0
100
AcDbSymbolTable
 70
     2
  0
APPID
  5
12
330
9
100
AcDbSymbolTableRecord
100
AcDbRegAppTableRecord
  2
ACAD
 70
     0
  0
APPID
  5
3F
330
9
100
AcDbSymbolTableRecord
100
AcDbRegAppTableRecord
  2
ODA
 70
     0
  0
ENDTAB
  0
TABLE
  2
DIMSTYLE
  5
A
330
0
100
AcDbSymbolTable
 70
     1
100
AcDbDimStyleTable
  0
DIMSTYLE
105
27
330
A
100
AcDbSymbolTableRecord
100
AcDbDimStyleTableRecord
  2
Standard
 70
     0
178
     0
340
11
  0
ENDTAB
  0
TABLE
  2
BLOCK_RECORD
  5
1
330
0
100
AcDbSymbolTable
 70
     1
  0
BLOCK_RECORD
  5
1F
330
1
100
AcDbSymbolTableRecord
100
AcDbBlockTableRecord
  2
*Model_Space
340
22
 70
     0
280
     1
281
     0
  0
BLOCK_RECORD
  5
1B
330
1
100
AcDbSymbolTableRecord
100
AcDbBlockTableRecord
  2
*Paper_Space
340
1E
 70
     0
280
     1
281
     0
  0
BLOCK_RECORD
  5
23
330
1
100
AcDbSymbolTableRecord
100
AcDbBlockTableRecord
  2
*Paper_Space0
340
26
 70
     0
280
     1
281
     0
  0
ENDTAB
  0
ENDSEC
  0
SECTION
  2
BLOCKS
  0
BLOCK
  5
20
330
1F
100
AcDbEntity
  8
0
100
AcDbBlockBegin
  2
*Model_Space
 70
     0
 10
0.0
 20
0.0
 30
0.0
  3
*Model_Space
  1

  0
ENDBLK
  5
21
330
1F
100
AcDbEntity
  8
0
100
AcDbBlockEnd
  0
BLOCK
  5
1C
330
1B
100
AcDbEntity
 67
     1
  8
0
100
AcDbBlockBegin
  2
*Paper_Space
 70
     0
 10
0.0
 20
0.0
 30
0.0
  3
*Paper_Space
  1

  0
ENDBLK
  5
1D
330
1B
100
AcDbEntity
 67
     1
  8
0
100
AcDbBlockEnd
  0
BLOCK
  5
24
330
23
100
AcDbEntity
  8
0
100
AcDbBlockBegin
  2
*Paper_Space0
 70
     0
 10
0.0
 20
0.0
 30
0.0
  3
*Paper_Space0
  1

  0
ENDBLK
  5
25
330
23
100
AcDbEntity
  8
0
100
AcDbBlockEnd
  0
ENDSEC
  0
SECTION
  2
ENTITIES
  0
SPLINE
  5
41
330
1F
100
AcDbEntity
  8
Layer 1
 62
   250
100
AcDbSpline
210
0.0
220
0.0
230
1.0
 70
    11
 71
     3
 72
    92
 73
    88
 74
     0
 42
0.0000000001
 43
0.0000000001
 12
1.0
 22
0.0
 32
0.0
 13
1.0
 23
0.0
 33
0.0
 40
0.0
 40
0.0
 40
0.0
 40
0.0
 40
0.0434782608695652
 40
0.0434782608695652
 40
0.0434782608695652
 40
0.0434782608695652
 40
0.0869565217391304
 40
0.0869565217391304
 40
0.0869565217391304
 40
0.0869565217391304
 40
0.1304347826086956
 40
0.1304347826086956
 40
0.1304347826086956
 40
0.1304347826086956
 40
0.1739130434782609
 40
0.1739130434782609
 40
0.1739130434782609
 40
0.1739130434782609
 40
0.2173913043478261
 40
0.2173913043478261
 40
0.2173913043478261
 40
0.2173913043478261
 40
0.2608695652173913
 40
0.2608695652173913
 40
0.2608695652173913
 40
0.2608695652173913
 40
0.3043478260869565
 40
0.3043478260869565
 40
0.3043478260869565
 40
0.3043478260869565
 40
0.3478260869565217
 40
0.3478260869565217
 40
0.3478260869565217
 40
0.3478260869565217
 40
0.391304347826087
 40
0.391304347826087
 40
0.391304347826087
 40
0.391304347826087
 40
0.4347826086956522
 40
0.4347826086956522
 40
0.4347826086956522
 40
0.4347826086956522
 40
0.4782608695652174
 40
0.4782608695652174
 40
0.4782608695652174
 40
0.4782608695652174
 40
0.5217391304347826
 40
0.5217391304347826
 40
0.5217391304347826
 40
0.5217391304347826
 40
0.5652173913043478
 40
0.5652173913043478
 40
0.5652173913043478
 40
0.5652173913043478
 40
0.6086956521739131
 40
0.6086956521739131
 40
0.6086956521739131
 40
0.6086956521739131
 40
0.6521739130434783
 40
0.6521739130434783
 40
0.6521739130434783
 40
0.6521739130434783
 40
0.6956521739130435
 40
0.6956521739130435
 40
0.6956521739130435
 40
0.6956521739130435
 40
0.7391304347826086
 40
0.7391304347826086
 40
0.7391304347826086
 40
0.7391304347826086
 40
0.782608695652174
 40
0.782608695652174
 40
0.782608695652174
 40
0.782608695652174
 40
0.8260869565217391
 40
0.8260869565217391
 40
0.8260869565217391
 40
0.8260869565217391
 40
0.8695652173913043
 40
0.8695652173913043
 40
0.8695652173913043
 40
0.8695652173913043
 40
0.9130434782608695
 40
0.9130434782608695
 40
0.9130434782608695
 40
0.9130434782608695
 40
1.0
 40
1.0
 40
1.0
 40
1.0
 10
-3.93904
 20
-6.74616
 30
0.0
 10
-3.93904
 20
-6.74616
 30
0.0
 10
-3.93904
 20
-6.81728
 30
0.0
 10
-3.93904
 20
-6.81728
 30
0.0
 10
-3.93904
 20
-6.81728
 30
0.0
 10
-3.93904
 20
-6.81728
 30
0.0
 10
-4.34037
 20
-6.81728
 30
0.0
 10
-4.34037
 20
-6.81728
 30
0.0
 10
-4.34037
 20
-6.81728
 30
0.0
 10
-4.34093
 20
-6.79936
 30
0.0
 10
-4.33797
 20
-6.78214
 30
0.0
 10
-4.33162
 20
-6.76549
 30
0.0
 10
-4.33162
 20
-6.76549
 30
0.0
 10
-4.32132
 20
-6.73826
 30
0.0
 10
-4.30481
 20
-6.71131
 30
0.0
 10
-4.28209
 20
-6.68492
 30
0.0
 10
-4.28209
 20
-6.68492
 30
0.0
 10
-4.25937
 20
-6.65853
 30
0.0
 10
-4.22691
 20
-6.62805
 30
0.0
 10
-4.18472
 20
-6.59348
 30
0.0
 10
-4.18472
 20
-6.59348
 30
0.0
 10
-4.1191
 20
-6.53943
 30
0.0
 10
-4.07451
 20
-6.49667
 30
0.0
 10
-4.05123
 20
-6.46507
 30
0.0
 10
-4.05123
 20
-6.46507
 30
0.0
 10
-4.0278
 20
-6.43346
 30
0.0
 10
-4.01609
 20
-6.40354
 30
0.0
 10
-4.01609
 20
-6.37532
 30
0.0
 10
-4.01609
 20
-6.37532
 30
0.0
 10
-4.01609
 20
-6.34583
 30
0.0
 10
-4.02668
 20
-6.32099
 30
0.0
 10
-4.04784
 20
-6.30067
 30
0.0
 10
-4.04784
 20
-6.30067
 30
0.0
 10
-4.06901
 20
-6.28049
 30
0.0
 10
-4.09667
 20
-6.27033
 30
0.0
 10
-4.13067
 20
-6.27033
 30
0.0
 10
-4.13067
 20
-6.27033
 30
0.0
 10
-4.16666
 20
-6.27033
 30
0.0
 10
-4.19544
 20
-6.28106
 30
0.0
 10
-4.21703
 20
-6.3025
 30
0.0
 10
-4.21703
 20
-6.3025
 30
0.0
 10
-4.23863
 20
-6.32381
 30
0.0
 10
-4.24949
 20
-6.35345
 30
0.0
 10
-4.24977
 20
-6.3914
 30
0.0
 10
-4.24977
 20
-6.3914
 30
0.0
 10
-4.24977
 20
-6.3914
 30
0.0
 10
-4.32597
 20
-6.38378
 30
0.0
 10
-4.32597
 20
-6.38378
 30
0.0
 10
-4.32597
 20
-6.38378
 30
0.0
 10
-4.32075
 20
-6.32678
 30
0.0
 10
-4.301
 20
-6.28331
 30
0.0
 10
-4.26685
 20
-6.2534
 30
0.0
 10
-4.26685
 20
-6.2534
 30
0.0
 10
-4.23256
 20
-6.22348
 30
0.0
 10
-4.1867
 20
-6.20852
 30
0.0
 10
-4.12898
 20
-6.20852
 30
0.0
 10
-4.12898
 20
-6.20852
 30
0.0
 10
-4.07084
 20
-6.20852
 30
0.0
 10
-4.0247
 20
-6.22461
 30
0.0
 10
-3.99083
 20
-6.25693
 30
0.0
 10
-3.99083
 20
-6.25693
 30
0.0
 10
-3.95683
 20
-6.28924
 30
0.0
 10
-3.93989
 20
-6.32932
 30
0.0
 10
-3.93989
 20
-6.37701
 30
0.0
 10
-3.93989
 20
-6.37701
 30
0.0
 10
-3.93989
 20
-6.40128
 30
0.0
 10
-3.94483
 20
-6.42513
 30
0.0
 10
-3.95485
 20
-6.44856
 30
0.0
 10
-3.95485
 20
-6.44856
 30
0.0
 10
-3.96473
 20
-6.47212
 30
0.0
 10
-3.98124
 20
-6.49682
 30
0.0
 10
-4.00424
 20
-6.52278
 30
0.0
 10
-4.00424
 20
-6.52278
 30
0.0
 10
-4.02738
 20
-6.5486
 30
0.0
 10
-4.06562
 20
-6.5843
 30
0.0
 10
-4.11896
 20
-6.62946
 30
0.0
 10
-4.11896
 20
-6.62946
 30
0.0
 10
-4.16369
 20
-6.667
 30
0.0
 10
-4.19248
 20
-6.6924
 30
0.0
 10
-4.20518
 20
-6.7058
 30
0.0
 10
-4.20518
 20
-6.7058
 30
0.0
 10
-4.21788
 20
-6.71921
 30
0.0
 10
-4.22832
 20
-6.73261
 30
0.0
 10
-4.23665
 20
-6.74616
 30
0.0
 10
-4.23665
 20
-6.74616
 30
0.0
 10
-4.23665
 20
-6.74616
 30
0.0
 10
-3.93904
 20
-6.74616
 30
0.0
 10
-3.93904
 20
-6.74616
 30
0.0
  0
SPLINE
  5
42
330
1F
100
AcDbEntity
  8
Layer 1
 62
   250
100
AcDbSpline
210
0.0
220
0.0
230
1.0
 70
    11
 71
     3
 72
    52
 73
    48
 74
     0
 42
0.0000000001
 43
0.0000000001
 12
1.0
 22
0.0
 32
0.0
 13
1.0
 23
0.0
 33
0.0
 40
0.0
 40
0.0
 40
0.0
 40
0.0
 40
0.0769230769230769
 40
0.0769230769230769
 40
0.0769230769230769
 40
0.0769230769230769
 40
0.1538461538461539
 40
0.1538461538461539
 40
0.1538461538461539
 40
0.1538461538461539
 40
0.2307692307692308
 40
0.2307692307692308
 40
0.2307692307692308
 40
0.2307692307692308
 40
0.3076923076923077
 40
0.3076923076923077
 40
0.3076923076923077
 40
0.3076923076923077
 40
0.3846153846153846
 40
0.3846153846153846
 40
0.3846153846153846
 40
0.3846153846153846
 40
0.4615384615384616
 40
0.4615384615384616
 40
0.4615384615384616
 40
0.4615384615384616
 40
0.5384615384615384
 40
0.5384615384615384
 40
0.5384615384615384
 40
0.5384615384615384
 40
0.6153846153846154
 40
0.6153846153846154
 40
0.6153846153846154
 40
0.6153846153846154
 40
0.6923076923076923
 40
0.6923076923076923
 40
0.6923076923076923
 40
0.6923076923076923
 40
0.7692307692307693
 40
0.7692307692307693
 40
0.7692307692307693
 40
0.7692307692307693
 40
0.8461538461538461
 40
0.8461538461538461
 40
0.8461538461538461
 40
0.8461538461538461
 40
1.0
 40
1.0
 40
1.0
 40
1.0
 10
-3.85847
 20
-6.51812
 30
0.0
 10
-3.85847
 20
-6.44658
 30
0.0
 10
-3.85113
 20
-6.38872
 30
0.0
 10
-3.83646
 20
-6.34498
 30
0.0
 10
-3.83646
 20
-6.34498
 30
0.0
 10
-3.82164
 20
-6.30109
 30
0.0
 10
-3.79977
 20
-6.26737
 30
0.0
 10
-3.7707
 20
-6.2438
 30
0.0
 10
-3.7707
 20
-6.2438
 30
0.0
 10
-3.74177
 20
-6.22024
 30
0.0
 10
-3.70522
 20
-6.20852
 30
0.0
 10
-3.6612
 20
-6.20852
 30
0.0
 10
-3.6612
 20
-6.20852
 30
0.0
 10
-3.62874
 20
-6.20852
 30
0.0
 10
-3.60024
 20
-6.21502
 30
0.0
 10
-3.57554
 20
-6.22814
 30
0.0
 10
-3.57554
 20
-6.22814
 30
0.0
 10
-3.55099
 20
-6.24126
 30
0.0
 10
-3.53067
 20
-6.26017
 30
0.0
 10
-3.51486
 20
-6.28487
 30
0.0
 10
-3.51486
 20
-6.28487
 30
0.0
 10
-3.49906
 20
-6.30942
 30
0.0
 10
-3.48664
 20
-6.33948
 30
0.0
 10
-3.47761
 20
-6.37489
 30
0.0
 10
-3.47761
 20
-6.37489
 30
0.0
 10
-3.46844
 20
-6.41031
 30
0.0
 10
-3.46392
 20
-6.45815
 30
0.0
 10
-3.46392
 20
-6.51812
 30
0.0
 10
-3.46392
 20
-6.51812
 30
0.0
 10
-3.46392
 20
-6.58924
 30
0.0
 10
-3.47126
 20
-6.64682
 30
0.0
 10
-3.48579
 20
-6.69056
 30
0.0
 10
-3.48579
 20
-6.69056
 30
0.0
 10
-3.50033
 20
-6.73445
 30
0.0
 10
-3.5222
 20
-6.76817
 30
0.0
 10
-3.55127
 20
-6.79188
 30
0.0
 10
-3.55127
 20
-6.79188
 30
0.0
 10
-3.5802
 20
-6.81559
 30
0.0
 10
-3.61689
 20
-6.82744
 30
0.0
 10
-3.6612
 20
-6.82744
 30
0.0
 10
-3.6612
 20
-6.82744
 30
0.0
 10
-3.71947
 20
-6.82744
 30
0.0
 10
-3.76534
 20
-6.8067
 30
0.0
 10
-3.79864
 20
-6.76507
 30
0.0
 10
-3.79864
 20
-6.76507
 30
0.0
 10
-3.83857
 20
-6.71427
 30
0.0
 10
-3.85847
 20
-6.632
 30
0.0
 10
-3.85847
 20
-6.51812
 30
0.0
  0
SPLINE
  5
43
330
1F
100
AcDbEntity
  8
Layer 1
 62
   250
100
AcDbSpline
210
0.0
220
0.0
230
1.0
 70
    11
 71
     3
 72
    36
 73
    32
 74
     0
 42
0.0000000001
 43
0.0000000001
 12
1.0
 22
0.0
 32
0.0
 13
1.0
 23
0.0
 33
0.0
 40
0.0
 40
0.0
 40
0.0
 40
0.0
 40
0.1111111111111111
 40
0.1111111111111111
 40
0.1111111111111111
 40
0.1111111111111111
 40
0.2222222222222222
 40
0.2222222222222222
 40
0.2222222222222222
 40
0.2222222222222222
 40
0.3333333333333333
 40
0.3333333333333333
 40
0.3333333333333333
 40
0.3333333333333333
 40
0.4444444444444444
 40
0.4444444444444444
 40
0.4444444444444444
 40
0.4444444444444444
 40
0.5555555555555556
 40
0.5555555555555556
 40
0.5555555555555556
 40
0.5555555555555556
 40
0.6666666666666666
 40
0.6666666666666666
 40
0.6666666666666666
 40
0.6666666666666666
 40
0.7777777777777778
 40
0.7777777777777778
 40
0.7777777777777778
 40
0.7777777777777778
 40
1.0
 40
1.0
 40
1.0
 40
1.0
 10
-3.78227
 20
-6.51841
 30
0.0
 10
-3.78227
 20
-6.61817
 30
0.0
 10
-3.7707
 20
-6.68449
 30
0.0
 10
-3.74741
 20
-6.71723
 30
0.0
 10
-3.74741
 20
-6.71723
 30
0.0
 10
-3.72413
 20
-6.75011
 30
0.0
 10
-3.69534
 20
-6.76648
 30
0.0
 10
-3.6612
 20
-6.76648
 30
0.0
 10
-3.6612
 20
-6.76648
 30
0.0
 10
-3.62705
 20
-6.76648
 30
0.0
 10
-3.59826
 20
-6.74997
 30
0.0
 10
-3.57498
 20
-6.71709
 30
0.0
 10
-3.57498
 20
-6.71709
 30
0.0
 10
-3.55169
 20
-6.68407
 30
0.0
 10
-3.54012
 20
-6.61789
 30
0.0
 10
-3.54012
 20
-6.51841
 30
0.0
 10
-3.54012
 20
-6.51841
 30
0.0
 10
-3.54012
 20
-6.41864
 30
0.0
 10
-3.55169
 20
-6.35232
 30
0.0
 10
-3.57498
 20
-6.31958
 30
0.0
 10
-3.57498
 20
-6.31958
 30
0.0
 10
-3.59812
 20
-6.2867
 30
0.0
 10
-3.62719
 20
-6.27033
 30
0.0
 10
-3.66204
 20
-6.27033
 30
0.0
 10
-3.66204
 20
-6.27033
 30
0.0
 10
-3.69619
 20
-6.27033
 30
0.0
 10
-3.72357
 20
-6.28487
 30
0.0
 10
-3.74403
 20
-6.31379
 30
0.0
 10
-3.74403
 20
-6.31379
 30
0.0
 10
-3.76957
 20
-6.35062
 30
0.0
 10
-3.78227
 20
-6.41892
 30
0.0
 10
-3.78227
 20
-6.51841
 30
0.0
  0
SPLINE
  5
44
330
1F
100
AcDbEntity
  8
Layer 1
 62
   250
100
AcDbSpline
210
0.0
220
0.0
230
1.0
 70
    11
 71
     3
 72
   124
 73
   120
 74
     0
 42
0.0000000001
 43
0.0000000001
 12
1.0
 22
0.0
 32
0.0
 13
1.0
 23
0.0
 33
0.0
 40
0.0
 40
0.0
 40
0.0
 40
0.0
 40
0.032258064516129
 40
0.032258064516129
 40
0.032258064516129
 40
0.032258064516129
 40
0.0645161290322581
 40
0.0645161290322581
 40
0.0645161290322581
 40
0.0645161290322581
 40
0.0967741935483871
 40
0.0967741935483871
 40
0.0967741935483871
 40
0.0967741935483871
 40
0.1290322580645161
 40
0.1290322580645161
 40
0.1290322580645161
 40
0.1290322580645161
 40
0.1612903225806452
 40
0.1612903225806452
 40
0.1612903225806452
 40
0.1612903225806452
 40
0.1935483870967742
 40
0.1935483870967742
 40
0.1935483870967742
 40
0.1935483870967742
 40
0.2258064516129032
 40
0.2258064516129032
 40
0.2258064516129032
 40
0.2258064516129032
 40
0.2580645161290323
 40
0.2580645161290323
 40
0.2580645161290323
 40
0.2580645161290323
 40
0.2903225806451613
 40
0.2903225806451613
 40
0.2903225806451613
 40
0.2903225806451613
 40
0.3225806451612903
 40
0.3225806451612903
 40
0.3225806451612903
 40
0.3225806451612903
 40
0.3548387096774194
 40
0.3548387096774194
 40
0.3548387096774194
 40
0.3548387096774194
 40
0.3870967741935484
 40
0.3870967741935484
 40
0.3870967741935484
 40
0.3870967741935484
 40
0.4193548387096774
 40
0.4193548387096774
 40
0.4193548387096774
 40
0.4193548387096774
 40
0.4516129032258064
 40
0.4516129032258064
 40
0.4516129032258064
 40
0.4516129032258064
 40
0.4838709677419355
 40
0.4838709677419355
 40
0.4838709677419355
 40
0.4838709677419355
 40
0.5161290322580645
 40
0.5161290322580645
 40
0.5161290322580645
 40
0.5161290322580645
 40
0.5483870967741935
 40
0.5483870967741935
 40
0.5483870967741935
 40
0.5483870967741935
 40
0.5806451612903226
 40
0.5806451612903226
 40
0.5806451612903226
 40
0.5806451612903226
 40
0.6129032258064516
 40
0.6129032258064516
 40
0.6129032258064516
 40
0.6129032258064516
 40
0.6451612903225806
 40
0.6451612903225806
 40
0.6451612903225806
 40
0.6451612903225806
 40
0.6774193548387096
 40
0.6774193548387096
 40
0.6774193548387096
 40
0.6774193548387096
 40
0.7096774193548387
 40
0.7096774193548387
 40
0.7096774193548387
 40
0.7096774193548387
 40
0.7419354838709677
 40
0.7419354838709677
 40
0.7419354838709677
 40
0.7419354838709677
 40
0.7741935483870968
 40
0.7741935483870968
 40
0.7741935483870968
 40
0.7741935483870968
 40
0.8064516129032258
 40
0.8064516129032258
 40
0.8064516129032258
 40
0.8064516129032258
 40
0.8387096774193549
 40
0.8387096774193549
 40
0.8387096774193549
 40
0.8387096774193549
 40
0.8709677419354839
 40
0.8709677419354839
 40
0.8709677419354839
 40
0.8709677419354839
 40
0.9032258064516129
 40
0.9032258064516129
 40
0.9032258064516129
 40
0.9032258064516129
 40
0.9354838709677419
 40
0.9354838709677419
 40
0.9354838709677419
 40
0.9354838709677419
 40
1.0
 40
1.0
 40
1.0
 40
1.0
 10
-3.38758
 20
-6.65641
 30
0.0
 10
-3.38758
 20
-6.65641
 30
0.0
 10
-3.31307
 20
-6.64625
 30
0.0
 10
-3.31307
 20
-6.64625
 30
0.0
 10
-3.31307
 20
-6.64625
 30
0.0
 10
-3.30447
 20
-6.68859
 30
0.0
 10
-3.29007
 20
-6.71907
 30
0.0
 10
-3.26961
 20
-6.73769
 30
0.0
 10
-3.26961
 20
-6.73769
 30
0.0
 10
-3.24915
 20
-6.75632
 30
0.0
 10
-3.22403
 20
-6.76563
 30
0.0
 10
-3.19426
 20
-6.76563
 30
0.0
 10
-3.19426
 20
-6.76563
 30
0.0
 10
-3.15898
 20
-6.76563
 30
0.0
 10
-3.1292
 20
-6.7535
 30
0.0
 10
-3.10522
 20
-6.72923
 30
0.0
 10
-3.10522
 20
-6.72923
 30
0.0
 10
-3.08123
 20
-6.70496
 30
0.0
 10
-3.06923
 20
-6.6749
 30
0.0
 10
-3.06923
 20
-6.63906
 30
0.0
 10
-3.06923
 20
-6.63906
 30
0.0
 10
-3.06923
 20
-6.60491
 30
0.0
 10
-3.08038
 20
-6.57668
 30
0.0
 10
-3.10282
 20
-6.55439
 30
0.0
 10
-3.10282
 20
-6.55439
 30
0.0
 10
-3.12511
 20
-6.53223
 30
0.0
 10
-3.15348
 20
-6.52109
 30
0.0
 10
-3.18805
 20
-6.52109
 30
0.0
 10
-3.18805
 20
-6.52109
 30
0.0
 10
-3.20216
 20
-6.52109
 30
0.0
 10
-3.21966
 20
-6.52391
 30
0.0
 10
-3.24068
 20
-6.52941
 30
0.0
 10
-3.24068
 20
-6.52941
 30
0.0
 10
-3.24068
 20
-6.52941
 30
0.0
 10
-3.23236
 20
-6.46422
 30
0.0
 10
-3.23236
 20
-6.46422
 30
0.0
 10
-3.23236
 20
-6.46422
 30
0.0
 10
-3.22742
 20
-6.46478
 30
0.0
 10
-3.22333
 20
-6.46507
 30
0.0
 10
-3.22036
 20
-6.46507
 30
0.0
 10
-3.22036
 20
-6.46507
 30
0.0
 10
-3.18847
 20
-6.46507
 30
0.0
 10
-3.15997
 20
-6.45674
 30
0.0
 10
-3.13443
 20
-6.44023
 30
0.0
 10
-3.13443
 20
-6.44023
 30
0.0
 10
-3.10903
 20
-6.42372
 30
0.0
 10
-3.09633
 20
-6.39832
 30
0.0
 10
-3.09633
 20
-6.36403
 30
0.0
 10
-3.09633
 20
-6.36403
 30
0.0
 10
-3.09633
 20
-6.33679
 30
0.0
 10
-3.10564
 20
-6.31422
 30
0.0
 10
-3.12412
 20
-6.2963
 30
0.0
 10
-3.12412
 20
-6.2963
 30
0.0
 10
-3.14261
 20
-6.27837
 30
0.0
 10
-3.16646
 20
-6.26948
 30
0.0
 10
-3.19567
 20
-6.26948
 30
0.0
 10
-3.19567
 20
-6.26948
 30
0.0
 10
-3.22474
 20
-6.26948
 30
0.0
 10
-3.24887
 20
-6.27866
 30
0.0
 10
-3.2682
 20
-6.297
 30
0.0
 10
-3.2682
 20
-6.297
 30
0.0
 10
-3.28753
 20
-6.31535
 30
0.0
 10
-3.29995
 20
-6.34286
 30
0.0
 10
-3.30545
 20
-6.37955
 30
0.0
 10
-3.30545
 20
-6.37955
 30
0.0
 10
-3.30545
 20
-6.37955
 30
0.0
 10
-3.37996
 20
-6.366
 30
0.0
 10
-3.37996
 20
-6.366
 30
0.0
 10
-3.37996
 20
-6.366
 30
0.0
 10
-3.37079
 20
-6.31605
 30
0.0
 10
-3.35019
 20
-6.27725
 30
0.0
 10
-3.31787
 20
-6.24973
 30
0.0
 10
-3.31787
 20
-6.24973
 30
0.0
 10
-3.2857
 20
-6.22221
 30
0.0
 10
-3.24548
 20
-6.20852
 30
0.0
 10
-3.1975
 20
-6.20852
 30
0.0
 10
-3.1975
 20
-6.20852
 30
0.0
 10
-3.16448
 20
-6.20852
 30
0.0
 10
-3.134
 20
-6.21558
 30
0.0
 10
-3.1062
 20
-6.22983
 30
0.0
 10
-3.1062
 20
-6.22983
 30
0.0
 10
-3.07826
 20
-6.24394
 30
0.0
 10
-3.05696
 20
-6.26328
 30
0.0
 10
-3.04228
 20
-6.28769
 30
0.0
 10
-3.04228
 20
-6.28769
 30
0.0
 10
-3.02746
 20
-6.31224
 30
0.0
 10
-3.02013
 20
-6.33821
 30
0.0
 10
-3.02013
 20
-6.36572
 30
0.0
 10
-3.02013
 20
-6.36572
 30
0.0
 10
-3.02013
 20
-6.39183
 30
0.0
 10
-3.02718
 20
-6.41554
 30
0.0
 10
-3.04115
 20
-6.43698
 30
0.0
 10
-3.04115
 20
-6.43698
 30
0.0
 10
-3.05526
 20
-6.45843
 30
0.0
 10
-3.07615
 20
-6.47551
 30
0.0
 10
-3.10366
 20
-6.48821
 30
0.0
 10
-3.10366
 20
-6.48821
 30
0.0
 10
-3.06782
 20
-6.49639
 30
0.0
 10
-3.04002
 20
-6.51361
 30
0.0
 10
-3.02013
 20
-6.53971
 30
0.0
 10
-3.02013
 20
-6.53971
 30
0.0
 10
-3.00037
 20
-6.56568
 30
0.0
 10
-2.99049
 20
-6.59842
 30
0.0
 10
-2.99049
 20
-6.6375
 30
0.0
 10
-2.99049
 20
-6.6375
 30
0.0
 10
-2.99049
 20
-6.69042
 30
0.0
 10
-3.00982
 20
-6.73544
 30
0.0
 10
-3.04835
 20
-6.77227
 30
0.0
 10
-3.04835
 20
-6.77227
 30
0.0
 10
-3.08701
 20
-6.8091
 30
0.0
 10
-3.13584
 20
-6.82744
 30
0.0
 10
-3.19482
 20
-6.82744
 30
0.0
 10
-3.19482
 20
-6.82744
 30
0.0
 10
-3.24802
 20
-6.82744
 30
0.0
 10
-3.29219
 20
-6.81149
 30
0.0
 10
-3.32733
 20
-6.77974
 30
0.0
 10
-3.32733
 20
-6.77974
 30
0.0
 10
-3.3626
 20
-6.74799
 30
0.0
 10
-3.38264
 20
-6.70693
 30
0.0
 10
-3.38758
 20
-6.65641
 30
0.0
  0
SPLINE
  5
45
330
1F
100
AcDbEntity
  8
Layer 1
 62
   250
100
AcDbSpline
210
0.0
220
0.0
230
1.0
 70
    11
 71
     3
 72
   124
 73
   120
 74
     0
 42
0.0000000001
 43
0.0000000001
 12
1.0
 22
0.0
 32
0.0
 13
1.0
 23
0.0
 33
0.0
 40
0.0
 40
0.0
 40
0.0
 40
0.0
 40
0.032258064516129
 40
0.032258064516129
 40
0.032258064516129
 40
0.032258064516129
 40
0.0645161290322581
 40
0.0645161290322581
 40
0.0645161290322581
 40
0.0645161290322581
 40
0.0967741935483871
 40
0.0967741935483871
 40
0.0967741935483871
 40
0.0967741935483871
 40
0.1290322580645161
 40
0.1290322580645161
 40
0.1290322580645161
 40
0.1290322580645161
 40
0.1612903225806452
 40
0.1612903225806452
 40
0.1612903225806452
 40
0.1612903225806452
 40
0.1935483870967742
 40
0.1935483870967742
 40
0.1935483870967742
 40
0.1935483870967742
 40
0.2258064516129032
 40
0.2258064516129032
 40
0.2258064516129032
 40
0.2258064516129032
 40
0.2580645161290323
 40
0.2580645161290323
 40
0.2580645161290323
 40
0.2580645161290323
 40
0.2903225806451613
 40
0.2903225806451613
 40
0.2903225806451613
 40
0.2903225806451613
 40
0.3225806451612903
 40
0.3225806451612903
 40
0.3225806451612903
 40
0.3225806451612903
 40
0.3548387096774194
 40
0.3548387096774194
 40
0.3548387096774194
 40
0.3548387096774194
 40
0.3870967741935484
 40
0.3870967741935484
 40
0.3870967741935484
 40
0.3870967741935484
 40
0.4193548387096774
 40
0.4193548387096774
 40
0.4193548387096774
 40
0.4193548387096774
 40
0.4516129032258064
 40
0.4516129032258064
 40
0.4516129032258064
 40
0.4516129032258064
 40
0.4838709677419355
 40
0.4838709677419355
 40
0.4838709677419355
 40
0.4838709677419355
 40
0.5161290322580645
 40
0.5161290322580645
 40
0.5161290322580645
 40
0.5161290322580645
 40
0.5483870967741935
 40
0.5483870967741935
 40
0.5483870967741935
 40
0.5483870967741935
 40
0.5806451612903226
 40
0.5806451612903226
 40
0.5806451612903226
 40
0.5806451612903226
 40
0.6129032258064516
 40
0.6129032258064516
 40
0.6129032258064516
 40
0.6129032258064516
 40
0.6451612903225806
 40
0.6451612903225806
 40
0.6451612903225806
 40
0.6451612903225806
 40
0.6774193548387096
 40
0.6774193548387096
 40
0.6774193548387096
 40
0.6774193548387096
 40
0.7096774193548387
 40
0.7096774193548387
 40
0.7096774193548387
 40
0.7096774193548387
 40
0.7419354838709677
 40
0.7419354838709677
 40
0.7419354838709677
 40
0.7419354838709677
 40
0.7741935483870968
 40
0.7741935483870968
 40
0.7741935483870968
 40
0.7741935483870968
 40
0.8064516129032258
 40
0.8064516129032258
 40
0.8064516129032258
 40
0.8064516129032258
 40
0.8387096774193549
 40
0.8387096774193549
 40
0.8387096774193549
 40
0.8387096774193549
 40
0.8709677419354839
 40
0.8709677419354839
 40
0.8709677419354839
 40
0.8709677419354839
 40
0.9032258064516129
 40
0.9032258064516129
 40
0.9032258064516129
 40
0.9032258064516129
 40
0.9354838709677419
 40
0.9354838709677419
 40
0.9354838709677419
 40
0.9354838709677419
 40
1.0
 40
1.0
 40
1.0
 40
1.0
 10
-2.91669
 20
-6.65641
 30
0.0
 10
-2.91669
 20
-6.65641
 30
0.0
 10
-2.84218
 20
-6.64625
 30
0.0
 10
-2.84218
 20
-6.64625
 30
0.0
 10
-2.84218
 20
-6.64625
 30
0.0
 10
-2.83358
 20
-6.68859
 30
0.0
 10
-2.81918
 20
-6.71907
 30
0.0
 10
-2.79872
 20
-6.73769
 30
0.0
 10
-2.79872
 20
-6.73769
 30
0.0
 10
-2.77826
 20
-6.75632
 30
0.0
 10
-2.75314
 20
-6.76563
 30
0.0
 10
-2.72337
 20
-6.76563
 30
0.0
 10
-2.72337
 20
-6.76563
 30
0.0
 10
-2.68809
 20
-6.76563
 30
0.0
 10
-2.65831
 20
-6.7535
 30
0.0
 10
-2.63433
 20
-6.72923
 30
0.0
 10
-2.63433
 20
-6.72923
 30
0.0
 10
-2.61034
 20
-6.70496
 30
0.0
 10
-2.59834
 20
-6.6749
 30
0.0
 10
-2.59834
 20
-6.63906
 30
0.0
 10
-2.59834
 20
-6.63906
 30
0.0
 10
-2.59834
 20
-6.60491
 30
0.0
 10
-2.60949
 20
-6.57668
 30
0.0
 10
-2.63193
 20
-6.55439
 30
0.0
 10
-2.63193
 20
-6.55439
 30
0.0
 10
-2.65422
 20
-6.53223
 30
0.0
 10
-2.68259
 20
-6.52109
 30
0.0
 10
-2.71716
 20
-6.52109
 30
0.0
 10
-2.71716
 20
-6.52109
 30
0.0
 10
-2.73127
 20
-6.52109
 30
0.0
 10
-2.74877
 20
-6.52391
 30
0.0
 10
-2.76979
 20
-6.52941
 30
0.0
 10
-2.76979
 20
-6.52941
 30
0.0
 10
-2.76979
 20
-6.52941
 30
0.0
 10
-2.76147
 20
-6.46422
 30
0.0
 10
-2.76147
 20
-6.46422
 30
0.0
 10
-2.76147
 20
-6.46422
 30
0.0
 10
-2.75653
 20
-6.46478
 30
0.0
 10
-2.75244
 20
-6.46507
 30
0.0
 10
-2.74947
 20
-6.46507
 30
0.0
 10
-2.74947
 20
-6.46507
 30
0.0
 10
-2.71758
 20
-6.46507
 30
0.0
 10
-2.68908
 20
-6.45674
 30
0.0
 10
-2.66354
 20
-6.44023
 30
0.0
 10
-2.66354
 20
-6.44023
 30
0.0
 10
-2.63814
 20
-6.42372
 30
0.0
 10
-2.62544
 20
-6.39832
 30
0.0
 10
-2.62544
 20
-6.36403
 30
0.0
 10
-2.62544
 20
-6.36403
 30
0.0
 10
-2.62544
 20
-6.33679
 30
0.0
 10
-2.63475
 20
-6.31422
 30
0.0
 10
-2.65323
 20
-6.2963
 30
0.0
 10
-2.65323
 20
-6.2963
 30
0.0
 10
-2.67172
 20
-6.27837
 30
0.0
 10
-2.69557
 20
-6.26948
 30
0.0
 10
-2.72478
 20
-6.26948
 30
0.0
 10
-2.72478
 20
-6.26948
 30
0.0
 10
-2.75385
 20
-6.26948
 30
0.0
 10
-2.77798
 20
-6.27866
 30
0.0
 10
-2.79731
 20
-6.297
 30
0.0
 10
-2.79731
 20
-6.297
 30
0.0
 10
-2.81664
 20
-6.31535
 30
0.0
 10
-2.82906
 20
-6.34286
 30
0.0
 10
-2.83456
 20
-6.37955
 30
0.0
 10
-2.83456
 20
-6.37955
 30
0.0
 10
-2.83456
 20
-6.37955
 30
0.0
 10
-2.90907
 20
-6.366
 30
0.0
 10
-2.90907
 20
-6.366
 30
0.0
 10
-2.90907
 20
-6.366
 30
0.0
 10
-2.8999
 20
-6.31605
 30
0.0
 10
-2.8793
 20
-6.27725
 30
0.0
 10
-2.84698
 20
-6.24973
 30
0.0
 10
-2.84698
 20
-6.24973
 30
0.0
 10
-2.81481
 20
-6.22221
 30
0.0
 10
-2.77459
 20
-6.20852
 30
0.0
 10
-2.72661
 20
-6.20852
 30
0.0
 10
-2.72661
 20
-6.20852
 30
0.0
 10
-2.69359
 20
-6.20852
 30
0.0
 10
-2.66311
 20
-6.21558
 30
0.0
 10
-2.63531
 20
-6.22983
 30
0.0
 10
-2.63531
 20
-6.22983
 30
0.0
 10
-2.60737
 20
-6.24394
 30
0.0
 10
-2.58607
 20
-6.26328
 30
0.0
 10
-2.57139
 20
-6.28769
 30
0.0
 10
-2.57139
 20
-6.28769
 30
0.0
 10
-2.55657
 20
-6.31224
 30
0.0
 10
-2.54924
 20
-6.33821
 30
0.0
 10
-2.54924
 20
-6.36572
 30
0.0
 10
-2.54924
 20
-6.36572
 30
0.0
 10
-2.54924
 20
-6.39183
 30
0.0
 10
-2.55629
 20
-6.41554
 30
0.0
 10
-2.57026
 20
-6.43698
 30
0.0
 10
-2.57026
 20
-6.43698
 30
0.0
 10
-2.58437
 20
-6.45843
 30
0.0
 10
-2.60526
 20
-6.47551
 30
0.0
 10
-2.63277
 20
-6.48821
 30
0.0
 10
-2.63277
 20
-6.48821
 30
0.0
 10
-2.59693
 20
-6.49639
 30
0.0
 10
-2.56913
 20
-6.51361
 30
0.0
 10
-2.54924
 20
-6.53971
 30
0.0
 10
-2.54924
 20
-6.53971
 30
0.0
 10
-2.52948
 20
-6.56568
 30
0.0
 10
-2.5196
 20
-6.59842
 30
0.0
 10
-2.5196
 20
-6.6375
 30
0.0
 10
-2.5196
 20
-6.6375
 30
0.0
 10
-2.5196
 20
-6.69042
 30
0.0
 10
-2.53893
 20
-6.73544
 30
0.0
 10
-2.57746
 20
-6.77227
 30
0.0
 10
-2.57746
 20
-6.77227
 30
0.0
 10
-2.61612
 20
-6.8091
 30
0.0
 10
-2.66495
 20
-6.82744
 30
0.0
 10
-2.72393
 20
-6.82744
 30
0.0
 10
-2.72393
 20
-6.82744
 30
0.0
 10
-2.77713
 20
-6.82744
 30
0.0
 10
-2.8213
 20
-6.81149
 30
0.0
 10
-2.85644
 20
-6.77974
 30
0.0
 10
-2.85644
 20
-6.77974
 30
0.0
 10
-2.89171
 20
-6.74799
 30
0.0
 10
-2.91175
 20
-6.70693
 30
0.0
 10
-2.91669
 20
-6.65641
 30
0.0
  0
SPLINE
  5
46
330
1F
100
AcDbEntity
  8
Layer 1
 62
   250
100
AcDbSpline
210
0.0
220
0.0
230
1.0
 70
    11
 71
     3
 72
    40
 73
    36
 74
     0
 42
0.0000000001
 43
0.0000000001
 12
1.0
 22
0.0
 32
0.0
 13
1.0
 23
0.0
 33
0.0
 40
0.0
 40
0.0
 40
0.0
 40
0.0
 40
0.1
 40
0.1
 40
0.1
 40
0.1
 40
0.2
 40
0.2
 40
0.2
 40
0.2
 40
0.3
 40
0.3
 40
0.3
 40
0.3
 40
0.4
 40
0.4
 40
0.4
 40
0.4
 40
0.5
 40
0.5
 40
0.5
 40
0.5
 40
0.6
 40
0.6
 40
0.6
 40
0.6
 40
0.7
 40
0.7
 40
0.7
 40
0.7
 40
0.8
 40
0.8
 40
0.8
 40
0.8
 40
1.0
 40
1.0
 40
1.0
 40
1.0
 10
-2.1664
 20
-6.81728
 30
0.0
 10
-2.1664
 20
-6.81728
 30
0.0
 10
-2.24091
 20
-6.81728
 30
0.0
 10
-2.24091
 20
-6.81728
 30
0.0
 10
-2.24091
 20
-6.81728
 30
0.0
 10
-2.24091
 20
-6.81728
 30
0.0
 10
-2.24091
 20
-6.34286
 30
0.0
 10
-2.24091
 20
-6.34286
 30
0.0
 10
-2.24091
 20
-6.34286
 30
0.0
 10
-2.25883
 20
-6.36008
 30
0.0
 10
-2.28239
 20
-6.37715
 30
0.0
 10
-2.31146
 20
-6.39423
 30
0.0
 10
-2.31146
 20
-6.39423
 30
0.0
 10
-2.34053
 20
-6.4113
 30
0.0
 10
-2.36678
 20
-6.42414
 30
0.0
 10
-2.38992
 20
-6.43261
 30
0.0
 10
-2.38992
 20
-6.43261
 30
0.0
 10
-2.38992
 20
-6.43261
 30
0.0
 10
-2.38992
 20
-6.36064
 30
0.0
 10
-2.38992
 20
-6.36064
 30
0.0
 10
-2.38992
 20
-6.36064
 30
0.0
 10
-2.34829
 20
-6.34117
 30
0.0
 10
-2.31188
 20
-6.31746
 30
0.0
 10
-2.2807
 20
-6.28952
 30
0.0
 10
-2.2807
 20
-6.28952
 30
0.0
 10
-2.24951
 20
-6.26172
 30
0.0
 10
-2.22736
 20
-6.23477
 30
0.0
 10
-2.21438
 20
-6.20852
 30
0.0
 10
-2.21438
 20
-6.20852
 30
0.0
 10
-2.21438
 20
-6.20852
 30
0.0
 10
-2.1664
 20
-6.20852
 30
0.0
 10
-2.1664
 20
-6.20852
 30
0.0
 10
-2.1664
 20
-6.20852
 30
0.0
 10
-2.1664
 20
-6.20852
 30
0.0
 10
-2.1664
 20
-6.81728
 30
0.0
 10
-2.1664
 20
-6.81728
 30
0.0
  0
SPLINE
  5
47
330
1F
100
AcDbEntity
  8
Layer 1
 62
   250
100
AcDbSpline
210
0.0
220
0.0
230
1.0
 70
    11
 71
     3
 72
    48
 73
    44
 74
     0
 42
0.0000000001
 43
0.0000000001
 12
1.0
 22
0.0
 32
0.0
 13
1.0
 23
0.0
 33
0.0
 40
0.0
 40
0.0
 40
0.0
 40
0.0
 40
0.0833333333333333
 40
0.0833333333333333
 40
0.0833333333333333
 40
0.0833333333333333
 40
0.1666666666666667
 40
0.1666666666666667
 40
0.1666666666666667
 40
0.1666666666666667
 40
0.25
 40
0.25
 40
0.25
 40
0.25
 40
0.3333333333333333
 40
0.3333333333333333
 40
0.3333333333333333
 40
0.3333333333333333
 40
0.4166666666666667
 40
0.4166666666666667
 40
0.4166666666666667
 40
0.4166666666666667
 40
0.5
 40
0.5
 40
0.5
 40
0.5
 40
0.5833333333333334
 40
0.5833333333333334
 40
0.5833333333333334
 40
0.5833333333333334
 40
0.6666666666666666
 40
0.6666666666666666
 40
0.6666666666666666
 40
0.6666666666666666
 40
0.75
 40
0.75
 40
0.75
 40
0.75
 40
0.8333333333333334
 40
0.8333333333333334
 40
0.8333333333333334
 40
0.8333333333333334
 40
1.0
 40
1.0
 40
1.0
 40
1.0
 10
-1.97068
 20
-6.2898
 30
0.0
 10
-1.97068
 20
-6.2898
 30
0.0
 10
-1.97068
 20
-6.21868
 30
0.0
 10
-1.97068
 20
-6.21868
 30
0.0
 10
-1.97068
 20
-6.21868
 30
0.0
 10
-1.97068
 20
-6.21868
 30
0.0
 10
-1.57867
 20
-6.21868
 30
0.0
 10
-1.57867
 20
-6.21868
 30
0.0
 10
-1.57867
 20
-6.21868
 30
0.0
 10
-1.57867
 20
-6.21868
 30
0.0
 10
-1.57867
 20
-6.27626
 30
0.0
 10
-1.57867
 20
-6.27626
 30
0.0
 10
-1.57867
 20
-6.27626
 30
0.0
 10
-1.61719
 20
-6.31732
 30
0.0
 10
-1.65557
 20
-6.37193
 30
0.0
 10
-1.69339
 20
-6.44009
 30
0.0
 10
-1.69339
 20
-6.44009
 30
0.0
 10
-1.73135
 20
-6.50825
 30
0.0
 10
-1.76056
 20
-6.57838
 30
0.0
 10
-1.7813
 20
-6.65049
 30
0.0
 10
-1.7813
 20
-6.65049
 30
0.0
 10
-1.79612
 20
-6.70115
 30
0.0
 10
-1.80572
 20
-6.75688
 30
0.0
 10
-1.80981
 20
-6.81728
 30
0.0
 10
-1.80981
 20
-6.81728
 30
0.0
 10
-1.80981
 20
-6.81728
 30
0.0
 10
-1.88601
 20
-6.81728
 30
0.0
 10
-1.88601
 20
-6.81728
 30
0.0
 10
-1.88601
 20
-6.81728
 30
0.0
 10
-1.88516
 20
-6.76958
 30
0.0
 10
-1.87585
 20
-6.71187
 30
0.0
 10
-1.85793
 20
-6.64428
 30
0.0
 10
-1.85793
 20
-6.64428
 30
0.0
 10
-1.84001
 20
-6.57654
 30
0.0
 10
-1.81447
 20
-6.51135
 30
0.0
 10
-1.78102
 20
-6.44856
 30
0.0
 10
-1.78102
 20
-6.44856
 30
0.0
 10
-1.74758
 20
-6.38576
 30
0.0
 10
-1.71202
 20
-6.33284
 30
0.0
 10
-1.67434
 20
-6.2898
 30
0.0
 10
-1.67434
 20
-6.2898
 30
0.0
 10
-1.67434
 20
-6.2898
 30
0.0
 10
-1.97068
 20
-6.2898
 30
0.0
 10
-1.97068
 20
-6.2898
 30
0.0
  0
SPLINE
  5
48
330
1F
100
AcDbEntity
  8
Layer 1
 62
   250
100
AcDbSpline
210
0.0
220
0.0
230
1.0
 70
    11
 71
     3
 72
    20
 73
    16
 74
     0
 42
0.0000000001
 43
0.0000000001
 12
1.0
 22
0.0
 32
0.0
 13
1.0
 23
0.0
 33
0.0
 40
0.0
 40
0.0
 40
0.0
 40
0.0
 40
0.2
 40
0.2
 40
0.2
 40
0.2
 40
0.4
 40
0.4
 40
0.4
 40
0.4
 40
0.6
 40
0.6
 40
0.6
 40
0.6
 40
1.0
 40
1.0
 40
1.0
 40
1.0
 10
-1.51333
 20
-6.63525
 30
0.0
 10
-1.51333
 20
-6.63525
 30
0.0
 10
-1.51333
 20
-6.56074
 30
0.0
 10
-1.51333
 20
-6.56074
 30
0.0
 10
-1.51333
 20
-6.56074
 30
0.0
 10
-1.51333
 20
-6.56074
 30
0.0
 10
-1.28304
 20
-6.56074
 30
0.0
 10
-1.28304
 20
-6.56074
 30
0.0
 10
-1.28304
 20
-6.56074
 30
0.0
 10
-1.28304
 20
-6.56074
 30
0.0
 10
-1.28304
 20
-6.63525
 30
0.0
 10
-1.28304
 20
-6.63525
 30
0.0
 10
-1.28304
 20
-6.63525
 30
0.0
 10
-1.28304
 20
-6.63525
 30
0.0
 10
-1.51333
 20
-6.63525
 30
0.0
 10
-1.51333
 20
-6.63525
 30
0.0
  0
SPLINE
  5
49
330
1F
100
AcDbEntity
  8
Layer 1
 62
   250
100
AcDbSpline
210
0.0
220
0.0
230
1.0
 70
    11
 71
     3
 72
    28
 73
    24
 74
     0
 42
0.0000000001
 43
0.0000000001
 12
1.0
 22
0.0
 32
0.0
 13
1.0
 23
0.0
 33
0.0
 40
0.0
 40
0.0
 40
0.0
 40
0.0
 40
0.1428571428571428
 40
0.1428571428571428
 40
0.1428571428571428
 40
0.1428571428571428
 40
0.2857142857142857
 40
0.2857142857142857
 40
0.2857142857142857
 40
0.2857142857142857
 40
0.4285714285714285
 40
0.4285714285714285
 40
0.4285714285714285
 40
0.4285714285714285
 40
0.5714285714285714
 40
0.5714285714285714
 40
0.5714285714285714
 40
0.5714285714285714
 40
0.7142857142857143
 40
0.7142857142857143
 40
0.7142857142857143
 40
0.7142857142857143
 40
1.0
 40
1.0
 40
1.0
 40
1.0
 10
-1.19583
 20
-6.81728
 30
0.0
 10
-1.19583
 20
-6.81728
 30
0.0
 10
-1.19583
 20
-6.21106
 30
0.0
 10
-1.19583
 20
-6.21106
 30
0.0
 10
-1.19583
 20
-6.21106
 30
0.0
 10
-1.19583
 20
-6.21106
 30
0.0
 10
-1.1154
 20
-6.21106
 30
0.0
 10
-1.1154
 20
-6.21106
 30
0.0
 10
-1.1154
 20
-6.21106
 30
0.0
 10
-1.1154
 20
-6.21106
 30
0.0
 10
-1.1154
 20
-6.74616
 30
0.0
 10
-1.1154
 20
-6.74616
 30
0.0
 10
-1.1154
 20
-6.74616
 30
0.0
 10
-1.1154
 20
-6.74616
 30
0.0
 10
-0.81737
 20
-6.74616
 30
0.0
 10
-0.81737
 20
-6.74616
 30
0.0
 10
-0.81737
 20
-6.74616
 30
0.0
 10
-0.81737
 20
-6.74616
 30
0.0
 10
-0.81737
 20
-6.81728
 30
0.0
 10
-0.81737
 20
-6.81728
 30
0.0
 10
-0.81737
 20
-6.81728
 30
0.0
 10
-0.81737
 20
-6.81728
 30
0.0
 10
-1.19583
 20
-6.81728
 30
0.0
 10
-1.19583
 20
-6.81728
 30
0.0
  0
SPLINE
  5
4A
330
1F
100
AcDbEntity
  8
Layer 1
 62
   250
100
AcDbSpline
210
0.0
220
0.0
230
1.0
 70
    11
 71
     3
 72
    36
 73
    32
 74
     0
 42
0.0000000001
 43
0.0000000001
 12
1.0
 22
0.0
 32
0.0
 13
1.0
 23
0.0
 33
0.0
 40
0.0
 40
0.0
 40
0.0
 40
0.0
 40
0.1111111111111111
 40
0.1111111111111111
 40
0.1111111111111111
 40
0.1111111111111111
 40
0.2222222222222222
 40
0.2222222222222222
 40
0.2222222222222222
 40
0.2222222222222222
 40
0.3333333333333333
 40
0.3333333333333333
 40
0.3333333333333333
 40
0.3333333333333333
 40
0.4444444444444444
 40
0.4444444444444444
 40
0.4444444444444444
 40
0.4444444444444444
 40
0.5555555555555556
 40
0.5555555555555556
 40
0.5555555555555556
 40
0.5555555555555556
 40
0.6666666666666666
 40
0.6666666666666666
 40
0.6666666666666666
 40
0.6666666666666666
 40
0.7777777777777778
 40
0.7777777777777778
 40
0.7777777777777778
 40
0.7777777777777778
 40
1.0
 40
1.0
 40
1.0
 40
1.0
 10
-0.37894
 20
-6.81728
 30
0.0
 10
-0.37894
 20
-6.81728
 30
0.0
 10
-0.37894
 20
-6.28218
 30
0.0
 10
-0.37894
 20
-6.28218
 30
0.0
 10
-0.37894
 20
-6.28218
 30
0.0
 10
-0.37894
 20
-6.28218
 30
0.0
 10
-0.57876
 20
-6.28218
 30
0.0
 10
-0.57876
 20
-6.28218
 30
0.0
 10
-0.57876
 20
-6.28218
 30
0.0
 10
-0.57876
 20
-6.28218
 30
0.0
 10
-0.57876
 20
-6.21106
 30
0.0
 10
-0.57876
 20
-6.21106
 30
0.0
 10
-0.57876
 20
-6.21106
 30
0.0
 10
-0.57876
 20
-6.21106
 30
0.0
 10
-0.09869
 20
-6.21106
 30
0.0
 10
-0.09869
 20
-6.21106
 30
0.0
 10
-0.09869
 20
-6.21106
 30
0.0
 10
-0.09869
 20
-6.21106
 30
0.0
 10
-0.09869
 20
-6.28218
 30
0.0
 10
-0.09869
 20
-6.28218
 30
0.0
 10
-0.09869
 20
-6.28218
 30
0.0
 10
-0.09869
 20
-6.28218
 30
0.0
 10
-0.29851
 20
-6.28218
 30
0.0
 10
-0.29851
 20
-6.28218
 30
0.0
 10
-0.29851
 20
-6.28218
 30
0.0
 10
-0.29851
 20
-6.28218
 30
0.0
 10
-0.29851
 20
-6.81728
 30
0.0
 10
-0.29851
 20
-6.81728
 30
0.0
 10
-0.29851
 20
-6.81728
 30
0.0
 10
-0.29851
 20
-6.81728
 30
0.0
 10
-0.37894
 20
-6.81728
 30
0.0
 10
-0.37894
 20
-6.81728
 30
0.0
  0
SPLINE
  5
4B
330
1F
100
AcDbEntity
  8
Layer 1
 62
   250
100
AcDbSpline
210
0.0
220
0.0
230
1.0
 70
    11
 71
     3
 72
    52
 73
    48
 74
     0
 42
0.0000000001
 43
0.0000000001
 12
1.0
 22
0.0
 32
0.0
 13
1.0
 23
0.0
 33
0.0
 40
0.0
 40
0.0
 40
0.0
 40
0.0
 40
0.0769230769230769
 40
0.0769230769230769
 40
0.0769230769230769
 40
0.0769230769230769
 40
0.1538461538461539
 40
0.1538461538461539
 40
0.1538461538461539
 40
0.1538461538461539
 40
0.2307692307692308
 40
0.2307692307692308
 40
0.2307692307692308
 40
0.2307692307692308
 40
0.3076923076923077
 40
0.3076923076923077
 40
0.3076923076923077
 40
0.3076923076923077
 40
0.3846153846153846
 40
0.3846153846153846
 40
0.3846153846153846
 40
0.3846153846153846
 40
0.4615384615384616
 40
0.4615384615384616
 40
0.4615384615384616
 40
0.4615384615384616
 40
0.5384615384615384
 40
0.5384615384615384
 40
0.5384615384615384
 40
0.5384615384615384
 40
0.6153846153846154
 40
0.6153846153846154
 40
0.6153846153846154
 40
0.6153846153846154
 40
0.6923076923076923
 40
0.6923076923076923
 40
0.6923076923076923
 40
0.6923076923076923
 40
0.7692307692307693
 40
0.7692307692307693
 40
0.7692307692307693
 40
0.7692307692307693
 40
0.8461538461538461
 40
0.8461538461538461
 40
0.8461538461538461
 40
0.8461538461538461
 40
1.0
 40
1.0
 40
1.0
 40
1.0
 10
-0.01417
 20
-6.81728
 30
0.0
 10
-0.01417
 20
-6.81728
 30
0.0
 10
-0.01417
 20
-6.21106
 30
0.0
 10
-0.01417
 20
-6.21106
 30
0.0
 10
-0.01417
 20
-6.21106
 30
0.0
 10
-0.01417
 20
-6.21106
 30
0.0
 10
0.42356
 20
-6.21106
 30
0.0
 10
0.42356
 20
-6.21106
 30
0.0
 10
0.42356
 20
-6.21106
 30
0.0
 10
0.42356
 20
-6.21106
 30
0.0
 10
0.42356
 20
-6.28218
 30
0.0
 10
0.42356
 20
-6.28218
 30
0.0
 10
0.42356
 20
-6.28218
 30
0.0
 10
0.42356
 20
-6.28218
 30
0.0
 10
0.06626
 20
-6.28218
 30
0.0
 10
0.06626
 20
-6.28218
 30
0.0
 10
0.06626
 20
-6.28218
 30
0.0
 10
0.06626
 20
-6.28218
 30
0.0
 10
0.06626
 20
-6.46845
 30
0.0
 10
0.06626
 20
-6.46845
 30
0.0
 10
0.06626
 20
-6.46845
 30
0.0
 10
0.06626
 20
-6.46845
 30
0.0
 10
0.4007
 20
-6.46845
 30
0.0
 10
0.4007
 20
-6.46845
 30
0.0
 10
0.4007
 20
-6.46845
 30
0.0
 10
0.4007
 20
-6.46845
 30
0.0
 10
0.4007
 20
-6.53957
 30
0.0
 10
0.4007
 20
-6.53957
 30
0.0
 10
0.4007
 20
-6.53957
 30
0.0
 10
0.4007
 20
-6.53957
 30
0.0
 10
0.06626
 20
-6.53957
 30
0.0
 10
0.06626
 20
-6.53957
 30
0.0
 10
0.06626
 20
-6.53957
 30
0.0
 10
0.06626
 20
-6.53957
 30
0.0
 10
0.06626
 20
-6.74616
 30
0.0
 10
0.06626
 20
-6.74616
 30
0.0
 10
0.06626
 20
-6.74616
 30
0.0
 10
0.06626
 20
-6.74616
 30
0.0
 10
0.43795
 20
-6.74616
 30
0.0
 10
0.43795
 20
-6.74616
 30
0.0
 10
0.43795
 20
-6.74616
 30
0.0
 10
0.43795
 20
-6.74616
 30
0.0
 10
0.43795
 20
-6.81728
 30
0.0
 10
0.43795
 20
-6.81728
 30
0.0
 10
0.43795
 20
-6.81728
 30
0.0
 10
0.43795
 20
-6.81728
 30
0.0
 10
-0.01417
 20
-6.81728
 30
0.0
 10
-0.01417
 20
-6.81728
 30
0.0
  0
SPLINE
  5
4C
330
1F
100
AcDbEntity
  8
Layer 1
 62
   250
100
AcDbSpline
210
0.0
220
0.0
230
1.0
 70
    11
 71
     3
 72
    64
 73
    60
 74
     0
 42
0.0000000001
 43
0.0000000001
 12
1.0
 22
0.0
 32
0.0
 13
1.0
 23
0.0
 33
0.0
 40
0.0
 40
0.0
 40
0.0
 40
0.0
 40
0.0625
 40
0.0625
 40
0.0625
 40
0.0625
 40
0.125
 40
0.125
 40
0.125
 40
0.125
 40
0.1875
 40
0.1875
 40
0.1875
 40
0.1875
 40
0.25
 40
0.25
 40
0.25
 40
0.25
 40
0.3125
 40
0.3125
 40
0.3125
 40
0.3125
 40
0.375
 40
0.375
 40
0.375
 40
0.375
 40
0.4375
 40
0.4375
 40
0.4375
 40
0.4375
 40
0.5
 40
0.5
 40
0.5
 40
0.5
 40
0.5625
 40
0.5625
 40
0.5625
 40
0.5625
 40
0.625
 40
0.625
 40
0.625
 40
0.625
 40
0.6875
 40
0.6875
 40
0.6875
 40
0.6875
 40
0.75
 40
0.75
 40
0.75
 40
0.75
 40
0.8125
 40
0.8125
 40
0.8125
 40
0.8125
 40
0.875
 40
0.875
 40
0.875
 40
0.875
 40
1.0
 40
1.0
 40
1.0
 40
1.0
 10
0.54717
 20
-6.81728
 30
0.0
 10
0.54717
 20
-6.81728
 30
0.0
 10
0.54717
 20
-6.21106
 30
0.0
 10
0.54717
 20
-6.21106
 30
0.0
 10
0.54717
 20
-6.21106
 30
0.0
 10
0.54717
 20
-6.21106
 30
0.0
 10
0.6674
 20
-6.21106
 30
0.0
 10
0.6674
 20
-6.21106
 30
0.0
 10
0.6674
 20
-6.21106
 30
0.0
 10
0.6674
 20
-6.21106
 30
0.0
 10
0.81077
 20
-6.64018
 30
0.0
 10
0.81077
 20
-6.64018
 30
0.0
 10
0.81077
 20
-6.64018
 30
0.0
 10
0.82403
 20
-6.68012
 30
0.0
 10
0.83363
 20
-6.71004
 30
0.0
 10
0.83969
 20
-6.72993
 30
0.0
 10
0.83969
 20
-6.72993
 30
0.0
 10
0.84661
 20
-6.70792
 30
0.0
 10
0.85747
 20
-6.67546
 30
0.0
 10
0.87215
 20
-6.63271
 30
0.0
 10
0.87215
 20
-6.63271
 30
0.0
 10
0.87215
 20
-6.63271
 30
0.0
 10
1.01806
 20
-6.21106
 30
0.0
 10
1.01806
 20
-6.21106
 30
0.0
 10
1.01806
 20
-6.21106
 30
0.0
 10
1.01806
 20
-6.21106
 30
0.0
 10
1.12545
 20
-6.21106
 30
0.0
 10
1.12545
 20
-6.21106
 30
0.0
 10
1.12545
 20
-6.21106
 30
0.0
 10
1.12545
 20
-6.21106
 30
0.0
 10
1.12545
 20
-6.81728
 30
0.0
 10
1.12545
 20
-6.81728
 30
0.0
 10
1.12545
 20
-6.81728
 30
0.0
 10
1.12545
 20
-6.81728
 30
0.0
 10
1.0484
 20
-6.81728
 30
0.0
 10
1.0484
 20
-6.81728
 30
0.0
 10
1.0484
 20
-6.81728
 30
0.0
 10
1.0484
 20
-6.81728
 30
0.0
 10
1.0484
 20
-6.31012
 30
0.0
 10
1.0484
 20
-6.31012
 30
0.0
 10
1.0484
 20
-6.31012
 30
0.0
 10
1.0484
 20
-6.31012
 30
0.0
 10
0.87144
 20
-6.81728
 30
0.0
 10
0.87144
 20
-6.81728
 30
0.0
 10
0.87144
 20
-6.81728
 30
0.0
 10
0.87144
 20
-6.81728
 30
0.0
 10
0.7992
 20
-6.81728
 30
0.0
 10
0.7992
 20
-6.81728
 30
0.0
 10
0.7992
 20
-6.81728
 30
0.0
 10
0.7992
 20
-6.81728
 30
0.0
 10
0.62422
 20
-6.30081
 30
0.0
 10
0.62422
 20
-6.30081
 30
0.0
 10
0.62422
 20
-6.30081
 30
0.0
 10
0.62422
 20
-6.30081
 30
0.0
 10
0.62422
 20
-6.81728
 30
0.0
 10
0.62422
 20
-6.81728
 30
0.0
 10
0.62422
 20
-6.81728
 30
0.0
 10
0.62422
 20
-6.81728
 30
0.0
 10
0.54717
 20
-6.81728
 30
0.0
 10
0.54717
 20
-6.81728
 30
0.0
  0
SPLINE
  5
4D
330
1F
100
AcDbEntity
  8
Layer 1
 62
   250
100
AcDbSpline
210
0.0
220
0.0
230
1.0
 70
    11
 71
     3
 72
    48
 73
    44
 74
     0
 42
0.0000000001
 43
0.0000000001
 12
1.0
 22
0.0
 32
0.0
 13
1.0
 23
0.0
 33
0.0
 40
0.0
 40
0.0
 40
0.0
 40
0.0
 40
0.0833333333333333
 40
0.0833333333333333
 40
0.0833333333333333
 40
0.0833333333333333
 40
0.1666666666666667
 40
0.1666666666666667
 40
0.1666666666666667
 40
0.1666666666666667
 40
0.25
 40
0.25
 40
0.25
 40
0.25
 40
0.3333333333333333
 40
0.3333333333333333
 40
0.3333333333333333
 40
0.3333333333333333
 40
0.4166666666666667
 40
0.4166666666666667
 40
0.4166666666666667
 40
0.4166666666666667
 40
0.5
 40
0.5
 40
0.5
 40
0.5
 40
0.5833333333333334
 40
0.5833333333333334
 40
0.5833333333333334
 40
0.5833333333333334
 40
0.6666666666666666
 40
0.6666666666666666
 40
0.6666666666666666
 40
0.6666666666666666
 40
0.75
 40
0.75
 40
0.75
 40
0.75
 40
0.8333333333333334
 40
0.8333333333333334
 40
0.8333333333333334
 40
0.8333333333333334
 40
1.0
 40
1.0
 40
1.0
 40
1.0
 10
1.25414
 20
-6.81728
 30
0.0
 10
1.25414
 20
-6.81728
 30
0.0
 10
1.25414
 20
-6.21106
 30
0.0
 10
1.25414
 20
-6.21106
 30
0.0
 10
1.25414
 20
-6.21106
 30
0.0
 10
1.25414
 20
-6.21106
 30
0.0
 10
1.48303
 20
-6.21106
 30
0.0
 10
1.48303
 20
-6.21106
 30
0.0
 10
1.48303
 20
-6.21106
 30
0.0
 10
1.52324
 20
-6.21106
 30
0.0
 10
1.55401
 20
-6.21304
 30
0.0
 10
1.57531
 20
-6.21685
 30
0.0
 10
1.57531
 20
-6.21685
 30
0.0
 10
1.60509
 20
-6.22179
 30
0.0
 10
1.63007
 20
-6.23124
 30
0.0
 10
1.65024
 20
-6.24507
 30
0.0
 10
1.65024
 20
-6.24507
 30
0.0
 10
1.67042
 20
-6.25904
 30
0.0
 10
1.68665
 20
-6.27852
 30
0.0
 10
1.69893
 20
-6.30349
 30
0.0
 10
1.69893
 20
-6.30349
 30
0.0
 10
1.7112
 20
-6.32847
 30
0.0
 10
1.71727
 20
-6.35599
 30
0.0
 10
1.71727
 20
-6.38604
 30
0.0
 10
1.71727
 20
-6.38604
 30
0.0
 10
1.71727
 20
-6.43741
 30
0.0
 10
1.7009
 20
-6.48101
 30
0.0
 10
1.66802
 20
-6.51657
 30
0.0
 10
1.66802
 20
-6.51657
 30
0.0
 10
1.63529
 20
-6.55227
 30
0.0
 10
1.57588
 20
-6.57005
 30
0.0
 10
1.49008
 20
-6.57005
 30
0.0
 10
1.49008
 20
-6.57005
 30
0.0
 10
1.49008
 20
-6.57005
 30
0.0
 10
1.33458
 20
-6.57005
 30
0.0
 10
1.33458
 20
-6.57005
 30
0.0
 10
1.33458
 20
-6.57005
 30
0.0
 10
1.33458
 20
-6.57005
 30
0.0
 10
1.33458
 20
-6.81728
 30
0.0
 10
1.33458
 20
-6.81728
 30
0.0
 10
1.33458
 20
-6.81728
 30
0.0
 10
1.33458
 20
-6.81728
 30
0.0
 10
1.25414
 20
-6.81728
 30
0.0
 10
1.25414
 20
-6.81728
 30
0.0
  0
SPLINE
  5
4E
330
1F
100
AcDbEntity
  8
Layer 1
 62
   250
100
AcDbSpline
210
0.0
220
0.0
230
1.0
 70
    11
 71
     3
 72
    36
 73
    32
 74
     0
 42
0.0000000001
 43
0.0000000001
 12
1.0
 22
0.0
 32
0.0
 13
1.0
 23
0.0
 33
0.0
 40
0.0
 40
0.0
 40
0.0
 40
0.0
 40
0.1111111111111111
 40
0.1111111111111111
 40
0.1111111111111111
 40
0.1111111111111111
 40
0.2222222222222222
 40
0.2222222222222222
 40
0.2222222222222222
 40
0.2222222222222222
 40
0.3333333333333333
 40
0.3333333333333333
 40
0.3333333333333333
 40
0.3333333333333333
 40
0.4444444444444444
 40
0.4444444444444444
 40
0.4444444444444444
 40
0.4444444444444444
 40
0.5555555555555556
 40
0.5555555555555556
 40
0.5555555555555556
 40
0.5555555555555556
 40
0.6666666666666666
 40
0.6666666666666666
 40
0.6666666666666666
 40
0.6666666666666666
 40
0.7777777777777778
 40
0.7777777777777778
 40
0.7777777777777778
 40
0.7777777777777778
 40
1.0
 40
1.0
 40
1.0
 40
1.0
 10
1.33458
 20
-6.49893
 30
0.0
 10
1.33458
 20
-6.49893
 30
0.0
 10
1.49121
 20
-6.49893
 30
0.0
 10
1.49121
 20
-6.49893
 30
0.0
 10
1.49121
 20
-6.49893
 30
0.0
 10
1.54314
 20
-6.49893
 30
0.0
 10
1.57983
 20
-6.48934
 30
0.0
 10
1.6017
 20
-6.47
 30
0.0
 10
1.6017
 20
-6.47
 30
0.0
 10
1.62343
 20
-6.45067
 30
0.0
 10
1.6343
 20
-6.42358
 30
0.0
 10
1.6343
 20
-6.38844
 30
0.0
 10
1.6343
 20
-6.38844
 30
0.0
 10
1.6343
 20
-6.36318
 30
0.0
 10
1.62795
 20
-6.34145
 30
0.0
 10
1.61511
 20
-6.32339
 30
0.0
 10
1.61511
 20
-6.32339
 30
0.0
 10
1.60227
 20
-6.30533
 30
0.0
 10
1.58533
 20
-6.29333
 30
0.0
 10
1.56445
 20
-6.28755
 30
0.0
 10
1.56445
 20
-6.28755
 30
0.0
 10
1.5509
 20
-6.28402
 30
0.0
 10
1.52592
 20
-6.28218
 30
0.0
 10
1.48966
 20
-6.28218
 30
0.0
 10
1.48966
 20
-6.28218
 30
0.0
 10
1.48966
 20
-6.28218
 30
0.0
 10
1.33458
 20
-6.28218
 30
0.0
 10
1.33458
 20
-6.28218
 30
0.0
 10
1.33458
 20
-6.28218
 30
0.0
 10
1.33458
 20
-6.28218
 30
0.0
 10
1.33458
 20
-6.49893
 30
0.0
 10
1.33458
 20
-6.49893
 30
0.0
  0
SPLINE
  5
4F
330
1F
100
AcDbEntity
  8
Layer 1
 62
   250
100
AcDbSpline
210
0.0
220
0.0
230
1.0
 70
    11
 71
     3
 72
    28
 73
    24
 74
     0
 42
0.0000000001
 43
0.0000000001
 12
1.0
 22
0.0
 32
0.0
 13
1.0
 23
0.0
 33
0.0
 40
0.0
 40
0.0
 40
0.0
 40
0.0
 40
0.1428571428571428
 40
0.1428571428571428
 40
0.1428571428571428
 40
0.1428571428571428
 40
0.2857142857142857
 40
0.2857142857142857
 40
0.2857142857142857
 40
0.2857142857142857
 40
0.4285714285714285
 40
0.4285714285714285
 40
0.4285714285714285
 40
0.4285714285714285
 40
0.5714285714285714
 40
0.5714285714285714
 40
0.5714285714285714
 40
0.5714285714285714
 40
0.7142857142857143
 40
0.7142857142857143
 40
0.7142857142857143
 40
0.7142857142857143
 40
1.0
 40
1.0
 40
1.0
 40
1.0
 10
1.81549
 20
-6.81728
 30
0.0
 10
1.81549
 20
-6.81728
 30
0.0
 10
1.81549
 20
-6.21106
 30
0.0
 10
1.81549
 20
-6.21106
 30
0.0
 10
1.81549
 20
-6.21106
 30
0.0
 10
1.81549
 20
-6.21106
 30
0.0
 10
1.89592
 20
-6.21106
 30
0.0
 10
1.89592
 20
-6.21106
 30
0.0
 10
1.89592
 20
-6.21106
 30
0.0
 10
1.89592
 20
-6.21106
 30
0.0
 10
1.89592
 20
-6.74616
 30
0.0
 10
1.89592
 20
-6.74616
 30
0.0
 10
1.89592
 20
-6.74616
 30
0.0
 10
1.89592
 20
-6.74616
 30
0.0
 10
2.19395
 20
-6.74616
 30
0.0
 10
2.19395
 20
-6.74616
 30
0.0
 10
2.19395
 20
-6.74616
 30
0.0
 10
2.19395
 20
-6.74616
 30
0.0
 10
2.19395
 20
-6.81728
 30
0.0
 10
2.19395
 20
-6.81728
 30
0.0
 10
2.19395
 20
-6.81728
 30
0.0
 10
2.19395
 20
-6.81728
 30
0.0
 10
1.81549
 20
-6.81728
 30
0.0
 10
1.81549
 20
-6.81728
 30
0.0
  0
SPLINE
  5
50
330
1F
100
AcDbEntity
  8
Layer 1
 62
   250
100
AcDbSpline
210
0.0
220
0.0
230
1.0
 70
    11
 71
     3
 72
    36
 73
    32
 74
     0
 42
0.0000000001
 43
0.0000000001
 12
1.0
 22
0.0
 32
0.0
 13
1.0
 23
0.0
 33
0.0
 40
0.0
 40
0.0
 40
0.0
 40
0.0
 40
0.1111111111111111
 40
0.1111111111111111
 40
0.1111111111111111
 40
0.1111111111111111
 40
0.2222222222222222
 40
0.2222222222222222
 40
0.2222222222222222
 40
0.2222222222222222
 40
0.3333333333333333
 40
0.3333333333333333
 40
0.3333333333333333
 40
0.3333333333333333
 40
0.4444444444444444
 40
0.4444444444444444
 40
0.4444444444444444
 40
0.4444444444444444
 40
0.5555555555555556
 40
0.5555555555555556
 40
0.5555555555555556
 40
0.5555555555555556
 40
0.6666666666666666
 40
0.6666666666666666
 40
0.6666666666666666
 40
0.6666666666666666
 40
0.7777777777777778
 40
0.7777777777777778
 40
0.7777777777777778
 40
0.7777777777777778
 40
1.0
 40
1.0
 40
1.0
 40
1.0
 10
2.2233
 20
-6.81728
 30
0.0
 10
2.2233
 20
-6.81728
 30
0.0
 10
2.45585
 20
-6.21106
 30
0.0
 10
2.45585
 20
-6.21106
 30
0.0
 10
2.45585
 20
-6.21106
 30
0.0
 10
2.45585
 20
-6.21106
 30
0.0
 10
2.54405
 20
-6.21106
 30
0.0
 10
2.54405
 20
-6.21106
 30
0.0
 10
2.54405
 20
-6.21106
 30
0.0
 10
2.54405
 20
-6.21106
 30
0.0
 10
2.79085
 20
-6.81728
 30
0.0
 10
2.79085
 20
-6.81728
 30
0.0
 10
2.79085
 20
-6.81728
 30
0.0
 10
2.79085
 20
-6.81728
 30
0.0
 10
2.69955
 20
-6.81728
 30
0.0
 10
2.69955
 20
-6.81728
 30
0.0
 10
2.69955
 20
-6.81728
 30
0.0
 10
2.69955
 20
-6.81728
 30
0.0
 10
2.62942
 20
-6.63355
 30
0.0
 10
2.62942
 20
-6.63355
 30
0.0
 10
2.62942
 20
-6.63355
 30
0.0
 10
2.62942
 20
-6.63355
 30
0.0
 10
2.37415
 20
-6.63355
 30
0.0
 10
2.37415
 20
-6.63355
 30
0.0
 10
2.37415
 20
-6.63355
 30
0.0
 10
2.37415
 20
-6.63355
 30
0.0
 10
2.30839
 20
-6.81728
 30
0.0
 10
2.30839
 20
-6.81728
 30
0.0
 10
2.30839
 20
-6.81728
 30
0.0
 10
2.30839
 20
-6.81728
 30
0.0
 10
2.2233
 20
-6.81728
 30
0.0
 10
2.2233
 20
-6.81728
 30
0.0
  0
SPLINE
  5
51
330
1F
100
AcDbEntity
  8
Layer 1
 62
   250
100
AcDbSpline
210
0.0
220
0.0
230
1.0
 70
    11
 71
     3
 72
    24
 73
    20
 74
     0
 42
0.0000000001
 43
0.0000000001
 12
1.0
 22
0.0
 32
0.0
 13
1.0
 23
0.0
 33
0.0
 40
0.0
 40
0.0
 40
0.0
 40
0.0
 40
0.1666666666666667
 40
0.1666666666666667
 40
0.1666666666666667
 40
0.1666666666666667
 40
0.3333333333333333
 40
0.3333333333333333
 40
0.3333333333333333
 40
0.3333333333333333
 40
0.5
 40
0.5
 40
0.5
 40
0.5
 40
0.6666666666666666
 40
0.6666666666666666
 40
0.6666666666666666
 40
0.6666666666666666
 40
1.0
 40
1.0
 40
1.0
 40
1.0
 10
2.39771
 20
-6.56836
 30
0.0
 10
2.39771
 20
-6.56836
 30
0.0
 10
2.6043
 20
-6.56836
 30
0.0
 10
2.6043
 20
-6.56836
 30
0.0
 10
2.6043
 20
-6.56836
 30
0.0
 10
2.6043
 20
-6.56836
 30
0.0
 10
2.54108
 20
-6.4003
 30
0.0
 10
2.54108
 20
-6.4003
 30
0.0
 10
2.54108
 20
-6.4003
 30
0.0
 10
2.52203
 20
-6.34921
 30
0.0
 10
2.50764
 20
-6.30702
 30
0.0
 10
2.49762
 20
-6.27372
 30
0.0
 10
2.49762
 20
-6.27372
 30
0.0
 10
2.4893
 20
-6.31323
 30
0.0
 10
2.47815
 20
-6.35203
 30
0.0
 10
2.46418
 20
-6.39042
 30
0.0
 10
2.46418
 20
-6.39042
 30
0.0
 10
2.46418
 20
-6.39042
 30
0.0
 10
2.39771
 20
-6.56836
 30
0.0
 10
2.39771
 20
-6.56836
 30
0.0
  0
SPLINE
  5
52
330
1F
100
AcDbEntity
  8
Layer 1
 62
   250
100
AcDbSpline
210
0.0
220
0.0
230
1.0
 70
    11
 71
     3
 72
    36
 73
    32
 74
     0
 42
0.0000000001
 43
0.0000000001
 12
1.0
 22
0.0
 32
0.0
 13
1.0
 23
0.0
 33
0.0
 40
0.0
 40
0.0
 40
0.0
 40
0.0
 40
0.1111111111111111
 40
0.1111111111111111
 40
0.1111111111111111
 40
0.1111111111111111
 40
0.2222222222222222
 40
0.2222222222222222
 40
0.2222222222222222
 40
0.2222222222222222
 40
0.3333333333333333
 40
0.3333333333333333
 40
0.3333333333333333
 40
0.3333333333333333
 40
0.4444444444444444
 40
0.4444444444444444
 40
0.4444444444444444
 40
0.4444444444444444
 40
0.5555555555555556
 40
0.5555555555555556
 40
0.5555555555555556
 40
0.5555555555555556
 40
0.6666666666666666
 40
0.6666666666666666
 40
0.6666666666666666
 40
0.6666666666666666
 40
0.7777777777777778
 40
0.7777777777777778
 40
0.7777777777777778
 40
0.7777777777777778
 40
1.0
 40
1.0
 40
1.0
 40
1.0
 10
2.9458
 20
-6.81728
 30
0.0
 10
2.9458
 20
-6.81728
 30
0.0
 10
2.9458
 20
-6.28218
 30
0.0
 10
2.9458
 20
-6.28218
 30
0.0
 10
2.9458
 20
-6.28218
 30
0.0
 10
2.9458
 20
-6.28218
 30
0.0
 10
2.74598
 20
-6.28218
 30
0.0
 10
2.74598
 20
-6.28218
 30
0.0
 10
2.74598
 20
-6.28218
 30
0.0
 10
2.74598
 20
-6.28218
 30
0.0
 10
2.74598
 20
-6.21106
 30
0.0
 10
2.74598
 20
-6.21106
 30
0.0
 10
2.74598
 20
-6.21106
 30
0.0
 10
2.74598
 20
-6.21106
 30
0.0
 10
3.22605
 20
-6.21106
 30
0.0
 10
3.22605
 20
-6.21106
 30
0.0
 10
3.22605
 20
-6.21106
 30
0.0
 10
3.22605
 20
-6.21106
 30
0.0
 10
3.22605
 20
-6.28218
 30
0.0
 10
3.22605
 20
-6.28218
 30
0.0
 10
3.22605
 20
-6.28218
 30
0.0
 10
3.22605
 20
-6.28218
 30
0.0
 10
3.02623
 20
-6.28218
 30
0.0
 10
3.02623
 20
-6.28218
 30
0.0
 10
3.02623
 20
-6.28218
 30
0.0
 10
3.02623
 20
-6.28218
 30
0.0
 10
3.02623
 20
-6.81728
 30
0.0
 10
3.02623
 20
-6.81728
 30
0.0
 10
3.02623
 20
-6.81728
 30
0.0
 10
3.02623
 20
-6.81728
 30
0.0
 10
2.9458
 20
-6.81728
 30
0.0
 10
2.9458
 20
-6.81728
 30
0.0
  0
SPLINE
  5
53
330
1F
100
AcDbEntity
  8
Layer 1
 62
   250
100
AcDbSpline
210
0.0
220
0.0
230
1.0
 70
    11
 71
     3
 72
    52
 73
    48
 74
     0
 42
0.0000000001
 43
0.0000000001
 12
1.0
 22
0.0
 32
0.0
 13
1.0
 23
0.0
 33
0.0
 40
0.0
 40
0.0
 40
0.0
 40
0.0
 40
0.0769230769230769
 40
0.0769230769230769
 40
0.0769230769230769
 40
0.0769230769230769
 40
0.1538461538461539
 40
0.1538461538461539
 40
0.1538461538461539
 40
0.1538461538461539
 40
0.2307692307692308
 40
0.2307692307692308
 40
0.2307692307692308
 40
0.2307692307692308
 40
0.3076923076923077
 40
0.3076923076923077
 40
0.3076923076923077
 40
0.3076923076923077
 40
0.3846153846153846
 40
0.3846153846153846
 40
0.3846153846153846
 40
0.3846153846153846
 40
0.4615384615384616
 40
0.4615384615384616
 40
0.4615384615384616
 40
0.4615384615384616
 40
0.5384615384615384
 40
0.5384615384615384
 40
0.5384615384615384
 40
0.5384615384615384
 40
0.6153846153846154
 40
0.6153846153846154
 40
0.6153846153846154
 40
0.6153846153846154
 40
0.6923076923076923
 40
0.6923076923076923
 40
0.6923076923076923
 40
0.6923076923076923
 40
0.7692307692307693
 40
0.7692307692307693
 40
0.7692307692307693
 40
0.7692307692307693
 40
0.8461538461538461
 40
0.8461538461538461
 40
0.8461538461538461
 40
0.8461538461538461
 40
1.0
 40
1.0
 40
1.0
 40
1.0
 10
3.31057
 20
-6.81728
 30
0.0
 10
3.31057
 20
-6.81728
 30
0.0
 10
3.31057
 20
-6.21106
 30
0.0
 10
3.31057
 20
-6.21106
 30
0.0
 10
3.31057
 20
-6.21106
 30
0.0
 10
3.31057
 20
-6.21106
 30
0.0
 10
3.7483
 20
-6.21106
 30
0.0
 10
3.7483
 20
-6.21106
 30
0.0
 10
3.7483
 20
-6.21106
 30
0.0
 10
3.7483
 20
-6.21106
 30
0.0
 10
3.7483
 20
-6.28218
 30
0.0
 10
3.7483
 20
-6.28218
 30
0.0
 10
3.7483
 20
-6.28218
 30
0.0
 10
3.7483
 20
-6.28218
 30
0.0
 10
3.391
 20
-6.28218
 30
0.0
 10
3.391
 20
-6.28218
 30
0.0
 10
3.391
 20
-6.28218
 30
0.0
 10
3.391
 20
-6.28218
 30
0.0
 10
3.391
 20
-6.46845
 30
0.0
 10
3.391
 20
-6.46845
 30
0.0
 10
3.391
 20
-6.46845
 30
0.0
 10
3.391
 20
-6.46845
 30
0.0
 10
3.72544
 20
-6.46845
 30
0.0
 10
3.72544
 20
-6.46845
 30
0.0
 10
3.72544
 20
-6.46845
 30
0.0
 10
3.72544
 20
-6.46845
 30
0.0
 10
3.72544
 20
-6.53957
 30
0.0
 10
3.72544
 20
-6.53957
 30
0.0
 10
3.72544
 20
-6.53957
 30
0.0
 10
3.72544
 20
-6.53957
 30
0.0
 10
3.391
 20
-6.53957
 30
0.0
 10
3.391
 20
-6.53957
 30
0.0
 10
3.391
 20
-6.53957
 30
0.0
 10
3.391
 20
-6.53957
 30
0.0
 10
3.391
 20
-6.74616
 30
0.0
 10
3.391
 20
-6.74616
 30
0.0
 10
3.391
 20
-6.74616
 30
0.0
 10
3.391
 20
-6.74616
 30
0.0
 10
3.76269
 20
-6.74616
 30
0.0
 10
3.76269
 20
-6.74616
 30
0.0
 10
3.76269
 20
-6.74616
 30
0.0
 10
3.76269
 20
-6.74616
 30
0.0
 10
3.76269
 20
-6.81728
 30
0.0
 10
3.76269
 20
-6.81728
 30
0.0
 10
3.76269
 20
-6.81728
 30
0.0
 10
3.76269
 20
-6.81728
 30
0.0
 10
3.31057
 20
-6.81728
 30
0.0
 10
3.31057
 20
-6.81728
 30
0.0
  0
SPLINE
  5
54
330
1F
100
AcDbEntity
  8
Layer 1
 62
     3
370
     9
100
AcDbSpline
210
0.0
220
0.0
230
1.0
 70
     8
 71
     3
 72
    32
 73
    28
 74
     0
 42
0.0000000001
 43
0.0000000001
 12
1.0
 22
0.0
 32
0.0
 13
1.0
 23
0.0
 33
0.0
 40
0.0
 40
0.0
 40
0.0
 40
0.0
 40
0.125
 40
0.125
 40
0.125
 40
0.125
 40
0.25
 40
0.25
 40
0.25
 40
0.25
 40
0.375
 40
0.375
 40
0.375
 40
0.375
 40
0.5
 40
0.5
 40
0.5
 40
0.5
 40
0.625
 40
0.625
 40
0.625
 40
0.625
 40
0.75
 40
0.75
 40
0.75
 40
0.75
 40
1.0
 40
1.0
 40
1.0
 40
1.0
 10
0.50982
 20
7.67655
 30
0.0
 10
0.50982
 20
7.67655
 30
0.0
 10
-10.50852
 20
7.67655
 30
0.0
 10
-10.50852
 20
7.67655
 30
0.0
 10
-10.50852
 20
7.67655
 30
0.0
 10
-10.58944
 20
7.6765
 30
0.0
 10
-10.66704
 20
7.6443
 30
0.0
 10
-10.72423
 20
7.58704
 30
0.0
 10
-10.72423
 20
7.58704
 30
0.0
 10
-10.78143
 20
7.52977
 30
0.0
 10
-10.81352
 20
7.45252
 30
0.0
 10
-10.81347
 20
7.37158
 30
0.0
 10
-10.81347
 20
7.37158
 30
0.0
 10
-10.81347
 20
7.37158
 30
0.0
 10
-10.81347
 20
-4.41209
 30
0.0
 10
-10.81347
 20
-4.41209
 30
0.0
 10
-10.81347
 20
-4.41209
 30
0.0
 10
-10.81342
 20
-4.49302
 30
0.0
 10
-10.78123
 20
-4.57062
 30
0.0
 10
-10.72396
 20
-4.6278
 30
0.0
 10
-10.72396
 20
-4.6278
 30
0.0
 10
-10.66669
 20
-4.68499
 30
0.0
 10
-10.58944
 20
-4.7171
 30
0.0
 10
-10.50852
 20
-4.71704
 30
0.0
 10
-10.50852
 20
-4.71704
 30
0.0
 10
-10.50852
 20
-4.71704
 30
0.0
 10
0.50982
 20
-4.71704
 30
0.0
 10
0.50982
 20
-4.71704
 30
0.0
  0
SPLINE
  5
55
330
1F
100
AcDbEntity
  8
Layer 1
 62
     3
370
     9
100
AcDbSpline
210
0.0
220
0.0
230
1.0
 70
     8
 71
     3
 72
    32
 73
    28
 74
     0
 42
0.0000000001
 43
0.0000000001
 12
1.0
 22
0.0
 32
0.0
 13
1.0
 23
0.0
 33
0.0
 40
0.0
 40
0.0
 40
0.0
 40
0.0
 40
0.125
 40
0.125
 40
0.125
 40
0.125
 40
0.25
 40
0.25
 40
0.25
 40
0.25
 40
0.375
 40
0.375
 40
0.375
 40
0.375
 40
0.5
 40
0.5
 40
0.5
 40
0.5
 40
0.625
 40
0.625
 40
0.625
 40
0.625
 40
0.75
 40
0.75
 40
0.75
 40
0.75
 40
1.0
 40
1.0
 40
1.0
 40
1.0
 10
0.50982
 20
7.67655
 30
0.0
 10
0.50982
 20
7.67655
 30
0.0
 10
10.57036
 20
7.67655
 30
0.0
 10
10.57036
 20
7.67655
 30
0.0
 10
10.57036
 20
7.67655
 30
0.0
 10
10.65119
 20
7.6766
 30
0.0
 10
10.72873
 20
7.64454
 30
0.0
 10
10.78593
 20
7.58742
 30
0.0
 10
10.78593
 20
7.58742
 30
0.0
 10
10.84311
 20
7.5303
 30
0.0
 10
10.87527
 20
7.45242
 30
0.0
 10
10.87532
 20
7.37158
 30
0.0
 10
10.87532
 20
7.37158
 30
0.0
 10
10.87532
 20
7.37158
 30
0.0
 10
10.87532
 20
-4.41209
 30
0.0
 10
10.87532
 20
-4.41209
 30
0.0
 10
10.87532
 20
-4.41209
 30
0.0
 10
10.87538
 20
-4.49291
 30
0.0
 10
10.84332
 20
-4.57046
 30
0.0
 10
10.7862
 20
-4.62765
 30
0.0
 10
10.7862
 20
-4.62765
 30
0.0
 10
10.72908
 20
-4.68483
 30
0.0
 10
10.65119
 20
-4.71699
 30
0.0
 10
10.57036
 20
-4.71704
 30
0.0
 10
10.57036
 20
-4.71704
 30
0.0
 10
10.57036
 20
-4.71704
 30
0.0
 10
0.50982
 20
-4.71704
 30
0.0
 10
0.50982
 20
-4.71704
 30
0.0
  0
SPLINE
  5
57
330
1F
100
AcDbEntity
  8
layer 2
 62
     1
370
     0
100
AcDbSpline
210
0.0
220
0.0
230
1.0
 70
    24
 71
     3
 72
     8
 73
     4
 74
     0
 42
0.0000000001
 43
0.0000000001
 12
1.0
 22
0.0
 32
0.0
 13
1.0
 23
0.0
 33
0.0
 40
0.0
 40
0.0
 40
0.0
 40
0.0
 40
1.0
 40
1.0
 40
1.0
 40
1.0
 10
-10.81347
 20
7.52407
 30
0.0
 10
-10.81347
 20
7.52407
 30
0.0
 10
-10.81347
 20
8.70307
 30
0.0
 10
-10.81347
 20
8.70307
 30
0.0
  0
SPLINE
  5
58
330
1F
100
AcDbEntity
  8
layer 2
 62
     1
370
     0
100
AcDbSpline
210
0.0
220
0.0
230
1.0
 70
    24
 71
     3
 72
     8
 73
     4
 74
     0
 42
0.0000000001
 43
0.0000000001
 12
1.0
 22
0.0
 32
0.0
 13
1.0
 23
0.0
 33
0.0
 40
0.0
 40
0.0
 40
0.0
 40
0.0
 40
1.0
 40
1.0
 40
1.0
 40
1.0
 10
10.87532
 20
7.52407
 30
0.0
 10
10.87532
 20
7.52407
 30
0.0
 10
10.87532
 20
8.70307
 30
0.0
 10
10.87532
 20
8.70307
 30
0.0
  0
SPLINE
  5
59
330
1F
100
AcDbEntity
  8
layer 2
 62
     1
370
     0
100
AcDbSpline
210
0.0
220
0.0
230
1.0
 70
    24
 71
     3
 72
     8
 73
     4
 74
     0
 42
0.0000000001
 43
0.0000000001
 12
1.0
 22
0.0
 32
0.0
 13
1.0
 23
0.0
 33
0.0
 40
0.0
 40
0.0
 40
0.0
 40
0.0
 40
1.0
 40
1.0
 40
1.0
 40
1.0
 10
-10.20356
 20
8.39812
 30
0.0
 10
-10.20356
 20
8.39812
 30
0.0
 10
10.2654
 20
8.39812
 30
0.0
 10
10.2654
 20
8.39812
 30
0.0
  0
SPLINE
  5
5A
330
1F
100
AcDbEntity
  8
layer 2
 62
     1
100
AcDbSpline
210
0.0
220
0.0
230
1.0
 70
    27
 71
     3
 72
    12
 73
     8
 74
     0
 42
0.0000000001
 43
0.0000000001
 12
1.0
 22
0.0
 32
0.0
 13
1.0
 23
0.0
 33
0.0
 40
0.0
 40
0.0
 40
0.0
 40
0.0
 40
0.3333333333333333
 40
0.3333333333333333
 40
0.3333333333333333
 40
0.3333333333333333
 40
1.0
 40
1.0
 40
1.0
 40
1.0
 10
-10.20356
 20
8.49976
 30
0.0
 10
-10.20356
 20
8.49976
 30
0.0
 10
-10.81347
 20
8.39812
 30
0.0
 10
-10.81347
 20
8.39812
 30
0.0
 10
-10.81347
 20
8.39812
 30
0.0
 10
-10.81347
 20
8.39812
 30
0.0
 10
-10.20356
 20
8.49976
 30
0.0
 10
-10.20356
 20
8.49976
 30
0.0
  0
SPLINE
  5
5B
330
1F
100
AcDbEntity
  8
layer 2
 62
     1
100
AcDbSpline
210
0.0
220
0.0
230
1.0
 70
     8
 71
     3
 72
    12
 73
     8
 74
     0
 42
0.0000000001
 43
0.0000000001
 12
1.0
 22
0.0
 32
0.0
 13
1.0
 23
0.0
 33
0.0
 40
0.0
 40
0.0
 40
0.0
 40
0.0
 40
0.3333333333333333
 40
0.3333333333333333
 40
0.3333333333333333
 40
0.3333333333333333
 40
1.0
 40
1.0
 40
1.0
 40
1.0
 10
-10.81347
 20
8.39812
 30
0.0
 10
-10.81347
 20
8.39812
 30
0.0
 10
-10.20356
 20
8.29645
 30
0.0
 10
-10.20356
 20
8.29645
 30
0.0
 10
-10.20356
 20
8.29645
 30
0.0
 10
-10.20356
 20
8.29645
 30
0.0
 10
-10.20356
 20
8.49976
 30
0.0
 10
-10.20356
 20
8.49976
 30
0.0
  0
SPLINE
  5
5C
330
1F
100
AcDbEntity
  8
layer 2
 62
     1
370
     9
100
AcDbSpline
210
0.0
220
0.0
230
1.0
 70
    24
 71
     3
 72
     8
 73
     4
 74
     0
 42
0.0000000001
 43
0.0000000001
 12
1.0
 22
0.0
 32
0.0
 13
1.0
 23
0.0
 33
0.0
 40
0.0
 40
0.0
 40
0.0
 40
0.0
 40
1.0
 40
1.0
 40
1.0
 40
1.0
 10
-10.20356
 20
8.49976
 30
0.0
 10
-10.20356
 20
8.49976
 30
0.0
 10
-10.81347
 20
8.39812
 30
0.0
 10
-10.81347
 20
8.39812
 30
0.0
  0
SPLINE
  5
5D
330
1F
100
AcDbEntity
  8
layer 2
 62
     1
370
     9
100
AcDbSpline
210
0.0
220
0.0
230
1.0
 70
     8
 71
     3
 72
    12
 73
     8
 74
     0
 42
0.0000000001
 43
0.0000000001
 12
1.0
 22
0.0
 32
0.0
 13
1.0
 23
0.0
 33
0.0
 40
0.0
 40
0.0
 40
0.0
 40
0.0
 40
0.3333333333333333
 40
0.3333333333333333
 40
0.3333333333333333
 40
0.3333333333333333
 40
1.0
 40
1.0
 40
1.0
 40
1.0
 10
-10.81347
 20
8.39812
 30
0.0
 10
-10.81347
 20
8.39812
 30
0.0
 10
-10.20356
 20
8.29645
 30
0.0
 10
-10.20356
 20
8.29645
 30
0.0
 10
-10.20356
 20
8.29645
 30
0.0
 10
-10.20356
 20
8.29645
 30
0.0
 10
-10.20356
 20
8.49976
 30
0.0
 10
-10.20356
 20
8.49976
 30
0.0
  0
SPLINE
  5
5E
330
1F
100
AcDbEntity
  8
layer 2
 62
     1
100
AcDbSpline
210
0.0
220
0.0
230
1.0
 70
    27
 71
     3
 72
    12
 73
     8
 74
     0
 42
0.0000000001
 43
0.0000000001
 12
1.0
 22
0.0
 32
0.0
 13
1.0
 23
0.0
 33
0.0
 40
0.0
 40
0.0
 40
0.0
 40
0.0
 40
0.3333333333333333
 40
0.3333333333333333
 40
0.3333333333333333
 40
0.3333333333333333
 40
1.0
 40
1.0
 40
1.0
 40
1.0
 10
10.2654
 20
8.49976
 30
0.0
 10
10.2654
 20
8.49976
 30
0.0
 10
10.87532
 20
8.39812
 30
0.0
 10
10.87532
 20
8.39812
 30
0.0
 10
10.87532
 20
8.39812
 30
0.0
 10
10.87532
 20
8.39812
 30
0.0
 10
10.2654
 20
8.49976
 30
0.0
 10
10.2654
 20
8.49976
 30
0.0
  0
SPLINE
  5
5F
330
1F
100
AcDbEntity
  8
layer 2
 62
     1
100
AcDbSpline
210
0.0
220
0.0
230
1.0
 70
     8
 71
     3
 72
    12
 73
     8
 74
     0
 42
0.0000000001
 43
0.0000000001
 12
1.0
 22
0.0
 32
0.0
 13
1.0
 23
0.0
 33
0.0
 40
0.0
 40
0.0
 40
0.0
 40
0.0
 40
0.3333333333333333
 40
0.3333333333333333
 40
0.3333333333333333
 40
0.3333333333333333
 40
1.0
 40
1.0
 40
1.0
 40
1.0
 10
10.87532
 20
8.39812
 30
0.0
 10
10.87532
 20
8.39812
 30
0.0
 10
10.2654
 20
8.29645
 30
0.0
 10
10.2654
 20
8.29645
 30
0.0
 10
10.2654
 20
8.29645
 30
0.0
 10
10.2654
 20
8.29645
 30
0.0
 10
10.2654
 20
8.49976
 30
0.0
 10
10.2654
 20
8.49976
 30
0.0
  0
SPLINE
  5
60
330
1F
100
AcDbEntity
  8
layer 2
 62
     1
370
     9
100
AcDbSpline
210
0.0
220
0.0
230
1.0
 70
    24
 71
     3
 72
     8
 73
     4
 74
     0
 42
0.0000000001
 43
0.0000000001
 12
1.0
 22
0.0
 32
0.0
 13
1.0
 23
0.0
 33
0.0
 40
0.0
 40
0.0
 40
0.0
 40
0.0
 40
1.0
 40
1.0
 40
1.0
 40
1.0
 10
10.2654
 20
8.49976
 30
0.0
 10
10.2654
 20
8.49976
 30
0.0
 10
10.87532
 20
8.39812
 30
0.0
 10
10.87532
 20
8.39812
 30
0.0
  0
SPLINE
  5
61
330
1F
100
AcDbEntity
  8
layer 2
 62
     1
370
     9
100
AcDbSpline
210
0.0
220
0.0
230
1.0
 70
     8
 71
     3
 72
    12
 73
     8
 74
     0
 42
0.0000000001
 43
0.0000000001
 12
1.0
 22
0.0
 32
0.0
 13
1.0
 23
0.0
 33
0.0
 40
0.0
 40
0.0
 40
0.0
 40
0.0
 40
0.3333333333333333
 40
0.3333333333333333
 40
0.3333333333333333
 40
0.3333333333333333
 40
1.0
 40
1.0
 40
1.0
 40
1.0
 10
10.87532
 20
8.39812
 30
0.0
 10
10.87532
 20
8.39812
 30
0.0
 10
10.2654
 20
8.29645
 30
0.0
 10
10.2654
 20
8.29645
 30
0.0
 10
10.2654
 20
8.29645
 30
0.0
 10
10.2654
 20
8.29645
 30
0.0
 10
10.2654
 20
8.49976
 30
0.0
 10
10.2654
 20
8.49976
 30
0.0
  0
SPLINE
  5
62
330
1F
100
AcDbEntity
  8
layer 2
 62
     1
100
AcDbSpline
210
0.0
220
0.0
230
1.0
 70
    11
 71
     3
 72
    92
 73
    88
 74
     0
 42
0.0000000001
 43
0.0000000001
 12
1.0
 22
0.0
 32
0.0
 13
1.0
 23
0.0
 33
0.0
 40
0.0
 40
0.0
 40
0.0
 40
0.0
 40
0.0434782608695652
 40
0.0434782608695652
 40
0.0434782608695652
 40
0.0434782608695652
 40
0.0869565217391304
 40
0.0869565217391304
 40
0.0869565217391304
 40
0.0869565217391304
 40
0.1304347826086956
 40
0.1304347826086956
 40
0.1304347826086956
 40
0.1304347826086956
 40
0.1739130434782609
 40
0.1739130434782609
 40
0.1739130434782609
 40
0.1739130434782609
 40
0.2173913043478261
 40
0.2173913043478261
 40
0.2173913043478261
 40
0.2173913043478261
 40
0.2608695652173913
 40
0.2608695652173913
 40
0.2608695652173913
 40
0.2608695652173913
 40
0.3043478260869565
 40
0.3043478260869565
 40
0.3043478260869565
 40
0.3043478260869565
 40
0.3478260869565217
 40
0.3478260869565217
 40
0.3478260869565217
 40
0.3478260869565217
 40
0.391304347826087
 40
0.391304347826087
 40
0.391304347826087
 40
0.391304347826087
 40
0.4347826086956522
 40
0.4347826086956522
 40
0.4347826086956522
 40
0.4347826086956522
 40
0.4782608695652174
 40
0.4782608695652174
 40
0.4782608695652174
 40
0.4782608695652174
 40
0.5217391304347826
 40
0.5217391304347826
 40
0.5217391304347826
 40
0.5217391304347826
 40
0.5652173913043478
 40
0.5652173913043478
 40
0.5652173913043478
 40
0.5652173913043478
 40
0.6086956521739131
 40
0.6086956521739131
 40
0.6086956521739131
 40
0.6086956521739131
 40
0.6521739130434783
 40
0.6521739130434783
 40
0.6521739130434783
 40
0.6521739130434783
 40
0.6956521739130435
 40
0.6956521739130435
 40
0.6956521739130435
 40
0.6956521739130435
 40
0.7391304347826086
 40
0.7391304347826086
 40
0.7391304347826086
 40
0.7391304347826086
 40
0.782608695652174
 40
0.782608695652174
 40
0.782608695652174
 40
0.782608695652174
 40
0.8260869565217391
 40
0.8260869565217391
 40
0.8260869565217391
 40
0.8260869565217391
 40
0.8695652173913043
 40
0.8695652173913043
 40
0.8695652173913043
 40
0.8695652173913043
 40
0.9130434782608695
 40
0.9130434782608695
 40
0.9130434782608695
 40
0.9130434782608695
 40
1.0
 40
1.0
 40
1.0
 40
1.0
 10
-0.09851
 20
8.70598
 30
0.0
 10
-0.09851
 20
8.70598
 30
0.0
 10
-0.09851
 20
8.65885
 30
0.0
 10
-0.09851
 20
8.65885
 30
0.0
 10
-0.09851
 20
8.65885
 30
0.0
 10
-0.09851
 20
8.65885
 30
0.0
 10
-0.36449
 20
8.65885
 30
0.0
 10
-0.36449
 20
8.65885
 30
0.0
 10
-0.36449
 20
8.65885
 30
0.0
 10
-0.36486
 20
8.67073
 30
0.0
 10
-0.36289
 20
8.68214
 30
0.0
 10
-0.35869
 20
8.69317
 30
0.0
 10
-0.35869
 20
8.69317
 30
0.0
 10
-0.35186
 20
8.71122
 30
0.0
 10
-0.34092
 20
8.72909
 30
0.0
 10
-0.32587
 20
8.74657
 30
0.0
 10
-0.32587
 20
8.74657
 30
0.0
 10
-0.31081
 20
8.76406
 30
0.0
 10
-0.2893
 20
8.78426
 30
0.0
 10
-0.26133
 20
8.80718
 30
0.0
 10
-0.26133
 20
8.80718
 30
0.0
 10
-0.21784
 20
8.843
 30
0.0
 10
-0.18829
 20
8.87134
 30
0.0
 10
-0.17286
 20
8.89228
 30
0.0
 10
-0.17286
 20
8.89228
 30
0.0
 10
-0.15733
 20
8.91322
 30
0.0
 10
-0.14957
 20
8.93305
 30
0.0
 10
-0.14957
 20
8.95176
 30
0.0
 10
-0.14957
 20
8.95176
 30
0.0
 10
-0.14957
 20
8.9713
 30
0.0
 10
-0.15658
 20
8.98776
 30
0.0
 10
-0.17061
 20
9.00124
 30
0.0
 10
-0.17061
 20
9.00124
 30
0.0
 10
-0.18464
 20
9.0146
 30
0.0
 10
-0.20298
 20
9.02133
 30
0.0
 10
-0.22551
 20
9.02133
 30
0.0
 10
-0.22551
 20
9.02133
 30
0.0
 10
-0.24936
 20
9.02133
 30
0.0
 10
-0.26844
 20
9.01423
 30
0.0
 10
-0.28275
 20
9.00002
 30
0.0
 10
-0.28275
 20
9.00002
 30
0.0
 10
-0.29705
 20
8.98589
 30
0.0
 10
-0.30426
 20
8.96625
 30
0.0
 10
-0.30444
 20
8.9411
 30
0.0
 10
-0.30444
 20
8.9411
 30
0.0
 10
-0.30444
 20
8.9411
 30
0.0
 10
-0.35494
 20
8.94614
 30
0.0
 10
-0.35494
 20
8.94614
 30
0.0
 10
-0.35494
 20
8.94614
 30
0.0
 10
-0.35148
 20
8.98393
 30
0.0
 10
-0.3384
 20
9.01273
 30
0.0
 10
-0.31576
 20
9.03256
 30
0.0
 10
-0.31576
 20
9.03256
 30
0.0
 10
-0.29303
 20
9.05239
 30
0.0
 10
-0.26264
 20
9.0623
 30
0.0
 10
-0.22439
 20
9.0623
 30
0.0
 10
-0.22439
 20
9.0623
 30
0.0
 10
-0.18586
 20
9.0623
 30
0.0
 10
-0.15528
 20
9.05164
 30
0.0
 10
-0.13284
 20
9.03023
 30
0.0
 10
-0.13284
 20
9.03023
 30
0.0
 10
-0.1103
 20
9.0088
 30
0.0
 10
-0.09907
 20
8.98225
 30
0.0
 10
-0.09907
 20
8.95064
 30
0.0
 10
-0.09907
 20
8.95064
 30
0.0
 10
-0.09907
 20
8.93455
 30
0.0
 10
-0.10234
 20
8.91875
 30
0.0
 10
-0.10899
 20
8.90322
 30
0.0
 10
-0.10899
 20
8.90322
 30
0.0
 10
-0.11553
 20
8.8876
 30
0.0
 10
-0.12648
 20
8.87124
 30
0.0
 10
-0.14172
 20
8.85403
 30
0.0
 10
-0.14172
 20
8.85403
 30
0.0
 10
-0.15705
 20
8.83692
 30
0.0
 10
-0.18241
 20
8.81326
 30
0.0
 10
-0.21775
 20
8.78332
 30
0.0
 10
-0.21775
 20
8.78332
 30
0.0
 10
-0.2474
 20
8.75845
 30
0.0
 10
-0.26648
 20
8.74162
 30
0.0
 10
-0.27489
 20
8.73274
 30
0.0
 10
-0.27489
 20
8.73274
 30
0.0
 10
-0.2833
 20
8.72384
 30
0.0
 10
-0.29023
 20
8.71496
 30
0.0
 10
-0.29575
 20
8.70598
 30
0.0
 10
-0.29575
 20
8.70598
 30
0.0
 10
-0.29575
 20
8.70598
 30
0.0
 10
-0.09851
 20
8.70598
 30
0.0
 10
-0.09851
 20
8.70598
 30
0.0
  0
SPLINE
  5
63
330
1F
100
AcDbEntity
  8
layer 2
 62
     1
100
AcDbSpline
210
0.0
220
0.0
230
1.0
 70
    11
 71
     3
 72
    68
 73
    64
 74
     0
 42
0.0000000001
 43
0.0000000001
 12
1.0
 22
0.0
 32
0.0
 13
1.0
 23
0.0
 33
0.0
 40
0.0
 40
0.0
 40
0.0
 40
0.0
 40
0.0588235294117647
 40
0.0588235294117647
 40
0.0588235294117647
 40
0.0588235294117647
 40
0.1176470588235294
 40
0.1176470588235294
 40
0.1176470588235294
 40
0.1176470588235294
 40
0.1764705882352941
 40
0.1764705882352941
 40
0.1764705882352941
 40
0.1764705882352941
 40
0.2352941176470588
 40
0.2352941176470588
 40
0.2352941176470588
 40
0.2352941176470588
 40
0.2941176470588235
 40
0.2941176470588235
 40
0.2941176470588235
 40
0.2941176470588235
 40
0.3529411764705883
 40
0.3529411764705883
 40
0.3529411764705883
 40
0.3529411764705883
 40
0.4117647058823529
 40
0.4117647058823529
 40
0.4117647058823529
 40
0.4117647058823529
 40
0.4705882352941176
 40
0.4705882352941176
 40
0.4705882352941176
 40
0.4705882352941176
 40
0.5294117647058824
 40
0.5294117647058824
 40
0.5294117647058824
 40
0.5294117647058824
 40
0.5882352941176471
 40
0.5882352941176471
 40
0.5882352941176471
 40
0.5882352941176471
 40
0.6470588235294118
 40
0.6470588235294118
 40
0.6470588235294118
 40
0.6470588235294118
 40
0.7058823529411765
 40
0.7058823529411765
 40
0.7058823529411765
 40
0.7058823529411765
 40
0.7647058823529411
 40
0.7647058823529411
 40
0.7647058823529411
 40
0.7647058823529411
 40
0.8235294117647058
 40
0.8235294117647058
 40
0.8235294117647058
 40
0.8235294117647058
 40
0.8823529411764706
 40
0.8823529411764706
 40
0.8823529411764706
 40
0.8823529411764706
 40
1.0
 40
1.0
 40
1.0
 40
1.0
 10
0.03093
 20
8.87667
 30
0.0
 10
0.01044
 20
8.88415
 30
0.0
 10
-0.00471
 20
8.8949
 30
0.0
 10
-0.01462
 20
8.90874
 30
0.0
 10
-0.01462
 20
8.90874
 30
0.0
 10
-0.02445
 20
8.92267
 30
0.0
 10
-0.0294
 20
8.93931
 30
0.0
 10
-0.0294
 20
8.95867
 30
0.0
 10
-0.0294
 20
8.95867
 30
0.0
 10
-0.0294
 20
8.98795
 30
0.0
 10
-0.01892
 20
9.01245
 30
0.0
 10
0.00202
 20
9.03238
 30
0.0
 10
0.00202
 20
9.03238
 30
0.0
 10
0.02307
 20
9.05229
 30
0.0
 10
0.05094
 20
9.0623
 30
0.0
 10
0.08582
 20
9.0623
 30
0.0
 10
0.08582
 20
9.0623
 30
0.0
 10
0.1208
 20
9.0623
 30
0.0
 10
0.14904
 20
9.0521
 30
0.0
 10
0.17036
 20
9.03171
 30
0.0
 10
0.17036
 20
9.03171
 30
0.0
 10
0.19169
 20
9.01133
 30
0.0
 10
0.20235
 20
8.98655
 30
0.0
 10
0.20235
 20
8.95727
 30
0.0
 10
0.20235
 20
8.95727
 30
0.0
 10
0.20235
 20
8.93866
 30
0.0
 10
0.19748
 20
8.92239
 30
0.0
 10
0.18775
 20
8.90864
 30
0.0
 10
0.18775
 20
8.90864
 30
0.0
 10
0.17804
 20
8.8948
 30
0.0
 10
0.16326
 20
8.88415
 30
0.0
 10
0.14334
 20
8.87667
 30
0.0
 10
0.14334
 20
8.87667
 30
0.0
 10
0.16793
 20
8.86862
 30
0.0
 10
0.18654
 20
8.85571
 30
0.0
 10
0.19935
 20
8.83775
 30
0.0
 10
0.19935
 20
8.83775
 30
0.0
 10
0.21216
 20
8.81989
 30
0.0
 10
0.21862
 20
8.79857
 30
0.0
 10
0.21862
 20
8.77369
 30
0.0
 10
0.21862
 20
8.77369
 30
0.0
 10
0.21862
 20
8.73937
 30
0.0
 10
0.20646
 20
8.71057
 30
0.0
 10
0.18224
 20
8.68719
 30
0.0
 10
0.18224
 20
8.68719
 30
0.0
 10
0.15793
 20
8.6638
 30
0.0
 10
0.12604
 20
8.65212
 30
0.0
 10
0.08647
 20
8.65212
 30
0.0
 10
0.08647
 20
8.65212
 30
0.0
 10
0.04692
 20
8.65212
 30
0.0
 10
0.01503
 20
8.6638
 30
0.0
 10
-0.00929
 20
8.68728
 30
0.0
 10
-0.00929
 20
8.68728
 30
0.0
 10
-0.03351
 20
8.71075
 30
0.0
 10
-0.04567
 20
8.74002
 30
0.0
 10
-0.04567
 20
8.77509
 30
0.0
 10
-0.04567
 20
8.77509
 30
0.0
 10
-0.04567
 20
8.8012
 30
0.0
 10
-0.03903
 20
8.82307
 30
0.0
 10
-0.02575
 20
8.84065
 30
0.0
 10
-0.02575
 20
8.84065
 30
0.0
 10
-0.01247
 20
8.85833
 30
0.0
 10
0.00642
 20
8.8703
 30
0.0
 10
0.03093
 20
8.87667
 30
0.0
  0
SPLINE
  5
64
330
1F
100
AcDbEntity
  8
layer 2
 62
     1
100
AcDbSpline
210
0.0
220
0.0
230
1.0
 70
    11
 71
     3
 72
    36
 73
    32
 74
     0
 42
0.0000000001
 43
0.0000000001
 12
1.0
 22
0.0
 32
0.0
 13
1.0
 23
0.0
 33
0.0
 40
0.0
 40
0.0
 40
0.0
 40
0.0
 40
0.1111111111111111
 40
0.1111111111111111
 40
0.1111111111111111
 40
0.1111111111111111
 40
0.2222222222222222
 40
0.2222222222222222
 40
0.2222222222222222
 40
0.2222222222222222
 40
0.3333333333333333
 40
0.3333333333333333
 40
0.3333333333333333
 40
0.3333333333333333
 40
0.4444444444444444
 40
0.4444444444444444
 40
0.4444444444444444
 40
0.4444444444444444
 40
0.5555555555555556
 40
0.5555555555555556
 40
0.5555555555555556
 40
0.5555555555555556
 40
0.6666666666666666
 40
0.6666666666666666
 40
0.6666666666666666
 40
0.6666666666666666
 40
0.7777777777777778
 40
0.7777777777777778
 40
0.7777777777777778
 40
0.7777777777777778
 40
1.0
 40
1.0
 40
1.0
 40
1.0
 10
0.0211
 20
8.96046
 30
0.0
 10
0.0211
 20
8.94138
 30
0.0
 10
0.02718
 20
8.92585
 30
0.0
 10
0.03924
 20
8.91379
 30
0.0
 10
0.03924
 20
8.91379
 30
0.0
 10
0.0514
 20
8.90173
 30
0.0
 10
0.0673
 20
8.89565
 30
0.0
 10
0.08704
 20
8.89565
 30
0.0
 10
0.08704
 20
8.89565
 30
0.0
 10
0.10621
 20
8.89565
 30
0.0
 10
0.12173
 20
8.90163
 30
0.0
 10
0.13379
 20
8.9136
 30
0.0
 10
0.13379
 20
8.9136
 30
0.0
 10
0.14585
 20
8.92557
 30
0.0
 10
0.15185
 20
8.94026
 30
0.0
 10
0.15185
 20
8.95765
 30
0.0
 10
0.15185
 20
8.95765
 30
0.0
 10
0.15185
 20
8.9758
 30
0.0
 10
0.14567
 20
8.99104
 30
0.0
 10
0.13324
 20
9.00339
 30
0.0
 10
0.13324
 20
9.00339
 30
0.0
 10
0.12089
 20
9.01573
 30
0.0
 10
0.10527
 20
9.0219
 30
0.0
 10
0.08647
 20
9.0219
 30
0.0
 10
0.08647
 20
9.0219
 30
0.0
 10
0.0675
 20
9.0219
 30
0.0
 10
0.05187
 20
9.01582
 30
0.0
 10
0.03953
 20
9.00376
 30
0.0
 10
0.03953
 20
9.00376
 30
0.0
 10
0.02728
 20
8.99169
 30
0.0
 10
0.0211
 20
8.97728
 30
0.0
 10
0.0211
 20
8.96046
 30
0.0
  0
SPLINE
  5
65
330
1F
100
AcDbEntity
  8
layer 2
 62
     1
100
AcDbSpline
210
0.0
220
0.0
230
1.0
 70
    11
 71
     3
 72
    40
 73
    36
 74
     0
 42
0.0000000001
 43
0.0000000001
 12
1.0
 22
0.0
 32
0.0
 13
1.0
 23
0.0
 33
0.0
 40
0.0
 40
0.0
 40
0.0
 40
0.0
 40
0.1
 40
0.1
 40
0.1
 40
0.1
 40
0.2
 40
0.2
 40
0.2
 40
0.2
 40
0.3
 40
0.3
 40
0.3
 40
0.3
 40
0.4
 40
0.4
 40
0.4
 40
0.4
 40
0.5
 40
0.5
 40
0.5
 40
0.5
 40
0.6
 40
0.6
 40
0.6
 40
0.6
 40
0.7
 40
0.7
 40
0.7
 40
0.7
 40
0.8
 40
0.8
 40
0.8
 40
0.8
 40
1.0
 40
1.0
 40
1.0
 40
1.0
 10
0.00484
 20
8.77472
 30
0.0
 10
0.00484
 20
8.7606
 30
0.0
 10
0.0081
 20
8.74704
 30
0.0
 10
0.01465
 20
8.73386
 30
0.0
 10
0.01465
 20
8.73386
 30
0.0
 10
0.0212
 20
8.72076
 30
0.0
 10
0.03111
 20
8.71057
 30
0.0
 10
0.04439
 20
8.70337
 30
0.0
 10
0.04439
 20
8.70337
 30
0.0
 10
0.05758
 20
8.69617
 30
0.0
 10
0.0718
 20
8.69252
 30
0.0
 10
0.08686
 20
8.69252
 30
0.0
 10
0.08686
 20
8.69252
 30
0.0
 10
0.1106
 20
8.69252
 30
0.0
 10
0.13006
 20
8.70009
 30
0.0
 10
0.1453
 20
8.71525
 30
0.0
 10
0.1453
 20
8.71525
 30
0.0
 10
0.16055
 20
8.73039
 30
0.0
 10
0.16812
 20
8.74965
 30
0.0
 10
0.16812
 20
8.77304
 30
0.0
 10
0.16812
 20
8.77304
 30
0.0
 10
0.16812
 20
8.7968
 30
0.0
 10
0.16026
 20
8.81643
 30
0.0
 10
0.14465
 20
8.83195
 30
0.0
 10
0.14465
 20
8.83195
 30
0.0
 10
0.12894
 20
8.84748
 30
0.0
 10
0.1091
 20
8.85524
 30
0.0
 10
0.08526
 20
8.85524
 30
0.0
 10
0.08526
 20
8.85524
 30
0.0
 10
0.06188
 20
8.85524
 30
0.0
 10
0.04271
 20
8.84758
 30
0.0
 10
0.02756
 20
8.83224
 30
0.0
 10
0.02756
 20
8.83224
 30
0.0
 10
0.0124
 20
8.81691
 30
0.0
 10
0.00484
 20
8.79773
 30
0.0
 10
0.00484
 20
8.77472
 30
0.0
  0
SPLINE
  5
66
330
1F
100
AcDbEntity
  8
layer 2
 62
     1
100
AcDbSpline
210
0.0
220
0.0
230
1.0
 70
    11
 71
     3
 72
    28
 73
    24
 74
     0
 42
0.0000000001
 43
0.0000000001
 12
1.0
 22
0.0
 32
0.0
 13
1.0
 23
0.0
 33
0.0
 40
0.0
 40
0.0
 40
0.0
 40
0.0
 40
0.1428571428571428
 40
0.1428571428571428
 40
0.1428571428571428
 40
0.1428571428571428
 40
0.2857142857142857
 40
0.2857142857142857
 40
0.2857142857142857
 40
0.2857142857142857
 40
0.4285714285714285
 40
0.4285714285714285
 40
0.4285714285714285
 40
0.4285714285714285
 40
0.5714285714285714
 40
0.5714285714285714
 40
0.5714285714285714
 40
0.5714285714285714
 40
0.7142857142857143
 40
0.7142857142857143
 40
0.7142857142857143
 40
0.7142857142857143
 40
1.0
 40
1.0
 40
1.0
 40
1.0
 10
0.28287
 20
8.91865
 30
0.0
 10
0.28287
 20
8.91865
 30
0.0
 10
0.26922
 20
8.99496
 30
0.0
 10
0.26922
 20
8.99496
 30
0.0
 10
0.26922
 20
8.99496
 30
0.0
 10
0.26922
 20
8.99496
 30
0.0
 10
0.26922
 20
9.06062
 30
0.0
 10
0.26922
 20
9.06062
 30
0.0
 10
0.26922
 20
9.06062
 30
0.0
 10
0.26922
 20
9.06062
 30
0.0
 10
0.32533
 20
9.06062
 30
0.0
 10
0.32533
 20
9.06062
 30
0.0
 10
0.32533
 20
9.06062
 30
0.0
 10
0.32533
 20
9.06062
 30
0.0
 10
0.32533
 20
8.99496
 30
0.0
 10
0.32533
 20
8.99496
 30
0.0
 10
0.32533
 20
8.99496
 30
0.0
 10
0.32533
 20
8.99496
 30
0.0
 10
0.31299
 20
8.91865
 30
0.0
 10
0.31299
 20
8.91865
 30
0.0
 10
0.31299
 20
8.91865
 30
0.0
 10
0.31299
 20
8.91865
 30
0.0
 10
0.28287
 20
8.91865
 30
0.0
 10
0.28287
 20
8.91865
 30
0.0
  0
SPLINE
  5
67
330
1F
100
AcDbEntity
  8
layer 2
 62
     1
100
AcDbSpline
210
0.0
220
0.0
230
1.0
 70
    11
 71
     3
 72
    28
 73
    24
 74
     0
 42
0.0000000001
 43
0.0000000001
 12
1.0
 22
0.0
 32
0.0
 13
1.0
 23
0.0
 33
0.0
 40
0.0
 40
0.0
 40
0.0
 40
0.0
 40
0.1428571428571428
 40
0.1428571428571428
 40
0.1428571428571428
 40
0.1428571428571428
 40
0.2857142857142857
 40
0.2857142857142857
 40
0.2857142857142857
 40
0.2857142857142857
 40
0.4285714285714285
 40
0.4285714285714285
 40
0.4285714285714285
 40
0.4285714285714285
 40
0.5714285714285714
 40
0.5714285714285714
 40
0.5714285714285714
 40
0.5714285714285714
 40
0.7142857142857143
 40
0.7142857142857143
 40
0.7142857142857143
 40
0.7142857142857143
 40
1.0
 40
1.0
 40
1.0
 40
1.0
 10
0.3735
 20
8.91865
 30
0.0
 10
0.3735
 20
8.91865
 30
0.0
 10
0.36012
 20
8.99496
 30
0.0
 10
0.36012
 20
8.99496
 30
0.0
 10
0.36012
 20
8.99496
 30
0.0
 10
0.36012
 20
8.99496
 30
0.0
 10
0.36012
 20
9.06062
 30
0.0
 10
0.36012
 20
9.06062
 30
0.0
 10
0.36012
 20
9.06062
 30
0.0
 10
0.36012
 20
9.06062
 30
0.0
 10
0.41623
 20
9.06062
 30
0.0
 10
0.41623
 20
9.06062
 30
0.0
 10
0.41623
 20
9.06062
 30
0.0
 10
0.41623
 20
9.06062
 30
0.0
 10
0.41623
 20
8.99496
 30
0.0
 10
0.41623
 20
8.99496
 30
0.0
 10
0.41623
 20
8.99496
 30
0.0
 10
0.41623
 20
8.99496
 30
0.0
 10
0.40304
 20
8.91865
 30
0.0
 10
0.40304
 20
8.91865
 30
0.0
 10
0.40304
 20
8.91865
 30
0.0
 10
0.40304
 20
8.91865
 30
0.0
 10
0.3735
 20
8.91865
 30
0.0
 10
0.3735
 20
8.91865
 30
0.0
  0
SPLINE
  5
68
330
1F
100
AcDbEntity
  8
layer 2
 62
     1
370
     0
100
AcDbSpline
210
0.0
220
0.0
230
1.0
 70
    24
 71
     3
 72
     8
 73
     4
 74
     0
 42
0.0000000001
 43
0.0000000001
 12
1.0
 22
0.0
 32
0.0
 13
1.0
 23
0.0
 33
0.0
 40
0.0
 40
0.0
 40
0.0
 40
0.0
 40
1.0
 40
1.0
 40
1.0
 40
1.0
 10
10.72284
 20
7.67655
 30
0.0
 10
10.72284
 20
7.67655
 30
0.0
 10
12.56665
 20
7.67655
 30
0.0
 10
12.56665
 20
7.67655
 30
0.0
  0
SPLINE
  5
69
330
1F
100
AcDbEntity
  8
layer 2
 62
     1
370
     0
100
AcDbSpline
210
0.0
220
0.0
230
1.0
 70
    24
 71
     3
 72
     8
 73
     4
 74
     0
 42
0.0000000001
 43
0.0000000001
 12
1.0
 22
0.0
 32
0.0
 13
1.0
 23
0.0
 33
0.0
 40
0.0
 40
0.0
 40
0.0
 40
0.0
 40
1.0
 40
1.0
 40
1.0
 40
1.0
 10
10.72284
 20
-4.71704
 30
0.0
 10
10.72284
 20
-4.71704
 30
0.0
 10
12.56665
 20
-4.71704
 30
0.0
 10
12.56665
 20
-4.71704
 30
0.0
  0
SPLINE
  5
6A
330
1F
100
AcDbEntity
  8
layer 2
 62
     1
370
     0
100
AcDbSpline
210
0.0
220
0.0
230
1.0
 70
    24
 71
     3
 72
     8
 73
     4
 74
     0
 42
0.0000000001
 43
0.0000000001
 12
1.0
 22
0.0
 32
0.0
 13
1.0
 23
0.0
 33
0.0
 40
0.0
 40
0.0
 40
0.0
 40
0.0
 40
1.0
 40
1.0
 40
1.0
 40
1.0
 10
12.26169
 20
7.06663
 30
0.0
 10
12.26169
 20
7.06663
 30
0.0
 10
12.26169
 20
-4.10713
 30
0.0
 10
12.26169
 20
-4.10713
 30
0.0
  0
SPLINE
  5
6B
330
1F
100
AcDbEntity
  8
layer 2
 62
     1
100
AcDbSpline
210
0.0
220
0.0
230
1.0
 70
    27
 71
     3
 72
    12
 73
     8
 74
     0
 42
0.0000000001
 43
0.0000000001
 12
1.0
 22
0.0
 32
0.0
 13
1.0
 23
0.0
 33
0.0
 40
0.0
 40
0.0
 40
0.0
 40
0.0
 40
0.3333333333333333
 40
0.3333333333333333
 40
0.3333333333333333
 40
0.3333333333333333
 40
1.0
 40
1.0
 40
1.0
 40
1.0
 10
12.16004
 20
7.06663
 30
0.0
 10
12.16004
 20
7.06663
 30
0.0
 10
12.26169
 20
7.67655
 30
0.0
 10
12.26169
 20
7.67655
 30
0.0
 10
12.26169
 20
7.67655
 30
0.0
 10
12.26169
 20
7.67655
 30
0.0
 10
12.16004
 20
7.06663
 30
0.0
 10
12.16004
 20
7.06663
 30
0.0
  0
SPLINE
  5
6C
330
1F
100
AcDbEntity
  8
layer 2
 62
     1
100
AcDbSpline
210
0.0
220
0.0
230
1.0
 70
     8
 71
     3
 72
    12
 73
     8
 74
     0
 42
0.0000000001
 43
0.0000000001
 12
1.0
 22
0.0
 32
0.0
 13
1.0
 23
0.0
 33
0.0
 40
0.0
 40
0.0
 40
0.0
 40
0.0
 40
0.3333333333333333
 40
0.3333333333333333
 40
0.3333333333333333
 40
0.3333333333333333
 40
1.0
 40
1.0
 40
1.0
 40
1.0
 10
12.26169
 20
7.67655
 30
0.0
 10
12.26169
 20
7.67655
 30
0.0
 10
12.36334
 20
7.06663
 30
0.0
 10
12.36334
 20
7.06663
 30
0.0
 10
12.36334
 20
7.06663
 30
0.0
 10
12.36334
 20
7.06663
 30
0.0
 10
12.16004
 20
7.06663
 30
0.0
 10
12.16004
 20
7.06663
 30
0.0
  0
SPLINE
  5
6D
330
1F
100
AcDbEntity
  8
layer 2
 62
     1
370
     9
100
AcDbSpline
210
0.0
220
0.0
230
1.0
 70
    24
 71
     3
 72
     8
 73
     4
 74
     0
 42
0.0000000001
 43
0.0000000001
 12
1.0
 22
0.0
 32
0.0
 13
1.0
 23
0.0
 33
0.0
 40
0.0
 40
0.0
 40
0.0
 40
0.0
 40
1.0
 40
1.0
 40
1.0
 40
1.0
 10
12.16004
 20
7.06663
 30
0.0
 10
12.16004
 20
7.06663
 30
0.0
 10
12.26169
 20
7.67655
 30
0.0
 10
12.26169
 20
7.67655
 30
0.0
  0
SPLINE
  5
6E
330
1F
100
AcDbEntity
  8
layer 2
 62
     1
370
     9
100
AcDbSpline
210
0.0
220
0.0
230
1.0
 70
     8
 71
     3
 72
    12
 73
     8
 74
     0
 42
0.0000000001
 43
0.0000000001
 12
1.0
 22
0.0
 32
0.0
 13
1.0
 23
0.0
 33
0.0
 40
0.0
 40
0.0
 40
0.0
 40
0.0
 40
0.3333333333333333
 40
0.3333333333333333
 40
0.3333333333333333
 40
0.3333333333333333
 40
1.0
 40
1.0
 40
1.0
 40
1.0
 10
12.26169
 20
7.67655
 30
0.0
 10
12.26169
 20
7.67655
 30
0.0
 10
12.36334
 20
7.06663
 30
0.0
 10
12.36334
 20
7.06663
 30
0.0
 10
12.36334
 20
7.06663
 30
0.0
 10
12.36334
 20
7.06663
 30
0.0
 10
12.16004
 20
7.06663
 30
0.0
 10
12.16004
 20
7.06663
 30
0.0
  0
SPLINE
  5
6F
330
1F
100
AcDbEntity
  8
layer 2
 62
     1
100
AcDbSpline
210
0.0
220
0.0
230
1.0
 70
    27
 71
     3
 72
    12
 73
     8
 74
     0
 42
0.0000000001
 43
0.0000000001
 12
1.0
 22
0.0
 32
0.0
 13
1.0
 23
0.0
 33
0.0
 40
0.0
 40
0.0
 40
0.0
 40
0.0
 40
0.3333333333333333
 40
0.3333333333333333
 40
0.3333333333333333
 40
0.3333333333333333
 40
1.0
 40
1.0
 40
1.0
 40
1.0
 10
12.16004
 20
-4.10713
 30
0.0
 10
12.16004
 20
-4.10713
 30
0.0
 10
12.26169
 20
-4.71704
 30
0.0
 10
12.26169
 20
-4.71704
 30
0.0
 10
12.26169
 20
-4.71704
 30
0.0
 10
12.26169
 20
-4.71704
 30
0.0
 10
12.16004
 20
-4.10713
 30
0.0
 10
12.16004
 20
-4.10713
 30
0.0
  0
SPLINE
  5
70
330
1F
100
AcDbEntity
  8
layer 2
 62
     1
100
AcDbSpline
210
0.0
220
0.0
230
1.0
 70
     8
 71
     3
 72
    12
 73
     8
 74
     0
 42
0.0000000001
 43
0.0000000001
 12
1.0
 22
0.0
 32
0.0
 13
1.0
 23
0.0
 33
0.0
 40
0.0
 40
0.0
 40
0.0
 40
0.0
 40
0.3333333333333333
 40
0.3333333333333333
 40
0.3333333333333333
 40
0.3333333333333333
 40
1.0
 40
1.0
 40
1.0
 40
1.0
 10
12.26169
 20
-4.71704
 30
0.0
 10
12.26169
 20
-4.71704
 30
0.0
 10
12.36334
 20
-4.10713
 30
0.0
 10
12.36334
 20
-4.10713
 30
0.0
 10
12.36334
 20
-4.10713
 30
0.0
 10
12.36334
 20
-4.10713
 30
0.0
 10
12.16004
 20
-4.10713
 30
0.0
 10
12.16004
 20
-4.10713
 30
0.0
  0
SPLINE
  5
71
330
1F
100
AcDbEntity
  8
layer 2
 62
     1
370
     9
100
AcDbSpline
210
0.0
220
0.0
230
1.0
 70
    24
 71
     3
 72
     8
 73
     4
 74
     0
 42
0.0000000001
 43
0.0000000001
 12
1.0
 22
0.0
 32
0.0
 13
1.0
 23
0.0
 33
0.0
 40
0.0
 40
0.0
 40
0.0
 40
0.0
 40
1.0
 40
1.0
 40
1.0
 40
1.0
 10
12.16004
 20
-4.10713
 30
0.0
 10
12.16004
 20
-4.10713
 30
0.0
 10
12.26169
 20
-4.71704
 30
0.0
 10
12.26169
 20
-4.71704
 30
0.0
  0
SPLINE
  5
72
330
1F
100
AcDbEntity
  8
layer 2
 62
     1
370
     9
100
AcDbSpline
210
0.0
220
0.0
230
1.0
 70
     8
 71
     3
 72
    12
 73
     8
 74
     0
 42
0.0000000001
 43
0.0000000001
 12
1.0
 22
0.0
 32
0.0
 13
1.0
 23
0.0
 33
0.0
 40
0.0
 40
0.0
 40
0.0
 40
0.0
 40
0.3333333333333333
 40
0.3333333333333333
 40
0.3333333333333333
 40
0.3333333333333333
 40
1.0
 40
1.0
 40
1.0
 40
1.0
 10
12.26169
 20
-4.71704
 30
0.0
 10
12.26169
 20
-4.71704
 30
0.0
 10
12.36334
 20
-4.10713
 30
0.0
 10
12.36334
 20
-4.10713
 30
0.0
 10
12.36334
 20
-4.10713
 30
0.0
 10
12.36334
 20
-4.10713
 30
0.0
 10
12.16004
 20
-4.10713
 30
0.0
 10
12.16004
 20
-4.10713
 30
0.0
  0
SPLINE
  5
73
330
1F
100
AcDbEntity
  8
layer 2
 62
     1
100
AcDbSpline
210
0.0
220
0.0
230
1.0
 70
    11
 71
     3
 72
    40
 73
    36
 74
     0
 42
0.0000000001
 43
0.0000000001
 12
1.0
 22
0.0
 32
0.0
 13
1.0
 23
0.0
 33
0.0
 40
0.0
 40
0.0
 40
0.0
 40
0.0
 40
0.1
 40
0.1
 40
0.1
 40
0.1
 40
0.2
 40
0.2
 40
0.2
 40
0.2
 40
0.3
 40
0.3
 40
0.3
 40
0.3
 40
0.4
 40
0.4
 40
0.4
 40
0.4
 40
0.5
 40
0.5
 40
0.5
 40
0.5
 40
0.6
 40
0.6
 40
0.6
 40
0.6
 40
0.7
 40
0.7
 40
0.7
 40
0.7
 40
0.8
 40
0.8
 40
0.8
 40
0.8
 40
1.0
 40
1.0
 40
1.0
 40
1.0
 10
12.00095
 20
2.50595
 30
0.0
 10
12.00095
 20
2.50595
 30
0.0
 10
12.00095
 20
2.45657
 30
0.0
 10
12.00095
 20
2.45657
 30
0.0
 10
12.00095
 20
2.45657
 30
0.0
 10
12.00095
 20
2.45657
 30
0.0
 10
11.68654
 20
2.45657
 30
0.0
 10
11.68654
 20
2.45657
 30
0.0
 10
11.68654
 20
2.45657
 30
0.0
 10
11.69794
 20
2.44469
 30
0.0
 10
11.70926
 20
2.42906
 30
0.0
 10
11.72058
 20
2.4098
 30
0.0
 10
11.72058
 20
2.4098
 30
0.0
 10
11.73189
 20
2.39054
 30
0.0
 10
11.7404
 20
2.37314
 30
0.0
 10
11.74602
 20
2.35781
 30
0.0
 10
11.74602
 20
2.35781
 30
0.0
 10
11.74602
 20
2.35781
 30
0.0
 10
11.69832
 20
2.35781
 30
0.0
 10
11.69832
 20
2.35781
 30
0.0
 10
11.69832
 20
2.35781
 30
0.0
 10
11.68541
 20
2.3854
 30
0.0
 10
11.6697
 20
2.40952
 30
0.0
 10
11.65119
 20
2.4302
 30
0.0
 10
11.65119
 20
2.4302
 30
0.0
 10
11.63276
 20
2.45086
 30
0.0
 10
11.6149
 20
2.46555
 30
0.0
 10
11.5975
 20
2.47415
 30
0.0
 10
11.5975
 20
2.47415
 30
0.0
 10
11.5975
 20
2.47415
 30
0.0
 10
11.5975
 20
2.50595
 30
0.0
 10
11.5975
 20
2.50595
 30
0.0
 10
11.5975
 20
2.50595
 30
0.0
 10
11.5975
 20
2.50595
 30
0.0
 10
12.00095
 20
2.50595
 30
0.0
 10
12.00095
 20
2.50595
 30
0.0
  0
SPLINE
  5
74
330
1F
100
AcDbEntity
  8
layer 2
 62
     1
100
AcDbSpline
210
0.0
220
0.0
230
1.0
 70
    11
 71
     3
 72
    80
 73
    76
 74
     0
 42
0.0000000001
 43
0.0000000001
 12
1.0
 22
0.0
 32
0.0
 13
1.0
 23
0.0
 33
0.0
 40
0.0
 40
0.0
 40
0.0
 40
0.0
 40
0.05
 40
0.05
 40
0.05
 40
0.05
 40
0.1
 40
0.1
 40
0.1
 40
0.1
 40
0.15
 40
0.15
 40
0.15
 40
0.15
 40
0.2
 40
0.2
 40
0.2
 40
0.2
 40
0.25
 40
0.25
 40
0.25
 40
0.25
 40
0.3
 40
0.3
 40
0.3
 40
0.3
 40
0.35
 40
0.35
 40
0.35
 40
0.35
 40
0.4
 40
0.4
 40
0.4
 40
0.4
 40
0.45
 40
0.45
 40
0.45
 40
0.45
 40
0.5
 40
0.5
 40
0.5
 40
0.5
 40
0.55
 40
0.55
 40
0.55
 40
0.55
 40
0.6
 40
0.6
 40
0.6
 40
0.6
 40
0.65
 40
0.65
 40
0.65
 40
0.65
 40
0.7
 40
0.7
 40
0.7
 40
0.7
 40
0.75
 40
0.75
 40
0.75
 40
0.75
 40
0.8
 40
0.8
 40
0.8
 40
0.8
 40
0.85
 40
0.85
 40
0.85
 40
0.85
 40
0.9
 40
0.9
 40
0.9
 40
0.9
 40
1.0
 40
1.0
 40
1.0
 40
1.0
 10
11.69738
 20
2.88929
 30
0.0
 10
11.69738
 20
2.88929
 30
0.0
 10
11.7013
 20
2.84047
 30
0.0
 10
11.7013
 20
2.84047
 30
0.0
 10
11.7013
 20
2.84047
 30
0.0
 10
11.68194
 20
2.83608
 30
0.0
 10
11.66783
 20
2.82981
 30
0.0
 10
11.65903
 20
2.82167
 30
0.0
 10
11.65903
 20
2.82167
 30
0.0
 10
11.64492
 20
2.8083
 30
0.0
 10
11.63789
 20
2.79174
 30
0.0
 10
11.63789
 20
2.7721
 30
0.0
 10
11.63789
 20
2.7721
 30
0.0
 10
11.63789
 20
2.75631
 30
0.0
 10
11.64229
 20
2.74228
 30
0.0
 10
11.65109
 20
2.73021
 30
0.0
 10
11.65109
 20
2.73021
 30
0.0
 10
11.6624
 20
2.71469
 30
0.0
 10
11.67886
 20
2.70253
 30
0.0
 10
11.70057
 20
2.69345
 30
0.0
 10
11.70057
 20
2.69345
 30
0.0
 10
11.72235
 20
2.68448
 30
0.0
 10
11.7533
 20
2.6798
 30
0.0
 10
11.79343
 20
2.67942
 30
0.0
 10
11.79343
 20
2.67942
 30
0.0
 10
11.77537
 20
2.6913
 30
0.0
 10
11.76191
 20
2.70589
 30
0.0
 10
11.75321
 20
2.7231
 30
0.0
 10
11.75321
 20
2.7231
 30
0.0
 10
11.74442
 20
2.74031
 30
0.0
 10
11.74002
 20
2.75827
 30
0.0
 10
11.74002
 20
2.77716
 30
0.0
 10
11.74002
 20
2.77716
 30
0.0
 10
11.74002
 20
2.81007
 30
0.0
 10
11.75218
 20
2.83813
 30
0.0
 10
11.77641
 20
2.86133
 30
0.0
 10
11.77641
 20
2.86133
 30
0.0
 10
11.80063
 20
2.88443
 30
0.0
 10
11.83187
 20
2.89602
 30
0.0
 10
11.8703
 20
2.89602
 30
0.0
 10
11.8703
 20
2.89602
 30
0.0
 10
11.89555
 20
2.89602
 30
0.0
 10
11.91893
 20
2.89059
 30
0.0
 10
11.94063
 20
2.87974
 30
0.0
 10
11.94063
 20
2.87974
 30
0.0
 10
11.96232
 20
2.86881
 30
0.0
 10
11.97888
 20
2.85394
 30
0.0
 10
11.99038
 20
2.83486
 30
0.0
 10
11.99038
 20
2.83486
 30
0.0
 10
12.00189
 20
2.81587
 30
0.0
 10
12.00769
 20
2.79427
 30
0.0
 10
12.00769
 20
2.77015
 30
0.0
 10
12.00769
 20
2.77015
 30
0.0
 10
12.00769
 20
2.72908
 30
0.0
 10
11.99253
 20
2.69551
 30
0.0
 10
11.96232
 20
2.66951
 30
0.0
 10
11.96232
 20
2.66951
 30
0.0
 10
11.93212
 20
2.64361
 30
0.0
 10
11.88227
 20
2.63061
 30
0.0
 10
11.81288
 20
2.63061
 30
0.0
 10
11.81288
 20
2.63061
 30
0.0
 10
11.73526
 20
2.63061
 30
0.0
 10
11.67876
 20
2.64501
 30
0.0
 10
11.64351
 20
2.67372
 30
0.0
 10
11.64351
 20
2.67372
 30
0.0
 10
11.61284
 20
2.69878
 30
0.0
 10
11.5975
 20
2.73255
 30
0.0
 10
11.5975
 20
2.7751
 30
0.0
 10
11.5975
 20
2.7751
 30
0.0
 10
11.5975
 20
2.80671
 30
0.0
 10
11.60639
 20
2.83271
 30
0.0
 10
11.62406
 20
2.8529
 30
0.0
 10
11.62406
 20
2.8529
 30
0.0
 10
11.64174
 20
2.87311
 30
0.0
 10
11.66615
 20
2.88526
 30
0.0
 10
11.69738
 20
2.88929
 30
0.0
  0
SPLINE
  5
75
330
1F
100
AcDbEntity
  8
layer 2
 62
     1
100
AcDbSpline
210
0.0
220
0.0
230
1.0
 70
    11
 71
     3
 72
    40
 73
    36
 74
     0
 42
0.0000000001
 43
0.0000000001
 12
1.0
 22
0.0
 32
0.0
 13
1.0
 23
0.0
 33
0.0
 40
0.0
 40
0.0
 40
0.0
 40
0.0
 40
0.1
 40
0.1
 40
0.1
 40
0.1
 40
0.2
 40
0.2
 40
0.2
 40
0.2
 40
0.3
 40
0.3
 40
0.3
 40
0.3
 40
0.4
 40
0.4
 40
0.4
 40
0.4
 40
0.5
 40
0.5
 40
0.5
 40
0.5
 40
0.6
 40
0.6
 40
0.6
 40
0.6
 40
0.7
 40
0.7
 40
0.7
 40
0.7
 40
0.8
 40
0.8
 40
0.8
 40
0.8
 40
1.0
 40
1.0
 40
1.0
 40
1.0
 10
11.87077
 20
2.68728
 30
0.0
 10
11.88778
 20
2.68728
 30
0.0
 10
11.90406
 20
2.69093
 30
0.0
 10
11.91959
 20
2.69813
 30
0.0
 10
11.91959
 20
2.69813
 30
0.0
 10
11.93511
 20
2.70533
 30
0.0
 10
11.94689
 20
2.71544
 30
0.0
 10
11.95504
 20
2.72825
 30
0.0
 10
11.95504
 20
2.72825
 30
0.0
 10
11.96317
 20
2.74115
 30
0.0
 10
11.96728
 20
2.75481
 30
0.0
 10
11.96728
 20
2.7693
 30
0.0
 10
11.96728
 20
2.7693
 30
0.0
 10
11.96728
 20
2.79034
 30
0.0
 10
11.95887
 20
2.8083
 30
0.0
 10
11.94203
 20
2.82317
 30
0.0
 10
11.94203
 20
2.82317
 30
0.0
 10
11.9252
 20
2.83804
 30
0.0
 10
11.90238
 20
2.84552
 30
0.0
 10
11.87348
 20
2.84552
 30
0.0
 10
11.87348
 20
2.84552
 30
0.0
 10
11.8457
 20
2.84552
 30
0.0
 10
11.82382
 20
2.83813
 30
0.0
 10
11.80783
 20
2.82345
 30
0.0
 10
11.80783
 20
2.82345
 30
0.0
 10
11.79183
 20
2.80877
 30
0.0
 10
11.78379
 20
2.79006
 30
0.0
 10
11.78379
 20
2.76734
 30
0.0
 10
11.78379
 20
2.76734
 30
0.0
 10
11.78379
 20
2.74508
 30
0.0
 10
11.79183
 20
2.7261
 30
0.0
 10
11.80783
 20
2.71057
 30
0.0
 10
11.80783
 20
2.71057
 30
0.0
 10
11.82382
 20
2.69505
 30
0.0
 10
11.84477
 20
2.68728
 30
0.0
 10
11.87077
 20
2.68728
 30
0.0
  0
SPLINE
  5
76
330
1F
100
AcDbEntity
  8
layer 2
 62
     1
100
AcDbSpline
210
0.0
220
0.0
230
1.0
 70
    11
 71
     3
 72
    28
 73
    24
 74
     0
 42
0.0000000001
 43
0.0000000001
 12
1.0
 22
0.0
 32
0.0
 13
1.0
 23
0.0
 33
0.0
 40
0.0
 40
0.0
 40
0.0
 40
0.0
 40
0.1428571428571428
 40
0.1428571428571428
 40
0.1428571428571428
 40
0.1428571428571428
 40
0.2857142857142857
 40
0.2857142857142857
 40
0.2857142857142857
 40
0.2857142857142857
 40
0.4285714285714285
 40
0.4285714285714285
 40
0.4285714285714285
 40
0.4285714285714285
 40
0.5714285714285714
 40
0.5714285714285714
 40
0.5714285714285714
 40
0.5714285714285714
 40
0.7142857142857143
 40
0.7142857142857143
 40
0.7142857142857143
 40
0.7142857142857143
 40
1.0
 40
1.0
 40
1.0
 40
1.0
 10
11.74115
 20
2.96083
 30
0.0
 10
11.74115
 20
2.96083
 30
0.0
 10
11.66483
 20
2.94718
 30
0.0
 10
11.66483
 20
2.94718
 30
0.0
 10
11.66483
 20
2.94718
 30
0.0
 10
11.66483
 20
2.94718
 30
0.0
 10
11.59919
 20
2.94718
 30
0.0
 10
11.59919
 20
2.94718
 30
0.0
 10
11.59919
 20
2.94718
 30
0.0
 10
11.59919
 20
2.94718
 30
0.0
 10
11.59919
 20
3.0033
 30
0.0
 10
11.59919
 20
3.0033
 30
0.0
 10
11.59919
 20
3.0033
 30
0.0
 10
11.59919
 20
3.0033
 30
0.0
 10
11.66483
 20
3.0033
 30
0.0
 10
11.66483
 20
3.0033
 30
0.0
 10
11.66483
 20
3.0033
 30
0.0
 10
11.66483
 20
3.0033
 30
0.0
 10
11.74115
 20
2.99095
 30
0.0
 10
11.74115
 20
2.99095
 30
0.0
 10
11.74115
 20
2.99095
 30
0.0
 10
11.74115
 20
2.99095
 30
0.0
 10
11.74115
 20
2.96083
 30
0.0
 10
11.74115
 20
2.96083
 30
0.0
  0
SPLINE
  5
77
330
1F
100
AcDbEntity
  8
layer 2
 62
     1
100
AcDbSpline
210
0.0
220
0.0
230
1.0
 70
    11
 71
     3
 72
    28
 73
    24
 74
     0
 42
0.0000000001
 43
0.0000000001
 12
1.0
 22
0.0
 32
0.0
 13
1.0
 23
0.0
 33
0.0
 40
0.0
 40
0.0
 40
0.0
 40
0.0
 40
0.1428571428571428
 40
0.1428571428571428
 40
0.1428571428571428
 40
0.1428571428571428
 40
0.2857142857142857
 40
0.2857142857142857
 40
0.2857142857142857
 40
0.2857142857142857
 40
0.4285714285714285
 40
0.4285714285714285
 40
0.4285714285714285
 40
0.4285714285714285
 40
0.5714285714285714
 40
0.5714285714285714
 40
0.5714285714285714
 40
0.5714285714285714
 40
0.7142857142857143
 40
0.7142857142857143
 40
0.7142857142857143
 40
0.7142857142857143
 40
1.0
 40
1.0
 40
1.0
 40
1.0
 10
11.74115
 20
3.05146
 30
0.0
 10
11.74115
 20
3.05146
 30
0.0
 10
11.66483
 20
3.03808
 30
0.0
 10
11.66483
 20
3.03808
 30
0.0
 10
11.66483
 20
3.03808
 30
0.0
 10
11.66483
 20
3.03808
 30
0.0
 10
11.59919
 20
3.03808
 30
0.0
 10
11.59919
 20
3.03808
 30
0.0
 10
11.59919
 20
3.03808
 30
0.0
 10
11.59919
 20
3.03808
 30
0.0
 10
11.59919
 20
3.0942
 30
0.0
 10
11.59919
 20
3.0942
 30
0.0
 10
11.59919
 20
3.0942
 30
0.0
 10
11.59919
 20
3.0942
 30
0.0
 10
11.66483
 20
3.0942
 30
0.0
 10
11.66483
 20
3.0942
 30
0.0
 10
11.66483
 20
3.0942
 30
0.0
 10
11.66483
 20
3.0942
 30
0.0
 10
11.74115
 20
3.081
 30
0.0
 10
11.74115
 20
3.081
 30
0.0
 10
11.74115
 20
3.081
 30
0.0
 10
11.74115
 20
3.081
 30
0.0
 10
11.74115
 20
3.05146
 30
0.0
 10
11.74115
 20
3.05146
 30
0.0
  0
SPLINE
  5
78
330
1F
100
AcDbEntity
  8
layer 2
 62
     1
370
     0
100
AcDbSpline
210
0.0
220
0.0
230
1.0
 70
    24
 71
     3
 72
     8
 73
     4
 74
     0
 42
0.0000000001
 43
0.0000000001
 12
1.0
 22
0.0
 32
0.0
 13
1.0
 23
0.0
 33
0.0
 40
0.0
 40
0.0
 40
0.0
 40
0.0
 40
1.0
 40
1.0
 40
1.0
 40
1.0
 10
-12.70071
 20
-6.12936
 30
0.0
 10
-12.70071
 20
-6.12936
 30
0.0
 10
-11.03667
 20
-4.82583
 30
0.0
 10
-11.03667
 20
-4.82583
 30
0.0
  0
SPLINE
  5
79
330
1F
100
AcDbEntity
  8
layer 2
 62
     1
100
AcDbSpline
210
0.0
220
0.0
230
1.0
 70
    11
 71
     3
 72
    80
 73
    76
 74
     0
 42
0.0000000001
 43
0.0000000001
 12
1.0
 22
0.0
 32
0.0
 13
1.0
 23
0.0
 33
0.0
 40
0.0
 40
0.0
 40
0.0
 40
0.0
 40
0.05
 40
0.05
 40
0.05
 40
0.05
 40
0.1
 40
0.1
 40
0.1
 40
0.1
 40
0.15
 40
0.15
 40
0.15
 40
0.15
 40
0.2
 40
0.2
 40
0.2
 40
0.2
 40
0.25
 40
0.25
 40
0.25
 40
0.25
 40
0.3
 40
0.3
 40
0.3
 40
0.3
 40
0.35
 40
0.35
 40
0.35
 40
0.35
 40
0.4
 40
0.4
 40
0.4
 40
0.4
 40
0.45
 40
0.45
 40
0.45
 40
0.45
 40
0.5
 40
0.5
 40
0.5
 40
0.5
 40
0.55
 40
0.55
 40
0.55
 40
0.55
 40
0.6
 40
0.6
 40
0.6
 40
0.6
 40
0.65
 40
0.65
 40
0.65
 40
0.65
 40
0.7
 40
0.7
 40
0.7
 40
0.7
 40
0.75
 40
0.75
 40
0.75
 40
0.75
 40
0.8
 40
0.8
 40
0.8
 40
0.8
 40
0.85
 40
0.85
 40
0.85
 40
0.85
 40
0.9
 40
0.9
 40
0.9
 40
0.9
 40
1.0
 40
1.0
 40
1.0
 40
1.0
 10
-12.51085
 20
-4.80345
 30
0.0
 10
-12.51085
 20
-4.80345
 30
0.0
 10
-12.7586
 20
-4.48716
 30
0.0
 10
-12.7586
 20
-4.48716
 30
0.0
 10
-12.7586
 20
-4.48716
 30
0.0
 10
-12.7586
 20
-4.48716
 30
0.0
 10
-12.61843
 20
-4.37736
 30
0.0
 10
-12.61843
 20
-4.37736
 30
0.0
 10
-12.61843
 20
-4.37736
 30
0.0
 10
-12.59023
 20
-4.35527
 30
0.0
 10
-12.56656
 20
-4.34136
 30
0.0
 10
-12.54747
 20
-4.33555
 30
0.0
 10
-12.54747
 20
-4.33555
 30
0.0
 10
-12.52838
 20
-4.32975
 30
0.0
 10
-12.50882
 20
-4.33058
 30
0.0
 10
-12.48882
 20
-4.33808
 30
0.0
 10
-12.48882
 20
-4.33808
 30
0.0
 10
-12.46881
 20
-4.34557
 30
0.0
 10
-12.45201
 20
-4.35807
 30
0.0
 10
-12.4384
 20
-4.37544
 30
0.0
 10
-12.4384
 20
-4.37544
 30
0.0
 10
-12.42081
 20
-4.3979
 30
0.0
 10
-12.41328
 20
-4.42253
 30
0.0
 10
-12.41572
 20
-4.44928
 30
0.0
 10
-12.41572
 20
-4.44928
 30
0.0
 10
-12.41818
 20
-4.47602
 30
0.0
 10
-12.43294
 20
-4.50328
 30
0.0
 10
-12.45999
 20
-4.53124
 30
0.0
 10
-12.45999
 20
-4.53124
 30
0.0
 10
-12.44472
 20
-4.52782
 30
0.0
 10
-12.43217
 20
-4.52656
 30
0.0
 10
-12.42239
 20
-4.52721
 30
0.0
 10
-12.42239
 20
-4.52721
 30
0.0
 10
-12.40141
 20
-4.52883
 30
0.0
 10
-12.37883
 20
-4.53383
 30
0.0
 10
-12.35481
 20
-4.54221
 30
0.0
 10
-12.35481
 20
-4.54221
 30
0.0
 10
-12.35481
 20
-4.54221
 30
0.0
 10
-12.23263
 20
-4.58551
 30
0.0
 10
-12.23263
 20
-4.58551
 30
0.0
 10
-12.23263
 20
-4.58551
 30
0.0
 10
-12.23263
 20
-4.58551
 30
0.0
 10
-12.2849
 20
-4.62645
 30
0.0
 10
-12.2849
 20
-4.62645
 30
0.0
 10
-12.2849
 20
-4.62645
 30
0.0
 10
-12.2849
 20
-4.62645
 30
0.0
 10
-12.37828
 20
-4.59339
 30
0.0
 10
-12.37828
 20
-4.59339
 30
0.0
 10
-12.37828
 20
-4.59339
 30
0.0
 10
-12.40537
 20
-4.58384
 30
0.0
 10
-12.4268
 20
-4.57723
 30
0.0
 10
-12.44259
 20
-4.57332
 30
0.0
 10
-12.44259
 20
-4.57332
 30
0.0
 10
-12.45843
 20
-4.56945
 30
0.0
 10
-12.47099
 20
-4.568
 30
0.0
 10
-12.48042
 20
-4.56885
 30
0.0
 10
-12.48042
 20
-4.56885
 30
0.0
 10
-12.48972
 20
-4.56972
 30
0.0
 10
-12.49831
 20
-4.57195
 30
0.0
 10
-12.50606
 20
-4.5754
 30
0.0
 10
-12.50606
 20
-4.5754
 30
0.0
 10
-12.51152
 20
-4.57814
 30
0.0
 10
-12.51966
 20
-4.58368
 30
0.0
 10
-12.53048
 20
-4.59215
 30
0.0
 10
-12.53048
 20
-4.59215
 30
0.0
 10
-12.53048
 20
-4.59215
 30
0.0
 10
-12.57891
 20
-4.6301
 30
0.0
 10
-12.57891
 20
-4.6301
 30
0.0
 10
-12.57891
 20
-4.6301
 30
0.0
 10
-12.57891
 20
-4.6301
 30
0.0
 10
-12.46887
 20
-4.77058
 30
0.0
 10
-12.46887
 20
-4.77058
 30
0.0
 10
-12.46887
 20
-4.77058
 30
0.0
 10
-12.46887
 20
-4.77058
 30
0.0
 10
-12.51085
 20
-4.80345
 30
0.0
 10
-12.51085
 20
-4.80345
 30
0.0
  0
SPLINE
  5
7A
330
1F
100
AcDbEntity
  8
layer 2
 62
     1
100
AcDbSpline
210
0.0
220
0.0
230
1.0
 70
    11
 71
     3
 72
    36
 73
    32
 74
     0
 42
0.0000000001
 43
0.0000000001
 12
1.0
 22
0.0
 32
0.0
 13
1.0
 23
0.0
 33
0.0
 40
0.0
 40
0.0
 40
0.0
 40
0.0
 40
0.1111111111111111
 40
0.1111111111111111
 40
0.1111111111111111
 40
0.1111111111111111
 40
0.2222222222222222
 40
0.2222222222222222
 40
0.2222222222222222
 40
0.2222222222222222
 40
0.3333333333333333
 40
0.3333333333333333
 40
0.3333333333333333
 40
0.3333333333333333
 40
0.4444444444444444
 40
0.4444444444444444
 40
0.4444444444444444
 40
0.4444444444444444
 40
0.5555555555555556
 40
0.5555555555555556
 40
0.5555555555555556
 40
0.5555555555555556
 40
0.6666666666666666
 40
0.6666666666666666
 40
0.6666666666666666
 40
0.6666666666666666
 40
0.7777777777777778
 40
0.7777777777777778
 40
0.7777777777777778
 40
0.7777777777777778
 40
1.0
 40
1.0
 40
1.0
 40
1.0
 10
-12.60729
 20
-4.59389
 30
0.0
 10
-12.60729
 20
-4.59389
 30
0.0
 10
-12.51747
 20
-4.52352
 30
0.0
 10
-12.51747
 20
-4.52352
 30
0.0
 10
-12.51747
 20
-4.52352
 30
0.0
 10
-12.49833
 20
-4.50853
 30
0.0
 10
-12.48502
 20
-4.49489
 30
0.0
 10
-12.47739
 20
-4.4825
 30
0.0
 10
-12.47739
 20
-4.4825
 30
0.0
 10
-12.46969
 20
-4.47018
 30
0.0
 10
-12.46648
 20
-4.45744
 30
0.0
 10
-12.46782
 20
-4.44434
 30
0.0
 10
-12.46782
 20
-4.44434
 30
0.0
 10
-12.46903
 20
-4.43127
 30
0.0
 10
-12.47362
 20
-4.41966
 30
0.0
 10
-12.48164
 20
-4.40943
 30
0.0
 10
-12.48164
 20
-4.40943
 30
0.0
 10
-12.49334
 20
-4.39448
 30
0.0
 10
-12.5084
 20
-4.38633
 30
0.0
 10
-12.52678
 20
-4.38516
 30
0.0
 10
-12.52678
 20
-4.38516
 30
0.0
 10
-12.54516
 20
-4.38399
 30
0.0
 10
-12.56599
 20
-4.39259
 30
0.0
 10
-12.58933
 20
-4.41087
 30
0.0
 10
-12.58933
 20
-4.41087
 30
0.0
 10
-12.58933
 20
-4.41087
 30
0.0
 10
-12.68931
 20
-4.48919
 30
0.0
 10
-12.68931
 20
-4.48919
 30
0.0
 10
-12.68931
 20
-4.48919
 30
0.0
 10
-12.68931
 20
-4.48919
 30
0.0
 10
-12.60729
 20
-4.59389
 30
0.0
 10
-12.60729
 20
-4.59389
 30
0.0
  0
SPLINE
  5
7B
330
1F
100
AcDbEntity
  8
layer 2
 62
     1
100
AcDbSpline
210
0.0
220
0.0
230
1.0
 70
    11
 71
     3
 72
    40
 73
    36
 74
     0
 42
0.0000000001
 43
0.0000000001
 12
1.0
 22
0.0
 32
0.0
 13
1.0
 23
0.0
 33
0.0
 40
0.0
 40
0.0
 40
0.0
 40
0.0
 40
0.1
 40
0.1
 40
0.1
 40
0.1
 40
0.2
 40
0.2
 40
0.2
 40
0.2
 40
0.3
 40
0.3
 40
0.3
 40
0.3
 40
0.4
 40
0.4
 40
0.4
 40
0.4
 40
0.5
 40
0.5
 40
0.5
 40
0.5
 40
0.6
 40
0.6
 40
0.6
 40
0.6
 40
0.7
 40
0.7
 40
0.7
 40
0.7
 40
0.8
 40
0.8
 40
0.8
 40
0.8
 40
1.0
 40
1.0
 40
1.0
 40
1.0
 10
-12.06242
 20
-4.45217
 30
0.0
 10
-12.06242
 20
-4.45217
 30
0.0
 10
-12.10128
 20
-4.48261
 30
0.0
 10
-12.10128
 20
-4.48261
 30
0.0
 10
-12.10128
 20
-4.48261
 30
0.0
 10
-12.10128
 20
-4.48261
 30
0.0
 10
-12.29518
 20
-4.2351
 30
0.0
 10
-12.29518
 20
-4.2351
 30
0.0
 10
-12.29518
 20
-4.2351
 30
0.0
 10
-12.29749
 20
-4.2514
 30
0.0
 10
-12.30281
 20
-4.26995
 30
0.0
 10
-12.311
 20
-4.29073
 30
0.0
 10
-12.311
 20
-4.29073
 30
0.0
 10
-12.31918
 20
-4.31152
 30
0.0
 10
-12.32764
 20
-4.32895
 30
0.0
 10
-12.33625
 20
-4.34283
 30
0.0
 10
-12.33625
 20
-4.34283
 30
0.0
 10
-12.33625
 20
-4.34283
 30
0.0
 10
-12.36565
 20
-4.30528
 30
0.0
 10
-12.36565
 20
-4.30528
 30
0.0
 10
-12.36565
 20
-4.30528
 30
0.0
 10
-12.3519
 20
-4.27811
 30
0.0
 10
-12.3426
 20
-4.25085
 30
0.0
 10
-12.33775
 20
-4.22353
 30
0.0
 10
-12.33775
 20
-4.22353
 30
0.0
 10
-12.33283
 20
-4.19628
 30
0.0
 10
-12.33229
 20
-4.17317
 30
0.0
 10
-12.33625
 20
-4.15416
 30
0.0
 10
-12.33625
 20
-4.15416
 30
0.0
 10
-12.33625
 20
-4.15416
 30
0.0
 10
-12.31121
 20
-4.13456
 30
0.0
 10
-12.31121
 20
-4.13456
 30
0.0
 10
-12.31121
 20
-4.13456
 30
0.0
 10
-12.31121
 20
-4.13456
 30
0.0
 10
-12.06242
 20
-4.45217
 30
0.0
 10
-12.06242
 20
-4.45217
 30
0.0
  0
SPLINE
  5
7C
330
1F
100
AcDbEntity
  8
layer 2
 62
     1
100
AcDbSpline
210
0.0
220
0.0
230
1.0
 70
    11
 71
     3
 72
    52
 73
    48
 74
     0
 42
0.0000000001
 43
0.0000000001
 12
1.0
 22
0.0
 32
0.0
 13
1.0
 23
0.0
 33
0.0
 40
0.0
 40
0.0
 40
0.0
 40
0.0
 40
0.0769230769230769
 40
0.0769230769230769
 40
0.0769230769230769
 40
0.0769230769230769
 40
0.1538461538461539
 40
0.1538461538461539
 40
0.1538461538461539
 40
0.1538461538461539
 40
0.2307692307692308
 40
0.2307692307692308
 40
0.2307692307692308
 40
0.2307692307692308
 40
0.3076923076923077
 40
0.3076923076923077
 40
0.3076923076923077
 40
0.3076923076923077
 40
0.3846153846153846
 40
0.3846153846153846
 40
0.3846153846153846
 40
0.3846153846153846
 40
0.4615384615384616
 40
0.4615384615384616
 40
0.4615384615384616
 40
0.4615384615384616
 40
0.5384615384615384
 40
0.5384615384615384
 40
0.5384615384615384
 40
0.5384615384615384
 40
0.6153846153846154
 40
0.6153846153846154
 40
0.6153846153846154
 40
0.6153846153846154
 40
0.6923076923076923
 40
0.6923076923076923
 40
0.6923076923076923
 40
0.6923076923076923
 40
0.7692307692307693
 40
0.7692307692307693
 40
0.7692307692307693
 40
0.7692307692307693
 40
0.8461538461538461
 40
0.8461538461538461
 40
0.8461538461538461
 40
0.8461538461538461
 40
1.0
 40
1.0
 40
1.0
 40
1.0
 10
-12.08477
 20
-4.21783
 30
0.0
 10
-12.11401
 20
-4.1805
 30
0.0
 10
-12.13383
 20
-4.14731
 30
0.0
 10
-12.14405
 20
-4.11849
 30
0.0
 10
-12.14405
 20
-4.11849
 30
0.0
 10
-12.15426
 20
-4.08954
 30
0.0
 10
-12.15663
 20
-4.063
 30
0.0
 10
-12.15109
 20
-4.03883
 30
0.0
 10
-12.15109
 20
-4.03883
 30
0.0
 10
-12.14564
 20
-4.01472
 30
0.0
 10
-12.13135
 20
-3.99366
 30
0.0
 10
-12.10838
 20
-3.97567
 30
0.0
 10
-12.10838
 20
-3.97567
 30
0.0
 10
-12.09146
 20
-3.96241
 30
0.0
 10
-12.07393
 20
-3.95415
 30
0.0
 10
-12.05567
 20
-3.9509
 30
0.0
 10
-12.05567
 20
-3.9509
 30
0.0
 10
-12.0375
 20
-3.94771
 30
0.0
 10
-12.01918
 20
-3.94927
 30
0.0
 10
-12.00084
 20
-3.95569
 30
0.0
 10
-12.00084
 20
-3.95569
 30
0.0
 10
-11.98256
 20
-3.96204
 30
0.0
 10
-11.96379
 20
-3.97265
 30
0.0
 10
-11.9446
 20
-3.98745
 30
0.0
 10
-11.9446
 20
-3.98745
 30
0.0
 10
-11.92534
 20
-4.00216
 30
0.0
 10
-11.90344
 20
-4.02528
 30
0.0
 10
-11.87893
 20
-4.05657
 30
0.0
 10
-11.87893
 20
-4.05657
 30
0.0
 10
-11.84986
 20
-4.09368
 30
0.0
 10
-11.83015
 20
-4.12671
 30
0.0
 10
-11.81986
 20
-4.15548
 30
0.0
 10
-11.81986
 20
-4.15548
 30
0.0
 10
-11.80951
 20
-4.18432
 30
0.0
 10
-11.80713
 20
-4.21085
 30
0.0
 10
-11.81261
 20
-4.2351
 30
0.0
 10
-11.81261
 20
-4.2351
 30
0.0
 10
-11.81802
 20
-4.25929
 30
0.0
 10
-11.83232
 20
-4.28046
 30
0.0
 10
-11.85543
 20
-4.29857
 30
0.0
 10
-11.85543
 20
-4.29857
 30
0.0
 10
-11.88584
 20
-4.32239
 30
0.0
 10
-11.91824
 20
-4.33031
 30
0.0
 10
-11.95264
 20
-4.3222
 30
0.0
 10
-11.95264
 20
-4.3222
 30
0.0
 10
-11.99423
 20
-4.31202
 30
0.0
 10
-12.03823
 20
-4.27723
 30
0.0
 10
-12.08477
 20
-4.21783
 30
0.0
  0
SPLINE
  5
7D
330
1F
100
AcDbEntity
  8
layer 2
 62
     1
100
AcDbSpline
210
0.0
220
0.0
230
1.0
 70
    11
 71
     3
 72
    36
 73
    32
 74
     0
 42
0.0000000001
 43
0.0000000001
 12
1.0
 22
0.0
 32
0.0
 13
1.0
 23
0.0
 33
0.0
 40
0.0
 40
0.0
 40
0.0
 40
0.0
 40
0.1111111111111111
 40
0.1111111111111111
 40
0.1111111111111111
 40
0.1111111111111111
 40
0.2222222222222222
 40
0.2222222222222222
 40
0.2222222222222222
 40
0.2222222222222222
 40
0.3333333333333333
 40
0.3333333333333333
 40
0.3333333333333333
 40
0.3333333333333333
 40
0.4444444444444444
 40
0.4444444444444444
 40
0.4444444444444444
 40
0.4444444444444444
 40
0.5555555555555556
 40
0.5555555555555556
 40
0.5555555555555556
 40
0.5555555555555556
 40
0.6666666666666666
 40
0.6666666666666666
 40
0.6666666666666666
 40
0.6666666666666666
 40
0.7777777777777778
 40
0.7777777777777778
 40
0.7777777777777778
 40
0.7777777777777778
 40
1.0
 40
1.0
 40
1.0
 40
1.0
 10
-12.0449
 20
-4.18683
 30
0.0
 10
-12.00413
 20
-4.23887
 30
0.0
 10
-11.97099
 20
-4.26875
 30
0.0
 10
-11.94546
 20
-4.27631
 30
0.0
 10
-11.94546
 20
-4.27631
 30
0.0
 10
-11.91988
 20
-4.28395
 30
0.0
 10
-11.89817
 20
-4.28072
 30
0.0
 10
-11.88035
 20
-4.26677
 30
0.0
 10
-11.88035
 20
-4.26677
 30
0.0
 10
-11.86253
 20
-4.25281
 30
0.0
 10
-11.85427
 20
-4.23244
 30
0.0
 10
-11.85554
 20
-4.20577
 30
0.0
 10
-11.85554
 20
-4.20577
 30
0.0
 10
-11.8569
 20
-4.17903
 30
0.0
 10
-11.87791
 20
-4.13977
 30
0.0
 10
-11.91857
 20
-4.08787
 30
0.0
 10
-11.91857
 20
-4.08787
 30
0.0
 10
-11.95934
 20
-4.03581
 30
0.0
 10
-11.99248
 20
-4.00593
 30
0.0
 10
-12.01801
 20
-3.99838
 30
0.0
 10
-12.01801
 20
-3.99838
 30
0.0
 10
-12.04352
 20
-3.99068
 30
0.0
 10
-12.06538
 20
-3.99402
 30
0.0
 10
-12.08357
 20
-4.00827
 30
0.0
 10
-12.08357
 20
-4.00827
 30
0.0
 10
-12.10138
 20
-4.02222
 30
0.0
 10
-12.10972
 20
-4.04099
 30
0.0
 10
-12.10858
 20
-4.06444
 30
0.0
 10
-12.10858
 20
-4.06444
 30
0.0
 10
-12.10685
 20
-4.09409
 30
0.0
 10
-12.08556
 20
-4.13493
 30
0.0
 10
-12.0449
 20
-4.18683
 30
0.0
  0
SPLINE
  5
7E
330
1F
100
AcDbEntity
  8
layer 2
 62
     1
370
     0
100
AcDbSpline
210
0.0
220
0.0
230
1.0
 70
    24
 71
     3
 72
     8
 73
     4
 74
     0
 42
0.0000000001
 43
0.0000000001
 12
1.0
 22
0.0
 32
0.0
 13
1.0
 23
0.0
 33
0.0
 40
0.0
 40
0.0
 40
0.0
 40
0.0
 40
1.0
 40
1.0
 40
1.0
 40
1.0
 10
-10.50852
 20
-4.41209
 30
0.0
 10
-10.50852
 20
-4.41209
 30
0.0
 10
-10.74859
 20
-4.60015
 30
0.0
 10
-10.74859
 20
-4.60015
 30
0.0
  0
SPLINE
  5
7F
330
1F
100
AcDbEntity
  8
layer 2
 62
     1
100
AcDbSpline
210
0.0
220
0.0
230
1.0
 70
    27
 71
     3
 72
    12
 73
     8
 74
     0
 42
0.0000000001
 43
0.0000000001
 12
1.0
 22
0.0
 32
0.0
 13
1.0
 23
0.0
 33
0.0
 40
0.0
 40
0.0
 40
0.0
 40
0.0
 40
0.3333333333333333
 40
0.3333333333333333
 40
0.3333333333333333
 40
0.3333333333333333
 40
1.0
 40
1.0
 40
1.0
 40
1.0
 10
-11.07428
 20
-4.77781
 30
0.0
 10
-11.07428
 20
-4.77781
 30
0.0
 10
-10.74859
 20
-4.60015
 30
0.0
 10
-10.74859
 20
-4.60015
 30
0.0
 10
-10.74859
 20
-4.60015
 30
0.0
 10
-10.74859
 20
-4.60015
 30
0.0
 10
-11.07428
 20
-4.77781
 30
0.0
 10
-11.07428
 20
-4.77781
 30
0.0
  0
SPLINE
  5
80
330
1F
100
AcDbEntity
  8
layer 2
 62
     1
100
AcDbSpline
210
0.0
220
0.0
230
1.0
 70
     8
 71
     3
 72
    12
 73
     8
 74
     0
 42
0.0000000001
 43
0.0000000001
 12
1.0
 22
0.0
 32
0.0
 13
1.0
 23
0.0
 33
0.0
 40
0.0
 40
0.0
 40
0.0
 40
0.0
 40
0.3333333333333333
 40
0.3333333333333333
 40
0.3333333333333333
 40
0.3333333333333333
 40
1.0
 40
1.0
 40
1.0
 40
1.0
 10
-10.74859
 20
-4.60015
 30
0.0
 10
-10.74859
 20
-4.60015
 30
0.0
 10
-10.99906
 20
-4.87383
 30
0.0
 10
-10.99906
 20
-4.87383
 30
0.0
 10
-10.99906
 20
-4.87383
 30
0.0
 10
-10.99906
 20
-4.87383
 30
0.0
 10
-11.07428
 20
-4.77781
 30
0.0
 10
-11.07428
 20
-4.77781
 30
0.0
  0
SPLINE
  5
81
330
1F
100
AcDbEntity
  8
layer 2
 62
     1
370
     9
100
AcDbSpline
210
0.0
220
0.0
230
1.0
 70
    24
 71
     3
 72
     8
 73
     4
 74
     0
 42
0.0000000001
 43
0.0000000001
 12
1.0
 22
0.0
 32
0.0
 13
1.0
 23
0.0
 33
0.0
 40
0.0
 40
0.0
 40
0.0
 40
0.0
 40
1.0
 40
1.0
 40
1.0
 40
1.0
 10
-11.07428
 20
-4.77781
 30
0.0
 10
-11.07428
 20
-4.77781
 30
0.0
 10
-10.74859
 20
-4.60015
 30
0.0
 10
-10.74859
 20
-4.60015
 30
0.0
  0
SPLINE
  5
82
330
1F
100
AcDbEntity
  8
layer 2
 62
     1
370
     9
100
AcDbSpline
210
0.0
220
0.0
230
1.0
 70
     8
 71
     3
 72
    12
 73
     8
 74
     0
 42
0.0000000001
 43
0.0000000001
 12
1.0
 22
0.0
 32
0.0
 13
1.0
 23
0.0
 33
0.0
 40
0.0
 40
0.0
 40
0.0
 40
0.0
 40
0.3333333333333333
 40
0.3333333333333333
 40
0.3333333333333333
 40
0.3333333333333333
 40
1.0
 40
1.0
 40
1.0
 40
1.0
 10
-10.74859
 20
-4.60015
 30
0.0
 10
-10.74859
 20
-4.60015
 30
0.0
 10
-10.99906
 20
-4.87383
 30
0.0
 10
-10.99906
 20
-4.87383
 30
0.0
 10
-10.99906
 20
-4.87383
 30
0.0
 10
-10.99906
 20
-4.87383
 30
0.0
 10
-11.07428
 20
-4.77781
 30
0.0
 10
-11.07428
 20
-4.77781
 30
0.0
  0
ENDSEC
  0
SECTION
  2
OBJECTS
  0
DICTIONARY
  5
C
330
0
100
AcDbDictionary
281
     1
  3
ACAD_GROUP
350
D
  3
ACAD_LAYOUT
350
1A
  3
ACAD_MATERIAL
350
3B
  3
ACAD_MLEADERSTYLE
350
A4
  3
ACAD_MLINESTYLE
350
17
  3
ACAD_PLOTSETTINGS
350
19
  3
ACAD_PLOTSTYLENAME
350
E
  3
ACAD_TABLESTYLE
350
A3
  3
ACAD_VISUALSTYLE
350
2A
  0
DICTIONARY
  5
D
102
{ACAD_REACTORS
330
C
102
}
330
C
100
AcDbDictionary
281
     1
  0
DICTIONARY
  5
1A
102
{ACAD_REACTORS
330
C
102
}
330
C
100
AcDbDictionary
281
     1
  3
Layout1
350
1E
  3
Layout2
350
26
  3
Model
350
22
  0
DICTIONARY
  5
3B
102
{ACAD_REACTORS
330
C
102
}
330
C
100
AcDbDictionary
281
     1
  3
ByBlock
350
3D
  3
ByLayer
350
3C
  3
Global
350
3E
  0
DICTIONARY
  5
A4
102
{ACAD_REACTORS
330
C
102
}
330
C
100
AcDbDictionary
281
     1
  0
DICTIONARY
  5
17
102
{ACAD_REACTORS
330
C
102
}
330
C
100
AcDbDictionary
281
     1
  3
Standard
350
18
  0
DICTIONARY
  5
19
102
{ACAD_REACTORS
330
C
102
}
330
C
100
AcDbDictionary
281
     1
  0
ACDBDICTIONARYWDFLT
  5
E
102
{ACAD_REACTORS
330
C
102
}
330
C
100
AcDbDictionary
281
     1
  3
Normal
350
F
100
AcDbDictionaryWithDefault
340
F
  0
DICTIONARY
  5
A3
102
{ACAD_REACTORS
330
C
102
}
330
C
100
AcDbDictionary
281
     1
  0
DICTIONARY
  5
2A
102
{ACAD_REACTORS
330
C
102
}
330
C
100
AcDbDictionary
281
     1
  3
2dWireframe
350
2F
  3
3D Hidden
350
31
  3
3dWireframe
350
30
  3
Basic
350
32
  3
Brighten
350
36
  3
ColorChange
350
3A
  3
Conceptual
350
34
  3
Dim
350
35
  3
Facepattern
350
39
  3
Flat
350
2B
  3
FlatWithEdges
350
2C
  3
Gouraud
350
2D
  3
GouraudWithEdges
350
2E
  3
Linepattern
350
38
  3
Realistic
350
33
  3
Thicken
350
37
  0
LAYOUT
  5
1E
102
{ACAD_REACTORS
330
1A
102
}
330
1A
100
AcDbPlotSettings
  1

  2
none_device
  4

  6

 40
0.0
 41
0.0
 42
0.0
 43
0.0
 44
0.0
 45
0.0
 46
0.0
 47
0.0
 48
0.0
 49
0.0
140
0.0
141
0.0
142
1.0
143
1.0
 70
   688
 72
     0
 73
     0
 74
     5
  7

 75
    16
 76
     0
 77
     2
 78
   300
147
1.0
148
0.0
149
0.0
100
AcDbLayout
  1
Layout1
 70
     1
 71
     1
 10
0.0
 20
0.0
 11
12.0
 21
9.0
 12
0.0
 22
0.0
 32
0.0
 14
1.000000000000000E+20
 24
1.000000000000000E+20
 34
1.000000000000000E+20
 15
-1.000000000000000E+20
 25
-1.000000000000000E+20
 35
-1.000000000000000E+20
146
0.0
 13
0.0
 23
0.0
 33
0.0
 16
1.0
 26
0.0
 36
0.0
 17
0.0
 27
1.0
 37
0.0
 76
     0
330
1B
  0
LAYOUT
  5
26
102
{ACAD_REACTORS
330
1A
102
}
330
1A
100
AcDbPlotSettings
  1

  2
none_device
  4

  6

 40
0.0
 41
0.0
 42
0.0
 43
0.0
 44
0.0
 45
0.0
 46
0.0
 47
0.0
 48
0.0
 49
0.0
140
0.0
141
0.0
142
1.0
143
1.0
 70
   688
 72
     0
 73
     0
 74
     5
  7

 75
    16
 76
     0
 77
     2
 78
   300
147
1.0
148
0.0
149
0.0
100
AcDbLayout
  1
Layout2
 70
     1
 71
     2
 10
0.0
 20
0.0
 11
0.0
 21
0.0
 12
0.0
 22
0.0
 32
0.0
 14
0.0
 24
0.0
 34
0.0
 15
0.0
 25
0.0
 35
0.0
146
0.0
 13
0.0
 23
0.0
 33
0.0
 16
1.0
 26
0.0
 36
0.0
 17
0.0
 27
1.0
 37
0.0
 76
     0
330
23
  0
LAYOUT
  5
22
102
{ACAD_REACTORS
330
1A
102
}
330
1A
100
AcDbPlotSettings
  1

  2
none_device
  4

  6

 40
0.0
 41
0.0
 42
0.0
 43
0.0
 44
0.0
 45
0.0
 46
0.0
 47
0.0
 48
0.0
 49
0.0
140
0.0
141
0.0
142
1.0
143
1.0
 70
  1712
 72
     0
 73
     0
 74
     0
  7

 75
     0
 76
     0
 77
     2
 78
   300
147
1.0
148
0.0
149
0.0
100
AcDbLayout
  1
Model
 70
     1
 71
     0
 10
0.0
 20
0.0
 11
12.0
 21
9.0
 12
0.0
 22
0.0
 32
0.0
 14
-12.7586
 24
-6.82744
 34
0.0
 15
12.56665
 25
9.0623
 35
0.0
146
0.0
 13
0.0
 23
0.0
 33
0.0
 16
1.0
 26
0.0
 36
0.0
 17
0.0
 27
1.0
 37
0.0
 76
     0
330
1F
331
29
  0
MATERIAL
  5
3D
102
{ACAD_REACTORS
330
3B
102
}
330
3B
100
AcDbMaterial
  1
ByBlock
 72
     1
 94
      127
  0
MATERIAL
  5
3C
102
{ACAD_REACTORS
330
3B
102
}
330
3B
100
AcDbMaterial
  1
ByLayer
 72
     1
 94
      127
  0
MATERIAL
  5
3E
102
{ACAD_REACTORS
330
3B
102
}
330
3B
100
AcDbMaterial
  1
Global
 72
     1
 94
      127
  0
MLINESTYLE
  5
18
102
{ACAD_REACTORS
330
17
102
}
330
17
100
AcDbMlineStyle
  2
Standard
 70
     0
  3

 62
   256
 51
90.0
 52
90.0
 71
     2
 49
0.5
 62
   256
  6
BYLAYER
 49
-0.5
 62
   256
  6
BYLAYER
  0
ACDBPLACEHOLDER
  5
F
102
{ACAD_REACTORS
330
E
102
}
330
E
  0
VISUALSTYLE
  5
2F
102
{ACAD_REACTORS
330
2A
102
}
102
{ACAD_XDICTIONARY
360
8B
102
}
330
2A
100
AcDbVisualStyle
  2
2dWireframe
 70
     4
 71
     0
 72
     2
 73
     0
 90
        0
 40
-0.6
 41
-30.0
 62
     5
 63
     7
421
 16777215
 74
     1
 91
        4
 64
     7
 65
   257
 75
     1
175
     1
 42
1.0
 92
        0
 66
   257
 43
1.0
 76
     1
 77
     6
 78
     2
 67
     7
 79
     5
170
     0
171
     0
290
     0
174
     0
 93
        1
 44
0.0
173
     0
291
     0
 45
0.0
  0
VISUALSTYLE
  5
31
102
{ACAD_REACTORS
330
2A
102
}
102
{ACAD_XDICTIONARY
360
8F
102
}
330
2A
100
AcDbVisualStyle
  2
3D Hidden
 70
     6
 71
     1
 72
     2
 73
     2
 90
        0
 40
-0.6
 41
-30.0
 62
     5
 63
     7
421
 16777215
 74
     2
 91
        2
 64
     7
 65
   257
 75
     2
175
     1
 42
40.0
 92
        0
 66
   257
 43
1.0
 76
     1
 77
     6
 78
     2
 67
     7
 79
     3
170
     0
171
     0
290
     0
174
     0
 93
        1
 44
0.0
173
     0
291
     0
 45
0.0
  0
VISUALSTYLE
  5
30
102
{ACAD_REACTORS
330
2A
102
}
102
{ACAD_XDICTIONARY
360
8D
102
}
330
2A
100
AcDbVisualStyle
  2
3dWireframe
 70
     5
 71
     0
 72
     2
 73
     0
 90
        0
 40
-0.6
 41
-30.0
 62
     5
 63
     7
421
 16777215
 74
     1
 91
        4
 64
     7
 65
   257
 75
     1
175
     1
 42
1.0
 92
        0
 66
   257
 43
1.0
 76
     1
 77
     6
 78
     2
 67
     7
 79
     5
170
     0
171
     0
290
     0
174
     0
 93
        1
 44
0.0
173
     0
291
     0
 45
0.0
  0
VISUALSTYLE
  5
32
102
{ACAD_REACTORS
330
2A
102
}
102
{ACAD_XDICTIONARY
360
91
102
}
330
2A
100
AcDbVisualStyle
  2
Basic
 70
     7
 71
     1
 72
     0
 73
     1
 90
        0
 40
-0.6
 41
-30.0
 62
     5
 63
     7
421
 16777215
 74
     0
 91
        4
 64
     7
 65
   257
 75
     1
175
     1
 42
1.0
 92
        8
 66
     7
 43
1.0
 76
     1
 77
     6
 78
     2
 67
     7
 79
     5
170
     0
171
     0
290
     0
174
     0
 93
        1
 44
0.0
173
     0
291
     1
 45
0.0
  0
VISUALSTYLE
  5
36
102
{ACAD_REACTORS
330
2A
102
}
102
{ACAD_XDICTIONARY
360
99
102
}
330
2A
100
AcDbVisualStyle
  2
Brighten
 70
    12
 71
     2
 72
     2
 73
     0
 90
        0
 40
-0.6
 41
-30.0
 62
     5
 63
     7
421
 16777215
 74
     1
 91
        4
 64
     7
 65
   257
 75
     1
175
     1
 42
1.0
 92
        8
 66
     7
 43
1.0
 76
     1
 77
     6
 78
     2
 67
     7
 79
     5
170
     0
171
     0
290
     0
174
     0
 93
        1
 44
50.0
173
     0
291
     1
 45
0.0
  0
VISUALSTYLE
  5
3A
102
{ACAD_REACTORS
330
2A
102
}
102
{ACAD_XDICTIONARY
360
A1
102
}
330
2A
100
AcDbVisualStyle
  2
ColorChange
 70
    16
 71
     2
 72
     2
 73
     3
 90
        0
 40
-0.6
 41
-30.0
 62
     5
 63
     8
421
  8421504
 74
     1
 91
        4
 64
     7
 65
   257
 75
     1
175
     1
 42
1.0
 92
        8
 66
     8
424
  8421504
 43
1.0
 76
     1
 77
     6
 78
     2
 67
     7
 79
     5
170
     0
171
     0
290
     0
174
     0
 93
        1
 44
0.0
173
     0
291
     1
 45
0.0
  0
VISUALSTYLE
  5
34
102
{ACAD_REACTORS
330
2A
102
}
102
{ACAD_XDICTIONARY
360
95
102
}
330
2A
100
AcDbVisualStyle
  2
Conceptual
 70
     9
 71
     3
 72
     2
 73
     0
 90
        0
 40
-0.6
 41
-30.0
 62
     5
 63
     7
421
 16777215
 74
     2
 91
        2
 64
     7
 65
   257
 75
     1
175
     1
 42
40.0
 92
        8
 66
     7
 43
1.0
 76
     1
 77
     6
 78
     2
 67
     7
 79
     3
170
     0
171
     0
290
     0
174
     0
 93
        1
 44
0.0
173
     0
291
     0
 45
0.0
  0
VISUALSTYLE
  5
35
102
{ACAD_REACTORS
330
2A
102
}
102
{ACAD_XDICTIONARY
360
97
102
}
330
2A
100
AcDbVisualStyle
  2
Dim
 70
    11
 71
     2
 72
     2
 73
     0
 90
        0
 40
-0.6
 41
-30.0
 62
     5
 63
     7
421
 16777215
 74
     1
 91
        4
 64
     7
 65
   257
 75
     1
175
     1
 42
1.0
 92
        8
 66
     7
 43
1.0
 76
     1
 77
     6
 78
     2
 67
     7
 79
     5
170
     0
171
     0
290
     0
174
     0
 93
        1
 44
-50.0
173
     0
291
     1
 45
0.0
  0
VISUALSTYLE
  5
39
102
{ACAD_REACTORS
330
2A
102
}
102
{ACAD_XDICTIONARY
360
9F
102
}
330
2A
100
AcDbVisualStyle
  2
Facepattern
 70
    15
 71
     2
 72
     2
 73
     0
 90
        0
 40
-0.6
 41
-30.0
 62
     5
 63
     7
421
 16777215
 74
     1
 91
        4
 64
     7
 65
   257
 75
     1
175
     1
 42
1.0
 92
        8
 66
     7
 43
1.0
 76
     1
 77
     6
 78
     2
 67
     7
 79
     5
170
     0
171
     0
290
     0
174
     0
 93
        1
 44
0.0
173
     0
291
     1
 45
0.0
  0
VISUALSTYLE
  5
2B
102
{ACAD_REACTORS
330
2A
102
}
102
{ACAD_XDICTIONARY
360
83
102
}
330
2A
100
AcDbVisualStyle
  2
Flat
 70
     0
 71
     2
 72
     1
 73
     1
 90
        2
 40
-0.6
 41
30.0
 62
     5
 63
     7
421
 16777215
 74
     0
 91
        4
 64
     7
 65
   257
 75
     1
175
     1
 42
1.0
 92
        8
 66
     7
 43
1.0
 76
     1
 77
     6
 78
     2
 67
     7
 79
     5
170
     0
171
     0
290
     0
174
     0
 93
       13
 44
0.0
173
     0
291
     1
 45
0.0
  0
VISUALSTYLE
  5
2C
102
{ACAD_REACTORS
330
2A
102
}
102
{ACAD_XDICTIONARY
360
85
102
}
330
2A
100
AcDbVisualStyle
  2
FlatWithEdges
 70
     1
 71
     2
 72
     1
 73
     1
 90
        2
 40
-0.6
 41
30.0
 62
     5
 63
     7
421
 16777215
 74
     1
 91
        4
 64
     7
 65
   257
 75
     1
175
     1
 42
1.0
 92
        0
 66
   257
 43
1.0
 76
     1
 77
     6
 78
     2
 67
     7
 79
     5
170
     0
171
     0
290
     0
174
     0
 93
       13
 44
0.0
173
     0
291
     1
 45
0.0
  0
VISUALSTYLE
  5
2D
102
{ACAD_REACTORS
330
2A
102
}
102
{ACAD_XDICTIONARY
360
87
102
}
330
2A
100
AcDbVisualStyle
  2
Gouraud
 70
     2
 71
     2
 72
     2
 73
     1
 90
        2
 40
-0.6
 41
30.0
 62
     5
 63
     7
421
 16777215
 74
     0
 91
        4
 64
     7
 65
   257
 75
     1
175
     1
 42
1.0
 92
        0
 66
     7
 43
1.0
 76
     1
 77
     6
 78
     2
 67
     7
 79
     5
170
     0
171
     0
290
     0
174
     0
 93
       13
 44
0.0
173
     0
291
     1
 45
0.0
  0
VISUALSTYLE
  5
2E
102
{ACAD_REACTORS
330
2A
102
}
102
{ACAD_XDICTIONARY
360
89
102
}
330
2A
100
AcDbVisualStyle
  2
GouraudWithEdges
 70
     3
 71
     2
 72
     2
 73
     1
 90
        2
 40
-0.6
 41
30.0
 62
     5
 63
     7
421
 16777215
 74
     1
 91
        4
 64
     7
 65
   257
 75
     1
175
     1
 42
1.0
 92
        0
 66
   257
 43
1.0
 76
     1
 77
     6
 78
     2
 67
     7
 79
     5
170
     0
171
     0
290
     0
174
     0
 93
       13
 44
0.0
173
     0
291
     1
 45
0.0
  0
VISUALSTYLE
  5
38
102
{ACAD_REACTORS
330
2A
102
}
102
{ACAD_XDICTIONARY
360
9D
102
}
330
2A
100
AcDbVisualStyle
  2
Linepattern
 70
    14
 71
     2
 72
     2
 73
     0
 90
        0
 40
-0.6
 41
-30.0
 62
     5
 63
     7
421
 16777215
 74
     1
 91
        4
 64
     7
 65
   257
 75
     7
175
     7
 42
1.0
 92
        8
 66
     7
 43
1.0
 76
     1
 77
     6
 78
     2
 67
     7
 79
     5
170
     0
171
     0
290
     0
174
     0
 93
        1
 44
0.0
173
     0
291
     1
 45
0.0
  0
VISUALSTYLE
  5
33
102
{ACAD_REACTORS
330
2A
102
}
102
{ACAD_XDICTIONARY
360
93
102
}
330
2A
100
AcDbVisualStyle
  2
Realistic
 70
     8
 71
     2
 72
     2
 73
     0
 90
        0
 40
-0.6
 41
-30.0
 62
     5
 63
     7
421
 16777215
 74
     1
 91
        0
 64
     7
 65
   257
 75
     1
175
     1
 42
1.0
 92
        8
 66
     8
424
  7895160
 43
1.0
 76
     1
 77
     6
 78
     2
 67
     7
 79
     5
170
     0
171
     0
290
     0
174
     0
 93
       13
 44
0.0
173
     0
291
     0
 45
0.0
  0
VISUALSTYLE
  5
37
102
{ACAD_REACTORS
330
2A
102
}
102
{ACAD_XDICTIONARY
360
9B
102
}
330
2A
100
AcDbVisualStyle
  2
Thicken
 70
    13
 71
     2
 72
     2
 73
     0
 90
        0
 40
-0.6
 41
-30.0
 62
     5
 63
     7
421
 16777215
 74
     1
 91
        4
 64
     7
 65
   257
 75
     1
175
     1
 42
1.0
 92
       12
 66
     7
 43
1.0
 76
     1
 77
     6
 78
     2
 67
     7
 79
     5
170
     0
171
     0
290
     0
174
     0
 93
        1
 44
0.0
173
     0
291
     1
 45
0.0
  0
DICTIONARY
  5
8B
330
2F
100
AcDbDictionary
280
     1
281
     1
  3
ACAD_XREC_ROUNDTRIP
360
8C
  0
DICTIONARY
  5
8F
330
31
100
AcDbDictionary
280
     1
281
     1
  3
ACAD_XREC_ROUNDTRIP
360
90
  0
DICTIONARY
  5
8D
330
30
100
AcDbDictionary
280
     1
281
     1
  3
ACAD_XREC_ROUNDTRIP
360
8E
  0
DICTIONARY
  5
91
330
32
100
AcDbDictionary
280
     1
281
     1
  3
ACAD_XREC_ROUNDTRIP
360
92
  0
DICTIONARY
  5
99
330
36
100
AcDbDictionary
280
     1
281
     1
  3
ACAD_XREC_ROUNDTRIP
360
9A
  0
DICTIONARY
  5
A1
330
3A
100
AcDbDictionary
280
     1
281
     1
  3
ACAD_XREC_ROUNDTRIP
360
A2
  0
DICTIONARY
  5
95
330
34
100
AcDbDictionary
280
     1
281
     1
  3
ACAD_XREC_ROUNDTRIP
360
96
  0
DICTIONARY
  5
97
330
35
100
AcDbDictionary
280
     1
281
     1
  3
ACAD_XREC_ROUNDTRIP
360
98
  0
DICTIONARY
  5
9F
330
39
100
AcDbDictionary
280
     1
281
     1
  3
ACAD_XREC_ROUNDTRIP
360
A0
  0
DICTIONARY
  5
83
330
2B
100
AcDbDictionary
280
     1
281
     1
  3
ACAD_XREC_ROUNDTRIP
360
84
  0
DICTIONARY
  5
85
330
2C
100
AcDbDictionary
280
     1
281
     1
  3
ACAD_XREC_ROUNDTRIP
360
86
  0
DICTIONARY
  5
87
330
2D
100
AcDbDictionary
280
     1
281
     1
  3
ACAD_XREC_ROUNDTRIP
360
88
  0
DICTIONARY
  5
89
330
2E
100
AcDbDictionary
280
     1
281
     1
  3
ACAD_XREC_ROUNDTRIP
360
8A
  0
DICTIONARY
  5
9D
330
38
100
AcDbDictionary
280
     1
281
     1
  3
ACAD_XREC_ROUNDTRIP
360
9E
  0
DICTIONARY
  5
93
330
33
100
AcDbDictionary
280
     1
281
     1
  3
ACAD_XREC_ROUNDTRIP
360
94
  0
DICTIONARY
  5
9B
330
37
100
AcDbDictionary
280
     1
281
     1
  3
ACAD_XREC_ROUNDTRIP
360
9C
  0
XRECORD
  5
8C
102
{ACAD_REACTORS
330
8B
102
}
330
8B
100
AcDbXrecord
280
     1
102
RTVSPropertyOp0
 70
     1
102
RTVSPropertyOp1
 70
     1
102
RTVSPropertyOp2
 70
     1
102
RTVSPropertyOp3
 70
     1
102
RTVSPropertyOp4
 70
     1
102
RTVSPropertyOp5
 70
     1
102
RTVSPropertyOp6
 70
     1
102
RTVSPropertyOp7
 70
     1
102
RTVSPropertyOp8
 70
     1
102
RTVSPropertyOp9
 70
     1
102
RTVSPropertyOp10
 70
     1
102
RTVSPropertyOp11
 70
     1
102
RTVSPropertyOp12
 70
     1
102
RTVSPropertyOp13
 70
     1
102
RTVSPropertyOp14
 70
     1
102
RTVSPropertyOp15
 70
     1
102
RTVSPropertyOp16
 70
     1
102
RTVSPropertyOp17
 70
     1
102
RTVSPropertyOp18
 70
     1
102
RTVSPropertyOp19
 70
     1
102
RTVSPropertyOp20
 70
     1
102
RTVSPropertyOp21
 70
     1
102
RTVSPropertyOp22
 70
     1
102
RTVSPropertyOp23
 70
     1
102
RTVSPropertyOp24
 70
     1
102
RTVSPropertyOp25
 70
     1
102
RTVSPropertyOp26
 70
     1
102
RTVSPropertyOp27
 70
     1
102
RTVSPropertyOp28
 70
     1
102
RTVSPropertyOp29
 70
     1
102
RTVSPropertyOp30
 70
     1
102
RTVSPropertyOp31
 70
     1
102
RTVSPropertyOp32
 70
     1
  0
XRECORD
  5
90
102
{ACAD_REACTORS
330
8F
102
}
330
8F
100
AcDbXrecord
280
     1
102
RTVSPropertyOp0
 70
     1
102
RTVSPropertyOp1
 70
     1
102
RTVSPropertyOp2
 70
     1
102
RTVSPropertyOp3
 70
     1
102
RTVSPropertyOp4
 70
     1
102
RTVSPropertyOp5
 70
     1
102
RTVSPropertyOp6
 70
     1
102
RTVSPropertyOp7
 70
     1
102
RTVSPropertyOp8
 70
     1
102
RTVSPropertyOp9
 70
     1
102
RTVSPropertyOp10
 70
     1
102
RTVSPropertyOp11
 70
     1
102
RTVSPropertyOp12
 70
     1
102
RTVSPropertyOp13
 70
     1
102
RTVSPropertyOp14
 70
     1
102
RTVSPropertyOp15
 70
     1
102
RTVSPropertyOp16
 70
     1
102
RTVSPropertyOp17
 70
     1
102
RTVSPropertyOp18
 70
     1
102
RTVSPropertyOp19
 70
     1
102
RTVSPropertyOp20
 70
     1
102
RTVSPropertyOp21
 70
     1
102
RTVSPropertyOp22
 70
     1
102
RTVSPropertyOp23
 70
     1
102
RTVSPropertyOp24
 70
     1
102
RTVSPropertyOp25
 70
     1
102
RTVSPropertyOp26
 70
     1
102
RTVSPropertyOp27
 70
     1
102
RTVSPropertyOp28
 70
     1
102
RTVSPropertyOp29
 70
     1
102
RTVSPropertyOp30
 70
     1
102
RTVSPropertyOp31
 70
     1
102
RTVSPropertyOp32
 70
     1
  0
XRECORD
  5
8E
102
{ACAD_REACTORS
330
8D
102
}
330
8D
100
AcDbXrecord
280
     1
102
RTVSPropertyOp0
 70
     1
102
RTVSPropertyOp1
 70
     1
102
RTVSPropertyOp2
 70
     1
102
RTVSPropertyOp3
 70
     1
102
RTVSPropertyOp4
 70
     1
102
RTVSPropertyOp5
 70
     1
102
RTVSPropertyOp6
 70
     1
102
RTVSPropertyOp7
 70
     1
102
RTVSPropertyOp8
 70
     1
102
RTVSPropertyOp9
 70
     1
102
RTVSPropertyOp10
 70
     1
102
RTVSPropertyOp11
 70
     1
102
RTVSPropertyOp12
 70
     1
102
RTVSPropertyOp13
 70
     1
102
RTVSPropertyOp14
 70
     1
102
RTVSPropertyOp15
 70
     1
102
RTVSPropertyOp16
 70
     1
102
RTVSPropertyOp17
 70
     1
102
RTVSPropertyOp18
 70
     1
102
RTVSPropertyOp19
 70
     1
102
RTVSPropertyOp20
 70
     1
102
RTVSPropertyOp21
 70
     1
102
RTVSPropertyOp22
 70
     1
102
RTVSPropertyOp23
 70
     1
102
RTVSPropertyOp24
 70
     1
102
RTVSPropertyOp25
 70
     1
102
RTVSPropertyOp26
 70
     1
102
RTVSPropertyOp27
 70
     1
102
RTVSPropertyOp28
 70
     1
102
RTVSPropertyOp29
 70
     1
102
RTVSPropertyOp30
 70
     1
102
RTVSPropertyOp31
 70
     1
102
RTVSPropertyOp32
 70
     1
  0
XRECORD
  5
92
102
{ACAD_REACTORS
330
91
102
}
330
91
100
AcDbXrecord
280
     1
102
RTVSPropertyOp0
 70
     1
102
RTVSPropertyOp1
 70
     1
102
RTVSPropertyOp2
 70
     1
102
RTVSPropertyOp3
 70
     1
102
RTVSPropertyOp4
 70
     1
102
RTVSPropertyOp5
 70
     1
102
RTVSPropertyOp6
 70
     1
102
RTVSPropertyOp7
 70
     1
102
RTVSPropertyOp8
 70
     1
102
RTVSPropertyOp9
 70
     1
102
RTVSPropertyOp10
 70
     1
102
RTVSPropertyOp11
 70
     1
102
RTVSPropertyOp12
 70
     1
102
RTVSPropertyOp13
 70
     1
102
RTVSPropertyOp14
 70
     1
102
RTVSPropertyOp15
 70
     1
102
RTVSPropertyOp16
 70
     1
102
RTVSPropertyOp17
 70
     1
102
RTVSPropertyOp18
 70
     1
102
RTVSPropertyOp19
 70
     1
102
RTVSPropertyOp20
 70
     1
102
RTVSPropertyOp21
 70
     1
102
RTVSPropertyOp22
 70
     1
102
RTVSPropertyOp23
 70
     1
102
RTVSPropertyOp24
 70
     1
102
RTVSPropertyOp25
 70
     1
102
RTVSPropertyOp26
 70
     1
102
RTVSPropertyOp27
 70
     1
102
RTVSPropertyOp28
 70
     1
102
RTVSPropertyOp29
 70
     1
102
RTVSPropertyOp30
 70
     1
102
RTVSPropertyOp31
 70
     1
102
RTVSPropertyOp32
 70
     1
  0
XRECORD
  5
9A
102
{ACAD_REACTORS
330
99
102
}
330
99
100
AcDbXrecord
280
     1
102
RTVSPropertyOp0
 70
     1
102
RTVSPropertyOp1
 70
     1
102
RTVSPropertyOp2
 70
     1
102
RTVSPropertyOp3
 70
     1
102
RTVSPropertyOp4
 70
     1
102
RTVSPropertyOp5
 70
     1
102
RTVSPropertyOp6
 70
     1
102
RTVSPropertyOp7
 70
     1
102
RTVSPropertyOp8
 70
     1
102
RTVSPropertyOp9
 70
     1
102
RTVSPropertyOp10
 70
     1
102
RTVSPropertyOp11
 70
     1
102
RTVSPropertyOp12
 70
     1
102
RTVSPropertyOp13
 70
     1
102
RTVSPropertyOp14
 70
     1
102
RTVSPropertyOp15
 70
     1
102
RTVSPropertyOp16
 70
     1
102
RTVSPropertyOp17
 70
     1
102
RTVSPropertyOp18
 70
     1
102
RTVSPropertyOp19
 70
     1
102
RTVSPropertyOp20
 70
     1
102
RTVSPropertyOp21
 70
     1
102
RTVSPropertyOp22
 70
     1
102
RTVSPropertyOp23
 70
     1
102
RTVSPropertyOp24
 70
     1
102
RTVSPropertyOp25
 70
     1
102
RTVSPropertyOp26
 70
     1
102
RTVSPropertyOp27
 70
     1
102
RTVSPropertyOp28
 70
     1
102
RTVSPropertyOp29
 70
     1
102
RTVSPropertyOp30
 70
     1
102
RTVSPropertyOp31
 70
     1
102
RTVSPropertyOp32
 70
     1
  0
XRECORD
  5
A2
102
{ACAD_REACTORS
330
A1
102
}
330
A1
100
AcDbXrecord
280
     1
102
RTVSPropertyOp0
 70
     1
102
RTVSPropertyOp1
 70
     1
102
RTVSPropertyOp2
 70
     1
102
RTVSPropertyOp3
 70
     1
102
RTVSPropertyOp4
 70
     1
102
RTVSPropertyOp5
 70
     1
102
RTVSPropertyOp6
 70
     1
102
RTVSPropertyOp7
 70
     1
102
RTVSPropertyOp8
 70
     1
102
RTVSPropertyOp9
 70
     1
102
RTVSPropertyOp10
 70
     1
102
RTVSPropertyOp11
 70
     1
102
RTVSPropertyOp12
 70
     1
102
RTVSPropertyOp13
 70
     1
102
RTVSPropertyOp14
 70
     1
102
RTVSPropertyOp15
 70
     1
102
RTVSPropertyOp16
 70
     1
102
RTVSPropertyOp17
 70
     1
102
RTVSPropertyOp18
 70
     1
102
RTVSPropertyOp19
 70
     1
102
RTVSPropertyOp20
 70
     1
102
RTVSPropertyOp21
 70
     1
102
RTVSPropertyOp22
 70
     1
102
RTVSPropertyOp23
 70
     1
102
RTVSPropertyOp24
 70
     1
102
RTVSPropertyOp25
 70
     1
102
RTVSPropertyOp26
 70
     1
102
RTVSPropertyOp27
 70
     1
102
RTVSPropertyOp28
 70
     1
102
RTVSPropertyOp29
 70
     1
102
RTVSPropertyOp30
 70
     1
102
RTVSPropertyOp31
 70
     1
102
RTVSPropertyOp32
 70
     1
  0
XRECORD
  5
96
102
{ACAD_REACTORS
330
95
102
}
330
95
100
AcDbXrecord
280
     1
102
RTVSPropertyOp0
 70
     1
102
RTVSPropertyOp1
 70
     1
102
RTVSPropertyOp2
 70
     1
102
RTVSPropertyOp3
 70
     1
102
RTVSPropertyOp4
 70
     1
102
RTVSPropertyOp5
 70
     1
102
RTVSPropertyOp6
 70
     1
102
RTVSPropertyOp7
 70
     1
102
RTVSPropertyOp8
 70
     1
102
RTVSPropertyOp9
 70
     1
102
RTVSPropertyOp10
 70
     1
102
RTVSPropertyOp11
 70
     1
102
RTVSPropertyOp12
 70
     1
102
RTVSPropertyOp13
 70
     1
102
RTVSPropertyOp14
 70
     1
102
RTVSPropertyOp15
 70
     1
102
RTVSPropertyOp16
 70
     1
102
RTVSPropertyOp17
 70
     1
102
RTVSPropertyOp18
 70
     1
102
RTVSPropertyOp19
 70
     1
102
RTVSPropertyOp20
 70
     1
102
RTVSPropertyOp21
 70
     1
102
RTVSPropertyOp22
 70
     1
102
RTVSPropertyOp23
 70
     1
102
RTVSPropertyOp24
 70
     1
102
RTVSPropertyOp25
 70
     1
102
RTVSPropertyOp26
 70
     1
102
RTVSPropertyOp27
 70
     1
102
RTVSPropertyOp28
 70
     1
102
RTVSPropertyOp29
 70
     1
102
RTVSPropertyOp30
 70
     1
102
RTVSPropertyOp31
 70
     1
102
RTVSPropertyOp32
 70
     1
  0
XRECORD
  5
98
102
{ACAD_REACTORS
330
97
102
}
330
97
100
AcDbXrecord
280
     1
102
RTVSPropertyOp0
 70
     1
102
RTVSPropertyOp1
 70
     1
102
RTVSPropertyOp2
 70
     1
102
RTVSPropertyOp3
 70
     1
102
RTVSPropertyOp4
 70
     1
102
RTVSPropertyOp5
 70
     1
102
RTVSPropertyOp6
 70
     1
102
RTVSPropertyOp7
 70
     1
102
RTVSPropertyOp8
 70
     1
102
RTVSPropertyOp9
 70
     1
102
RTVSPropertyOp10
 70
     1
102
RTVSPropertyOp11
 70
     1
102
RTVSPropertyOp12
 70
     1
102
RTVSPropertyOp13
 70
     1
102
RTVSPropertyOp14
 70
     1
102
RTVSPropertyOp15
 70
     1
102
RTVSPropertyOp16
 70
     1
102
RTVSPropertyOp17
 70
     1
102
RTVSPropertyOp18
 70
     1
102
RTVSPropertyOp19
 70
     1
102
RTVSPropertyOp20
 70
     1
102
RTVSPropertyOp21
 70
     1
102
RTVSPropertyOp22
 70
     1
102
RTVSPropertyOp23
 70
     1
102
RTVSPropertyOp24
 70
     1
102
RTVSPropertyOp25
 70
     1
102
RTVSPropertyOp26
 70
     1
102
RTVSPropertyOp27
 70
     1
102
RTVSPropertyOp28
 70
     1
102
RTVSPropertyOp29
 70
     1
102
RTVSPropertyOp30
 70
     1
102
RTVSPropertyOp31
 70
     1
102
RTVSPropertyOp32
 70
     1
  0
XRECORD
  5
A0
102
{ACAD_REACTORS
330
9F
102
}
330
9F
100
AcDbXrecord
280
     1
102
RTVSPropertyOp0
 70
     1
102
RTVSPropertyOp1
 70
     1
102
RTVSPropertyOp2
 70
     1
102
RTVSPropertyOp3
 70
     1
102
RTVSPropertyOp4
 70
     1
102
RTVSPropertyOp5
 70
     1
102
RTVSPropertyOp6
 70
     1
102
RTVSPropertyOp7
 70
     1
102
RTVSPropertyOp8
 70
     1
102
RTVSPropertyOp9
 70
     1
102
RTVSPropertyOp10
 70
     1
102
RTVSPropertyOp11
 70
     1
102
RTVSPropertyOp12
 70
     1
102
RTVSPropertyOp13
 70
     1
102
RTVSPropertyOp14
 70
     1
102
RTVSPropertyOp15
 70
     1
102
RTVSPropertyOp16
 70
     1
102
RTVSPropertyOp17
 70
     1
102
RTVSPropertyOp18
 70
     1
102
RTVSPropertyOp19
 70
     1
102
RTVSPropertyOp20
 70
     1
102
RTVSPropertyOp21
 70
     1
102
RTVSPropertyOp22
 70
     1
102
RTVSPropertyOp23
 70
     1
102
RTVSPropertyOp24
 70
     1
102
RTVSPropertyOp25
 70
     1
102
RTVSPropertyOp26
 70
     1
102
RTVSPropertyOp27
 70
     1
102
RTVSPropertyOp28
 70
     1
102
RTVSPropertyOp29
 70
     1
102
RTVSPropertyOp30
 70
     1
102
RTVSPropertyOp31
 70
     1
102
RTVSPropertyOp32
 70
     1
  0
XRECORD
  5
84
102
{ACAD_REACTORS
330
83
102
}
330
83
100
AcDbXrecord
280
     1
102
RTVSPropertyOp0
 70
     1
102
RTVSPropertyOp1
 70
     1
102
RTVSPropertyOp2
 70
     1
102
RTVSPropertyOp3
 70
     1
102
RTVSPropertyOp4
 70
     1
102
RTVSPropertyOp5
 70
     1
102
RTVSPropertyOp6
 70
     1
102
RTVSPropertyOp7
 70
     1
102
RTVSPropertyOp8
 70
     1
102
RTVSPropertyOp9
 70
     1
102
RTVSPropertyOp10
 70
     1
102
RTVSPropertyOp11
 70
     1
102
RTVSPropertyOp12
 70
     1
102
RTVSPropertyOp13
 70
     1
102
RTVSPropertyOp14
 70
     1
102
RTVSPropertyOp15
 70
     1
102
RTVSPropertyOp16
 70
     1
102
RTVSPropertyOp17
 70
     1
102
RTVSPropertyOp18
 70
     1
102
RTVSPropertyOp19
 70
     1
102
RTVSPropertyOp20
 70
     1
102
RTVSPropertyOp21
 70
     1
102
RTVSPropertyOp22
 70
     1
102
RTVSPropertyOp23
 70
     1
102
RTVSPropertyOp24
 70
     1
102
RTVSPropertyOp25
 70
     1
102
RTVSPropertyOp26
 70
     1
102
RTVSPropertyOp27
 70
     1
102
RTVSPropertyOp28
 70
     1
102
RTVSPropertyOp29
 70
     1
102
RTVSPropertyOp30
 70
     1
102
RTVSPropertyOp31
 70
     1
102
RTVSPropertyOp32
 70
     1
  0
XRECORD
  5
86
102
{ACAD_REACTORS
330
85
102
}
330
85
100
AcDbXrecord
280
     1
102
RTVSPropertyOp0
 70
     1
102
RTVSPropertyOp1
 70
     1
102
RTVSPropertyOp2
 70
     1
102
RTVSPropertyOp3
 70
     1
102
RTVSPropertyOp4
 70
     1
102
RTVSPropertyOp5
 70
     1
102
RTVSPropertyOp6
 70
     1
102
RTVSPropertyOp7
 70
     1
102
RTVSPropertyOp8
 70
     1
102
RTVSPropertyOp9
 70
     1
102
RTVSPropertyOp10
 70
     1
102
RTVSPropertyOp11
 70
     1
102
RTVSPropertyOp12
 70
     1
102
RTVSPropertyOp13
 70
     1
102
RTVSPropertyOp14
 70
     1
102
RTVSPropertyOp15
 70
     1
102
RTVSPropertyOp16
 70
     1
102
RTVSPropertyOp17
 70
     1
102
RTVSPropertyOp18
 70
     1
102
RTVSPropertyOp19
 70
     1
102
RTVSPropertyOp20
 70
     1
102
RTVSPropertyOp21
 70
     1
102
RTVSPropertyOp22
 70
     1
102
RTVSPropertyOp23
 70
     1
102
RTVSPropertyOp24
 70
     1
102
RTVSPropertyOp25
 70
     1
102
RTVSPropertyOp26
 70
     1
102
RTVSPropertyOp27
 70
     1
102
RTVSPropertyOp28
 70
     1
102
RTVSPropertyOp29
 70
     1
102
RTVSPropertyOp30
 70
     1
102
RTVSPropertyOp31
 70
     1
102
RTVSPropertyOp32
 70
     1
  0
XRECORD
  5
88
102
{ACAD_REACTORS
330
87
102
}
330
87
100
AcDbXrecord
280
     1
102
RTVSPropertyOp0
 70
     1
102
RTVSPropertyOp1
 70
     1
102
RTVSPropertyOp2
 70
     1
102
RTVSPropertyOp3
 70
     1
102
RTVSPropertyOp4
 70
     1
102
RTVSPropertyOp5
 70
     1
102
RTVSPropertyOp6
 70
     1
102
RTVSPropertyOp7
 70
     1
102
RTVSPropertyOp8
 70
     1
102
RTVSPropertyOp9
 70
     1
102
RTVSPropertyOp10
 70
     1
102
RTVSPropertyOp11
 70
     1
102
RTVSPropertyOp12
 70
     1
102
RTVSPropertyOp13
 70
     1
102
RTVSPropertyOp14
 70
     1
102
RTVSPropertyOp15
 70
     1
102
RTVSPropertyOp16
 70
     1
102
RTVSPropertyOp17
 70
     1
102
RTVSPropertyOp18
 70
     1
102
RTVSPropertyOp19
 70
     1
102
RTVSPropertyOp20
 70
     1
102
RTVSPropertyOp21
 70
     1
102
RTVSPropertyOp22
 70
     1
102
RTVSPropertyOp23
 70
     1
102
RTVSPropertyOp24
 70
     1
102
RTVSPropertyOp25
 70
     1
102
RTVSPropertyOp26
 70
     1
102
RTVSPropertyOp27
 70
     1
102
RTVSPropertyOp28
 70
     1
102
RTVSPropertyOp29
 70
     1
102
RTVSPropertyOp30
 70
     1
102
RTVSPropertyOp31
 70
     1
102
RTVSPropertyOp32
 70
     1
  0
XRECORD
  5
8A
102
{ACAD_REACTORS
330
89
102
}
330
89
100
AcDbXrecord
280
     1
102
RTVSPropertyOp0
 70
     1
102
RTVSPropertyOp1
 70
     1
102
RTVSPropertyOp2
 70
     1
102
RTVSPropertyOp3
 70
     1
102
RTVSPropertyOp4
 70
     1
102
RTVSPropertyOp5
 70
     1
102
RTVSPropertyOp6
 70
     1
102
RTVSPropertyOp7
 70
     1
102
RTVSPropertyOp8
 70
     1
102
RTVSPropertyOp9
 70
     1
102
RTVSPropertyOp10
 70
     1
102
RTVSPropertyOp11
 70
     1
102
RTVSPropertyOp12
 70
     1
102
RTVSPropertyOp13
 70
     1
102
RTVSPropertyOp14
 70
     1
102
RTVSPropertyOp15
 70
     1
102
RTVSPropertyOp16
 70
     1
102
RTVSPropertyOp17
 70
     1
102
RTVSPropertyOp18
 70
     1
102
RTVSPropertyOp19
 70
     1
102
RTVSPropertyOp20
 70
     1
102
RTVSPropertyOp21
 70
     1
102
RTVSPropertyOp22
 70
     1
102
RTVSPropertyOp23
 70
     1
102
RTVSPropertyOp24
 70
     1
102
RTVSPropertyOp25
 70
     1
102
RTVSPropertyOp26
 70
     1
102
RTVSPropertyOp27
 70
     1
102
RTVSPropertyOp28
 70
     1
102
RTVSPropertyOp29
 70
     1
102
RTVSPropertyOp30
 70
     1
102
RTVSPropertyOp31
 70
     1
102
RTVSPropertyOp32
 70
     1
  0
XRECORD
  5
9E
102
{ACAD_REACTORS
330
9D
102
}
330
9D
100
AcDbXrecord
280
     1
102
RTVSPropertyOp0
 70
     1
102
RTVSPropertyOp1
 70
     1
102
RTVSPropertyOp2
 70
     1
102
RTVSPropertyOp3
 70
     1
102
RTVSPropertyOp4
 70
     1
102
RTVSPropertyOp5
 70
     1
102
RTVSPropertyOp6
 70
     1
102
RTVSPropertyOp7
 70
     1
102
RTVSPropertyOp8
 70
     1
102
RTVSPropertyOp9
 70
     1
102
RTVSPropertyOp10
 70
     1
102
RTVSPropertyOp11
 70
     1
102
RTVSPropertyOp12
 70
     1
102
RTVSPropertyOp13
 70
     1
102
RTVSPropertyOp14
 70
     1
102
RTVSPropertyOp15
 70
     1
102
RTVSPropertyOp16
 70
     1
102
RTVSPropertyOp17
 70
     1
102
RTVSPropertyOp18
 70
     1
102
RTVSPropertyOp19
 70
     1
102
RTVSPropertyOp20
 70
     1
102
RTVSPropertyOp21
 70
     1
102
RTVSPropertyOp22
 70
     1
102
RTVSPropertyOp23
 70
     1
102
RTVSPropertyOp24
 70
     1
102
RTVSPropertyOp25
 70
     1
102
RTVSPropertyOp26
 70
     1
102
RTVSPropertyOp27
 70
     1
102
RTVSPropertyOp28
 70
     1
102
RTVSPropertyOp29
 70
     1
102
RTVSPropertyOp30
 70
     1
102
RTVSPropertyOp31
 70
     1
102
RTVSPropertyOp32
 70
     1
  0
XRECORD
  5
94
102
{ACAD_REACTORS
330
93
102
}
330
93
100
AcDbXrecord
280
     1
102
RTVSPropertyOp0
 70
     1
102
RTVSPropertyOp1
 70
     1
102
RTVSPropertyOp2
 70
     1
102
RTVSPropertyOp3
 70
     1
102
RTVSPropertyOp4
 70
     1
102
RTVSPropertyOp5
 70
     1
102
RTVSPropertyOp6
 70
     1
102
RTVSPropertyOp7
 70
     1
102
RTVSPropertyOp8
 70
     1
102
RTVSPropertyOp9
 70
     1
102
RTVSPropertyOp10
 70
     1
102
RTVSPropertyOp11
 70
     1
102
RTVSPropertyOp12
 70
     1
102
RTVSPropertyOp13
 70
     1
102
RTVSPropertyOp14
 70
     1
102
RTVSPropertyOp15
 70
     1
102
RTVSPropertyOp16
 70
     1
102
RTVSPropertyOp17
 70
     1
102
RTVSPropertyOp18
 70
     1
102
RTVSPropertyOp19
 70
     1
102
RTVSPropertyOp20
 70
     1
102
RTVSPropertyOp21
 70
     1
102
RTVSPropertyOp22
 70
     1
102
RTVSPropertyOp23
 70
     1
102
RTVSPropertyOp24
 70
     1
102
RTVSPropertyOp25
 70
     1
102
RTVSPropertyOp26
 70
     1
102
RTVSPropertyOp27
 70
     1
102
RTVSPropertyOp28
 70
     1
102
RTVSPropertyOp29
 70
     1
102
RTVSPropertyOp30
 70
     1
102
RTVSPropertyOp31
 70
     1
102
RTVSPropertyOp32
 70
     1
  0
XRECORD
  5
9C
102
{ACAD_REACTORS
330
9B
102
}
330
9B
100
AcDbXrecord
280
     1
102
RTVSPropertyOp0
 70
     1
102
RTVSPropertyOp1
 70
     1
102
RTVSPropertyOp2
 70
     1
102
RTVSPropertyOp3
 70
     1
102
RTVSPropertyOp4
 70
     1
102
RTVSPropertyOp5
 70
     1
102
RTVSPropertyOp6
 70
     1
102
RTVSPropertyOp7
 70
     1
102
RTVSPropertyOp8
 70
     1
102
RTVSPropertyOp9
 70
     1
102
RTVSPropertyOp10
 70
     1
102
RTVSPropertyOp11
 70
     1
102
RTVSPropertyOp12
 70
     1
102
RTVSPropertyOp13
 70
     1
102
RTVSPropertyOp14
 70
     1
102
RTVSPropertyOp15
 70
     1
102
RTVSPropertyOp16
 70
     1
102
RTVSPropertyOp17
 70
     1
102
RTVSPropertyOp18
 70
     1
102
RTVSPropertyOp19
 70
     1
102
RTVSPropertyOp20
 70
     1
102
RTVSPropertyOp21
 70
     1
102
RTVSPropertyOp22
 70
     1
102
RTVSPropertyOp23
 70
     1
102
RTVSPropertyOp24
 70
     1
102
RTVSPropertyOp25
 70
     1
102
RTVSPropertyOp26
 70
     1
102
RTVSPropertyOp27
 70
     1
102
RTVSPropertyOp28
 70
     1
102
RTVSPropertyOp29
 70
     1
102
RTVSPropertyOp30
 70
     1
102
RTVSPropertyOp31
 70
     1
102
RTVSPropertyOp32
 70
     1
  0
ENDSEC
  0
EOF
