  0
SECTION
  2
HEADER
  9
$ACADVER
  1
AC1021
  9
$ACADMAINTVER
 70
    25
  9
$DWGCODEPAGE
  3
ANSI_1252
  9
$INSBASE
 10
0.0
 20
0.0
 30
0.0
  9
$EXTMIN
 10
-8.94168
 20
-10.24612
 30
0.0
  9
$EXTMAX
 10
7.6232
 20
10.00731
 30
0.0
  9
$LIMMIN
 10
0.0
 20
0.0
  9
$LIMMAX
 10
12.0
 20
9.0
  9
$ORTHOMODE
 70
     0
  9
$REGENMODE
 70
     1
  9
$FILLMODE
 70
     1
  9
$QTEXTMODE
 70
     0
  9
$MIRRTEXT
 70
     1
  9
$LTSCALE
 40
1.0
  9
$ATTMODE
 70
     1
  9
$TEXTSIZE
 40
0.2
  9
$TRACEWID
 40
0.05
  9
$TEXTSTYLE
  7
Standard
  9
$CLAYER
  8
0
  9
$CELTYPE
  6
ByLayer
  9
$CECOLOR
 62
   256
  9
$CELTSCALE
 40
1.0
  9
$DISPSILH
 70
     0
  9
$DIMSCALE
 40
1.0
  9
$DIMASZ
 40
0.18
  9
$DIMEXO
 40
0.0625
  9
$DIMDLI
 40
0.38
  9
$DIMRND
 40
0.0
  9
$DIMDLE
 40
0.0
  9
$DIMEXE
 40
0.18
  9
$DIMTP
 40
0.0
  9
$DIMTM
 40
0.0
  9
$DIMTXT
 40
0.18
  9
$DIMCEN
 40
0.09
  9
$DIMTSZ
 40
0.0
  9
$DIMTOL
 70
     0
  9
$DIMLIM
 70
     0
  9
$DIMTIH
 70
     1
  9
$DIMTOH
 70
     1
  9
$DIMSE1
 70
     0
  9
$DIMSE2
 70
     0
  9
$DIMTAD
 70
     0
  9
$DIMZIN
 70
     0
  9
$DIMBLK
  1

  9
$DIMASO
 70
     1
  9
$DIMSHO
 70
     1
  9
$DIMPOST
  1

  9
$DIMAPOST
  1

  9
$DIMALT
 70
     0
  9
$DIMALTD
 70
     2
  9
$DIMALTF
 40
25.4
  9
$DIMLFAC
 40
1.0
  9
$DIMTOFL
 70
     0
  9
$DIMTVP
 40
0.0
  9
$DIMTIX
 70
     0
  9
$DIMSOXD
 70
     0
  9
$DIMSAH
 70
     0
  9
$DIMBLK1
  1

  9
$DIMBLK2
  1

  9
$DIMSTYLE
  2
Standard
  9
$DIMCLRD
 70
     0
  9
$DIMCLRE
 70
     0
  9
$DIMCLRT
 70
     0
  9
$DIMTFAC
 40
1.0
  9
$DIMGAP
 40
0.09
  9
$DIMJUST
 70
     0
  9
$DIMSD1
 70
     0
  9
$DIMSD2
 70
     0
  9
$DIMTOLJ
 70
     1
  9
$DIMTZIN
 70
     0
  9
$DIMALTZ
 70
     0
  9
$DIMALTTZ
 70
     0
  9
$DIMUPT
 70
     0
  9
$DIMDEC
 70
     4
  9
$DIMTDEC
 70
     4
  9
$DIMALTU
 70
     2
  9
$DIMALTTD
 70
     2
  9
$DIMTXSTY
  7
Standard
  9
$DIMAUNIT
 70
     0
  9
$DIMADEC
 70
     0
  9
$DIMALTRND
 40
0.0
  9
$DIMAZIN
 70
     0
  9
$DIMDSEP
 70
    46
  9
$DIMATFIT
 70
     3
  9
$DIMFRAC
 70
     0
  9
$DIMLDRBLK
  1

  9
$DIMLUNIT
 70
     2
  9
$DIMLWD
 70
    -2
  9
$DIMLWE
 70
    -2
  9
$DIMTMOVE
 70
     0
  9
$DIMFXL
 40
1.0
  9
$DIMFXLON
 70
     0
  9
$DIMJOGANG
 40
0.7853981633974483
  9
$DIMTFILL
 70
     0
  9
$DIMTFILLCLR
 70
     0
  9
$DIMARCSYM
 70
     0
  9
$DIMLTYPE
  6

  9
$DIMLTEX1
  6

  9
$DIMLTEX2
  6

  9
$LUNITS
 70
     2
  9
$LUPREC
 70
     4
  9
$SKETCHINC
 40
0.1
  9
$FILLETRAD
 40
0.5
  9
$AUNITS
 70
     0
  9
$AUPREC
 70
     0
  9
$MENU
  1
.
  9
$ELEVATION
 40
0.0
  9
$PELEVATION
 40
0.0
  9
$THICKNESS
 40
0.0
  9
$LIMCHECK
 70
     0
  9
$CHAMFERA
 40
0.5
  9
$CHAMFERB
 40
0.5
  9
$CHAMFERC
 40
1.0
  9
$CHAMFERD
 40
0.0
  9
$SKPOLY
 70
     0
  9
$TDCREATE
 40
2456231.943186088
  9
$TDUCREATE
 40
2456232.109852755
  9
$TDUPDATE
 40
2456231.943186146
  9
$TDUUPDATE
 40
2456232.109852813
  9
$TDINDWG
 40
0.0000000116
  9
$TDUSRTIMER
 40
0.0000000116
  9
$USRTIMER
 70
     1
  9
$ANGBASE
 50
0.0
  9
$ANGDIR
 70
     0
  9
$PDMODE
 70
     0
  9
$PDSIZE
 40
0.0
  9
$PLINEWID
 40
0.0
  9
$SPLFRAME
 70
     0
  9
$SPLINETYPE
 70
     6
  9
$SPLINESEGS
 70
     8
  9
$HANDSEED
  5
A7
  9
$SURFTAB1
 70
     6
  9
$SURFTAB2
 70
     6
  9
$SURFTYPE
 70
     6
  9
$SURFU
 70
     6
  9
$SURFV
 70
     6
  9
$UCSBASE
  2

  9
$UCSNAME
  2

  9
$UCSORG
 10
0.0
 20
0.0
 30
0.0
  9
$UCSXDIR
 10
1.0
 20
0.0
 30
0.0
  9
$UCSYDIR
 10
0.0
 20
1.0
 30
0.0
  9
$UCSORTHOREF
  2

  9
$UCSORTHOVIEW
 70
     0
  9
$UCSORGTOP
 10
0.0
 20
0.0
 30
0.0
  9
$UCSORGBOTTOM
 10
0.0
 20
0.0
 30
0.0
  9
$UCSORGLEFT
 10
0.0
 20
0.0
 30
0.0
  9
$UCSORGRIGHT
 10
0.0
 20
0.0
 30
0.0
  9
$UCSORGFRONT
 10
0.0
 20
0.0
 30
0.0
  9
$UCSORGBACK
 10
0.0
 20
0.0
 30
0.0
  9
$PUCSBASE
  2

  9
$PUCSNAME
  2

  9
$PUCSORG
 10
0.0
 20
0.0
 30
0.0
  9
$PUCSXDIR
 10
1.0
 20
0.0
 30
0.0
  9
$PUCSYDIR
 10
0.0
 20
1.0
 30
0.0
  9
$PUCSORTHOREF
  2

  9
$PUCSORTHOVIEW
 70
     0
  9
$PUCSORGTOP
 10
0.0
 20
0.0
 30
0.0
  9
$PUCSORGBOTTOM
 10
0.0
 20
0.0
 30
0.0
  9
$PUCSORGLEFT
 10
0.0
 20
0.0
 30
0.0
  9
$PUCSORGRIGHT
 10
0.0
 20
0.0
 30
0.0
  9
$PUCSORGFRONT
 10
0.0
 20
0.0
 30
0.0
  9
$PUCSORGBACK
 10
0.0
 20
0.0
 30
0.0
  9
$USERI1
 70
     0
  9
$USERI2
 70
     0
  9
$USERI3
 70
     0
  9
$USERI4
 70
     0
  9
$USERI5
 70
     0
  9
$USERR1
 40
0.0
  9
$USERR2
 40
0.0
  9
$USERR3
 40
0.0
  9
$USERR4
 40
0.0
  9
$USERR5
 40
0.0
  9
$WORLDVIEW
 70
     1
  9
$SHADEDGE
 70
     3
  9
$SHADEDIF
 70
    70
  9
$TILEMODE
 70
     1
  9
$MAXACTVP
 70
    64
  9
$PINSBASE
 10
0.0
 20
0.0
 30
0.0
  9
$PLIMCHECK
 70
     0
  9
$PEXTMIN
 10
1.000000000000000E+20
 20
1.000000000000000E+20
 30
1.000000000000000E+20
  9
$PEXTMAX
 10
-1.000000000000000E+20
 20
-1.000000000000000E+20
 30
-1.000000000000000E+20
  9
$PLIMMIN
 10
0.0
 20
0.0
  9
$PLIMMAX
 10
12.0
 20
9.0
  9
$UNITMODE
 70
     0
  9
$VISRETAIN
 70
     1
  9
$PLINEGEN
 70
     0
  9
$PSLTSCALE
 70
     1
  9
$TREEDEPTH
 70
  3020
  9
$CMLSTYLE
  2
Standard
  9
$CMLJUST
 70
     0
  9
$CMLSCALE
 40
1.0
  9
$PROXYGRAPHICS
 70
     1
  9
$MEASUREMENT
 70
     0
  9
$CELWEIGHT
370
    -1
  9
$ENDCAPS
280
     0
  9
$JOINSTYLE
280
     0
  9
$LWDISPLAY
290
     0
  9
$INSUNITS
 70
     5
  9
$HYPERLINKBASE
  1

  9
$STYLESHEET
  1

  9
$XEDIT
290
     1
  9
$CEPSNTYPE
380
     0
  9
$PSTYLEMODE
290
     1
  9
$FINGERPRINTGUID
  2
{4AACB120-AC1A-439F-9022-345665945243}
  9
$VERSIONGUID
  2
{FAEB1C32-E019-11D5-929B-00C0DF256EC4}
  9
$EXTNAMES
290
     1
  9
$PSVPSCALE
 40
0.0
  9
$OLESTARTUP
290
     0
  9
$SORTENTS
280
   127
  9
$INDEXCTL
280
     0
  9
$HIDETEXT
280
     1
  9
$XCLIPFRAME
290
     0
  9
$HALOGAP
280
     0
  9
$OBSCOLOR
 70
   257
  9
$OBSLTYPE
280
     0
  9
$INTERSECTIONDISPLAY
280
     0
  9
$INTERSECTIONCOLOR
 70
   257
  9
$DIMASSOC
280
     2
  9
$PROJECTNAME
  1

  9
$CAMERADISPLAY
290
     0
  9
$LENSLENGTH
 40
50.0
  9
$CAMERAHEIGHT
 40
0.0
  9
$STEPSPERSEC
 40
2.0
  9
$STEPSIZE
 40
6.0
  9
$3DDWFPREC
 40
2.0
  9
$PSOLWIDTH
 40
0.25
  9
$PSOLHEIGHT
 40
4.0
  9
$LOFTANG1
 40
1.570796326794897
  9
$LOFTANG2
 40
1.570796326794897
  9
$LOFTMAG1
 40
0.0
  9
$LOFTMAG2
 40
0.0
  9
$LOFTPARAM
 70
     7
  9
$LOFTNORMALS
280
     1
  9
$LATITUDE
 40
37.795
  9
$LONGITUDE
 40
-122.394
  9
$NORTHDIRECTION
 40
0.0
  9
$TIMEZONE
 70
 -8000
  9
$LIGHTGLYPHDISPLAY
280
     1
  9
$TILEMODELIGHTSYNCH
280
     1
  9
$SOLIDHIST
280
     1
  9
$SHOWHIST
280
     1
  9
$DWFFRAME
280
     2
  9
$DGNFRAME
280
     2
  9
$REALWORLDSCALE
290
     1
  9
$INTERFERECOLOR
 62
   256
  9
$CSHADOW
280
     0
  9
$SHADOWPLANELOCATION
 40
0.0
  0
ENDSEC
  0
SECTION
  2
CLASSES
  0
CLASS
  1
ACDBDICTIONARYWDFLT
  2
AcDbDictionaryWithDefault
  3
ObjectDBX Classes
 90
        0
 91
        4
280
     0
281
     0
  0
CLASS
  1
VISUALSTYLE
  2
AcDbVisualStyle
  3
ObjectDBX Classes
 90
     4095
 91
        4
280
     0
281
     0
  0
CLASS
  1
MATERIAL
  2
AcDbMaterial
  3
ObjectDBX Classes
 90
     1153
 91
        4
280
     0
281
     0
  0
ENDSEC
  0
SECTION
  2
TABLES
  0
TABLE
  2
VPORT
  5
8
330
0
100
AcDbSymbolTable
 70
     1
  0
VPORT
  5
29
330
8
100
AcDbSymbolTableRecord
100
AcDbViewportTableRecord
  2
*Active
 70
     0
 10
0.0
 20
0.0
 11
1.0
 21
1.0
 12
10.42990654205607
 22
4.5
 13
0.0
 23
0.0
 14
0.5
 24
0.5
 15
0.5
 25
0.5
 16
0.0
 26
0.0
 36
1.0
 17
0.0
 27
0.0
 37
0.0
 40
9.0
 41
1.972972972850329
 42
50.0
 43
0.0
 44
0.0
 50
0.0
 51
0.0
 71
     0
 72
   100
 73
     1
 74
     3
 75
     0
 76
     0
 77
     0
 78
     0
281
     0
 65
     1
110
0.0
120
0.0
130
0.0
111
1.0
121
0.0
131
0.0
112
0.0
122
1.0
132
0.0
 79
     0
146
0.0
 60
     3
 61
     5
292
     1
282
     1
141
0.0
142
0.0
 63
   250
  0
ENDTAB
  0
TABLE
  2
LTYPE
  5
5
330
0
100
AcDbSymbolTable
 70
     1
  0
LTYPE
  5
14
330
5
100
AcDbSymbolTableRecord
100
AcDbLinetypeTableRecord
  2
ByBlock
 70
     0
  3

 72
    65
 73
     0
 40
0.0
  0
LTYPE
  5
15
330
5
100
AcDbSymbolTableRecord
100
AcDbLinetypeTableRecord
  2
ByLayer
 70
     0
  3

 72
    65
 73
     0
 40
0.0
  0
LTYPE
  5
16
330
5
100
AcDbSymbolTableRecord
100
AcDbLinetypeTableRecord
  2
Continuous
 70
     0
  3
Solid line
 72
    65
 73
     0
 40
0.0
  0
ENDTAB
  0
TABLE
  2
LAYER
  5
2
330
0
100
AcDbSymbolTable
 70
     3
  0
LAYER
  5
10
330
2
100
AcDbSymbolTableRecord
100
AcDbLayerTableRecord
  2
0
 70
     0
 62
     7
  6
Continuous
370
    -3
390
F
347
3E
  0
LAYER
  5
40
330
2
100
AcDbSymbolTableRecord
100
AcDbLayerTableRecord
  2
Layer 1
 70
     0
 62
     7
  6
Continuous
370
    -3
390
F
347
3E
  0
LAYER
  5
5B
330
2
100
AcDbSymbolTableRecord
100
AcDbLayerTableRecord
  2
layer 2
 70
     0
 62
     7
  6
Continuous
370
    -3
390
F
347
3E
  0
ENDTAB
  0
TABLE
  2
STYLE
  5
3
330
0
100
AcDbSymbolTable
 70
     1
  0
STYLE
  5
11
330
3
100
AcDbSymbolTableRecord
100
AcDbTextStyleTableRecord
  2
Standard
 70
     0
 40
0.0
 41
1.0
 50
0.0
 71
     0
 42
0.2
  3
txt
  4

  0
ENDTAB
  0
TABLE
  2
VIEW
  5
6
330
0
100
AcDbSymbolTable
 70
     0
  0
ENDTAB
  0
TABLE
  2
UCS
  5
7
330
0
100
AcDbSymbolTable
 70
     0
  0
ENDTAB
  0
TABLE
  2
APPID
  5
9
330
0
100
AcDbSymbolTable
 70
     2
  0
APPID
  5
12
330
9
100
AcDbSymbolTableRecord
100
AcDbRegAppTableRecord
  2
ACAD
 70
     0
  0
APPID
  5
3F
330
9
100
AcDbSymbolTableRecord
100
AcDbRegAppTableRecord
  2
ODA
 70
     0
  0
ENDTAB
  0
TABLE
  2
DIMSTYLE
  5
A
330
0
100
AcDbSymbolTable
 70
     1
100
AcDbDimStyleTable
  0
DIMSTYLE
105
27
330
A
100
AcDbSymbolTableRecord
100
AcDbDimStyleTableRecord
  2
Standard
 70
     0
178
     0
340
11
  0
ENDTAB
  0
TABLE
  2
BLOCK_RECORD
  5
1
330
0
100
AcDbSymbolTable
 70
     1
  0
BLOCK_RECORD
  5
1F
330
1
100
AcDbSymbolTableRecord
100
AcDbBlockTableRecord
  2
*Model_Space
340
22
 70
     0
280
     1
281
     0
  0
BLOCK_RECORD
  5
1B
330
1
100
AcDbSymbolTableRecord
100
AcDbBlockTableRecord
  2
*Paper_Space
340
1E
 70
     0
280
     1
281
     0
  0
BLOCK_RECORD
  5
23
330
1
100
AcDbSymbolTableRecord
100
AcDbBlockTableRecord
  2
*Paper_Space0
340
26
 70
     0
280
     1
281
     0
  0
ENDTAB
  0
ENDSEC
  0
SECTION
  2
BLOCKS
  0
BLOCK
  5
20
330
1F
100
AcDbEntity
  8
0
100
AcDbBlockBegin
  2
*Model_Space
 70
     0
 10
0.0
 20
0.0
 30
0.0
  3
*Model_Space
  1

  0
ENDBLK
  5
21
330
1F
100
AcDbEntity
  8
0
100
AcDbBlockEnd
  0
BLOCK
  5
1C
330
1B
100
AcDbEntity
 67
     1
  8
0
100
AcDbBlockBegin
  2
*Paper_Space
 70
     0
 10
0.0
 20
0.0
 30
0.0
  3
*Paper_Space
  1

  0
ENDBLK
  5
1D
330
1B
100
AcDbEntity
 67
     1
  8
0
100
AcDbBlockEnd
  0
BLOCK
  5
24
330
23
100
AcDbEntity
  8
0
100
AcDbBlockBegin
  2
*Paper_Space0
 70
     0
 10
0.0
 20
0.0
 30
0.0
  3
*Paper_Space0
  1

  0
ENDBLK
  5
25
330
23
100
AcDbEntity
  8
0
100
AcDbBlockEnd
  0
ENDSEC
  0
SECTION
  2
ENTITIES
  0
SPLINE
  5
41
330
1F
100
AcDbEntity
  8
Layer 1
 62
   250
100
AcDbSpline
210
0.0
220
0.0
230
1.0
 70
    11
 71
     3
 72
    92
 73
    88
 74
     0
 42
0.0000000001
 43
0.0000000001
 12
1.0
 22
0.0
 32
0.0
 13
1.0
 23
0.0
 33
0.0
 40
0.0
 40
0.0
 40
0.0
 40
0.0
 40
0.0434782608695652
 40
0.0434782608695652
 40
0.0434782608695652
 40
0.0434782608695652
 40
0.0869565217391304
 40
0.0869565217391304
 40
0.0869565217391304
 40
0.0869565217391304
 40
0.1304347826086956
 40
0.1304347826086956
 40
0.1304347826086956
 40
0.1304347826086956
 40
0.1739130434782609
 40
0.1739130434782609
 40
0.1739130434782609
 40
0.1739130434782609
 40
0.2173913043478261
 40
0.2173913043478261
 40
0.2173913043478261
 40
0.2173913043478261
 40
0.2608695652173913
 40
0.2608695652173913
 40
0.2608695652173913
 40
0.2608695652173913
 40
0.3043478260869565
 40
0.3043478260869565
 40
0.3043478260869565
 40
0.3043478260869565
 40
0.3478260869565217
 40
0.3478260869565217
 40
0.3478260869565217
 40
0.3478260869565217
 40
0.391304347826087
 40
0.391304347826087
 40
0.391304347826087
 40
0.391304347826087
 40
0.4347826086956522
 40
0.4347826086956522
 40
0.4347826086956522
 40
0.4347826086956522
 40
0.4782608695652174
 40
0.4782608695652174
 40
0.4782608695652174
 40
0.4782608695652174
 40
0.5217391304347826
 40
0.5217391304347826
 40
0.5217391304347826
 40
0.5217391304347826
 40
0.5652173913043478
 40
0.5652173913043478
 40
0.5652173913043478
 40
0.5652173913043478
 40
0.6086956521739131
 40
0.6086956521739131
 40
0.6086956521739131
 40
0.6086956521739131
 40
0.6521739130434783
 40
0.6521739130434783
 40
0.6521739130434783
 40
0.6521739130434783
 40
0.6956521739130435
 40
0.6956521739130435
 40
0.6956521739130435
 40
0.6956521739130435
 40
0.7391304347826086
 40
0.7391304347826086
 40
0.7391304347826086
 40
0.7391304347826086
 40
0.782608695652174
 40
0.782608695652174
 40
0.782608695652174
 40
0.782608695652174
 40
0.8260869565217391
 40
0.8260869565217391
 40
0.8260869565217391
 40
0.8260869565217391
 40
0.8695652173913043
 40
0.8695652173913043
 40
0.8695652173913043
 40
0.8695652173913043
 40
0.9130434782608695
 40
0.9130434782608695
 40
0.9130434782608695
 40
0.9130434782608695
 40
1.0
 40
1.0
 40
1.0
 40
1.0
 10
-2.95586
 20
-10.16484
 30
0.0
 10
-2.95586
 20
-10.16484
 30
0.0
 10
-2.95586
 20
-10.23596
 30
0.0
 10
-2.95586
 20
-10.23596
 30
0.0
 10
-2.95586
 20
-10.23596
 30
0.0
 10
-2.95586
 20
-10.23596
 30
0.0
 10
-3.35719
 20
-10.23596
 30
0.0
 10
-3.35719
 20
-10.23596
 30
0.0
 10
-3.35719
 20
-10.23596
 30
0.0
 10
-3.35775
 20
-10.21804
 30
0.0
 10
-3.35479
 20
-10.20082
 30
0.0
 10
-3.34844
 20
-10.18417
 30
0.0
 10
-3.34844
 20
-10.18417
 30
0.0
 10
-3.33814
 20
-10.15694
 30
0.0
 10
-3.32163
 20
-10.12999
 30
0.0
 10
-3.29891
 20
-10.1036
 30
0.0
 10
-3.29891
 20
-10.1036
 30
0.0
 10
-3.27619
 20
-10.07721
 30
0.0
 10
-3.24373
 20
-10.04673
 30
0.0
 10
-3.20154
 20
-10.01216
 30
0.0
 10
-3.20154
 20
-10.01216
 30
0.0
 10
-3.13592
 20
-9.95811
 30
0.0
 10
-3.09133
 20
-9.91535
 30
0.0
 10
-3.06805
 20
-9.88375
 30
0.0
 10
-3.06805
 20
-9.88375
 30
0.0
 10
-3.04462
 20
-9.85214
 30
0.0
 10
-3.03291
 20
-9.82222
 30
0.0
 10
-3.03291
 20
-9.794
 30
0.0
 10
-3.03291
 20
-9.794
 30
0.0
 10
-3.03291
 20
-9.76451
 30
0.0
 10
-3.0435
 20
-9.73967
 30
0.0
 10
-3.06466
 20
-9.71935
 30
0.0
 10
-3.06466
 20
-9.71935
 30
0.0
 10
-3.08583
 20
-9.69917
 30
0.0
 10
-3.11349
 20
-9.68901
 30
0.0
 10
-3.14749
 20
-9.68901
 30
0.0
 10
-3.14749
 20
-9.68901
 30
0.0
 10
-3.18348
 20
-9.68901
 30
0.0
 10
-3.21226
 20
-9.69974
 30
0.0
 10
-3.23385
 20
-9.72118
 30
0.0
 10
-3.23385
 20
-9.72118
 30
0.0
 10
-3.25545
 20
-9.74249
 30
0.0
 10
-3.26631
 20
-9.77213
 30
0.0
 10
-3.26659
 20
-9.81008
 30
0.0
 10
-3.26659
 20
-9.81008
 30
0.0
 10
-3.26659
 20
-9.81008
 30
0.0
 10
-3.34279
 20
-9.80246
 30
0.0
 10
-3.34279
 20
-9.80246
 30
0.0
 10
-3.34279
 20
-9.80246
 30
0.0
 10
-3.33757
 20
-9.74546
 30
0.0
 10
-3.31782
 20
-9.70199
 30
0.0
 10
-3.28367
 20
-9.67208
 30
0.0
 10
-3.28367
 20
-9.67208
 30
0.0
 10
-3.24938
 20
-9.64216
 30
0.0
 10
-3.20352
 20
-9.6272
 30
0.0
 10
-3.1458
 20
-9.6272
 30
0.0
 10
-3.1458
 20
-9.6272
 30
0.0
 10
-3.08766
 20
-9.6272
 30
0.0
 10
-3.04152
 20
-9.64329
 30
0.0
 10
-3.00765
 20
-9.67561
 30
0.0
 10
-3.00765
 20
-9.67561
 30
0.0
 10
-2.97365
 20
-9.70792
 30
0.0
 10
-2.95671
 20
-9.748
 30
0.0
 10
-2.95671
 20
-9.79569
 30
0.0
 10
-2.95671
 20
-9.79569
 30
0.0
 10
-2.95671
 20
-9.81996
 30
0.0
 10
-2.96165
 20
-9.84381
 30
0.0
 10
-2.97167
 20
-9.86724
 30
0.0
 10
-2.97167
 20
-9.86724
 30
0.0
 10
-2.98155
 20
-9.8908
 30
0.0
 10
-2.99806
 20
-9.9155
 30
0.0
 10
-3.02106
 20
-9.94146
 30
0.0
 10
-3.02106
 20
-9.94146
 30
0.0
 10
-3.0442
 20
-9.96728
 30
0.0
 10
-3.08244
 20
-10.00298
 30
0.0
 10
-3.13578
 20
-10.04814
 30
0.0
 10
-3.13578
 20
-10.04814
 30
0.0
 10
-3.18051
 20
-10.08568
 30
0.0
 10
-3.2093
 20
-10.11108
 30
0.0
 10
-3.222
 20
-10.12448
 30
0.0
 10
-3.222
 20
-10.12448
 30
0.0
 10
-3.2347
 20
-10.13789
 30
0.0
 10
-3.24514
 20
-10.15129
 30
0.0
 10
-3.25347
 20
-10.16484
 30
0.0
 10
-3.25347
 20
-10.16484
 30
0.0
 10
-3.25347
 20
-10.16484
 30
0.0
 10
-2.95586
 20
-10.16484
 30
0.0
 10
-2.95586
 20
-10.16484
 30
0.0
  0
SPLINE
  5
42
330
1F
100
AcDbEntity
  8
Layer 1
 62
   250
100
AcDbSpline
210
0.0
220
0.0
230
1.0
 70
    11
 71
     3
 72
    52
 73
    48
 74
     0
 42
0.0000000001
 43
0.0000000001
 12
1.0
 22
0.0
 32
0.0
 13
1.0
 23
0.0
 33
0.0
 40
0.0
 40
0.0
 40
0.0
 40
0.0
 40
0.0769230769230769
 40
0.0769230769230769
 40
0.0769230769230769
 40
0.0769230769230769
 40
0.1538461538461539
 40
0.1538461538461539
 40
0.1538461538461539
 40
0.1538461538461539
 40
0.2307692307692308
 40
0.2307692307692308
 40
0.2307692307692308
 40
0.2307692307692308
 40
0.3076923076923077
 40
0.3076923076923077
 40
0.3076923076923077
 40
0.3076923076923077
 40
0.3846153846153846
 40
0.3846153846153846
 40
0.3846153846153846
 40
0.3846153846153846
 40
0.4615384615384616
 40
0.4615384615384616
 40
0.4615384615384616
 40
0.4615384615384616
 40
0.5384615384615384
 40
0.5384615384615384
 40
0.5384615384615384
 40
0.5384615384615384
 40
0.6153846153846154
 40
0.6153846153846154
 40
0.6153846153846154
 40
0.6153846153846154
 40
0.6923076923076923
 40
0.6923076923076923
 40
0.6923076923076923
 40
0.6923076923076923
 40
0.7692307692307693
 40
0.7692307692307693
 40
0.7692307692307693
 40
0.7692307692307693
 40
0.8461538461538461
 40
0.8461538461538461
 40
0.8461538461538461
 40
0.8461538461538461
 40
1.0
 40
1.0
 40
1.0
 40
1.0
 10
-2.87529
 20
-9.9368
 30
0.0
 10
-2.87529
 20
-9.86526
 30
0.0
 10
-2.86795
 20
-9.8074
 30
0.0
 10
-2.85328
 20
-9.76366
 30
0.0
 10
-2.85328
 20
-9.76366
 30
0.0
 10
-2.83846
 20
-9.71977
 30
0.0
 10
-2.81659
 20
-9.68605
 30
0.0
 10
-2.78752
 20
-9.66248
 30
0.0
 10
-2.78752
 20
-9.66248
 30
0.0
 10
-2.75859
 20
-9.63892
 30
0.0
 10
-2.72204
 20
-9.6272
 30
0.0
 10
-2.67802
 20
-9.6272
 30
0.0
 10
-2.67802
 20
-9.6272
 30
0.0
 10
-2.64556
 20
-9.6272
 30
0.0
 10
-2.61706
 20
-9.6337
 30
0.0
 10
-2.59236
 20
-9.64682
 30
0.0
 10
-2.59236
 20
-9.64682
 30
0.0
 10
-2.56781
 20
-9.65994
 30
0.0
 10
-2.54749
 20
-9.67885
 30
0.0
 10
-2.53168
 20
-9.70355
 30
0.0
 10
-2.53168
 20
-9.70355
 30
0.0
 10
-2.51588
 20
-9.7281
 30
0.0
 10
-2.50346
 20
-9.75816
 30
0.0
 10
-2.49443
 20
-9.79357
 30
0.0
 10
-2.49443
 20
-9.79357
 30
0.0
 10
-2.48526
 20
-9.82899
 30
0.0
 10
-2.48074
 20
-9.87683
 30
0.0
 10
-2.48074
 20
-9.9368
 30
0.0
 10
-2.48074
 20
-9.9368
 30
0.0
 10
-2.48074
 20
-10.00792
 30
0.0
 10
-2.48808
 20
-10.0655
 30
0.0
 10
-2.50261
 20
-10.10924
 30
0.0
 10
-2.50261
 20
-10.10924
 30
0.0
 10
-2.51715
 20
-10.15313
 30
0.0
 10
-2.53902
 20
-10.18685
 30
0.0
 10
-2.56809
 20
-10.21056
 30
0.0
 10
-2.56809
 20
-10.21056
 30
0.0
 10
-2.59702
 20
-10.23427
 30
0.0
 10
-2.63371
 20
-10.24612
 30
0.0
 10
-2.67802
 20
-10.24612
 30
0.0
 10
-2.67802
 20
-10.24612
 30
0.0
 10
-2.73629
 20
-10.24612
 30
0.0
 10
-2.78216
 20
-10.22538
 30
0.0
 10
-2.81546
 20
-10.18375
 30
0.0
 10
-2.81546
 20
-10.18375
 30
0.0
 10
-2.85539
 20
-10.13295
 30
0.0
 10
-2.87529
 20
-10.05068
 30
0.0
 10
-2.87529
 20
-9.9368
 30
0.0
  0
SPLINE
  5
43
330
1F
100
AcDbEntity
  8
Layer 1
 62
   250
100
AcDbSpline
210
0.0
220
0.0
230
1.0
 70
    11
 71
     3
 72
    36
 73
    32
 74
     0
 42
0.0000000001
 43
0.0000000001
 12
1.0
 22
0.0
 32
0.0
 13
1.0
 23
0.0
 33
0.0
 40
0.0
 40
0.0
 40
0.0
 40
0.0
 40
0.1111111111111111
 40
0.1111111111111111
 40
0.1111111111111111
 40
0.1111111111111111
 40
0.2222222222222222
 40
0.2222222222222222
 40
0.2222222222222222
 40
0.2222222222222222
 40
0.3333333333333333
 40
0.3333333333333333
 40
0.3333333333333333
 40
0.3333333333333333
 40
0.4444444444444444
 40
0.4444444444444444
 40
0.4444444444444444
 40
0.4444444444444444
 40
0.5555555555555556
 40
0.5555555555555556
 40
0.5555555555555556
 40
0.5555555555555556
 40
0.6666666666666666
 40
0.6666666666666666
 40
0.6666666666666666
 40
0.6666666666666666
 40
0.7777777777777778
 40
0.7777777777777778
 40
0.7777777777777778
 40
0.7777777777777778
 40
1.0
 40
1.0
 40
1.0
 40
1.0
 10
-2.79909
 20
-9.93709
 30
0.0
 10
-2.79909
 20
-10.03685
 30
0.0
 10
-2.78752
 20
-10.10317
 30
0.0
 10
-2.76423
 20
-10.13591
 30
0.0
 10
-2.76423
 20
-10.13591
 30
0.0
 10
-2.74095
 20
-10.16879
 30
0.0
 10
-2.71216
 20
-10.18516
 30
0.0
 10
-2.67802
 20
-10.18516
 30
0.0
 10
-2.67802
 20
-10.18516
 30
0.0
 10
-2.64387
 20
-10.18516
 30
0.0
 10
-2.61508
 20
-10.16865
 30
0.0
 10
-2.5918
 20
-10.13577
 30
0.0
 10
-2.5918
 20
-10.13577
 30
0.0
 10
-2.56851
 20
-10.10275
 30
0.0
 10
-2.55694
 20
-10.03657
 30
0.0
 10
-2.55694
 20
-9.93709
 30
0.0
 10
-2.55694
 20
-9.93709
 30
0.0
 10
-2.55694
 20
-9.83732
 30
0.0
 10
-2.56851
 20
-9.771
 30
0.0
 10
-2.5918
 20
-9.73826
 30
0.0
 10
-2.5918
 20
-9.73826
 30
0.0
 10
-2.61494
 20
-9.70538
 30
0.0
 10
-2.64401
 20
-9.68901
 30
0.0
 10
-2.67886
 20
-9.68901
 30
0.0
 10
-2.67886
 20
-9.68901
 30
0.0
 10
-2.71301
 20
-9.68901
 30
0.0
 10
-2.74039
 20
-9.70355
 30
0.0
 10
-2.76085
 20
-9.73247
 30
0.0
 10
-2.76085
 20
-9.73247
 30
0.0
 10
-2.78639
 20
-9.7693
 30
0.0
 10
-2.79909
 20
-9.8376
 30
0.0
 10
-2.79909
 20
-9.93709
 30
0.0
  0
SPLINE
  5
44
330
1F
100
AcDbEntity
  8
Layer 1
 62
   250
100
AcDbSpline
210
0.0
220
0.0
230
1.0
 70
    11
 71
     3
 72
    40
 73
    36
 74
     0
 42
0.0000000001
 43
0.0000000001
 12
1.0
 22
0.0
 32
0.0
 13
1.0
 23
0.0
 33
0.0
 40
0.0
 40
0.0
 40
0.0
 40
0.0
 40
0.1
 40
0.1
 40
0.1
 40
0.1
 40
0.2
 40
0.2
 40
0.2
 40
0.2
 40
0.3
 40
0.3
 40
0.3
 40
0.3
 40
0.4
 40
0.4
 40
0.4
 40
0.4
 40
0.5
 40
0.5
 40
0.5
 40
0.5
 40
0.6
 40
0.6
 40
0.6
 40
0.6
 40
0.7
 40
0.7
 40
0.7
 40
0.7
 40
0.8
 40
0.8
 40
0.8
 40
0.8
 40
1.0
 40
1.0
 40
1.0
 40
1.0
 10
-2.125
 20
-10.23596
 30
0.0
 10
-2.125
 20
-10.23596
 30
0.0
 10
-2.19951
 20
-10.23596
 30
0.0
 10
-2.19951
 20
-10.23596
 30
0.0
 10
-2.19951
 20
-10.23596
 30
0.0
 10
-2.19951
 20
-10.23596
 30
0.0
 10
-2.19951
 20
-9.76154
 30
0.0
 10
-2.19951
 20
-9.76154
 30
0.0
 10
-2.19951
 20
-9.76154
 30
0.0
 10
-2.21743
 20
-9.77876
 30
0.0
 10
-2.24099
 20
-9.79583
 30
0.0
 10
-2.27006
 20
-9.81291
 30
0.0
 10
-2.27006
 20
-9.81291
 30
0.0
 10
-2.29913
 20
-9.82998
 30
0.0
 10
-2.32538
 20
-9.84282
 30
0.0
 10
-2.34852
 20
-9.85129
 30
0.0
 10
-2.34852
 20
-9.85129
 30
0.0
 10
-2.34852
 20
-9.85129
 30
0.0
 10
-2.34852
 20
-9.77932
 30
0.0
 10
-2.34852
 20
-9.77932
 30
0.0
 10
-2.34852
 20
-9.77932
 30
0.0
 10
-2.30689
 20
-9.75985
 30
0.0
 10
-2.27048
 20
-9.73614
 30
0.0
 10
-2.2393
 20
-9.7082
 30
0.0
 10
-2.2393
 20
-9.7082
 30
0.0
 10
-2.20811
 20
-9.6804
 30
0.0
 10
-2.18596
 20
-9.65345
 30
0.0
 10
-2.17298
 20
-9.6272
 30
0.0
 10
-2.17298
 20
-9.6272
 30
0.0
 10
-2.17298
 20
-9.6272
 30
0.0
 10
-2.125
 20
-9.6272
 30
0.0
 10
-2.125
 20
-9.6272
 30
0.0
 10
-2.125
 20
-9.6272
 30
0.0
 10
-2.125
 20
-9.6272
 30
0.0
 10
-2.125
 20
-10.23596
 30
0.0
 10
-2.125
 20
-10.23596
 30
0.0
  0
SPLINE
  5
45
330
1F
100
AcDbEntity
  8
Layer 1
 62
   250
100
AcDbSpline
210
0.0
220
0.0
230
1.0
 70
    11
 71
     3
 72
    48
 73
    44
 74
     0
 42
0.0000000001
 43
0.0000000001
 12
1.0
 22
0.0
 32
0.0
 13
1.0
 23
0.0
 33
0.0
 40
0.0
 40
0.0
 40
0.0
 40
0.0
 40
0.0833333333333333
 40
0.0833333333333333
 40
0.0833333333333333
 40
0.0833333333333333
 40
0.1666666666666667
 40
0.1666666666666667
 40
0.1666666666666667
 40
0.1666666666666667
 40
0.25
 40
0.25
 40
0.25
 40
0.25
 40
0.3333333333333333
 40
0.3333333333333333
 40
0.3333333333333333
 40
0.3333333333333333
 40
0.4166666666666667
 40
0.4166666666666667
 40
0.4166666666666667
 40
0.4166666666666667
 40
0.5
 40
0.5
 40
0.5
 40
0.5
 40
0.5833333333333334
 40
0.5833333333333334
 40
0.5833333333333334
 40
0.5833333333333334
 40
0.6666666666666666
 40
0.6666666666666666
 40
0.6666666666666666
 40
0.6666666666666666
 40
0.75
 40
0.75
 40
0.75
 40
0.75
 40
0.8333333333333334
 40
0.8333333333333334
 40
0.8333333333333334
 40
0.8333333333333334
 40
1.0
 40
1.0
 40
1.0
 40
1.0
 10
-1.92928
 20
-9.70848
 30
0.0
 10
-1.92928
 20
-9.70848
 30
0.0
 10
-1.92928
 20
-9.63736
 30
0.0
 10
-1.92928
 20
-9.63736
 30
0.0
 10
-1.92928
 20
-9.63736
 30
0.0
 10
-1.92928
 20
-9.63736
 30
0.0
 10
-1.53727
 20
-9.63736
 30
0.0
 10
-1.53727
 20
-9.63736
 30
0.0
 10
-1.53727
 20
-9.63736
 30
0.0
 10
-1.53727
 20
-9.63736
 30
0.0
 10
-1.53727
 20
-9.69494
 30
0.0
 10
-1.53727
 20
-9.69494
 30
0.0
 10
-1.53727
 20
-9.69494
 30
0.0
 10
-1.57579
 20
-9.736
 30
0.0
 10
-1.61417
 20
-9.79061
 30
0.0
 10
-1.65199
 20
-9.85877
 30
0.0
 10
-1.65199
 20
-9.85877
 30
0.0
 10
-1.68995
 20
-9.92693
 30
0.0
 10
-1.71916
 20
-9.99706
 30
0.0
 10
-1.7399
 20
-10.06917
 30
0.0
 10
-1.7399
 20
-10.06917
 30
0.0
 10
-1.75472
 20
-10.11983
 30
0.0
 10
-1.76432
 20
-10.17556
 30
0.0
 10
-1.76841
 20
-10.23596
 30
0.0
 10
-1.76841
 20
-10.23596
 30
0.0
 10
-1.76841
 20
-10.23596
 30
0.0
 10
-1.84461
 20
-10.23596
 30
0.0
 10
-1.84461
 20
-10.23596
 30
0.0
 10
-1.84461
 20
-10.23596
 30
0.0
 10
-1.84376
 20
-10.18826
 30
0.0
 10
-1.83445
 20
-10.13055
 30
0.0
 10
-1.81653
 20
-10.06296
 30
0.0
 10
-1.81653
 20
-10.06296
 30
0.0
 10
-1.79861
 20
-9.99522
 30
0.0
 10
-1.77307
 20
-9.93003
 30
0.0
 10
-1.73962
 20
-9.86724
 30
0.0
 10
-1.73962
 20
-9.86724
 30
0.0
 10
-1.70618
 20
-9.80444
 30
0.0
 10
-1.67062
 20
-9.75152
 30
0.0
 10
-1.63294
 20
-9.70848
 30
0.0
 10
-1.63294
 20
-9.70848
 30
0.0
 10
-1.63294
 20
-9.70848
 30
0.0
 10
-1.92928
 20
-9.70848
 30
0.0
 10
-1.92928
 20
-9.70848
 30
0.0
  0
SPLINE
  5
46
330
1F
100
AcDbEntity
  8
Layer 1
 62
   250
100
AcDbSpline
210
0.0
220
0.0
230
1.0
 70
    11
 71
     3
 72
    40
 73
    36
 74
     0
 42
0.0000000001
 43
0.0000000001
 12
1.0
 22
0.0
 32
0.0
 13
1.0
 23
0.0
 33
0.0
 40
0.0
 40
0.0
 40
0.0
 40
0.0
 40
0.1
 40
0.1
 40
0.1
 40
0.1
 40
0.2
 40
0.2
 40
0.2
 40
0.2
 40
0.3
 40
0.3
 40
0.3
 40
0.3
 40
0.4
 40
0.4
 40
0.4
 40
0.4
 40
0.5
 40
0.5
 40
0.5
 40
0.5
 40
0.6
 40
0.6
 40
0.6
 40
0.6
 40
0.7
 40
0.7
 40
0.7
 40
0.7
 40
0.8
 40
0.8
 40
0.8
 40
0.8
 40
1.0
 40
1.0
 40
1.0
 40
1.0
 10
-1.18322
 20
-10.23596
 30
0.0
 10
-1.18322
 20
-10.23596
 30
0.0
 10
-1.25773
 20
-10.23596
 30
0.0
 10
-1.25773
 20
-10.23596
 30
0.0
 10
-1.25773
 20
-10.23596
 30
0.0
 10
-1.25773
 20
-10.23596
 30
0.0
 10
-1.25773
 20
-9.76154
 30
0.0
 10
-1.25773
 20
-9.76154
 30
0.0
 10
-1.25773
 20
-9.76154
 30
0.0
 10
-1.27565
 20
-9.77876
 30
0.0
 10
-1.29921
 20
-9.79583
 30
0.0
 10
-1.32828
 20
-9.81291
 30
0.0
 10
-1.32828
 20
-9.81291
 30
0.0
 10
-1.35735
 20
-9.82998
 30
0.0
 10
-1.3836
 20
-9.84282
 30
0.0
 10
-1.40674
 20
-9.85129
 30
0.0
 10
-1.40674
 20
-9.85129
 30
0.0
 10
-1.40674
 20
-9.85129
 30
0.0
 10
-1.40674
 20
-9.77932
 30
0.0
 10
-1.40674
 20
-9.77932
 30
0.0
 10
-1.40674
 20
-9.77932
 30
0.0
 10
-1.36511
 20
-9.75985
 30
0.0
 10
-1.3287
 20
-9.73614
 30
0.0
 10
-1.29752
 20
-9.7082
 30
0.0
 10
-1.29752
 20
-9.7082
 30
0.0
 10
-1.26633
 20
-9.6804
 30
0.0
 10
-1.24418
 20
-9.65345
 30
0.0
 10
-1.2312
 20
-9.6272
 30
0.0
 10
-1.2312
 20
-9.6272
 30
0.0
 10
-1.2312
 20
-9.6272
 30
0.0
 10
-1.18322
 20
-9.6272
 30
0.0
 10
-1.18322
 20
-9.6272
 30
0.0
 10
-1.18322
 20
-9.6272
 30
0.0
 10
-1.18322
 20
-9.6272
 30
0.0
 10
-1.18322
 20
-10.23596
 30
0.0
 10
-1.18322
 20
-10.23596
 30
0.0
  0
SPLINE
  5
47
330
1F
100
AcDbEntity
  8
Layer 1
 62
   250
100
AcDbSpline
210
0.0
220
0.0
230
1.0
 70
    11
 71
     3
 72
   124
 73
   120
 74
     0
 42
0.0000000001
 43
0.0000000001
 12
1.0
 22
0.0
 32
0.0
 13
1.0
 23
0.0
 33
0.0
 40
0.0
 40
0.0
 40
0.0
 40
0.0
 40
0.032258064516129
 40
0.032258064516129
 40
0.032258064516129
 40
0.032258064516129
 40
0.0645161290322581
 40
0.0645161290322581
 40
0.0645161290322581
 40
0.0645161290322581
 40
0.0967741935483871
 40
0.0967741935483871
 40
0.0967741935483871
 40
0.0967741935483871
 40
0.1290322580645161
 40
0.1290322580645161
 40
0.1290322580645161
 40
0.1290322580645161
 40
0.1612903225806452
 40
0.1612903225806452
 40
0.1612903225806452
 40
0.1612903225806452
 40
0.1935483870967742
 40
0.1935483870967742
 40
0.1935483870967742
 40
0.1935483870967742
 40
0.2258064516129032
 40
0.2258064516129032
 40
0.2258064516129032
 40
0.2258064516129032
 40
0.2580645161290323
 40
0.2580645161290323
 40
0.2580645161290323
 40
0.2580645161290323
 40
0.2903225806451613
 40
0.2903225806451613
 40
0.2903225806451613
 40
0.2903225806451613
 40
0.3225806451612903
 40
0.3225806451612903
 40
0.3225806451612903
 40
0.3225806451612903
 40
0.3548387096774194
 40
0.3548387096774194
 40
0.3548387096774194
 40
0.3548387096774194
 40
0.3870967741935484
 40
0.3870967741935484
 40
0.3870967741935484
 40
0.3870967741935484
 40
0.4193548387096774
 40
0.4193548387096774
 40
0.4193548387096774
 40
0.4193548387096774
 40
0.4516129032258064
 40
0.4516129032258064
 40
0.4516129032258064
 40
0.4516129032258064
 40
0.4838709677419355
 40
0.4838709677419355
 40
0.4838709677419355
 40
0.4838709677419355
 40
0.5161290322580645
 40
0.5161290322580645
 40
0.5161290322580645
 40
0.5161290322580645
 40
0.5483870967741935
 40
0.5483870967741935
 40
0.5483870967741935
 40
0.5483870967741935
 40
0.5806451612903226
 40
0.5806451612903226
 40
0.5806451612903226
 40
0.5806451612903226
 40
0.6129032258064516
 40
0.6129032258064516
 40
0.6129032258064516
 40
0.6129032258064516
 40
0.6451612903225806
 40
0.6451612903225806
 40
0.6451612903225806
 40
0.6451612903225806
 40
0.6774193548387096
 40
0.6774193548387096
 40
0.6774193548387096
 40
0.6774193548387096
 40
0.7096774193548387
 40
0.7096774193548387
 40
0.7096774193548387
 40
0.7096774193548387
 40
0.7419354838709677
 40
0.7419354838709677
 40
0.7419354838709677
 40
0.7419354838709677
 40
0.7741935483870968
 40
0.7741935483870968
 40
0.7741935483870968
 40
0.7741935483870968
 40
0.8064516129032258
 40
0.8064516129032258
 40
0.8064516129032258
 40
0.8064516129032258
 40
0.8387096774193549
 40
0.8387096774193549
 40
0.8387096774193549
 40
0.8387096774193549
 40
0.8709677419354839
 40
0.8709677419354839
 40
0.8709677419354839
 40
0.8709677419354839
 40
0.9032258064516129
 40
0.9032258064516129
 40
0.9032258064516129
 40
0.9032258064516129
 40
0.9354838709677419
 40
0.9354838709677419
 40
0.9354838709677419
 40
0.9354838709677419
 40
1.0
 40
1.0
 40
1.0
 40
1.0
 10
-0.99173
 20
-10.07509
 30
0.0
 10
-0.99173
 20
-10.07509
 30
0.0
 10
-0.91722
 20
-10.06493
 30
0.0
 10
-0.91722
 20
-10.06493
 30
0.0
 10
-0.91722
 20
-10.06493
 30
0.0
 10
-0.90862
 20
-10.10727
 30
0.0
 10
-0.89422
 20
-10.13775
 30
0.0
 10
-0.87376
 20
-10.15637
 30
0.0
 10
-0.87376
 20
-10.15637
 30
0.0
 10
-0.8533
 20
-10.175
 30
0.0
 10
-0.82818
 20
-10.18431
 30
0.0
 10
-0.79841
 20
-10.18431
 30
0.0
 10
-0.79841
 20
-10.18431
 30
0.0
 10
-0.76313
 20
-10.18431
 30
0.0
 10
-0.73335
 20
-10.17218
 30
0.0
 10
-0.70937
 20
-10.14791
 30
0.0
 10
-0.70937
 20
-10.14791
 30
0.0
 10
-0.68538
 20
-10.12364
 30
0.0
 10
-0.67338
 20
-10.09358
 30
0.0
 10
-0.67338
 20
-10.05774
 30
0.0
 10
-0.67338
 20
-10.05774
 30
0.0
 10
-0.67338
 20
-10.02359
 30
0.0
 10
-0.68453
 20
-9.99536
 30
0.0
 10
-0.70697
 20
-9.97307
 30
0.0
 10
-0.70697
 20
-9.97307
 30
0.0
 10
-0.72926
 20
-9.95091
 30
0.0
 10
-0.75763
 20
-9.93977
 30
0.0
 10
-0.7922
 20
-9.93977
 30
0.0
 10
-0.7922
 20
-9.93977
 30
0.0
 10
-0.80631
 20
-9.93977
 30
0.0
 10
-0.82381
 20
-9.94259
 30
0.0
 10
-0.84483
 20
-9.94809
 30
0.0
 10
-0.84483
 20
-9.94809
 30
0.0
 10
-0.84483
 20
-9.94809
 30
0.0
 10
-0.83651
 20
-9.8829
 30
0.0
 10
-0.83651
 20
-9.8829
 30
0.0
 10
-0.83651
 20
-9.8829
 30
0.0
 10
-0.83157
 20
-9.88346
 30
0.0
 10
-0.82748
 20
-9.88375
 30
0.0
 10
-0.82451
 20
-9.88375
 30
0.0
 10
-0.82451
 20
-9.88375
 30
0.0
 10
-0.79262
 20
-9.88375
 30
0.0
 10
-0.76412
 20
-9.87542
 30
0.0
 10
-0.73858
 20
-9.85891
 30
0.0
 10
-0.73858
 20
-9.85891
 30
0.0
 10
-0.71318
 20
-9.8424
 30
0.0
 10
-0.70048
 20
-9.817
 30
0.0
 10
-0.70048
 20
-9.78271
 30
0.0
 10
-0.70048
 20
-9.78271
 30
0.0
 10
-0.70048
 20
-9.75547
 30
0.0
 10
-0.70979
 20
-9.7329
 30
0.0
 10
-0.72827
 20
-9.71498
 30
0.0
 10
-0.72827
 20
-9.71498
 30
0.0
 10
-0.74676
 20
-9.69705
 30
0.0
 10
-0.77061
 20
-9.68816
 30
0.0
 10
-0.79982
 20
-9.68816
 30
0.0
 10
-0.79982
 20
-9.68816
 30
0.0
 10
-0.82889
 20
-9.68816
 30
0.0
 10
-0.85302
 20
-9.69734
 30
0.0
 10
-0.87235
 20
-9.71568
 30
0.0
 10
-0.87235
 20
-9.71568
 30
0.0
 10
-0.89168
 20
-9.73403
 30
0.0
 10
-0.9041
 20
-9.76154
 30
0.0
 10
-0.9096
 20
-9.79823
 30
0.0
 10
-0.9096
 20
-9.79823
 30
0.0
 10
-0.9096
 20
-9.79823
 30
0.0
 10
-0.98411
 20
-9.78468
 30
0.0
 10
-0.98411
 20
-9.78468
 30
0.0
 10
-0.98411
 20
-9.78468
 30
0.0
 10
-0.97494
 20
-9.73473
 30
0.0
 10
-0.95434
 20
-9.69593
 30
0.0
 10
-0.92202
 20
-9.66841
 30
0.0
 10
-0.92202
 20
-9.66841
 30
0.0
 10
-0.88985
 20
-9.64089
 30
0.0
 10
-0.84963
 20
-9.6272
 30
0.0
 10
-0.80165
 20
-9.6272
 30
0.0
 10
-0.80165
 20
-9.6272
 30
0.0
 10
-0.76863
 20
-9.6272
 30
0.0
 10
-0.73815
 20
-9.63426
 30
0.0
 10
-0.71035
 20
-9.64851
 30
0.0
 10
-0.71035
 20
-9.64851
 30
0.0
 10
-0.68241
 20
-9.66262
 30
0.0
 10
-0.66111
 20
-9.68196
 30
0.0
 10
-0.64643
 20
-9.70637
 30
0.0
 10
-0.64643
 20
-9.70637
 30
0.0
 10
-0.63161
 20
-9.73092
 30
0.0
 10
-0.62428
 20
-9.75689
 30
0.0
 10
-0.62428
 20
-9.7844
 30
0.0
 10
-0.62428
 20
-9.7844
 30
0.0
 10
-0.62428
 20
-9.81051
 30
0.0
 10
-0.63133
 20
-9.83422
 30
0.0
 10
-0.6453
 20
-9.85566
 30
0.0
 10
-0.6453
 20
-9.85566
 30
0.0
 10
-0.65941
 20
-9.87711
 30
0.0
 10
-0.6803
 20
-9.89419
 30
0.0
 10
-0.70781
 20
-9.90689
 30
0.0
 10
-0.70781
 20
-9.90689
 30
0.0
 10
-0.67197
 20
-9.91507
 30
0.0
 10
-0.64417
 20
-9.93229
 30
0.0
 10
-0.62428
 20
-9.95839
 30
0.0
 10
-0.62428
 20
-9.95839
 30
0.0
 10
-0.60452
 20
-9.98436
 30
0.0
 10
-0.59464
 20
-10.0171
 30
0.0
 10
-0.59464
 20
-10.05618
 30
0.0
 10
-0.59464
 20
-10.05618
 30
0.0
 10
-0.59464
 20
-10.1091
 30
0.0
 10
-0.61397
 20
-10.15412
 30
0.0
 10
-0.6525
 20
-10.19095
 30
0.0
 10
-0.6525
 20
-10.19095
 30
0.0
 10
-0.69116
 20
-10.22778
 30
0.0
 10
-0.73999
 20
-10.24612
 30
0.0
 10
-0.79897
 20
-10.24612
 30
0.0
 10
-0.79897
 20
-10.24612
 30
0.0
 10
-0.85217
 20
-10.24612
 30
0.0
 10
-0.89634
 20
-10.23017
 30
0.0
 10
-0.93148
 20
-10.19842
 30
0.0
 10
-0.93148
 20
-10.19842
 30
0.0
 10
-0.96675
 20
-10.16667
 30
0.0
 10
-0.98679
 20
-10.12561
 30
0.0
 10
-0.99173
 20
-10.07509
 30
0.0
  0
SPLINE
  5
48
330
1F
100
AcDbEntity
  8
Layer 1
 62
   250
100
AcDbSpline
210
0.0
220
0.0
230
1.0
 70
    11
 71
     3
 72
    36
 73
    32
 74
     0
 42
0.0000000001
 43
0.0000000001
 12
1.0
 22
0.0
 32
0.0
 13
1.0
 23
0.0
 33
0.0
 40
0.0
 40
0.0
 40
0.0
 40
0.0
 40
0.1111111111111111
 40
0.1111111111111111
 40
0.1111111111111111
 40
0.1111111111111111
 40
0.2222222222222222
 40
0.2222222222222222
 40
0.2222222222222222
 40
0.2222222222222222
 40
0.3333333333333333
 40
0.3333333333333333
 40
0.3333333333333333
 40
0.3333333333333333
 40
0.4444444444444444
 40
0.4444444444444444
 40
0.4444444444444444
 40
0.4444444444444444
 40
0.5555555555555556
 40
0.5555555555555556
 40
0.5555555555555556
 40
0.5555555555555556
 40
0.6666666666666666
 40
0.6666666666666666
 40
0.6666666666666666
 40
0.6666666666666666
 40
0.7777777777777778
 40
0.7777777777777778
 40
0.7777777777777778
 40
0.7777777777777778
 40
1.0
 40
1.0
 40
1.0
 40
1.0
 10
-0.11712
 20
-10.23596
 30
0.0
 10
-0.11712
 20
-10.23596
 30
0.0
 10
-0.11712
 20
-9.70086
 30
0.0
 10
-0.11712
 20
-9.70086
 30
0.0
 10
-0.11712
 20
-9.70086
 30
0.0
 10
-0.11712
 20
-9.70086
 30
0.0
 10
-0.31694
 20
-9.70086
 30
0.0
 10
-0.31694
 20
-9.70086
 30
0.0
 10
-0.31694
 20
-9.70086
 30
0.0
 10
-0.31694
 20
-9.70086
 30
0.0
 10
-0.31694
 20
-9.62974
 30
0.0
 10
-0.31694
 20
-9.62974
 30
0.0
 10
-0.31694
 20
-9.62974
 30
0.0
 10
-0.31694
 20
-9.62974
 30
0.0
 10
0.16313
 20
-9.62974
 30
0.0
 10
0.16313
 20
-9.62974
 30
0.0
 10
0.16313
 20
-9.62974
 30
0.0
 10
0.16313
 20
-9.62974
 30
0.0
 10
0.16313
 20
-9.70086
 30
0.0
 10
0.16313
 20
-9.70086
 30
0.0
 10
0.16313
 20
-9.70086
 30
0.0
 10
0.16313
 20
-9.70086
 30
0.0
 10
-0.03669
 20
-9.70086
 30
0.0
 10
-0.03669
 20
-9.70086
 30
0.0
 10
-0.03669
 20
-9.70086
 30
0.0
 10
-0.03669
 20
-9.70086
 30
0.0
 10
-0.03669
 20
-10.23596
 30
0.0
 10
-0.03669
 20
-10.23596
 30
0.0
 10
-0.03669
 20
-10.23596
 30
0.0
 10
-0.03669
 20
-10.23596
 30
0.0
 10
-0.11712
 20
-10.23596
 30
0.0
 10
-0.11712
 20
-10.23596
 30
0.0
  0
SPLINE
  5
49
330
1F
100
AcDbEntity
  8
Layer 1
 62
   250
100
AcDbSpline
210
0.0
220
0.0
230
1.0
 70
    11
 71
     3
 72
    52
 73
    48
 74
     0
 42
0.0000000001
 43
0.0000000001
 12
1.0
 22
0.0
 32
0.0
 13
1.0
 23
0.0
 33
0.0
 40
0.0
 40
0.0
 40
0.0
 40
0.0
 40
0.0769230769230769
 40
0.0769230769230769
 40
0.0769230769230769
 40
0.0769230769230769
 40
0.1538461538461539
 40
0.1538461538461539
 40
0.1538461538461539
 40
0.1538461538461539
 40
0.2307692307692308
 40
0.2307692307692308
 40
0.2307692307692308
 40
0.2307692307692308
 40
0.3076923076923077
 40
0.3076923076923077
 40
0.3076923076923077
 40
0.3076923076923077
 40
0.3846153846153846
 40
0.3846153846153846
 40
0.3846153846153846
 40
0.3846153846153846
 40
0.4615384615384616
 40
0.4615384615384616
 40
0.4615384615384616
 40
0.4615384615384616
 40
0.5384615384615384
 40
0.5384615384615384
 40
0.5384615384615384
 40
0.5384615384615384
 40
0.6153846153846154
 40
0.6153846153846154
 40
0.6153846153846154
 40
0.6153846153846154
 40
0.6923076923076923
 40
0.6923076923076923
 40
0.6923076923076923
 40
0.6923076923076923
 40
0.7692307692307693
 40
0.7692307692307693
 40
0.7692307692307693
 40
0.7692307692307693
 40
0.8461538461538461
 40
0.8461538461538461
 40
0.8461538461538461
 40
0.8461538461538461
 40
1.0
 40
1.0
 40
1.0
 40
1.0
 10
0.24765
 20
-10.23596
 30
0.0
 10
0.24765
 20
-10.23596
 30
0.0
 10
0.24765
 20
-9.62974
 30
0.0
 10
0.24765
 20
-9.62974
 30
0.0
 10
0.24765
 20
-9.62974
 30
0.0
 10
0.24765
 20
-9.62974
 30
0.0
 10
0.68538
 20
-9.62974
 30
0.0
 10
0.68538
 20
-9.62974
 30
0.0
 10
0.68538
 20
-9.62974
 30
0.0
 10
0.68538
 20
-9.62974
 30
0.0
 10
0.68538
 20
-9.70086
 30
0.0
 10
0.68538
 20
-9.70086
 30
0.0
 10
0.68538
 20
-9.70086
 30
0.0
 10
0.68538
 20
-9.70086
 30
0.0
 10
0.32808
 20
-9.70086
 30
0.0
 10
0.32808
 20
-9.70086
 30
0.0
 10
0.32808
 20
-9.70086
 30
0.0
 10
0.32808
 20
-9.70086
 30
0.0
 10
0.32808
 20
-9.88713
 30
0.0
 10
0.32808
 20
-9.88713
 30
0.0
 10
0.32808
 20
-9.88713
 30
0.0
 10
0.32808
 20
-9.88713
 30
0.0
 10
0.66252
 20
-9.88713
 30
0.0
 10
0.66252
 20
-9.88713
 30
0.0
 10
0.66252
 20
-9.88713
 30
0.0
 10
0.66252
 20
-9.88713
 30
0.0
 10
0.66252
 20
-9.95825
 30
0.0
 10
0.66252
 20
-9.95825
 30
0.0
 10
0.66252
 20
-9.95825
 30
0.0
 10
0.66252
 20
-9.95825
 30
0.0
 10
0.32808
 20
-9.95825
 30
0.0
 10
0.32808
 20
-9.95825
 30
0.0
 10
0.32808
 20
-9.95825
 30
0.0
 10
0.32808
 20
-9.95825
 30
0.0
 10
0.32808
 20
-10.16484
 30
0.0
 10
0.32808
 20
-10.16484
 30
0.0
 10
0.32808
 20
-10.16484
 30
0.0
 10
0.32808
 20
-10.16484
 30
0.0
 10
0.69977
 20
-10.16484
 30
0.0
 10
0.69977
 20
-10.16484
 30
0.0
 10
0.69977
 20
-10.16484
 30
0.0
 10
0.69977
 20
-10.16484
 30
0.0
 10
0.69977
 20
-10.23596
 30
0.0
 10
0.69977
 20
-10.23596
 30
0.0
 10
0.69977
 20
-10.23596
 30
0.0
 10
0.69977
 20
-10.23596
 30
0.0
 10
0.24765
 20
-10.23596
 30
0.0
 10
0.24765
 20
-10.23596
 30
0.0
  0
SPLINE
  5
4A
330
1F
100
AcDbEntity
  8
Layer 1
 62
   250
100
AcDbSpline
210
0.0
220
0.0
230
1.0
 70
    11
 71
     3
 72
    64
 73
    60
 74
     0
 42
0.0000000001
 43
0.0000000001
 12
1.0
 22
0.0
 32
0.0
 13
1.0
 23
0.0
 33
0.0
 40
0.0
 40
0.0
 40
0.0
 40
0.0
 40
0.0625
 40
0.0625
 40
0.0625
 40
0.0625
 40
0.125
 40
0.125
 40
0.125
 40
0.125
 40
0.1875
 40
0.1875
 40
0.1875
 40
0.1875
 40
0.25
 40
0.25
 40
0.25
 40
0.25
 40
0.3125
 40
0.3125
 40
0.3125
 40
0.3125
 40
0.375
 40
0.375
 40
0.375
 40
0.375
 40
0.4375
 40
0.4375
 40
0.4375
 40
0.4375
 40
0.5
 40
0.5
 40
0.5
 40
0.5
 40
0.5625
 40
0.5625
 40
0.5625
 40
0.5625
 40
0.625
 40
0.625
 40
0.625
 40
0.625
 40
0.6875
 40
0.6875
 40
0.6875
 40
0.6875
 40
0.75
 40
0.75
 40
0.75
 40
0.75
 40
0.8125
 40
0.8125
 40
0.8125
 40
0.8125
 40
0.875
 40
0.875
 40
0.875
 40
0.875
 40
1.0
 40
1.0
 40
1.0
 40
1.0
 10
0.80899
 20
-10.23596
 30
0.0
 10
0.80899
 20
-10.23596
 30
0.0
 10
0.80899
 20
-9.62974
 30
0.0
 10
0.80899
 20
-9.62974
 30
0.0
 10
0.80899
 20
-9.62974
 30
0.0
 10
0.80899
 20
-9.62974
 30
0.0
 10
0.92922
 20
-9.62974
 30
0.0
 10
0.92922
 20
-9.62974
 30
0.0
 10
0.92922
 20
-9.62974
 30
0.0
 10
0.92922
 20
-9.62974
 30
0.0
 10
1.07259
 20
-10.05886
 30
0.0
 10
1.07259
 20
-10.05886
 30
0.0
 10
1.07259
 20
-10.05886
 30
0.0
 10
1.08585
 20
-10.0988
 30
0.0
 10
1.09545
 20
-10.12872
 30
0.0
 10
1.10151
 20
-10.14861
 30
0.0
 10
1.10151
 20
-10.14861
 30
0.0
 10
1.10843
 20
-10.1266
 30
0.0
 10
1.11929
 20
-10.09414
 30
0.0
 10
1.13397
 20
-10.05139
 30
0.0
 10
1.13397
 20
-10.05139
 30
0.0
 10
1.13397
 20
-10.05139
 30
0.0
 10
1.27988
 20
-9.62974
 30
0.0
 10
1.27988
 20
-9.62974
 30
0.0
 10
1.27988
 20
-9.62974
 30
0.0
 10
1.27988
 20
-9.62974
 30
0.0
 10
1.38727
 20
-9.62974
 30
0.0
 10
1.38727
 20
-9.62974
 30
0.0
 10
1.38727
 20
-9.62974
 30
0.0
 10
1.38727
 20
-9.62974
 30
0.0
 10
1.38727
 20
-10.23596
 30
0.0
 10
1.38727
 20
-10.23596
 30
0.0
 10
1.38727
 20
-10.23596
 30
0.0
 10
1.38727
 20
-10.23596
 30
0.0
 10
1.31022
 20
-10.23596
 30
0.0
 10
1.31022
 20
-10.23596
 30
0.0
 10
1.31022
 20
-10.23596
 30
0.0
 10
1.31022
 20
-10.23596
 30
0.0
 10
1.31022
 20
-9.7288
 30
0.0
 10
1.31022
 20
-9.7288
 30
0.0
 10
1.31022
 20
-9.7288
 30
0.0
 10
1.31022
 20
-9.7288
 30
0.0
 10
1.13326
 20
-10.23596
 30
0.0
 10
1.13326
 20
-10.23596
 30
0.0
 10
1.13326
 20
-10.23596
 30
0.0
 10
1.13326
 20
-10.23596
 30
0.0
 10
1.06102
 20
-10.23596
 30
0.0
 10
1.06102
 20
-10.23596
 30
0.0
 10
1.06102
 20
-10.23596
 30
0.0
 10
1.06102
 20
-10.23596
 30
0.0
 10
0.88604
 20
-9.71949
 30
0.0
 10
0.88604
 20
-9.71949
 30
0.0
 10
0.88604
 20
-9.71949
 30
0.0
 10
0.88604
 20
-9.71949
 30
0.0
 10
0.88604
 20
-10.23596
 30
0.0
 10
0.88604
 20
-10.23596
 30
0.0
 10
0.88604
 20
-10.23596
 30
0.0
 10
0.88604
 20
-10.23596
 30
0.0
 10
0.80899
 20
-10.23596
 30
0.0
 10
0.80899
 20
-10.23596
 30
0.0
  0
SPLINE
  5
4B
330
1F
100
AcDbEntity
  8
Layer 1
 62
   250
100
AcDbSpline
210
0.0
220
0.0
230
1.0
 70
    11
 71
     3
 72
    48
 73
    44
 74
     0
 42
0.0000000001
 43
0.0000000001
 12
1.0
 22
0.0
 32
0.0
 13
1.0
 23
0.0
 33
0.0
 40
0.0
 40
0.0
 40
0.0
 40
0.0
 40
0.0833333333333333
 40
0.0833333333333333
 40
0.0833333333333333
 40
0.0833333333333333
 40
0.1666666666666667
 40
0.1666666666666667
 40
0.1666666666666667
 40
0.1666666666666667
 40
0.25
 40
0.25
 40
0.25
 40
0.25
 40
0.3333333333333333
 40
0.3333333333333333
 40
0.3333333333333333
 40
0.3333333333333333
 40
0.4166666666666667
 40
0.4166666666666667
 40
0.4166666666666667
 40
0.4166666666666667
 40
0.5
 40
0.5
 40
0.5
 40
0.5
 40
0.5833333333333334
 40
0.5833333333333334
 40
0.5833333333333334
 40
0.5833333333333334
 40
0.6666666666666666
 40
0.6666666666666666
 40
0.6666666666666666
 40
0.6666666666666666
 40
0.75
 40
0.75
 40
0.75
 40
0.75
 40
0.8333333333333334
 40
0.8333333333333334
 40
0.8333333333333334
 40
0.8333333333333334
 40
1.0
 40
1.0
 40
1.0
 40
1.0
 10
1.51596
 20
-10.23596
 30
0.0
 10
1.51596
 20
-10.23596
 30
0.0
 10
1.51596
 20
-9.62974
 30
0.0
 10
1.51596
 20
-9.62974
 30
0.0
 10
1.51596
 20
-9.62974
 30
0.0
 10
1.51596
 20
-9.62974
 30
0.0
 10
1.74485
 20
-9.62974
 30
0.0
 10
1.74485
 20
-9.62974
 30
0.0
 10
1.74485
 20
-9.62974
 30
0.0
 10
1.78506
 20
-9.62974
 30
0.0
 10
1.81583
 20
-9.63172
 30
0.0
 10
1.83713
 20
-9.63553
 30
0.0
 10
1.83713
 20
-9.63553
 30
0.0
 10
1.86691
 20
-9.64047
 30
0.0
 10
1.89189
 20
-9.64992
 30
0.0
 10
1.91206
 20
-9.66375
 30
0.0
 10
1.91206
 20
-9.66375
 30
0.0
 10
1.93224
 20
-9.67772
 30
0.0
 10
1.94847
 20
-9.6972
 30
0.0
 10
1.96075
 20
-9.72217
 30
0.0
 10
1.96075
 20
-9.72217
 30
0.0
 10
1.97302
 20
-9.74715
 30
0.0
 10
1.97909
 20
-9.77467
 30
0.0
 10
1.97909
 20
-9.80472
 30
0.0
 10
1.97909
 20
-9.80472
 30
0.0
 10
1.97909
 20
-9.85609
 30
0.0
 10
1.96272
 20
-9.89969
 30
0.0
 10
1.92984
 20
-9.93525
 30
0.0
 10
1.92984
 20
-9.93525
 30
0.0
 10
1.89711
 20
-9.97095
 30
0.0
 10
1.8377
 20
-9.98873
 30
0.0
 10
1.7519
 20
-9.98873
 30
0.0
 10
1.7519
 20
-9.98873
 30
0.0
 10
1.7519
 20
-9.98873
 30
0.0
 10
1.5964
 20
-9.98873
 30
0.0
 10
1.5964
 20
-9.98873
 30
0.0
 10
1.5964
 20
-9.98873
 30
0.0
 10
1.5964
 20
-9.98873
 30
0.0
 10
1.5964
 20
-10.23596
 30
0.0
 10
1.5964
 20
-10.23596
 30
0.0
 10
1.5964
 20
-10.23596
 30
0.0
 10
1.5964
 20
-10.23596
 30
0.0
 10
1.51596
 20
-10.23596
 30
0.0
 10
1.51596
 20
-10.23596
 30
0.0
  0
SPLINE
  5
4C
330
1F
100
AcDbEntity
  8
Layer 1
 62
   250
100
AcDbSpline
210
0.0
220
0.0
230
1.0
 70
    11
 71
     3
 72
    36
 73
    32
 74
     0
 42
0.0000000001
 43
0.0000000001
 12
1.0
 22
0.0
 32
0.0
 13
1.0
 23
0.0
 33
0.0
 40
0.0
 40
0.0
 40
0.0
 40
0.0
 40
0.1111111111111111
 40
0.1111111111111111
 40
0.1111111111111111
 40
0.1111111111111111
 40
0.2222222222222222
 40
0.2222222222222222
 40
0.2222222222222222
 40
0.2222222222222222
 40
0.3333333333333333
 40
0.3333333333333333
 40
0.3333333333333333
 40
0.3333333333333333
 40
0.4444444444444444
 40
0.4444444444444444
 40
0.4444444444444444
 40
0.4444444444444444
 40
0.5555555555555556
 40
0.5555555555555556
 40
0.5555555555555556
 40
0.5555555555555556
 40
0.6666666666666666
 40
0.6666666666666666
 40
0.6666666666666666
 40
0.6666666666666666
 40
0.7777777777777778
 40
0.7777777777777778
 40
0.7777777777777778
 40
0.7777777777777778
 40
1.0
 40
1.0
 40
1.0
 40
1.0
 10
1.5964
 20
-9.91761
 30
0.0
 10
1.5964
 20
-9.91761
 30
0.0
 10
1.75303
 20
-9.91761
 30
0.0
 10
1.75303
 20
-9.91761
 30
0.0
 10
1.75303
 20
-9.91761
 30
0.0
 10
1.80496
 20
-9.91761
 30
0.0
 10
1.84165
 20
-9.90802
 30
0.0
 10
1.86352
 20
-9.88868
 30
0.0
 10
1.86352
 20
-9.88868
 30
0.0
 10
1.88525
 20
-9.86935
 30
0.0
 10
1.89612
 20
-9.84226
 30
0.0
 10
1.89612
 20
-9.80712
 30
0.0
 10
1.89612
 20
-9.80712
 30
0.0
 10
1.89612
 20
-9.78186
 30
0.0
 10
1.88977
 20
-9.76013
 30
0.0
 10
1.87693
 20
-9.74207
 30
0.0
 10
1.87693
 20
-9.74207
 30
0.0
 10
1.86409
 20
-9.72401
 30
0.0
 10
1.84715
 20
-9.71201
 30
0.0
 10
1.82627
 20
-9.70623
 30
0.0
 10
1.82627
 20
-9.70623
 30
0.0
 10
1.81272
 20
-9.7027
 30
0.0
 10
1.78774
 20
-9.70086
 30
0.0
 10
1.75148
 20
-9.70086
 30
0.0
 10
1.75148
 20
-9.70086
 30
0.0
 10
1.75148
 20
-9.70086
 30
0.0
 10
1.5964
 20
-9.70086
 30
0.0
 10
1.5964
 20
-9.70086
 30
0.0
 10
1.5964
 20
-9.70086
 30
0.0
 10
1.5964
 20
-9.70086
 30
0.0
 10
1.5964
 20
-9.91761
 30
0.0
 10
1.5964
 20
-9.91761
 30
0.0
  0
SPLINE
  5
4D
330
1F
100
AcDbEntity
  8
Layer 1
 62
   250
100
AcDbSpline
210
0.0
220
0.0
230
1.0
 70
    11
 71
     3
 72
    28
 73
    24
 74
     0
 42
0.0000000001
 43
0.0000000001
 12
1.0
 22
0.0
 32
0.0
 13
1.0
 23
0.0
 33
0.0
 40
0.0
 40
0.0
 40
0.0
 40
0.0
 40
0.1428571428571428
 40
0.1428571428571428
 40
0.1428571428571428
 40
0.1428571428571428
 40
0.2857142857142857
 40
0.2857142857142857
 40
0.2857142857142857
 40
0.2857142857142857
 40
0.4285714285714285
 40
0.4285714285714285
 40
0.4285714285714285
 40
0.4285714285714285
 40
0.5714285714285714
 40
0.5714285714285714
 40
0.5714285714285714
 40
0.5714285714285714
 40
0.7142857142857143
 40
0.7142857142857143
 40
0.7142857142857143
 40
0.7142857142857143
 40
1.0
 40
1.0
 40
1.0
 40
1.0
 10
2.07731
 20
-10.23596
 30
0.0
 10
2.07731
 20
-10.23596
 30
0.0
 10
2.07731
 20
-9.62974
 30
0.0
 10
2.07731
 20
-9.62974
 30
0.0
 10
2.07731
 20
-9.62974
 30
0.0
 10
2.07731
 20
-9.62974
 30
0.0
 10
2.15774
 20
-9.62974
 30
0.0
 10
2.15774
 20
-9.62974
 30
0.0
 10
2.15774
 20
-9.62974
 30
0.0
 10
2.15774
 20
-9.62974
 30
0.0
 10
2.15774
 20
-10.16484
 30
0.0
 10
2.15774
 20
-10.16484
 30
0.0
 10
2.15774
 20
-10.16484
 30
0.0
 10
2.15774
 20
-10.16484
 30
0.0
 10
2.45577
 20
-10.16484
 30
0.0
 10
2.45577
 20
-10.16484
 30
0.0
 10
2.45577
 20
-10.16484
 30
0.0
 10
2.45577
 20
-10.16484
 30
0.0
 10
2.45577
 20
-10.23596
 30
0.0
 10
2.45577
 20
-10.23596
 30
0.0
 10
2.45577
 20
-10.23596
 30
0.0
 10
2.45577
 20
-10.23596
 30
0.0
 10
2.07731
 20
-10.23596
 30
0.0
 10
2.07731
 20
-10.23596
 30
0.0
  0
SPLINE
  5
4E
330
1F
100
AcDbEntity
  8
Layer 1
 62
   250
100
AcDbSpline
210
0.0
220
0.0
230
1.0
 70
    11
 71
     3
 72
    36
 73
    32
 74
     0
 42
0.0000000001
 43
0.0000000001
 12
1.0
 22
0.0
 32
0.0
 13
1.0
 23
0.0
 33
0.0
 40
0.0
 40
0.0
 40
0.0
 40
0.0
 40
0.1111111111111111
 40
0.1111111111111111
 40
0.1111111111111111
 40
0.1111111111111111
 40
0.2222222222222222
 40
0.2222222222222222
 40
0.2222222222222222
 40
0.2222222222222222
 40
0.3333333333333333
 40
0.3333333333333333
 40
0.3333333333333333
 40
0.3333333333333333
 40
0.4444444444444444
 40
0.4444444444444444
 40
0.4444444444444444
 40
0.4444444444444444
 40
0.5555555555555556
 40
0.5555555555555556
 40
0.5555555555555556
 40
0.5555555555555556
 40
0.6666666666666666
 40
0.6666666666666666
 40
0.6666666666666666
 40
0.6666666666666666
 40
0.7777777777777778
 40
0.7777777777777778
 40
0.7777777777777778
 40
0.7777777777777778
 40
1.0
 40
1.0
 40
1.0
 40
1.0
 10
2.48512
 20
-10.23596
 30
0.0
 10
2.48512
 20
-10.23596
 30
0.0
 10
2.71767
 20
-9.62974
 30
0.0
 10
2.71767
 20
-9.62974
 30
0.0
 10
2.71767
 20
-9.62974
 30
0.0
 10
2.71767
 20
-9.62974
 30
0.0
 10
2.80587
 20
-9.62974
 30
0.0
 10
2.80587
 20
-9.62974
 30
0.0
 10
2.80587
 20
-9.62974
 30
0.0
 10
2.80587
 20
-9.62974
 30
0.0
 10
3.05267
 20
-10.23596
 30
0.0
 10
3.05267
 20
-10.23596
 30
0.0
 10
3.05267
 20
-10.23596
 30
0.0
 10
3.05267
 20
-10.23596
 30
0.0
 10
2.96137
 20
-10.23596
 30
0.0
 10
2.96137
 20
-10.23596
 30
0.0
 10
2.96137
 20
-10.23596
 30
0.0
 10
2.96137
 20
-10.23596
 30
0.0
 10
2.89124
 20
-10.05223
 30
0.0
 10
2.89124
 20
-10.05223
 30
0.0
 10
2.89124
 20
-10.05223
 30
0.0
 10
2.89124
 20
-10.05223
 30
0.0
 10
2.63597
 20
-10.05223
 30
0.0
 10
2.63597
 20
-10.05223
 30
0.0
 10
2.63597
 20
-10.05223
 30
0.0
 10
2.63597
 20
-10.05223
 30
0.0
 10
2.57021
 20
-10.23596
 30
0.0
 10
2.57021
 20
-10.23596
 30
0.0
 10
2.57021
 20
-10.23596
 30
0.0
 10
2.57021
 20
-10.23596
 30
0.0
 10
2.48512
 20
-10.23596
 30
0.0
 10
2.48512
 20
-10.23596
 30
0.0
  0
SPLINE
  5
4F
330
1F
100
AcDbEntity
  8
Layer 1
 62
   250
100
AcDbSpline
210
0.0
220
0.0
230
1.0
 70
    11
 71
     3
 72
    24
 73
    20
 74
     0
 42
0.0000000001
 43
0.0000000001
 12
1.0
 22
0.0
 32
0.0
 13
1.0
 23
0.0
 33
0.0
 40
0.0
 40
0.0
 40
0.0
 40
0.0
 40
0.1666666666666667
 40
0.1666666666666667
 40
0.1666666666666667
 40
0.1666666666666667
 40
0.3333333333333333
 40
0.3333333333333333
 40
0.3333333333333333
 40
0.3333333333333333
 40
0.5
 40
0.5
 40
0.5
 40
0.5
 40
0.6666666666666666
 40
0.6666666666666666
 40
0.6666666666666666
 40
0.6666666666666666
 40
1.0
 40
1.0
 40
1.0
 40
1.0
 10
2.65953
 20
-9.98704
 30
0.0
 10
2.65953
 20
-9.98704
 30
0.0
 10
2.86612
 20
-9.98704
 30
0.0
 10
2.86612
 20
-9.98704
 30
0.0
 10
2.86612
 20
-9.98704
 30
0.0
 10
2.86612
 20
-9.98704
 30
0.0
 10
2.8029
 20
-9.81898
 30
0.0
 10
2.8029
 20
-9.81898
 30
0.0
 10
2.8029
 20
-9.81898
 30
0.0
 10
2.78385
 20
-9.76789
 30
0.0
 10
2.76946
 20
-9.7257
 30
0.0
 10
2.75944
 20
-9.6924
 30
0.0
 10
2.75944
 20
-9.6924
 30
0.0
 10
2.75112
 20
-9.73191
 30
0.0
 10
2.73997
 20
-9.77071
 30
0.0
 10
2.726
 20
-9.8091
 30
0.0
 10
2.726
 20
-9.8091
 30
0.0
 10
2.726
 20
-9.8091
 30
0.0
 10
2.65953
 20
-9.98704
 30
0.0
 10
2.65953
 20
-9.98704
 30
0.0
  0
SPLINE
  5
50
330
1F
100
AcDbEntity
  8
Layer 1
 62
   250
100
AcDbSpline
210
0.0
220
0.0
230
1.0
 70
    11
 71
     3
 72
    36
 73
    32
 74
     0
 42
0.0000000001
 43
0.0000000001
 12
1.0
 22
0.0
 32
0.0
 13
1.0
 23
0.0
 33
0.0
 40
0.0
 40
0.0
 40
0.0
 40
0.0
 40
0.1111111111111111
 40
0.1111111111111111
 40
0.1111111111111111
 40
0.1111111111111111
 40
0.2222222222222222
 40
0.2222222222222222
 40
0.2222222222222222
 40
0.2222222222222222
 40
0.3333333333333333
 40
0.3333333333333333
 40
0.3333333333333333
 40
0.3333333333333333
 40
0.4444444444444444
 40
0.4444444444444444
 40
0.4444444444444444
 40
0.4444444444444444
 40
0.5555555555555556
 40
0.5555555555555556
 40
0.5555555555555556
 40
0.5555555555555556
 40
0.6666666666666666
 40
0.6666666666666666
 40
0.6666666666666666
 40
0.6666666666666666
 40
0.7777777777777778
 40
0.7777777777777778
 40
0.7777777777777778
 40
0.7777777777777778
 40
1.0
 40
1.0
 40
1.0
 40
1.0
 10
3.20762
 20
-10.23596
 30
0.0
 10
3.20762
 20
-10.23596
 30
0.0
 10
3.20762
 20
-9.70086
 30
0.0
 10
3.20762
 20
-9.70086
 30
0.0
 10
3.20762
 20
-9.70086
 30
0.0
 10
3.20762
 20
-9.70086
 30
0.0
 10
3.0078
 20
-9.70086
 30
0.0
 10
3.0078
 20
-9.70086
 30
0.0
 10
3.0078
 20
-9.70086
 30
0.0
 10
3.0078
 20
-9.70086
 30
0.0
 10
3.0078
 20
-9.62974
 30
0.0
 10
3.0078
 20
-9.62974
 30
0.0
 10
3.0078
 20
-9.62974
 30
0.0
 10
3.0078
 20
-9.62974
 30
0.0
 10
3.48787
 20
-9.62974
 30
0.0
 10
3.48787
 20
-9.62974
 30
0.0
 10
3.48787
 20
-9.62974
 30
0.0
 10
3.48787
 20
-9.62974
 30
0.0
 10
3.48787
 20
-9.70086
 30
0.0
 10
3.48787
 20
-9.70086
 30
0.0
 10
3.48787
 20
-9.70086
 30
0.0
 10
3.48787
 20
-9.70086
 30
0.0
 10
3.28805
 20
-9.70086
 30
0.0
 10
3.28805
 20
-9.70086
 30
0.0
 10
3.28805
 20
-9.70086
 30
0.0
 10
3.28805
 20
-9.70086
 30
0.0
 10
3.28805
 20
-10.23596
 30
0.0
 10
3.28805
 20
-10.23596
 30
0.0
 10
3.28805
 20
-10.23596
 30
0.0
 10
3.28805
 20
-10.23596
 30
0.0
 10
3.20762
 20
-10.23596
 30
0.0
 10
3.20762
 20
-10.23596
 30
0.0
  0
SPLINE
  5
51
330
1F
100
AcDbEntity
  8
Layer 1
 62
   250
100
AcDbSpline
210
0.0
220
0.0
230
1.0
 70
    11
 71
     3
 72
    52
 73
    48
 74
     0
 42
0.0000000001
 43
0.0000000001
 12
1.0
 22
0.0
 32
0.0
 13
1.0
 23
0.0
 33
0.0
 40
0.0
 40
0.0
 40
0.0
 40
0.0
 40
0.0769230769230769
 40
0.0769230769230769
 40
0.0769230769230769
 40
0.0769230769230769
 40
0.1538461538461539
 40
0.1538461538461539
 40
0.1538461538461539
 40
0.1538461538461539
 40
0.2307692307692308
 40
0.2307692307692308
 40
0.2307692307692308
 40
0.2307692307692308
 40
0.3076923076923077
 40
0.3076923076923077
 40
0.3076923076923077
 40
0.3076923076923077
 40
0.3846153846153846
 40
0.3846153846153846
 40
0.3846153846153846
 40
0.3846153846153846
 40
0.4615384615384616
 40
0.4615384615384616
 40
0.4615384615384616
 40
0.4615384615384616
 40
0.5384615384615384
 40
0.5384615384615384
 40
0.5384615384615384
 40
0.5384615384615384
 40
0.6153846153846154
 40
0.6153846153846154
 40
0.6153846153846154
 40
0.6153846153846154
 40
0.6923076923076923
 40
0.6923076923076923
 40
0.6923076923076923
 40
0.6923076923076923
 40
0.7692307692307693
 40
0.7692307692307693
 40
0.7692307692307693
 40
0.7692307692307693
 40
0.8461538461538461
 40
0.8461538461538461
 40
0.8461538461538461
 40
0.8461538461538461
 40
1.0
 40
1.0
 40
1.0
 40
1.0
 10
3.57239
 20
-10.23596
 30
0.0
 10
3.57239
 20
-10.23596
 30
0.0
 10
3.57239
 20
-9.62974
 30
0.0
 10
3.57239
 20
-9.62974
 30
0.0
 10
3.57239
 20
-9.62974
 30
0.0
 10
3.57239
 20
-9.62974
 30
0.0
 10
4.01012
 20
-9.62974
 30
0.0
 10
4.01012
 20
-9.62974
 30
0.0
 10
4.01012
 20
-9.62974
 30
0.0
 10
4.01012
 20
-9.62974
 30
0.0
 10
4.01012
 20
-9.70086
 30
0.0
 10
4.01012
 20
-9.70086
 30
0.0
 10
4.01012
 20
-9.70086
 30
0.0
 10
4.01012
 20
-9.70086
 30
0.0
 10
3.65282
 20
-9.70086
 30
0.0
 10
3.65282
 20
-9.70086
 30
0.0
 10
3.65282
 20
-9.70086
 30
0.0
 10
3.65282
 20
-9.70086
 30
0.0
 10
3.65282
 20
-9.88713
 30
0.0
 10
3.65282
 20
-9.88713
 30
0.0
 10
3.65282
 20
-9.88713
 30
0.0
 10
3.65282
 20
-9.88713
 30
0.0
 10
3.98726
 20
-9.88713
 30
0.0
 10
3.98726
 20
-9.88713
 30
0.0
 10
3.98726
 20
-9.88713
 30
0.0
 10
3.98726
 20
-9.88713
 30
0.0
 10
3.98726
 20
-9.95825
 30
0.0
 10
3.98726
 20
-9.95825
 30
0.0
 10
3.98726
 20
-9.95825
 30
0.0
 10
3.98726
 20
-9.95825
 30
0.0
 10
3.65282
 20
-9.95825
 30
0.0
 10
3.65282
 20
-9.95825
 30
0.0
 10
3.65282
 20
-9.95825
 30
0.0
 10
3.65282
 20
-9.95825
 30
0.0
 10
3.65282
 20
-10.16484
 30
0.0
 10
3.65282
 20
-10.16484
 30
0.0
 10
3.65282
 20
-10.16484
 30
0.0
 10
3.65282
 20
-10.16484
 30
0.0
 10
4.02451
 20
-10.16484
 30
0.0
 10
4.02451
 20
-10.16484
 30
0.0
 10
4.02451
 20
-10.16484
 30
0.0
 10
4.02451
 20
-10.16484
 30
0.0
 10
4.02451
 20
-10.23596
 30
0.0
 10
4.02451
 20
-10.23596
 30
0.0
 10
4.02451
 20
-10.23596
 30
0.0
 10
4.02451
 20
-10.23596
 30
0.0
 10
3.57239
 20
-10.23596
 30
0.0
 10
3.57239
 20
-10.23596
 30
0.0
  0
SPLINE
  5
52
330
1F
100
AcDbEntity
  8
Layer 1
 62
     3
370
     9
100
AcDbSpline
210
0.0
220
0.0
230
1.0
 70
    24
 71
     3
 72
     8
 73
     4
 74
     0
 42
0.0000000001
 43
0.0000000001
 12
1.0
 22
0.0
 32
0.0
 13
1.0
 23
0.0
 33
0.0
 40
0.0
 40
0.0
 40
0.0
 40
0.0
 40
1.0
 40
1.0
 40
1.0
 40
1.0
 10
-6.01493
 20
8.00863
 30
0.0
 10
-6.01493
 20
8.00863
 30
0.0
 10
5.03866
 20
8.00863
 30
0.0
 10
5.03866
 20
8.00863
 30
0.0
  0
SPLINE
  5
53
330
1F
100
AcDbEntity
  8
Layer 1
 62
     3
370
     9
100
AcDbSpline
210
0.0
220
0.0
230
1.0
 70
     8
 71
     3
 72
    12
 73
     8
 74
     0
 42
0.0000000001
 43
0.0000000001
 12
1.0
 22
0.0
 32
0.0
 13
1.0
 23
0.0
 33
0.0
 40
0.0
 40
0.0
 40
0.0
 40
0.0
 40
0.3333333333333333
 40
0.3333333333333333
 40
0.3333333333333333
 40
0.3333333333333333
 40
1.0
 40
1.0
 40
1.0
 40
1.0
 10
-6.01493
 20
8.00863
 30
0.0
 10
-6.16097
 20
8.00863
 30
0.0
 10
-6.30103
 20
7.95062
 30
0.0
 10
-6.4043
 20
7.84735
 30
0.0
 10
-6.4043
 20
7.84735
 30
0.0
 10
-6.50757
 20
7.74408
 30
0.0
 10
-6.56559
 20
7.60402
 30
0.0
 10
-6.56559
 20
7.45797
 30
0.0
  0
SPLINE
  5
54
330
1F
100
AcDbEntity
  8
Layer 1
 62
     3
370
     9
100
AcDbSpline
210
0.0
220
0.0
230
1.0
 70
    24
 71
     3
 72
     8
 73
     4
 74
     0
 42
0.0000000001
 43
0.0000000001
 12
1.0
 22
0.0
 32
0.0
 13
1.0
 23
0.0
 33
0.0
 40
0.0
 40
0.0
 40
0.0
 40
0.0
 40
1.0
 40
1.0
 40
1.0
 40
1.0
 10
5.55628
 20
7.45797
 30
0.0
 10
5.55628
 20
7.45797
 30
0.0
 10
5.55628
 20
-6.36543
 30
0.0
 10
5.55628
 20
-6.36543
 30
0.0
  0
SPLINE
  5
55
330
1F
100
AcDbEntity
  8
Layer 1
 62
     3
370
     9
100
AcDbSpline
210
0.0
220
0.0
230
1.0
 70
     8
 71
     3
 72
    12
 73
     8
 74
     0
 42
0.0000000001
 43
0.0000000001
 12
1.0
 22
0.0
 32
0.0
 13
1.0
 23
0.0
 33
0.0
 40
0.0
 40
0.0
 40
0.0
 40
0.0
 40
0.3333333333333333
 40
0.3333333333333333
 40
0.3333333333333333
 40
0.3333333333333333
 40
1.0
 40
1.0
 40
1.0
 40
1.0
 10
5.55628
 20
7.45797
 30
0.0
 10
5.55628
 20
7.60402
 30
0.0
 10
5.49826
 20
7.74408
 30
0.0
 10
5.39499
 20
7.84735
 30
0.0
 10
5.39499
 20
7.84735
 30
0.0
 10
5.29172
 20
7.95062
 30
0.0
 10
5.15166
 20
8.00863
 30
0.0
 10
5.00562
 20
8.00863
 30
0.0
  0
SPLINE
  5
56
330
1F
100
AcDbEntity
  8
Layer 1
 62
     3
370
     9
100
AcDbSpline
210
0.0
220
0.0
230
1.0
 70
    24
 71
     3
 72
     8
 73
     4
 74
     0
 42
0.0000000001
 43
0.0000000001
 12
1.0
 22
0.0
 32
0.0
 13
1.0
 23
0.0
 33
0.0
 40
0.0
 40
0.0
 40
0.0
 40
0.0
 40
1.0
 40
1.0
 40
1.0
 40
1.0
 10
5.00562
 20
-6.91058
 30
0.0
 10
5.00562
 20
-6.91058
 30
0.0
 10
-6.01493
 20
-6.91058
 30
0.0
 10
-6.01493
 20
-6.91058
 30
0.0
  0
SPLINE
  5
57
330
1F
100
AcDbEntity
  8
Layer 1
 62
     3
370
     9
100
AcDbSpline
210
0.0
220
0.0
230
1.0
 70
     8
 71
     3
 72
     8
 73
     4
 74
     0
 42
0.0000000001
 43
0.0000000001
 12
1.0
 22
0.0
 32
0.0
 13
1.0
 23
0.0
 33
0.0
 40
0.0
 40
0.0
 40
0.0
 40
0.0
 40
1.0
 40
1.0
 40
1.0
 40
1.0
 10
5.00562
 20
-6.91058
 30
0.0
 10
5.30974
 20
-6.91058
 30
0.0
 10
5.55628
 20
-6.66404
 30
0.0
 10
5.55628
 20
-6.35993
 30
0.0
  0
SPLINE
  5
58
330
1F
100
AcDbEntity
  8
Layer 1
 62
     3
370
     9
100
AcDbSpline
210
0.0
220
0.0
230
1.0
 70
     8
 71
     3
 72
    12
 73
     8
 74
     0
 42
0.0000000001
 43
0.0000000001
 12
1.0
 22
0.0
 32
0.0
 13
1.0
 23
0.0
 33
0.0
 40
0.0
 40
0.0
 40
0.0
 40
0.0
 40
0.3333333333333333
 40
0.3333333333333333
 40
0.3333333333333333
 40
0.3333333333333333
 40
1.0
 40
1.0
 40
1.0
 40
1.0
 10
-6.56559
 20
-6.35992
 30
0.0
 10
-6.56559
 20
-6.50597
 30
0.0
 10
-6.50757
 20
-6.64603
 30
0.0
 10
-6.4043
 20
-6.7493
 30
0.0
 10
-6.4043
 20
-6.7493
 30
0.0
 10
-6.30103
 20
-6.85257
 30
0.0
 10
-6.16097
 20
-6.91058
 30
0.0
 10
-6.01493
 20
-6.91058
 30
0.0
  0
SPLINE
  5
59
330
1F
100
AcDbEntity
  8
Layer 1
 62
     3
370
     9
100
AcDbSpline
210
0.0
220
0.0
230
1.0
 70
    24
 71
     3
 72
     8
 73
     4
 74
     0
 42
0.0000000001
 43
0.0000000001
 12
1.0
 22
0.0
 32
0.0
 13
1.0
 23
0.0
 33
0.0
 40
0.0
 40
0.0
 40
0.0
 40
0.0
 40
1.0
 40
1.0
 40
1.0
 40
1.0
 10
-6.56559
 20
-6.35992
 30
0.0
 10
-6.56559
 20
-6.35992
 30
0.0
 10
-6.56559
 20
7.45797
 30
0.0
 10
-6.56559
 20
7.45797
 30
0.0
  0
SPLINE
  5
5A
330
1F
100
AcDbEntity
  8
Layer 1
 62
     3
370
     9
100
AcDbSpline
210
0.0
220
0.0
230
1.0
 70
    24
 71
     3
 72
     8
 73
     4
 74
     0
 42
0.0000000001
 43
0.0000000001
 12
1.0
 22
0.0
 32
0.0
 13
1.0
 23
0.0
 33
0.0
 40
0.0
 40
0.0
 40
0.0
 40
0.0
 40
1.0
 40
1.0
 40
1.0
 40
1.0
 10
5.00562
 20
8.00863
 30
0.0
 10
5.00562
 20
8.00863
 30
0.0
 10
-6.01493
 20
8.00863
 30
0.0
 10
-6.01493
 20
8.00863
 30
0.0
  0
SPLINE
  5
5C
330
1F
100
AcDbEntity
  8
layer 2
 62
     1
370
     0
100
AcDbSpline
210
0.0
220
0.0
230
1.0
 70
    24
 71
     3
 72
     8
 73
     4
 74
     0
 42
0.0000000001
 43
0.0000000001
 12
1.0
 22
0.0
 32
0.0
 13
1.0
 23
0.0
 33
0.0
 40
0.0
 40
0.0
 40
0.0
 40
0.0
 40
1.0
 40
1.0
 40
1.0
 40
1.0
 10
-6.56559
 20
7.64152
 30
0.0
 10
-6.56559
 20
7.64152
 30
0.0
 10
-6.56559
 20
9.57488
 30
0.0
 10
-6.56559
 20
9.57488
 30
0.0
  0
SPLINE
  5
5D
330
1F
100
AcDbEntity
  8
layer 2
 62
     1
370
     0
100
AcDbSpline
210
0.0
220
0.0
230
1.0
 70
    24
 71
     3
 72
     8
 73
     4
 74
     0
 42
0.0000000001
 43
0.0000000001
 12
1.0
 22
0.0
 32
0.0
 13
1.0
 23
0.0
 33
0.0
 40
0.0
 40
0.0
 40
0.0
 40
0.0
 40
1.0
 40
1.0
 40
1.0
 40
1.0
 10
5.55628
 20
7.64152
 30
0.0
 10
5.55628
 20
7.64152
 30
0.0
 10
5.55628
 20
9.57488
 30
0.0
 10
5.55628
 20
9.57488
 30
0.0
  0
SPLINE
  5
5E
330
1F
100
AcDbEntity
  8
layer 2
 62
     1
370
     0
100
AcDbSpline
210
0.0
220
0.0
230
1.0
 70
    24
 71
     3
 72
     8
 73
     4
 74
     0
 42
0.0000000001
 43
0.0000000001
 12
1.0
 22
0.0
 32
0.0
 13
1.0
 23
0.0
 33
0.0
 40
0.0
 40
0.0
 40
0.0
 40
0.0
 40
1.0
 40
1.0
 40
1.0
 40
1.0
 10
-5.83137
 20
9.20777
 30
0.0
 10
-5.83137
 20
9.20777
 30
0.0
 10
4.82206
 20
9.20777
 30
0.0
 10
4.82206
 20
9.20777
 30
0.0
  0
SPLINE
  5
5F
330
1F
100
AcDbEntity
  8
layer 2
 62
     1
100
AcDbSpline
210
0.0
220
0.0
230
1.0
 70
    27
 71
     3
 72
    12
 73
     8
 74
     0
 42
0.0000000001
 43
0.0000000001
 12
1.0
 22
0.0
 32
0.0
 13
1.0
 23
0.0
 33
0.0
 40
0.0
 40
0.0
 40
0.0
 40
0.0
 40
0.3333333333333333
 40
0.3333333333333333
 40
0.3333333333333333
 40
0.3333333333333333
 40
1.0
 40
1.0
 40
1.0
 40
1.0
 10
-5.83137
 20
9.33014
 30
0.0
 10
-5.83137
 20
9.33014
 30
0.0
 10
-6.56559
 20
9.20777
 30
0.0
 10
-6.56559
 20
9.20777
 30
0.0
 10
-6.56559
 20
9.20777
 30
0.0
 10
-6.56559
 20
9.20777
 30
0.0
 10
-5.83137
 20
9.33014
 30
0.0
 10
-5.83137
 20
9.33014
 30
0.0
  0
SPLINE
  5
60
330
1F
100
AcDbEntity
  8
layer 2
 62
     1
100
AcDbSpline
210
0.0
220
0.0
230
1.0
 70
     8
 71
     3
 72
    12
 73
     8
 74
     0
 42
0.0000000001
 43
0.0000000001
 12
1.0
 22
0.0
 32
0.0
 13
1.0
 23
0.0
 33
0.0
 40
0.0
 40
0.0
 40
0.0
 40
0.0
 40
0.3333333333333333
 40
0.3333333333333333
 40
0.3333333333333333
 40
0.3333333333333333
 40
1.0
 40
1.0
 40
1.0
 40
1.0
 10
-6.56559
 20
9.20777
 30
0.0
 10
-6.56559
 20
9.20777
 30
0.0
 10
-5.83137
 20
9.0854
 30
0.0
 10
-5.83137
 20
9.0854
 30
0.0
 10
-5.83137
 20
9.0854
 30
0.0
 10
-5.83137
 20
9.0854
 30
0.0
 10
-5.83137
 20
9.33014
 30
0.0
 10
-5.83137
 20
9.33014
 30
0.0
  0
SPLINE
  5
61
330
1F
100
AcDbEntity
  8
layer 2
 62
     1
370
     9
100
AcDbSpline
210
0.0
220
0.0
230
1.0
 70
    24
 71
     3
 72
     8
 73
     4
 74
     0
 42
0.0000000001
 43
0.0000000001
 12
1.0
 22
0.0
 32
0.0
 13
1.0
 23
0.0
 33
0.0
 40
0.0
 40
0.0
 40
0.0
 40
0.0
 40
1.0
 40
1.0
 40
1.0
 40
1.0
 10
-5.83137
 20
9.33014
 30
0.0
 10
-5.83137
 20
9.33014
 30
0.0
 10
-6.56559
 20
9.20777
 30
0.0
 10
-6.56559
 20
9.20777
 30
0.0
  0
SPLINE
  5
62
330
1F
100
AcDbEntity
  8
layer 2
 62
     1
370
     9
100
AcDbSpline
210
0.0
220
0.0
230
1.0
 70
     8
 71
     3
 72
    12
 73
     8
 74
     0
 42
0.0000000001
 43
0.0000000001
 12
1.0
 22
0.0
 32
0.0
 13
1.0
 23
0.0
 33
0.0
 40
0.0
 40
0.0
 40
0.0
 40
0.0
 40
0.3333333333333333
 40
0.3333333333333333
 40
0.3333333333333333
 40
0.3333333333333333
 40
1.0
 40
1.0
 40
1.0
 40
1.0
 10
-6.56559
 20
9.20777
 30
0.0
 10
-6.56559
 20
9.20777
 30
0.0
 10
-5.83137
 20
9.0854
 30
0.0
 10
-5.83137
 20
9.0854
 30
0.0
 10
-5.83137
 20
9.0854
 30
0.0
 10
-5.83137
 20
9.0854
 30
0.0
 10
-5.83137
 20
9.33014
 30
0.0
 10
-5.83137
 20
9.33014
 30
0.0
  0
SPLINE
  5
63
330
1F
100
AcDbEntity
  8
layer 2
 62
     1
100
AcDbSpline
210
0.0
220
0.0
230
1.0
 70
    27
 71
     3
 72
    12
 73
     8
 74
     0
 42
0.0000000001
 43
0.0000000001
 12
1.0
 22
0.0
 32
0.0
 13
1.0
 23
0.0
 33
0.0
 40
0.0
 40
0.0
 40
0.0
 40
0.0
 40
0.3333333333333333
 40
0.3333333333333333
 40
0.3333333333333333
 40
0.3333333333333333
 40
1.0
 40
1.0
 40
1.0
 40
1.0
 10
4.82206
 20
9.33014
 30
0.0
 10
4.82206
 20
9.33014
 30
0.0
 10
5.55628
 20
9.20777
 30
0.0
 10
5.55628
 20
9.20777
 30
0.0
 10
5.55628
 20
9.20777
 30
0.0
 10
5.55628
 20
9.20777
 30
0.0
 10
4.82206
 20
9.33014
 30
0.0
 10
4.82206
 20
9.33014
 30
0.0
  0
SPLINE
  5
64
330
1F
100
AcDbEntity
  8
layer 2
 62
     1
100
AcDbSpline
210
0.0
220
0.0
230
1.0
 70
     8
 71
     3
 72
    12
 73
     8
 74
     0
 42
0.0000000001
 43
0.0000000001
 12
1.0
 22
0.0
 32
0.0
 13
1.0
 23
0.0
 33
0.0
 40
0.0
 40
0.0
 40
0.0
 40
0.0
 40
0.3333333333333333
 40
0.3333333333333333
 40
0.3333333333333333
 40
0.3333333333333333
 40
1.0
 40
1.0
 40
1.0
 40
1.0
 10
5.55628
 20
9.20777
 30
0.0
 10
5.55628
 20
9.20777
 30
0.0
 10
4.82206
 20
9.0854
 30
0.0
 10
4.82206
 20
9.0854
 30
0.0
 10
4.82206
 20
9.0854
 30
0.0
 10
4.82206
 20
9.0854
 30
0.0
 10
4.82206
 20
9.33014
 30
0.0
 10
4.82206
 20
9.33014
 30
0.0
  0
SPLINE
  5
65
330
1F
100
AcDbEntity
  8
layer 2
 62
     1
370
     9
100
AcDbSpline
210
0.0
220
0.0
230
1.0
 70
    24
 71
     3
 72
     8
 73
     4
 74
     0
 42
0.0000000001
 43
0.0000000001
 12
1.0
 22
0.0
 32
0.0
 13
1.0
 23
0.0
 33
0.0
 40
0.0
 40
0.0
 40
0.0
 40
0.0
 40
1.0
 40
1.0
 40
1.0
 40
1.0
 10
4.82206
 20
9.33014
 30
0.0
 10
4.82206
 20
9.33014
 30
0.0
 10
5.55628
 20
9.20777
 30
0.0
 10
5.55628
 20
9.20777
 30
0.0
  0
SPLINE
  5
66
330
1F
100
AcDbEntity
  8
layer 2
 62
     1
370
     9
100
AcDbSpline
210
0.0
220
0.0
230
1.0
 70
     8
 71
     3
 72
    12
 73
     8
 74
     0
 42
0.0000000001
 43
0.0000000001
 12
1.0
 22
0.0
 32
0.0
 13
1.0
 23
0.0
 33
0.0
 40
0.0
 40
0.0
 40
0.0
 40
0.0
 40
0.3333333333333333
 40
0.3333333333333333
 40
0.3333333333333333
 40
0.3333333333333333
 40
1.0
 40
1.0
 40
1.0
 40
1.0
 10
5.55628
 20
9.20777
 30
0.0
 10
5.55628
 20
9.20777
 30
0.0
 10
4.82206
 20
9.0854
 30
0.0
 10
4.82206
 20
9.0854
 30
0.0
 10
4.82206
 20
9.0854
 30
0.0
 10
4.82206
 20
9.0854
 30
0.0
 10
4.82206
 20
9.33014
 30
0.0
 10
4.82206
 20
9.33014
 30
0.0
  0
SPLINE
  5
67
330
1F
100
AcDbEntity
  8
layer 2
 62
     1
100
AcDbSpline
210
0.0
220
0.0
230
1.0
 70
    11
 71
     3
 72
    40
 73
    36
 74
     0
 42
0.0000000001
 43
0.0000000001
 12
1.0
 22
0.0
 32
0.0
 13
1.0
 23
0.0
 33
0.0
 40
0.0
 40
0.0
 40
0.0
 40
0.0
 40
0.1
 40
0.1
 40
0.1
 40
0.1
 40
0.2
 40
0.2
 40
0.2
 40
0.2
 40
0.3
 40
0.3
 40
0.3
 40
0.3
 40
0.4
 40
0.4
 40
0.4
 40
0.4
 40
0.5
 40
0.5
 40
0.5
 40
0.5
 40
0.6
 40
0.6
 40
0.6
 40
0.6
 40
0.7
 40
0.7
 40
0.7
 40
0.7
 40
0.8
 40
0.8
 40
0.8
 40
0.8
 40
1.0
 40
1.0
 40
1.0
 40
1.0
 10
-0.74895
 20
9.52165
 30
0.0
 10
-0.74895
 20
9.52165
 30
0.0
 10
-0.80839
 20
9.52165
 30
0.0
 10
-0.80839
 20
9.52165
 30
0.0
 10
-0.80839
 20
9.52165
 30
0.0
 10
-0.80839
 20
9.52165
 30
0.0
 10
-0.80839
 20
9.90014
 30
0.0
 10
-0.80839
 20
9.90014
 30
0.0
 10
-0.80839
 20
9.90014
 30
0.0
 10
-0.82269
 20
9.8864
 30
0.0
 10
-0.84149
 20
9.87278
 30
0.0
 10
-0.86468
 20
9.85916
 30
0.0
 10
-0.86468
 20
9.85916
 30
0.0
 10
-0.88787
 20
9.84554
 30
0.0
 10
-0.90881
 20
9.83529
 30
0.0
 10
-0.92728
 20
9.82854
 30
0.0
 10
-0.92728
 20
9.82854
 30
0.0
 10
-0.92728
 20
9.82854
 30
0.0
 10
-0.92728
 20
9.88595
 30
0.0
 10
-0.92728
 20
9.88595
 30
0.0
 10
-0.92728
 20
9.88595
 30
0.0
 10
-0.89406
 20
9.90149
 30
0.0
 10
-0.86502
 20
9.9204
 30
0.0
 10
-0.84014
 20
9.94269
 30
0.0
 10
-0.84014
 20
9.94269
 30
0.0
 10
-0.81526
 20
9.96487
 30
0.0
 10
-0.79758
 20
9.98637
 30
0.0
 10
-0.78723
 20
10.00731
 30
0.0
 10
-0.78723
 20
10.00731
 30
0.0
 10
-0.78723
 20
10.00731
 30
0.0
 10
-0.74895
 20
10.00731
 30
0.0
 10
-0.74895
 20
10.00731
 30
0.0
 10
-0.74895
 20
10.00731
 30
0.0
 10
-0.74895
 20
10.00731
 30
0.0
 10
-0.74895
 20
9.52165
 30
0.0
 10
-0.74895
 20
9.52165
 30
0.0
  0
SPLINE
  5
68
330
1F
100
AcDbEntity
  8
layer 2
 62
     1
100
AcDbSpline
210
0.0
220
0.0
230
1.0
 70
    11
 71
     3
 72
   124
 73
   120
 74
     0
 42
0.0000000001
 43
0.0000000001
 12
1.0
 22
0.0
 32
0.0
 13
1.0
 23
0.0
 33
0.0
 40
0.0
 40
0.0
 40
0.0
 40
0.0
 40
0.032258064516129
 40
0.032258064516129
 40
0.032258064516129
 40
0.032258064516129
 40
0.0645161290322581
 40
0.0645161290322581
 40
0.0645161290322581
 40
0.0645161290322581
 40
0.0967741935483871
 40
0.0967741935483871
 40
0.0967741935483871
 40
0.0967741935483871
 40
0.1290322580645161
 40
0.1290322580645161
 40
0.1290322580645161
 40
0.1290322580645161
 40
0.1612903225806452
 40
0.1612903225806452
 40
0.1612903225806452
 40
0.1612903225806452
 40
0.1935483870967742
 40
0.1935483870967742
 40
0.1935483870967742
 40
0.1935483870967742
 40
0.2258064516129032
 40
0.2258064516129032
 40
0.2258064516129032
 40
0.2258064516129032
 40
0.2580645161290323
 40
0.2580645161290323
 40
0.2580645161290323
 40
0.2580645161290323
 40
0.2903225806451613
 40
0.2903225806451613
 40
0.2903225806451613
 40
0.2903225806451613
 40
0.3225806451612903
 40
0.3225806451612903
 40
0.3225806451612903
 40
0.3225806451612903
 40
0.3548387096774194
 40
0.3548387096774194
 40
0.3548387096774194
 40
0.3548387096774194
 40
0.3870967741935484
 40
0.3870967741935484
 40
0.3870967741935484
 40
0.3870967741935484
 40
0.4193548387096774
 40
0.4193548387096774
 40
0.4193548387096774
 40
0.4193548387096774
 40
0.4516129032258064
 40
0.4516129032258064
 40
0.4516129032258064
 40
0.4516129032258064
 40
0.4838709677419355
 40
0.4838709677419355
 40
0.4838709677419355
 40
0.4838709677419355
 40
0.5161290322580645
 40
0.5161290322580645
 40
0.5161290322580645
 40
0.5161290322580645
 40
0.5483870967741935
 40
0.5483870967741935
 40
0.5483870967741935
 40
0.5483870967741935
 40
0.5806451612903226
 40
0.5806451612903226
 40
0.5806451612903226
 40
0.5806451612903226
 40
0.6129032258064516
 40
0.6129032258064516
 40
0.6129032258064516
 40
0.6129032258064516
 40
0.6451612903225806
 40
0.6451612903225806
 40
0.6451612903225806
 40
0.6451612903225806
 40
0.6774193548387096
 40
0.6774193548387096
 40
0.6774193548387096
 40
0.6774193548387096
 40
0.7096774193548387
 40
0.7096774193548387
 40
0.7096774193548387
 40
0.7096774193548387
 40
0.7419354838709677
 40
0.7419354838709677
 40
0.7419354838709677
 40
0.7419354838709677
 40
0.7741935483870968
 40
0.7741935483870968
 40
0.7741935483870968
 40
0.7741935483870968
 40
0.8064516129032258
 40
0.8064516129032258
 40
0.8064516129032258
 40
0.8064516129032258
 40
0.8387096774193549
 40
0.8387096774193549
 40
0.8387096774193549
 40
0.8387096774193549
 40
0.8709677419354839
 40
0.8709677419354839
 40
0.8709677419354839
 40
0.8709677419354839
 40
0.9032258064516129
 40
0.9032258064516129
 40
0.9032258064516129
 40
0.9032258064516129
 40
0.9354838709677419
 40
0.9354838709677419
 40
0.9354838709677419
 40
0.9354838709677419
 40
1.0
 40
1.0
 40
1.0
 40
1.0
 10
-0.59618
 20
9.64999
 30
0.0
 10
-0.59618
 20
9.64999
 30
0.0
 10
-0.53674
 20
9.65809
 30
0.0
 10
-0.53674
 20
9.65809
 30
0.0
 10
-0.53674
 20
9.65809
 30
0.0
 10
-0.52987
 20
9.62432
 30
0.0
 10
-0.51838
 20
9.6
 30
0.0
 10
-0.50206
 20
9.58514
 30
0.0
 10
-0.50206
 20
9.58514
 30
0.0
 10
-0.48574
 20
9.57028
 30
0.0
 10
-0.4657
 20
9.56285
 30
0.0
 10
-0.44195
 20
9.56285
 30
0.0
 10
-0.44195
 20
9.56285
 30
0.0
 10
-0.4138
 20
9.56285
 30
0.0
 10
-0.39004
 20
9.57253
 30
0.0
 10
-0.37091
 20
9.5919
 30
0.0
 10
-0.37091
 20
9.5919
 30
0.0
 10
-0.35177
 20
9.61126
 30
0.0
 10
-0.3422
 20
9.63524
 30
0.0
 10
-0.3422
 20
9.66383
 30
0.0
 10
-0.3422
 20
9.66383
 30
0.0
 10
-0.3422
 20
9.69108
 30
0.0
 10
-0.35109
 20
9.7136
 30
0.0
 10
-0.36899
 20
9.73138
 30
0.0
 10
-0.36899
 20
9.73138
 30
0.0
 10
-0.38678
 20
9.74906
 30
0.0
 10
-0.40941
 20
9.75795
 30
0.0
 10
-0.43699
 20
9.75795
 30
0.0
 10
-0.43699
 20
9.75795
 30
0.0
 10
-0.44825
 20
9.75795
 30
0.0
 10
-0.46221
 20
9.7557
 30
0.0
 10
-0.47898
 20
9.75131
 30
0.0
 10
-0.47898
 20
9.75131
 30
0.0
 10
-0.47898
 20
9.75131
 30
0.0
 10
-0.47234
 20
9.80332
 30
0.0
 10
-0.47234
 20
9.80332
 30
0.0
 10
-0.47234
 20
9.80332
 30
0.0
 10
-0.4684
 20
9.80287
 30
0.0
 10
-0.46514
 20
9.80264
 30
0.0
 10
-0.46277
 20
9.80264
 30
0.0
 10
-0.46277
 20
9.80264
 30
0.0
 10
-0.43733
 20
9.80264
 30
0.0
 10
-0.41459
 20
9.80929
 30
0.0
 10
-0.39421
 20
9.82246
 30
0.0
 10
-0.39421
 20
9.82246
 30
0.0
 10
-0.37395
 20
9.83563
 30
0.0
 10
-0.36381
 20
9.85589
 30
0.0
 10
-0.36381
 20
9.88325
 30
0.0
 10
-0.36381
 20
9.88325
 30
0.0
 10
-0.36381
 20
9.90498
 30
0.0
 10
-0.37124
 20
9.92299
 30
0.0
 10
-0.38599
 20
9.93729
 30
0.0
 10
-0.38599
 20
9.93729
 30
0.0
 10
-0.40074
 20
9.95159
 30
0.0
 10
-0.41977
 20
9.95868
 30
0.0
 10
-0.44307
 20
9.95868
 30
0.0
 10
-0.44307
 20
9.95868
 30
0.0
 10
-0.46626
 20
9.95868
 30
0.0
 10
-0.48551
 20
9.95136
 30
0.0
 10
-0.50094
 20
9.93673
 30
0.0
 10
-0.50094
 20
9.93673
 30
0.0
 10
-0.51636
 20
9.92209
 30
0.0
 10
-0.52627
 20
9.90014
 30
0.0
 10
-0.53066
 20
9.87087
 30
0.0
 10
-0.53066
 20
9.87087
 30
0.0
 10
-0.53066
 20
9.87087
 30
0.0
 10
-0.5901
 20
9.88168
 30
0.0
 10
-0.5901
 20
9.88168
 30
0.0
 10
-0.5901
 20
9.88168
 30
0.0
 10
-0.58278
 20
9.92153
 30
0.0
 10
-0.56634
 20
9.95249
 30
0.0
 10
-0.54057
 20
9.97444
 30
0.0
 10
-0.54057
 20
9.97444
 30
0.0
 10
-0.5149
 20
9.99639
 30
0.0
 10
-0.48281
 20
10.00731
 30
0.0
 10
-0.44453
 20
10.00731
 30
0.0
 10
-0.44453
 20
10.00731
 30
0.0
 10
-0.41819
 20
10.00731
 30
0.0
 10
-0.39387
 20
10.00169
 30
0.0
 10
-0.3717
 20
9.99031
 30
0.0
 10
-0.3717
 20
9.99031
 30
0.0
 10
-0.34941
 20
9.97906
 30
0.0
 10
-0.3324
 20
9.96363
 30
0.0
 10
-0.3207
 20
9.94416
 30
0.0
 10
-0.3207
 20
9.94416
 30
0.0
 10
-0.30888
 20
9.92457
 30
0.0
 10
-0.30302
 20
9.90385
 30
0.0
 10
-0.30302
 20
9.8819
 30
0.0
 10
-0.30302
 20
9.8819
 30
0.0
 10
-0.30302
 20
9.86107
 30
0.0
 10
-0.30865
 20
9.84216
 30
0.0
 10
-0.31979
 20
9.82505
 30
0.0
 10
-0.31979
 20
9.82505
 30
0.0
 10
-0.33105
 20
9.80793
 30
0.0
 10
-0.34772
 20
9.79432
 30
0.0
 10
-0.36967
 20
9.78418
 30
0.0
 10
-0.36967
 20
9.78418
 30
0.0
 10
-0.34107
 20
9.77765
 30
0.0
 10
-0.3189
 20
9.76392
 30
0.0
 10
-0.30302
 20
9.74309
 30
0.0
 10
-0.30302
 20
9.74309
 30
0.0
 10
-0.28726
 20
9.72238
 30
0.0
 10
-0.27938
 20
9.69626
 30
0.0
 10
-0.27938
 20
9.66507
 30
0.0
 10
-0.27938
 20
9.66507
 30
0.0
 10
-0.27938
 20
9.62285
 30
0.0
 10
-0.2948
 20
9.58694
 30
0.0
 10
-0.32554
 20
9.55756
 30
0.0
 10
-0.32554
 20
9.55756
 30
0.0
 10
-0.35638
 20
9.52818
 30
0.0
 10
-0.39534
 20
9.51354
 30
0.0
 10
-0.44239
 20
9.51354
 30
0.0
 10
-0.44239
 20
9.51354
 30
0.0
 10
-0.48484
 20
9.51354
 30
0.0
 10
-0.52007
 20
9.52626
 30
0.0
 10
-0.54811
 20
9.55159
 30
0.0
 10
-0.54811
 20
9.55159
 30
0.0
 10
-0.57625
 20
9.57692
 30
0.0
 10
-0.59224
 20
9.60968
 30
0.0
 10
-0.59618
 20
9.64999
 30
0.0
  0
SPLINE
  5
69
330
1F
100
AcDbEntity
  8
layer 2
 62
     1
100
AcDbSpline
210
0.0
220
0.0
230
1.0
 70
    11
 71
     3
 72
    28
 73
    24
 74
     0
 42
0.0000000001
 43
0.0000000001
 12
1.0
 22
0.0
 32
0.0
 13
1.0
 23
0.0
 33
0.0
 40
0.0
 40
0.0
 40
0.0
 40
0.0
 40
0.1428571428571428
 40
0.1428571428571428
 40
0.1428571428571428
 40
0.1428571428571428
 40
0.2857142857142857
 40
0.2857142857142857
 40
0.2857142857142857
 40
0.2857142857142857
 40
0.4285714285714285
 40
0.4285714285714285
 40
0.4285714285714285
 40
0.4285714285714285
 40
0.5714285714285714
 40
0.5714285714285714
 40
0.5714285714285714
 40
0.5714285714285714
 40
0.7142857142857143
 40
0.7142857142857143
 40
0.7142857142857143
 40
0.7142857142857143
 40
1.0
 40
1.0
 40
1.0
 40
1.0
 10
-0.20136
 20
9.83439
 30
0.0
 10
-0.20136
 20
9.83439
 30
0.0
 10
-0.2178
 20
9.92626
 30
0.0
 10
-0.2178
 20
9.92626
 30
0.0
 10
-0.2178
 20
9.92626
 30
0.0
 10
-0.2178
 20
9.92626
 30
0.0
 10
-0.2178
 20
10.00529
 30
0.0
 10
-0.2178
 20
10.00529
 30
0.0
 10
-0.2178
 20
10.00529
 30
0.0
 10
-0.2178
 20
10.00529
 30
0.0
 10
-0.15025
 20
10.00529
 30
0.0
 10
-0.15025
 20
10.00529
 30
0.0
 10
-0.15025
 20
10.00529
 30
0.0
 10
-0.15025
 20
10.00529
 30
0.0
 10
-0.15025
 20
9.92626
 30
0.0
 10
-0.15025
 20
9.92626
 30
0.0
 10
-0.15025
 20
9.92626
 30
0.0
 10
-0.15025
 20
9.92626
 30
0.0
 10
-0.16511
 20
9.83439
 30
0.0
 10
-0.16511
 20
9.83439
 30
0.0
 10
-0.16511
 20
9.83439
 30
0.0
 10
-0.16511
 20
9.83439
 30
0.0
 10
-0.20136
 20
9.83439
 30
0.0
 10
-0.20136
 20
9.83439
 30
0.0
  0
SPLINE
  5
6A
330
1F
100
AcDbEntity
  8
layer 2
 62
     1
100
AcDbSpline
210
0.0
220
0.0
230
1.0
 70
    11
 71
     3
 72
    28
 73
    24
 74
     0
 42
0.0000000001
 43
0.0000000001
 12
1.0
 22
0.0
 32
0.0
 13
1.0
 23
0.0
 33
0.0
 40
0.0
 40
0.0
 40
0.0
 40
0.0
 40
0.1428571428571428
 40
0.1428571428571428
 40
0.1428571428571428
 40
0.1428571428571428
 40
0.2857142857142857
 40
0.2857142857142857
 40
0.2857142857142857
 40
0.2857142857142857
 40
0.4285714285714285
 40
0.4285714285714285
 40
0.4285714285714285
 40
0.4285714285714285
 40
0.5714285714285714
 40
0.5714285714285714
 40
0.5714285714285714
 40
0.5714285714285714
 40
0.7142857142857143
 40
0.7142857142857143
 40
0.7142857142857143
 40
0.7142857142857143
 40
1.0
 40
1.0
 40
1.0
 40
1.0
 10
-0.09227
 20
9.83439
 30
0.0
 10
-0.09227
 20
9.83439
 30
0.0
 10
-0.10837
 20
9.92626
 30
0.0
 10
-0.10837
 20
9.92626
 30
0.0
 10
-0.10837
 20
9.92626
 30
0.0
 10
-0.10837
 20
9.92626
 30
0.0
 10
-0.10837
 20
10.00529
 30
0.0
 10
-0.10837
 20
10.00529
 30
0.0
 10
-0.10837
 20
10.00529
 30
0.0
 10
-0.10837
 20
10.00529
 30
0.0
 10
-0.04082
 20
10.00529
 30
0.0
 10
-0.04082
 20
10.00529
 30
0.0
 10
-0.04082
 20
10.00529
 30
0.0
 10
-0.04082
 20
10.00529
 30
0.0
 10
-0.04082
 20
9.92626
 30
0.0
 10
-0.04082
 20
9.92626
 30
0.0
 10
-0.04082
 20
9.92626
 30
0.0
 10
-0.04082
 20
9.92626
 30
0.0
 10
-0.0567
 20
9.83439
 30
0.0
 10
-0.0567
 20
9.83439
 30
0.0
 10
-0.0567
 20
9.83439
 30
0.0
 10
-0.0567
 20
9.83439
 30
0.0
 10
-0.09227
 20
9.83439
 30
0.0
 10
-0.09227
 20
9.83439
 30
0.0
  0
SPLINE
  5
6B
330
1F
100
AcDbEntity
  8
layer 2
 62
     1
370
     0
100
AcDbSpline
210
0.0
220
0.0
230
1.0
 70
    24
 71
     3
 72
     8
 73
     4
 74
     0
 42
0.0000000001
 43
0.0000000001
 12
1.0
 22
0.0
 32
0.0
 13
1.0
 23
0.0
 33
0.0
 40
0.0
 40
0.0
 40
0.0
 40
0.0
 40
1.0
 40
1.0
 40
1.0
 40
1.0
 10
5.18917
 20
8.00863
 30
0.0
 10
5.18917
 20
8.00863
 30
0.0
 10
7.6232
 20
8.00863
 30
0.0
 10
7.6232
 20
8.00863
 30
0.0
  0
SPLINE
  5
6C
330
1F
100
AcDbEntity
  8
layer 2
 62
     1
370
     0
100
AcDbSpline
210
0.0
220
0.0
230
1.0
 70
    24
 71
     3
 72
     8
 73
     4
 74
     0
 42
0.0000000001
 43
0.0000000001
 12
1.0
 22
0.0
 32
0.0
 13
1.0
 23
0.0
 33
0.0
 40
0.0
 40
0.0
 40
0.0
 40
0.0
 40
1.0
 40
1.0
 40
1.0
 40
1.0
 10
5.18917
 20
-6.91058
 30
0.0
 10
5.18917
 20
-6.91058
 30
0.0
 10
7.6232
 20
-6.91058
 30
0.0
 10
7.6232
 20
-6.91058
 30
0.0
  0
SPLINE
  5
6D
330
1F
100
AcDbEntity
  8
layer 2
 62
     1
370
     0
100
AcDbSpline
210
0.0
220
0.0
230
1.0
 70
    24
 71
     3
 72
     8
 73
     4
 74
     0
 42
0.0000000001
 43
0.0000000001
 12
1.0
 22
0.0
 32
0.0
 13
1.0
 23
0.0
 33
0.0
 40
0.0
 40
0.0
 40
0.0
 40
0.0
 40
1.0
 40
1.0
 40
1.0
 40
1.0
 10
7.25609
 20
7.27442
 30
0.0
 10
7.25609
 20
7.27442
 30
0.0
 10
7.25609
 20
-6.17637
 30
0.0
 10
7.25609
 20
-6.17637
 30
0.0
  0
SPLINE
  5
6E
330
1F
100
AcDbEntity
  8
layer 2
 62
     1
100
AcDbSpline
210
0.0
220
0.0
230
1.0
 70
    27
 71
     3
 72
    12
 73
     8
 74
     0
 42
0.0000000001
 43
0.0000000001
 12
1.0
 22
0.0
 32
0.0
 13
1.0
 23
0.0
 33
0.0
 40
0.0
 40
0.0
 40
0.0
 40
0.0
 40
0.3333333333333333
 40
0.3333333333333333
 40
0.3333333333333333
 40
0.3333333333333333
 40
1.0
 40
1.0
 40
1.0
 40
1.0
 10
7.13372
 20
7.27442
 30
0.0
 10
7.13372
 20
7.27442
 30
0.0
 10
7.25609
 20
8.00863
 30
0.0
 10
7.25609
 20
8.00863
 30
0.0
 10
7.25609
 20
8.00863
 30
0.0
 10
7.25609
 20
8.00863
 30
0.0
 10
7.13372
 20
7.27442
 30
0.0
 10
7.13372
 20
7.27442
 30
0.0
  0
SPLINE
  5
6F
330
1F
100
AcDbEntity
  8
layer 2
 62
     1
100
AcDbSpline
210
0.0
220
0.0
230
1.0
 70
     8
 71
     3
 72
    12
 73
     8
 74
     0
 42
0.0000000001
 43
0.0000000001
 12
1.0
 22
0.0
 32
0.0
 13
1.0
 23
0.0
 33
0.0
 40
0.0
 40
0.0
 40
0.0
 40
0.0
 40
0.3333333333333333
 40
0.3333333333333333
 40
0.3333333333333333
 40
0.3333333333333333
 40
1.0
 40
1.0
 40
1.0
 40
1.0
 10
7.25609
 20
8.00863
 30
0.0
 10
7.25609
 20
8.00863
 30
0.0
 10
7.37846
 20
7.27442
 30
0.0
 10
7.37846
 20
7.27442
 30
0.0
 10
7.37846
 20
7.27442
 30
0.0
 10
7.37846
 20
7.27442
 30
0.0
 10
7.13372
 20
7.27442
 30
0.0
 10
7.13372
 20
7.27442
 30
0.0
  0
SPLINE
  5
70
330
1F
100
AcDbEntity
  8
layer 2
 62
     1
370
     9
100
AcDbSpline
210
0.0
220
0.0
230
1.0
 70
    24
 71
     3
 72
     8
 73
     4
 74
     0
 42
0.0000000001
 43
0.0000000001
 12
1.0
 22
0.0
 32
0.0
 13
1.0
 23
0.0
 33
0.0
 40
0.0
 40
0.0
 40
0.0
 40
0.0
 40
1.0
 40
1.0
 40
1.0
 40
1.0
 10
7.13372
 20
7.27442
 30
0.0
 10
7.13372
 20
7.27442
 30
0.0
 10
7.25609
 20
8.00863
 30
0.0
 10
7.25609
 20
8.00863
 30
0.0
  0
SPLINE
  5
71
330
1F
100
AcDbEntity
  8
layer 2
 62
     1
370
     9
100
AcDbSpline
210
0.0
220
0.0
230
1.0
 70
     8
 71
     3
 72
    12
 73
     8
 74
     0
 42
0.0000000001
 43
0.0000000001
 12
1.0
 22
0.0
 32
0.0
 13
1.0
 23
0.0
 33
0.0
 40
0.0
 40
0.0
 40
0.0
 40
0.0
 40
0.3333333333333333
 40
0.3333333333333333
 40
0.3333333333333333
 40
0.3333333333333333
 40
1.0
 40
1.0
 40
1.0
 40
1.0
 10
7.25609
 20
8.00863
 30
0.0
 10
7.25609
 20
8.00863
 30
0.0
 10
7.37846
 20
7.27442
 30
0.0
 10
7.37846
 20
7.27442
 30
0.0
 10
7.37846
 20
7.27442
 30
0.0
 10
7.37846
 20
7.27442
 30
0.0
 10
7.13372
 20
7.27442
 30
0.0
 10
7.13372
 20
7.27442
 30
0.0
  0
SPLINE
  5
72
330
1F
100
AcDbEntity
  8
layer 2
 62
     1
100
AcDbSpline
210
0.0
220
0.0
230
1.0
 70
    27
 71
     3
 72
    12
 73
     8
 74
     0
 42
0.0000000001
 43
0.0000000001
 12
1.0
 22
0.0
 32
0.0
 13
1.0
 23
0.0
 33
0.0
 40
0.0
 40
0.0
 40
0.0
 40
0.0
 40
0.3333333333333333
 40
0.3333333333333333
 40
0.3333333333333333
 40
0.3333333333333333
 40
1.0
 40
1.0
 40
1.0
 40
1.0
 10
7.13372
 20
-6.17637
 30
0.0
 10
7.13372
 20
-6.17637
 30
0.0
 10
7.25609
 20
-6.91058
 30
0.0
 10
7.25609
 20
-6.91058
 30
0.0
 10
7.25609
 20
-6.91058
 30
0.0
 10
7.25609
 20
-6.91058
 30
0.0
 10
7.13372
 20
-6.17637
 30
0.0
 10
7.13372
 20
-6.17637
 30
0.0
  0
SPLINE
  5
73
330
1F
100
AcDbEntity
  8
layer 2
 62
     1
100
AcDbSpline
210
0.0
220
0.0
230
1.0
 70
     8
 71
     3
 72
    12
 73
     8
 74
     0
 42
0.0000000001
 43
0.0000000001
 12
1.0
 22
0.0
 32
0.0
 13
1.0
 23
0.0
 33
0.0
 40
0.0
 40
0.0
 40
0.0
 40
0.0
 40
0.3333333333333333
 40
0.3333333333333333
 40
0.3333333333333333
 40
0.3333333333333333
 40
1.0
 40
1.0
 40
1.0
 40
1.0
 10
7.25609
 20
-6.91058
 30
0.0
 10
7.25609
 20
-6.91058
 30
0.0
 10
7.37846
 20
-6.17637
 30
0.0
 10
7.37846
 20
-6.17637
 30
0.0
 10
7.37846
 20
-6.17637
 30
0.0
 10
7.37846
 20
-6.17637
 30
0.0
 10
7.13372
 20
-6.17637
 30
0.0
 10
7.13372
 20
-6.17637
 30
0.0
  0
SPLINE
  5
74
330
1F
100
AcDbEntity
  8
layer 2
 62
     1
370
     9
100
AcDbSpline
210
0.0
220
0.0
230
1.0
 70
    24
 71
     3
 72
     8
 73
     4
 74
     0
 42
0.0000000001
 43
0.0000000001
 12
1.0
 22
0.0
 32
0.0
 13
1.0
 23
0.0
 33
0.0
 40
0.0
 40
0.0
 40
0.0
 40
0.0
 40
1.0
 40
1.0
 40
1.0
 40
1.0
 10
7.13372
 20
-6.17637
 30
0.0
 10
7.13372
 20
-6.17637
 30
0.0
 10
7.25609
 20
-6.91058
 30
0.0
 10
7.25609
 20
-6.91058
 30
0.0
  0
SPLINE
  5
75
330
1F
100
AcDbEntity
  8
layer 2
 62
     1
370
     9
100
AcDbSpline
210
0.0
220
0.0
230
1.0
 70
     8
 71
     3
 72
    12
 73
     8
 74
     0
 42
0.0000000001
 43
0.0000000001
 12
1.0
 22
0.0
 32
0.0
 13
1.0
 23
0.0
 33
0.0
 40
0.0
 40
0.0
 40
0.0
 40
0.0
 40
0.3333333333333333
 40
0.3333333333333333
 40
0.3333333333333333
 40
0.3333333333333333
 40
1.0
 40
1.0
 40
1.0
 40
1.0
 10
7.25609
 20
-6.91058
 30
0.0
 10
7.25609
 20
-6.91058
 30
0.0
 10
7.37846
 20
-6.17637
 30
0.0
 10
7.37846
 20
-6.17637
 30
0.0
 10
7.37846
 20
-6.17637
 30
0.0
 10
7.37846
 20
-6.17637
 30
0.0
 10
7.13372
 20
-6.17637
 30
0.0
 10
7.13372
 20
-6.17637
 30
0.0
  0
SPLINE
  5
76
330
1F
100
AcDbEntity
  8
layer 2
 62
     1
100
AcDbSpline
210
0.0
220
0.0
230
1.0
 70
    11
 71
     3
 72
    40
 73
    36
 74
     0
 42
0.0000000001
 43
0.0000000001
 12
1.0
 22
0.0
 32
0.0
 13
1.0
 23
0.0
 33
0.0
 40
0.0
 40
0.0
 40
0.0
 40
0.0
 40
0.1
 40
0.1
 40
0.1
 40
0.1
 40
0.2
 40
0.2
 40
0.2
 40
0.2
 40
0.3
 40
0.3
 40
0.3
 40
0.3
 40
0.4
 40
0.4
 40
0.4
 40
0.4
 40
0.5
 40
0.5
 40
0.5
 40
0.5
 40
0.6
 40
0.6
 40
0.6
 40
0.6
 40
0.7
 40
0.7
 40
0.7
 40
0.7
 40
0.8
 40
0.8
 40
0.8
 40
0.8
 40
1.0
 40
1.0
 40
1.0
 40
1.0
 10
6.94222
 20
1.78434
 30
0.0
 10
6.94222
 20
1.78434
 30
0.0
 10
6.94222
 20
1.7249
 30
0.0
 10
6.94222
 20
1.7249
 30
0.0
 10
6.94222
 20
1.7249
 30
0.0
 10
6.94222
 20
1.7249
 30
0.0
 10
6.56373
 20
1.7249
 30
0.0
 10
6.56373
 20
1.7249
 30
0.0
 10
6.56373
 20
1.7249
 30
0.0
 10
6.57746
 20
1.7106
 30
0.0
 10
6.59108
 20
1.6918
 30
0.0
 10
6.6047
 20
1.66861
 30
0.0
 10
6.6047
 20
1.66861
 30
0.0
 10
6.61833
 20
1.64542
 30
0.0
 10
6.62857
 20
1.62448
 30
0.0
 10
6.63533
 20
1.60602
 30
0.0
 10
6.63533
 20
1.60602
 30
0.0
 10
6.63533
 20
1.60602
 30
0.0
 10
6.57791
 20
1.60602
 30
0.0
 10
6.57791
 20
1.60602
 30
0.0
 10
6.57791
 20
1.60602
 30
0.0
 10
6.56238
 20
1.63923
 30
0.0
 10
6.54346
 20
1.66827
 30
0.0
 10
6.52117
 20
1.69315
 30
0.0
 10
6.52117
 20
1.69315
 30
0.0
 10
6.49899
 20
1.71803
 30
0.0
 10
6.47749
 20
1.73571
 30
0.0
 10
6.45655
 20
1.74606
 30
0.0
 10
6.45655
 20
1.74606
 30
0.0
 10
6.45655
 20
1.74606
 30
0.0
 10
6.45655
 20
1.78434
 30
0.0
 10
6.45655
 20
1.78434
 30
0.0
 10
6.45655
 20
1.78434
 30
0.0
 10
6.45655
 20
1.78434
 30
0.0
 10
6.94222
 20
1.78434
 30
0.0
 10
6.94222
 20
1.78434
 30
0.0
  0
SPLINE
  5
77
330
1F
100
AcDbEntity
  8
layer 2
 62
     1
100
AcDbSpline
210
0.0
220
0.0
230
1.0
 70
    11
 71
     3
 72
    80
 73
    76
 74
     0
 42
0.0000000001
 43
0.0000000001
 12
1.0
 22
0.0
 32
0.0
 13
1.0
 23
0.0
 33
0.0
 40
0.0
 40
0.0
 40
0.0
 40
0.0
 40
0.05
 40
0.05
 40
0.05
 40
0.05
 40
0.1
 40
0.1
 40
0.1
 40
0.1
 40
0.15
 40
0.15
 40
0.15
 40
0.15
 40
0.2
 40
0.2
 40
0.2
 40
0.2
 40
0.25
 40
0.25
 40
0.25
 40
0.25
 40
0.3
 40
0.3
 40
0.3
 40
0.3
 40
0.35
 40
0.35
 40
0.35
 40
0.35
 40
0.4
 40
0.4
 40
0.4
 40
0.4
 40
0.45
 40
0.45
 40
0.45
 40
0.45
 40
0.5
 40
0.5
 40
0.5
 40
0.5
 40
0.55
 40
0.55
 40
0.55
 40
0.55
 40
0.6
 40
0.6
 40
0.6
 40
0.6
 40
0.65
 40
0.65
 40
0.65
 40
0.65
 40
0.7
 40
0.7
 40
0.7
 40
0.7
 40
0.75
 40
0.75
 40
0.75
 40
0.75
 40
0.8
 40
0.8
 40
0.8
 40
0.8
 40
0.85
 40
0.85
 40
0.85
 40
0.85
 40
0.9
 40
0.9
 40
0.9
 40
0.9
 40
1.0
 40
1.0
 40
1.0
 40
1.0
 10
6.57678
 20
2.24581
 30
0.0
 10
6.57678
 20
2.24581
 30
0.0
 10
6.58151
 20
2.18704
 30
0.0
 10
6.58151
 20
2.18704
 30
0.0
 10
6.58151
 20
2.18704
 30
0.0
 10
6.55821
 20
2.18175
 30
0.0
 10
6.54121
 20
2.17421
 30
0.0
 10
6.53063
 20
2.16441
 30
0.0
 10
6.53063
 20
2.16441
 30
0.0
 10
6.51363
 20
2.14831
 30
0.0
 10
6.50518
 20
2.12839
 30
0.0
 10
6.50518
 20
2.10475
 30
0.0
 10
6.50518
 20
2.10475
 30
0.0
 10
6.50518
 20
2.08572
 30
0.0
 10
6.51047
 20
2.06883
 30
0.0
 10
6.52106
 20
2.05431
 30
0.0
 10
6.52106
 20
2.05431
 30
0.0
 10
6.53468
 20
2.03562
 30
0.0
 10
6.55449
 20
2.02099
 30
0.0
 10
6.58061
 20
2.01006
 30
0.0
 10
6.58061
 20
2.01006
 30
0.0
 10
6.60684
 20
1.99926
 30
0.0
 10
6.64411
 20
1.99363
 30
0.0
 10
6.6924
 20
1.99318
 30
0.0
 10
6.6924
 20
1.99318
 30
0.0
 10
6.67068
 20
2.00748
 30
0.0
 10
6.65446
 20
2.02504
 30
0.0
 10
6.64399
 20
2.04575
 30
0.0
 10
6.64399
 20
2.04575
 30
0.0
 10
6.63341
 20
2.06647
 30
0.0
 10
6.62812
 20
2.08808
 30
0.0
 10
6.62812
 20
2.11082
 30
0.0
 10
6.62812
 20
2.11082
 30
0.0
 10
6.62812
 20
2.15045
 30
0.0
 10
6.64276
 20
2.18422
 30
0.0
 10
6.67191
 20
2.21215
 30
0.0
 10
6.67191
 20
2.21215
 30
0.0
 10
6.70107
 20
2.23995
 30
0.0
 10
6.73867
 20
2.25391
 30
0.0
 10
6.78494
 20
2.25391
 30
0.0
 10
6.78494
 20
2.25391
 30
0.0
 10
6.81534
 20
2.25391
 30
0.0
 10
6.84348
 20
2.24738
 30
0.0
 10
6.8696
 20
2.23432
 30
0.0
 10
6.8696
 20
2.23432
 30
0.0
 10
6.89572
 20
2.22115
 30
0.0
 10
6.91565
 20
2.20325
 30
0.0
 10
6.9295
 20
2.18028
 30
0.0
 10
6.9295
 20
2.18028
 30
0.0
 10
6.94334
 20
2.15743
 30
0.0
 10
6.95032
 20
2.13143
 30
0.0
 10
6.95032
 20
2.10238
 30
0.0
 10
6.95032
 20
2.10238
 30
0.0
 10
6.95032
 20
2.05296
 30
0.0
 10
6.93208
 20
2.01254
 30
0.0
 10
6.89572
 20
1.98124
 30
0.0
 10
6.89572
 20
1.98124
 30
0.0
 10
6.85936
 20
1.95006
 30
0.0
 10
6.79935
 20
1.93441
 30
0.0
 10
6.71582
 20
1.93441
 30
0.0
 10
6.71582
 20
1.93441
 30
0.0
 10
6.62238
 20
1.93441
 30
0.0
 10
6.55438
 20
1.95175
 30
0.0
 10
6.51194
 20
1.98631
 30
0.0
 10
6.51194
 20
1.98631
 30
0.0
 10
6.47501
 20
2.01648
 30
0.0
 10
6.45655
 20
2.05712
 30
0.0
 10
6.45655
 20
2.10835
 30
0.0
 10
6.45655
 20
2.10835
 30
0.0
 10
6.45655
 20
2.1464
 30
0.0
 10
6.46724
 20
2.1777
 30
0.0
 10
6.48852
 20
2.20201
 30
0.0
 10
6.48852
 20
2.20201
 30
0.0
 10
6.5098
 20
2.22633
 30
0.0
 10
6.53918
 20
2.24096
 30
0.0
 10
6.57678
 20
2.24581
 30
0.0
  0
SPLINE
  5
78
330
1F
100
AcDbEntity
  8
layer 2
 62
     1
100
AcDbSpline
210
0.0
220
0.0
230
1.0
 70
    11
 71
     3
 72
    40
 73
    36
 74
     0
 42
0.0000000001
 43
0.0000000001
 12
1.0
 22
0.0
 32
0.0
 13
1.0
 23
0.0
 33
0.0
 40
0.0
 40
0.0
 40
0.0
 40
0.0
 40
0.1
 40
0.1
 40
0.1
 40
0.1
 40
0.2
 40
0.2
 40
0.2
 40
0.2
 40
0.3
 40
0.3
 40
0.3
 40
0.3
 40
0.4
 40
0.4
 40
0.4
 40
0.4
 40
0.5
 40
0.5
 40
0.5
 40
0.5
 40
0.6
 40
0.6
 40
0.6
 40
0.6
 40
0.7
 40
0.7
 40
0.7
 40
0.7
 40
0.8
 40
0.8
 40
0.8
 40
0.8
 40
1.0
 40
1.0
 40
1.0
 40
1.0
 10
6.78551
 20
2.00263
 30
0.0
 10
6.80599
 20
2.00263
 30
0.0
 10
6.82558
 20
2.00703
 30
0.0
 10
6.84427
 20
2.01569
 30
0.0
 10
6.84427
 20
2.01569
 30
0.0
 10
6.86296
 20
2.02436
 30
0.0
 10
6.87715
 20
2.03652
 30
0.0
 10
6.88694
 20
2.05194
 30
0.0
 10
6.88694
 20
2.05194
 30
0.0
 10
6.89674
 20
2.06748
 30
0.0
 10
6.90169
 20
2.08392
 30
0.0
 10
6.90169
 20
2.10137
 30
0.0
 10
6.90169
 20
2.10137
 30
0.0
 10
6.90169
 20
2.1267
 30
0.0
 10
6.89156
 20
2.14831
 30
0.0
 10
6.87129
 20
2.16621
 30
0.0
 10
6.87129
 20
2.16621
 30
0.0
 10
6.85103
 20
2.18411
 30
0.0
 10
6.82356
 20
2.19312
 30
0.0
 10
6.78877
 20
2.19312
 30
0.0
 10
6.78877
 20
2.19312
 30
0.0
 10
6.75533
 20
2.19312
 30
0.0
 10
6.72899
 20
2.18422
 30
0.0
 10
6.70974
 20
2.16655
 30
0.0
 10
6.70974
 20
2.16655
 30
0.0
 10
6.69049
 20
2.14888
 30
0.0
 10
6.68081
 20
2.12636
 30
0.0
 10
6.68081
 20
2.099
 30
0.0
 10
6.68081
 20
2.099
 30
0.0
 10
6.68081
 20
2.07221
 30
0.0
 10
6.69049
 20
2.04936
 30
0.0
 10
6.70974
 20
2.03067
 30
0.0
 10
6.70974
 20
2.03067
 30
0.0
 10
6.72899
 20
2.01198
 30
0.0
 10
6.75421
 20
2.00263
 30
0.0
 10
6.78551
 20
2.00263
 30
0.0
  0
SPLINE
  5
79
330
1F
100
AcDbEntity
  8
layer 2
 62
     1
100
AcDbSpline
210
0.0
220
0.0
230
1.0
 70
    11
 71
     3
 72
    28
 73
    24
 74
     0
 42
0.0000000001
 43
0.0000000001
 12
1.0
 22
0.0
 32
0.0
 13
1.0
 23
0.0
 33
0.0
 40
0.0
 40
0.0
 40
0.0
 40
0.0
 40
0.1428571428571428
 40
0.1428571428571428
 40
0.1428571428571428
 40
0.1428571428571428
 40
0.2857142857142857
 40
0.2857142857142857
 40
0.2857142857142857
 40
0.2857142857142857
 40
0.4285714285714285
 40
0.4285714285714285
 40
0.4285714285714285
 40
0.4285714285714285
 40
0.5714285714285714
 40
0.5714285714285714
 40
0.5714285714285714
 40
0.5714285714285714
 40
0.7142857142857143
 40
0.7142857142857143
 40
0.7142857142857143
 40
0.7142857142857143
 40
1.0
 40
1.0
 40
1.0
 40
1.0
 10
6.62947
 20
2.33193
 30
0.0
 10
6.62947
 20
2.33193
 30
0.0
 10
6.53761
 20
2.31549
 30
0.0
 10
6.53761
 20
2.31549
 30
0.0
 10
6.53761
 20
2.31549
 30
0.0
 10
6.53761
 20
2.31549
 30
0.0
 10
6.45858
 20
2.31549
 30
0.0
 10
6.45858
 20
2.31549
 30
0.0
 10
6.45858
 20
2.31549
 30
0.0
 10
6.45858
 20
2.31549
 30
0.0
 10
6.45858
 20
2.38304
 30
0.0
 10
6.45858
 20
2.38304
 30
0.0
 10
6.45858
 20
2.38304
 30
0.0
 10
6.45858
 20
2.38304
 30
0.0
 10
6.53761
 20
2.38304
 30
0.0
 10
6.53761
 20
2.38304
 30
0.0
 10
6.53761
 20
2.38304
 30
0.0
 10
6.53761
 20
2.38304
 30
0.0
 10
6.62947
 20
2.36818
 30
0.0
 10
6.62947
 20
2.36818
 30
0.0
 10
6.62947
 20
2.36818
 30
0.0
 10
6.62947
 20
2.36818
 30
0.0
 10
6.62947
 20
2.33193
 30
0.0
 10
6.62947
 20
2.33193
 30
0.0
  0
SPLINE
  5
7A
330
1F
100
AcDbEntity
  8
layer 2
 62
     1
100
AcDbSpline
210
0.0
220
0.0
230
1.0
 70
    11
 71
     3
 72
    28
 73
    24
 74
     0
 42
0.0000000001
 43
0.0000000001
 12
1.0
 22
0.0
 32
0.0
 13
1.0
 23
0.0
 33
0.0
 40
0.0
 40
0.0
 40
0.0
 40
0.0
 40
0.1428571428571428
 40
0.1428571428571428
 40
0.1428571428571428
 40
0.1428571428571428
 40
0.2857142857142857
 40
0.2857142857142857
 40
0.2857142857142857
 40
0.2857142857142857
 40
0.4285714285714285
 40
0.4285714285714285
 40
0.4285714285714285
 40
0.4285714285714285
 40
0.5714285714285714
 40
0.5714285714285714
 40
0.5714285714285714
 40
0.5714285714285714
 40
0.7142857142857143
 40
0.7142857142857143
 40
0.7142857142857143
 40
0.7142857142857143
 40
1.0
 40
1.0
 40
1.0
 40
1.0
 10
6.62947
 20
2.44102
 30
0.0
 10
6.62947
 20
2.44102
 30
0.0
 10
6.53761
 20
2.42492
 30
0.0
 10
6.53761
 20
2.42492
 30
0.0
 10
6.53761
 20
2.42492
 30
0.0
 10
6.53761
 20
2.42492
 30
0.0
 10
6.45858
 20
2.42492
 30
0.0
 10
6.45858
 20
2.42492
 30
0.0
 10
6.45858
 20
2.42492
 30
0.0
 10
6.45858
 20
2.42492
 30
0.0
 10
6.45858
 20
2.49247
 30
0.0
 10
6.45858
 20
2.49247
 30
0.0
 10
6.45858
 20
2.49247
 30
0.0
 10
6.45858
 20
2.49247
 30
0.0
 10
6.53761
 20
2.49247
 30
0.0
 10
6.53761
 20
2.49247
 30
0.0
 10
6.53761
 20
2.49247
 30
0.0
 10
6.53761
 20
2.49247
 30
0.0
 10
6.62947
 20
2.47659
 30
0.0
 10
6.62947
 20
2.47659
 30
0.0
 10
6.62947
 20
2.47659
 30
0.0
 10
6.62947
 20
2.47659
 30
0.0
 10
6.62947
 20
2.44102
 30
0.0
 10
6.62947
 20
2.44102
 30
0.0
  0
SPLINE
  5
7B
330
1F
100
AcDbEntity
  8
layer 2
 62
     1
370
     0
100
AcDbSpline
210
0.0
220
0.0
230
1.0
 70
    24
 71
     3
 72
     8
 73
     4
 74
     0
 42
0.0000000001
 43
0.0000000001
 12
1.0
 22
0.0
 32
0.0
 13
1.0
 23
0.0
 33
0.0
 40
0.0
 40
0.0
 40
0.0
 40
0.0
 40
1.0
 40
1.0
 40
1.0
 40
1.0
 10
-8.92514
 20
-8.36797
 30
0.0
 10
-8.92514
 20
-8.36797
 30
0.0
 10
-6.83075
 20
-6.92284
 30
0.0
 10
-6.83075
 20
-6.92284
 30
0.0
  0
SPLINE
  5
7C
330
1F
100
AcDbEntity
  8
layer 2
 62
     1
100
AcDbSpline
210
0.0
220
0.0
230
1.0
 70
    11
 71
     3
 72
    80
 73
    76
 74
     0
 42
0.0000000001
 43
0.0000000001
 12
1.0
 22
0.0
 32
0.0
 13
1.0
 23
0.0
 33
0.0
 40
0.0
 40
0.0
 40
0.0
 40
0.0
 40
0.05
 40
0.05
 40
0.05
 40
0.05
 40
0.1
 40
0.1
 40
0.1
 40
0.1
 40
0.15
 40
0.15
 40
0.15
 40
0.15
 40
0.2
 40
0.2
 40
0.2
 40
0.2
 40
0.25
 40
0.25
 40
0.25
 40
0.25
 40
0.3
 40
0.3
 40
0.3
 40
0.3
 40
0.35
 40
0.35
 40
0.35
 40
0.35
 40
0.4
 40
0.4
 40
0.4
 40
0.4
 40
0.45
 40
0.45
 40
0.45
 40
0.45
 40
0.5
 40
0.5
 40
0.5
 40
0.5
 40
0.55
 40
0.55
 40
0.55
 40
0.55
 40
0.6
 40
0.6
 40
0.6
 40
0.6
 40
0.65
 40
0.65
 40
0.65
 40
0.65
 40
0.7
 40
0.7
 40
0.7
 40
0.7
 40
0.75
 40
0.75
 40
0.75
 40
0.75
 40
0.8
 40
0.8
 40
0.8
 40
0.8
 40
0.85
 40
0.85
 40
0.85
 40
0.85
 40
0.9
 40
0.9
 40
0.9
 40
0.9
 40
1.0
 40
1.0
 40
1.0
 40
1.0
 10
-8.667
 20
-6.85688
 30
0.0
 10
-8.667
 20
-6.85688
 30
0.0
 10
-8.94168
 20
-6.45881
 30
0.0
 10
-8.94168
 20
-6.45881
 30
0.0
 10
-8.94168
 20
-6.45881
 30
0.0
 10
-8.94168
 20
-6.45881
 30
0.0
 10
-8.76525
 20
-6.33707
 30
0.0
 10
-8.76525
 20
-6.33707
 30
0.0
 10
-8.76525
 20
-6.33707
 30
0.0
 10
-8.72976
 20
-6.31258
 30
0.0
 10
-8.7003
 20
-6.29759
 30
0.0
 10
-8.67694
 20
-6.292
 30
0.0
 10
-8.67694
 20
-6.292
 30
0.0
 10
-8.65357
 20
-6.28642
 30
0.0
 10
-8.63015
 20
-6.28885
 30
0.0
 10
-8.60665
 20
-6.29931
 30
0.0
 10
-8.60665
 20
-6.29931
 30
0.0
 10
-8.58316
 20
-6.30977
 30
0.0
 10
-8.56388
 20
-6.32601
 30
0.0
 10
-8.54879
 20
-6.34789
 30
0.0
 10
-8.54879
 20
-6.34789
 30
0.0
 10
-8.52929
 20
-6.37615
 30
0.0
 10
-8.52203
 20
-6.40629
 30
0.0
 10
-8.52692
 20
-6.43825
 30
0.0
 10
-8.52692
 20
-6.43825
 30
0.0
 10
-8.53182
 20
-6.47021
 30
0.0
 10
-8.55154
 20
-6.50188
 30
0.0
 10
-8.58608
 20
-6.53351
 30
0.0
 10
-8.58608
 20
-6.53351
 30
0.0
 10
-8.56748
 20
-6.53052
 30
0.0
 10
-8.55232
 20
-6.5299
 30
0.0
 10
-8.54061
 20
-6.5314
 30
0.0
 10
-8.54061
 20
-6.5314
 30
0.0
 10
-8.51551
 20
-6.53487
 30
0.0
 10
-8.48875
 20
-6.54253
 30
0.0
 10
-8.46049
 20
-6.55436
 30
0.0
 10
-8.46049
 20
-6.55436
 30
0.0
 10
-8.46049
 20
-6.55436
 30
0.0
 10
-8.31684
 20
-6.61526
 30
0.0
 10
-8.31684
 20
-6.61526
 30
0.0
 10
-8.31684
 20
-6.61526
 30
0.0
 10
-8.31684
 20
-6.61526
 30
0.0
 10
-8.38262
 20
-6.66066
 30
0.0
 10
-8.38262
 20
-6.66066
 30
0.0
 10
-8.38262
 20
-6.66066
 30
0.0
 10
-8.38262
 20
-6.66066
 30
0.0
 10
-8.49242
 20
-6.61414
 30
0.0
 10
-8.49242
 20
-6.61414
 30
0.0
 10
-8.49242
 20
-6.61414
 30
0.0
 10
-8.52427
 20
-6.60069
 30
0.0
 10
-8.54955
 20
-6.59119
 30
0.0
 10
-8.56823
 20
-6.58534
 30
0.0
 10
-8.56823
 20
-6.58534
 30
0.0
 10
-8.587
 20
-6.57955
 30
0.0
 10
-8.60197
 20
-6.57688
 30
0.0
 10
-8.61336
 20
-6.57722
 30
0.0
 10
-8.61336
 20
-6.57722
 30
0.0
 10
-8.6246
 20
-6.57759
 30
0.0
 10
-8.63509
 20
-6.57963
 30
0.0
 10
-8.64465
 20
-6.58322
 30
0.0
 10
-8.64465
 20
-6.58322
 30
0.0
 10
-8.6514
 20
-6.5861
 30
0.0
 10
-8.66158
 20
-6.59217
 30
0.0
 10
-8.6752
 20
-6.60157
 30
0.0
 10
-8.6752
 20
-6.60157
 30
0.0
 10
-8.6752
 20
-6.60157
 30
0.0
 10
-8.73618
 20
-6.64364
 30
0.0
 10
-8.73618
 20
-6.64364
 30
0.0
 10
-8.73618
 20
-6.64364
 30
0.0
 10
-8.73618
 20
-6.64364
 30
0.0
 10
-8.61419
 20
-6.82044
 30
0.0
 10
-8.61419
 20
-6.82044
 30
0.0
 10
-8.61419
 20
-6.82044
 30
0.0
 10
-8.61419
 20
-6.82044
 30
0.0
 10
-8.667
 20
-6.85688
 30
0.0
 10
-8.667
 20
-6.85688
 30
0.0
  0
SPLINE
  5
7D
330
1F
100
AcDbEntity
  8
layer 2
 62
     1
100
AcDbSpline
210
0.0
220
0.0
230
1.0
 70
    11
 71
     3
 72
    36
 73
    32
 74
     0
 42
0.0000000001
 43
0.0000000001
 12
1.0
 22
0.0
 32
0.0
 13
1.0
 23
0.0
 33
0.0
 40
0.0
 40
0.0
 40
0.0
 40
0.0
 40
0.1111111111111111
 40
0.1111111111111111
 40
0.1111111111111111
 40
0.1111111111111111
 40
0.2222222222222222
 40
0.2222222222222222
 40
0.2222222222222222
 40
0.2222222222222222
 40
0.3333333333333333
 40
0.3333333333333333
 40
0.3333333333333333
 40
0.3333333333333333
 40
0.4444444444444444
 40
0.4444444444444444
 40
0.4444444444444444
 40
0.4444444444444444
 40
0.5555555555555556
 40
0.5555555555555556
 40
0.5555555555555556
 40
0.5555555555555556
 40
0.6666666666666666
 40
0.6666666666666666
 40
0.6666666666666666
 40
0.6666666666666666
 40
0.7777777777777778
 40
0.7777777777777778
 40
0.7777777777777778
 40
0.7777777777777778
 40
1.0
 40
1.0
 40
1.0
 40
1.0
 10
-8.76763
 20
-6.59805
 30
0.0
 10
-8.76763
 20
-6.59805
 30
0.0
 10
-8.65459
 20
-6.52005
 30
0.0
 10
-8.65459
 20
-6.52005
 30
0.0
 10
-8.65459
 20
-6.52005
 30
0.0
 10
-8.63049
 20
-6.50342
 30
0.0
 10
-8.6135
 20
-6.48801
 30
0.0
 10
-8.60343
 20
-6.47367
 30
0.0
 10
-8.60343
 20
-6.47367
 30
0.0
 10
-8.59329
 20
-6.45942
 30
0.0
 10
-8.5885
 20
-6.44435
 30
0.0
 10
-8.58916
 20
-6.42854
 30
0.0
 10
-8.58916
 20
-6.42854
 30
0.0
 10
-8.58966
 20
-6.41274
 30
0.0
 10
-8.59432
 20
-6.39845
 30
0.0
 10
-8.60321
 20
-6.38557
 30
0.0
 10
-8.60321
 20
-6.38557
 30
0.0
 10
-8.61619
 20
-6.36676
 30
0.0
 10
-8.6337
 20
-6.35586
 30
0.0
 10
-8.6557
 20
-6.35312
 30
0.0
 10
-8.6557
 20
-6.35312
 30
0.0
 10
-8.67769
 20
-6.35038
 30
0.0
 10
-8.70334
 20
-6.35919
 30
0.0
 10
-8.73272
 20
-6.37946
 30
0.0
 10
-8.73272
 20
-6.37946
 30
0.0
 10
-8.73272
 20
-6.37946
 30
0.0
 10
-8.85855
 20
-6.46628
 30
0.0
 10
-8.85855
 20
-6.46628
 30
0.0
 10
-8.85855
 20
-6.46628
 30
0.0
 10
-8.85855
 20
-6.46628
 30
0.0
 10
-8.76763
 20
-6.59805
 30
0.0
 10
-8.76763
 20
-6.59805
 30
0.0
  0
SPLINE
  5
7E
330
1F
100
AcDbEntity
  8
layer 2
 62
     1
100
AcDbSpline
210
0.0
220
0.0
230
1.0
 70
    11
 71
     3
 72
    40
 73
    36
 74
     0
 42
0.0000000001
 43
0.0000000001
 12
1.0
 22
0.0
 32
0.0
 13
1.0
 23
0.0
 33
0.0
 40
0.0
 40
0.0
 40
0.0
 40
0.0
 40
0.1
 40
0.1
 40
0.1
 40
0.1
 40
0.2
 40
0.2
 40
0.2
 40
0.2
 40
0.3
 40
0.3
 40
0.3
 40
0.3
 40
0.4
 40
0.4
 40
0.4
 40
0.4
 40
0.5
 40
0.5
 40
0.5
 40
0.5
 40
0.6
 40
0.6
 40
0.6
 40
0.6
 40
0.7
 40
0.7
 40
0.7
 40
0.7
 40
0.8
 40
0.8
 40
0.8
 40
0.8
 40
1.0
 40
1.0
 40
1.0
 40
1.0
 10
-8.1026
 20
-6.46744
 30
0.0
 10
-8.1026
 20
-6.46744
 30
0.0
 10
-8.15153
 20
-6.5012
 30
0.0
 10
-8.15153
 20
-6.5012
 30
0.0
 10
-8.15153
 20
-6.5012
 30
0.0
 10
-8.15153
 20
-6.5012
 30
0.0
 10
-8.36648
 20
-6.18967
 30
0.0
 10
-8.36648
 20
-6.18967
 30
0.0
 10
-8.36648
 20
-6.18967
 30
0.0
 10
-8.37045
 20
-6.2091
 30
0.0
 10
-8.37819
 20
-6.23099
 30
0.0
 10
-8.38954
 20
-6.25537
 30
0.0
 10
-8.38954
 20
-6.25537
 30
0.0
 10
-8.40089
 20
-6.27975
 30
0.0
 10
-8.41231
 20
-6.30008
 30
0.0
 10
-8.42367
 20
-6.31612
 30
0.0
 10
-8.42367
 20
-6.31612
 30
0.0
 10
-8.42367
 20
-6.31612
 30
0.0
 10
-8.45628
 20
-6.26887
 30
0.0
 10
-8.45628
 20
-6.26887
 30
0.0
 10
-8.45628
 20
-6.26887
 30
0.0
 10
-8.43776
 20
-6.23722
 30
0.0
 10
-8.4246
 20
-6.20515
 30
0.0
 10
-8.41678
 20
-6.17268
 30
0.0
 10
-8.41678
 20
-6.17268
 30
0.0
 10
-8.4089
 20
-6.14029
 30
0.0
 10
-8.40656
 20
-6.11256
 30
0.0
 10
-8.40993
 20
-6.08944
 30
0.0
 10
-8.40993
 20
-6.08944
 30
0.0
 10
-8.40993
 20
-6.08944
 30
0.0
 10
-8.37842
 20
-6.0677
 30
0.0
 10
-8.37842
 20
-6.0677
 30
0.0
 10
-8.37842
 20
-6.0677
 30
0.0
 10
-8.37842
 20
-6.0677
 30
0.0
 10
-8.1026
 20
-6.46744
 30
0.0
 10
-8.1026
 20
-6.46744
 30
0.0
  0
SPLINE
  5
7F
330
1F
100
AcDbEntity
  8
layer 2
 62
     1
100
AcDbSpline
210
0.0
220
0.0
230
1.0
 70
    11
 71
     3
 72
    92
 73
    88
 74
     0
 42
0.0000000001
 43
0.0000000001
 12
1.0
 22
0.0
 32
0.0
 13
1.0
 23
0.0
 33
0.0
 40
0.0
 40
0.0
 40
0.0
 40
0.0
 40
0.0434782608695652
 40
0.0434782608695652
 40
0.0434782608695652
 40
0.0434782608695652
 40
0.0869565217391304
 40
0.0869565217391304
 40
0.0869565217391304
 40
0.0869565217391304
 40
0.1304347826086956
 40
0.1304347826086956
 40
0.1304347826086956
 40
0.1304347826086956
 40
0.1739130434782609
 40
0.1739130434782609
 40
0.1739130434782609
 40
0.1739130434782609
 40
0.2173913043478261
 40
0.2173913043478261
 40
0.2173913043478261
 40
0.2173913043478261
 40
0.2608695652173913
 40
0.2608695652173913
 40
0.2608695652173913
 40
0.2608695652173913
 40
0.3043478260869565
 40
0.3043478260869565
 40
0.3043478260869565
 40
0.3043478260869565
 40
0.3478260869565217
 40
0.3478260869565217
 40
0.3478260869565217
 40
0.3478260869565217
 40
0.391304347826087
 40
0.391304347826087
 40
0.391304347826087
 40
0.391304347826087
 40
0.4347826086956522
 40
0.4347826086956522
 40
0.4347826086956522
 40
0.4347826086956522
 40
0.4782608695652174
 40
0.4782608695652174
 40
0.4782608695652174
 40
0.4782608695652174
 40
0.5217391304347826
 40
0.5217391304347826
 40
0.5217391304347826
 40
0.5217391304347826
 40
0.5652173913043478
 40
0.5652173913043478
 40
0.5652173913043478
 40
0.5652173913043478
 40
0.6086956521739131
 40
0.6086956521739131
 40
0.6086956521739131
 40
0.6086956521739131
 40
0.6521739130434783
 40
0.6521739130434783
 40
0.6521739130434783
 40
0.6521739130434783
 40
0.6956521739130435
 40
0.6956521739130435
 40
0.6956521739130435
 40
0.6956521739130435
 40
0.7391304347826086
 40
0.7391304347826086
 40
0.7391304347826086
 40
0.7391304347826086
 40
0.782608695652174
 40
0.782608695652174
 40
0.782608695652174
 40
0.782608695652174
 40
0.8260869565217391
 40
0.8260869565217391
 40
0.8260869565217391
 40
0.8260869565217391
 40
0.8695652173913043
 40
0.8695652173913043
 40
0.8695652173913043
 40
0.8695652173913043
 40
0.9130434782608695
 40
0.9130434782608695
 40
0.9130434782608695
 40
0.9130434782608695
 40
1.0
 40
1.0
 40
1.0
 40
1.0
 10
-8.04898
 20
-6.27616
 30
0.0
 10
-8.04898
 20
-6.27616
 30
0.0
 10
-8.00051
 20
-6.23697
 30
0.0
 10
-8.00051
 20
-6.23697
 30
0.0
 10
-8.00051
 20
-6.23697
 30
0.0
 10
-7.97952
 20
-6.25928
 30
0.0
 10
-7.9578
 20
-6.27192
 30
0.0
 10
-7.93539
 20
-6.27506
 30
0.0
 10
-7.93539
 20
-6.27506
 30
0.0
 10
-7.91304
 20
-6.27811
 30
0.0
 10
-7.89192
 20
-6.27283
 30
0.0
 10
-7.87218
 20
-6.25921
 30
0.0
 10
-7.87218
 20
-6.25921
 30
0.0
 10
-7.84837
 20
-6.24278
 30
0.0
 10
-7.83459
 20
-6.22014
 30
0.0
 10
-7.83058
 20
-6.19126
 30
0.0
 10
-7.83058
 20
-6.19126
 30
0.0
 10
-7.82674
 20
-6.16234
 30
0.0
 10
-7.83492
 20
-6.13324
 30
0.0
 10
-7.85512
 20
-6.10396
 30
0.0
 10
-7.85512
 20
-6.10396
 30
0.0
 10
-7.87437
 20
-6.07607
 30
0.0
 10
-7.89721
 20
-6.05941
 30
0.0
 10
-7.92381
 20
-6.05397
 30
0.0
 10
-7.92381
 20
-6.05397
 30
0.0
 10
-7.95041
 20
-6.04852
 30
0.0
 10
-7.97645
 20
-6.05459
 30
0.0
 10
-8.00193
 20
-6.07217
 30
0.0
 10
-8.00193
 20
-6.07217
 30
0.0
 10
-8.01778
 20
-6.08311
 30
0.0
 10
-8.02946
 20
-6.09651
 30
0.0
 10
-8.03707
 20
-6.11243
 30
0.0
 10
-8.03707
 20
-6.11243
 30
0.0
 10
-8.0446
 20
-6.12829
 30
0.0
 10
-8.04796
 20
-6.14442
 30
0.0
 10
-8.04726
 20
-6.1609
 30
0.0
 10
-8.04726
 20
-6.1609
 30
0.0
 10
-8.04726
 20
-6.1609
 30
0.0
 10
-8.09801
 20
-6.18607
 30
0.0
 10
-8.09801
 20
-6.18607
 30
0.0
 10
-8.09801
 20
-6.18607
 30
0.0
 10
-8.09801
 20
-6.18607
 30
0.0
 10
-8.20082
 20
-5.955
 30
0.0
 10
-8.20082
 20
-5.955
 30
0.0
 10
-8.20082
 20
-5.955
 30
0.0
 10
-8.20082
 20
-5.955
 30
0.0
 10
-8.00345
 20
-5.81881
 30
0.0
 10
-8.00345
 20
-5.81881
 30
0.0
 10
-8.00345
 20
-5.81881
 30
0.0
 10
-8.00345
 20
-5.81881
 30
0.0
 10
-7.97123
 20
-5.86552
 30
0.0
 10
-7.97123
 20
-5.86552
 30
0.0
 10
-7.97123
 20
-5.86552
 30
0.0
 10
-7.97123
 20
-5.86552
 30
0.0
 10
-8.12958
 20
-5.97478
 30
0.0
 10
-8.12958
 20
-5.97478
 30
0.0
 10
-8.12958
 20
-5.97478
 30
0.0
 10
-8.12958
 20
-5.97478
 30
0.0
 10
-8.0767
 20
-6.09682
 30
0.0
 10
-8.0767
 20
-6.09682
 30
0.0
 10
-8.0767
 20
-6.09682
 30
0.0
 10
-8.06446
 20
-6.06362
 30
0.0
 10
-8.0452
 20
-6.03801
 30
0.0
 10
-8.01907
 20
-6.01999
 30
0.0
 10
-8.01907
 20
-6.01999
 30
0.0
 10
-7.98441
 20
-5.99607
 30
0.0
 10
-7.94682
 20
-5.98792
 30
0.0
 10
-7.90638
 20
-5.99557
 30
0.0
 10
-7.90638
 20
-5.99557
 30
0.0
 10
-7.86594
 20
-6.00323
 30
0.0
 10
-7.83263
 20
-6.02594
 30
0.0
 10
-7.80655
 20
-6.06374
 30
0.0
 10
-7.80655
 20
-6.06374
 30
0.0
 10
-7.78168
 20
-6.09979
 30
0.0
 10
-7.77066
 20
-6.13815
 30
0.0
 10
-7.77351
 20
-6.17882
 30
0.0
 10
-7.77351
 20
-6.17882
 30
0.0
 10
-7.77674
 20
-6.22865
 30
0.0
 10
-7.80046
 20
-6.26881
 30
0.0
 10
-7.84456
 20
-6.29924
 30
0.0
 10
-7.84456
 20
-6.29924
 30
0.0
 10
-7.8807
 20
-6.32418
 30
0.0
 10
-7.9172
 20
-6.33432
 30
0.0
 10
-7.95409
 20
-6.32982
 30
0.0
 10
-7.95409
 20
-6.32982
 30
0.0
 10
-7.99098
 20
-6.32532
 30
0.0
 10
-8.02259
 20
-6.30746
 30
0.0
 10
-8.04898
 20
-6.27616
 30
0.0
  0
SPLINE
  5
80
330
1F
100
AcDbEntity
  8
layer 2
 62
     1
370
     0
100
AcDbSpline
210
0.0
220
0.0
230
1.0
 70
    24
 71
     3
 72
     8
 73
     4
 74
     0
 42
0.0000000001
 43
0.0000000001
 12
1.0
 22
0.0
 32
0.0
 13
1.0
 23
0.0
 33
0.0
 40
0.0
 40
0.0
 40
0.0
 40
0.0
 40
1.0
 40
1.0
 40
1.0
 40
1.0
 10
-6.01493
 20
-6.35992
 30
0.0
 10
-6.01493
 20
-6.35992
 30
0.0
 10
-6.46816
 20
-6.67266
 30
0.0
 10
-6.46816
 20
-6.67266
 30
0.0
  0
SPLINE
  5
81
330
1F
100
AcDbEntity
  8
layer 2
 62
     1
100
AcDbSpline
210
0.0
220
0.0
230
1.0
 70
    27
 71
     3
 72
    12
 73
     8
 74
     0
 42
0.0000000001
 43
0.0000000001
 12
1.0
 22
0.0
 32
0.0
 13
1.0
 23
0.0
 33
0.0
 40
0.0
 40
0.0
 40
0.0
 40
0.0
 40
0.3333333333333333
 40
0.3333333333333333
 40
0.3333333333333333
 40
0.3333333333333333
 40
1.0
 40
1.0
 40
1.0
 40
1.0
 10
-6.87245
 20
-6.86241
 30
0.0
 10
-6.87245
 20
-6.86241
 30
0.0
 10
-6.46816
 20
-6.67266
 30
0.0
 10
-6.46816
 20
-6.67266
 30
0.0
 10
-6.46816
 20
-6.67266
 30
0.0
 10
-6.46816
 20
-6.67266
 30
0.0
 10
-6.87245
 20
-6.86241
 30
0.0
 10
-6.87245
 20
-6.86241
 30
0.0
  0
SPLINE
  5
82
330
1F
100
AcDbEntity
  8
layer 2
 62
     1
100
AcDbSpline
210
0.0
220
0.0
230
1.0
 70
     8
 71
     3
 72
    12
 73
     8
 74
     0
 42
0.0000000001
 43
0.0000000001
 12
1.0
 22
0.0
 32
0.0
 13
1.0
 23
0.0
 33
0.0
 40
0.0
 40
0.0
 40
0.0
 40
0.0
 40
0.3333333333333333
 40
0.3333333333333333
 40
0.3333333333333333
 40
0.3333333333333333
 40
1.0
 40
1.0
 40
1.0
 40
1.0
 10
-6.46816
 20
-6.67266
 30
0.0
 10
-6.46816
 20
-6.67266
 30
0.0
 10
-6.78905
 20
-6.98328
 30
0.0
 10
-6.78905
 20
-6.98328
 30
0.0
 10
-6.78905
 20
-6.98328
 30
0.0
 10
-6.78905
 20
-6.98328
 30
0.0
 10
-6.87245
 20
-6.86241
 30
0.0
 10
-6.87245
 20
-6.86241
 30
0.0
  0
SPLINE
  5
83
330
1F
100
AcDbEntity
  8
layer 2
 62
     1
370
     9
100
AcDbSpline
210
0.0
220
0.0
230
1.0
 70
    24
 71
     3
 72
     8
 73
     4
 74
     0
 42
0.0000000001
 43
0.0000000001
 12
1.0
 22
0.0
 32
0.0
 13
1.0
 23
0.0
 33
0.0
 40
0.0
 40
0.0
 40
0.0
 40
0.0
 40
1.0
 40
1.0
 40
1.0
 40
1.0
 10
-6.87245
 20
-6.86241
 30
0.0
 10
-6.87245
 20
-6.86241
 30
0.0
 10
-6.46816
 20
-6.67266
 30
0.0
 10
-6.46816
 20
-6.67266
 30
0.0
  0
SPLINE
  5
84
330
1F
100
AcDbEntity
  8
layer 2
 62
     1
370
     9
100
AcDbSpline
210
0.0
220
0.0
230
1.0
 70
     8
 71
     3
 72
    12
 73
     8
 74
     0
 42
0.0000000001
 43
0.0000000001
 12
1.0
 22
0.0
 32
0.0
 13
1.0
 23
0.0
 33
0.0
 40
0.0
 40
0.0
 40
0.0
 40
0.0
 40
0.3333333333333333
 40
0.3333333333333333
 40
0.3333333333333333
 40
0.3333333333333333
 40
1.0
 40
1.0
 40
1.0
 40
1.0
 10
-6.46816
 20
-6.67266
 30
0.0
 10
-6.46816
 20
-6.67266
 30
0.0
 10
-6.78905
 20
-6.98328
 30
0.0
 10
-6.78905
 20
-6.98328
 30
0.0
 10
-6.78905
 20
-6.98328
 30
0.0
 10
-6.78905
 20
-6.98328
 30
0.0
 10
-6.87245
 20
-6.86241
 30
0.0
 10
-6.87245
 20
-6.86241
 30
0.0
  0
ENDSEC
  0
SECTION
  2
OBJECTS
  0
DICTIONARY
  5
C
330
0
100
AcDbDictionary
281
     1
  3
ACAD_GROUP
350
D
  3
ACAD_LAYOUT
350
1A
  3
ACAD_MATERIAL
350
3B
  3
ACAD_MLEADERSTYLE
350
A6
  3
ACAD_MLINESTYLE
350
17
  3
ACAD_PLOTSETTINGS
350
19
  3
ACAD_PLOTSTYLENAME
350
E
  3
ACAD_TABLESTYLE
350
A5
  3
ACAD_VISUALSTYLE
350
2A
  0
DICTIONARY
  5
D
102
{ACAD_REACTORS
330
C
102
}
330
C
100
AcDbDictionary
281
     1
  0
DICTIONARY
  5
1A
102
{ACAD_REACTORS
330
C
102
}
330
C
100
AcDbDictionary
281
     1
  3
Layout1
350
1E
  3
Layout2
350
26
  3
Model
350
22
  0
DICTIONARY
  5
3B
102
{ACAD_REACTORS
330
C
102
}
330
C
100
AcDbDictionary
281
     1
  3
ByBlock
350
3D
  3
ByLayer
350
3C
  3
Global
350
3E
  0
DICTIONARY
  5
A6
102
{ACAD_REACTORS
330
C
102
}
330
C
100
AcDbDictionary
281
     1
  0
DICTIONARY
  5
17
102
{ACAD_REACTORS
330
C
102
}
330
C
100
AcDbDictionary
281
     1
  3
Standard
350
18
  0
DICTIONARY
  5
19
102
{ACAD_REACTORS
330
C
102
}
330
C
100
AcDbDictionary
281
     1
  0
ACDBDICTIONARYWDFLT
  5
E
102
{ACAD_REACTORS
330
C
102
}
330
C
100
AcDbDictionary
281
     1
  3
Normal
350
F
100
AcDbDictionaryWithDefault
340
F
  0
DICTIONARY
  5
A5
102
{ACAD_REACTORS
330
C
102
}
330
C
100
AcDbDictionary
281
     1
  0
DICTIONARY
  5
2A
102
{ACAD_REACTORS
330
C
102
}
330
C
100
AcDbDictionary
281
     1
  3
2dWireframe
350
2F
  3
3D Hidden
350
31
  3
3dWireframe
350
30
  3
Basic
350
32
  3
Brighten
350
36
  3
ColorChange
350
3A
  3
Conceptual
350
34
  3
Dim
350
35
  3
Facepattern
350
39
  3
Flat
350
2B
  3
FlatWithEdges
350
2C
  3
Gouraud
350
2D
  3
GouraudWithEdges
350
2E
  3
Linepattern
350
38
  3
Realistic
350
33
  3
Thicken
350
37
  0
LAYOUT
  5
1E
102
{ACAD_REACTORS
330
1A
102
}
330
1A
100
AcDbPlotSettings
  1

  2
none_device
  4

  6

 40
0.0
 41
0.0
 42
0.0
 43
0.0
 44
0.0
 45
0.0
 46
0.0
 47
0.0
 48
0.0
 49
0.0
140
0.0
141
0.0
142
1.0
143
1.0
 70
   688
 72
     0
 73
     0
 74
     5
  7

 75
    16
 76
     0
 77
     2
 78
   300
147
1.0
148
0.0
149
0.0
100
AcDbLayout
  1
Layout1
 70
     1
 71
     1
 10
0.0
 20
0.0
 11
12.0
 21
9.0
 12
0.0
 22
0.0
 32
0.0
 14
1.000000000000000E+20
 24
1.000000000000000E+20
 34
1.000000000000000E+20
 15
-1.000000000000000E+20
 25
-1.000000000000000E+20
 35
-1.000000000000000E+20
146
0.0
 13
0.0
 23
0.0
 33
0.0
 16
1.0
 26
0.0
 36
0.0
 17
0.0
 27
1.0
 37
0.0
 76
     0
330
1B
  0
LAYOUT
  5
26
102
{ACAD_REACTORS
330
1A
102
}
330
1A
100
AcDbPlotSettings
  1

  2
none_device
  4

  6

 40
0.0
 41
0.0
 42
0.0
 43
0.0
 44
0.0
 45
0.0
 46
0.0
 47
0.0
 48
0.0
 49
0.0
140
0.0
141
0.0
142
1.0
143
1.0
 70
   688
 72
     0
 73
     0
 74
     5
  7

 75
    16
 76
     0
 77
     2
 78
   300
147
1.0
148
0.0
149
0.0
100
AcDbLayout
  1
Layout2
 70
     1
 71
     2
 10
0.0
 20
0.0
 11
0.0
 21
0.0
 12
0.0
 22
0.0
 32
0.0
 14
0.0
 24
0.0
 34
0.0
 15
0.0
 25
0.0
 35
0.0
146
0.0
 13
0.0
 23
0.0
 33
0.0
 16
1.0
 26
0.0
 36
0.0
 17
0.0
 27
1.0
 37
0.0
 76
     0
330
23
  0
LAYOUT
  5
22
102
{ACAD_REACTORS
330
1A
102
}
330
1A
100
AcDbPlotSettings
  1

  2
none_device
  4

  6

 40
0.0
 41
0.0
 42
0.0
 43
0.0
 44
0.0
 45
0.0
 46
0.0
 47
0.0
 48
0.0
 49
0.0
140
0.0
141
0.0
142
1.0
143
1.0
 70
  1712
 72
     0
 73
     0
 74
     0
  7

 75
     0
 76
     0
 77
     2
 78
   300
147
1.0
148
0.0
149
0.0
100
AcDbLayout
  1
Model
 70
     1
 71
     0
 10
0.0
 20
0.0
 11
12.0
 21
9.0
 12
0.0
 22
0.0
 32
0.0
 14
-8.94168
 24
-10.24612
 34
0.0
 15
7.6232
 25
10.00731
 35
0.0
146
0.0
 13
0.0
 23
0.0
 33
0.0
 16
1.0
 26
0.0
 36
0.0
 17
0.0
 27
1.0
 37
0.0
 76
     0
330
1F
331
29
  0
MATERIAL
  5
3D
102
{ACAD_REACTORS
330
3B
102
}
330
3B
100
AcDbMaterial
  1
ByBlock
 72
     1
 94
      127
  0
MATERIAL
  5
3C
102
{ACAD_REACTORS
330
3B
102
}
330
3B
100
AcDbMaterial
  1
ByLayer
 72
     1
 94
      127
  0
MATERIAL
  5
3E
102
{ACAD_REACTORS
330
3B
102
}
330
3B
100
AcDbMaterial
  1
Global
 72
     1
 94
      127
  0
MLINESTYLE
  5
18
102
{ACAD_REACTORS
330
17
102
}
330
17
100
AcDbMlineStyle
  2
Standard
 70
     0
  3

 62
   256
 51
90.0
 52
90.0
 71
     2
 49
0.5
 62
   256
  6
BYLAYER
 49
-0.5
 62
   256
  6
BYLAYER
  0
ACDBPLACEHOLDER
  5
F
102
{ACAD_REACTORS
330
E
102
}
330
E
  0
VISUALSTYLE
  5
2F
102
{ACAD_REACTORS
330
2A
102
}
102
{ACAD_XDICTIONARY
360
8D
102
}
330
2A
100
AcDbVisualStyle
  2
2dWireframe
 70
     4
 71
     0
 72
     2
 73
     0
 90
        0
 40
-0.6
 41
-30.0
 62
     5
 63
     7
421
 16777215
 74
     1
 91
        4
 64
     7
 65
   257
 75
     1
175
     1
 42
1.0
 92
        0
 66
   257
 43
1.0
 76
     1
 77
     6
 78
     2
 67
     7
 79
     5
170
     0
171
     0
290
     0
174
     0
 93
        1
 44
0.0
173
     0
291
     0
 45
0.0
  0
VISUALSTYLE
  5
31
102
{ACAD_REACTORS
330
2A
102
}
102
{ACAD_XDICTIONARY
360
91
102
}
330
2A
100
AcDbVisualStyle
  2
3D Hidden
 70
     6
 71
     1
 72
     2
 73
     2
 90
        0
 40
-0.6
 41
-30.0
 62
     5
 63
     7
421
 16777215
 74
     2
 91
        2
 64
     7
 65
   257
 75
     2
175
     1
 42
40.0
 92
        0
 66
   257
 43
1.0
 76
     1
 77
     6
 78
     2
 67
     7
 79
     3
170
     0
171
     0
290
     0
174
     0
 93
        1
 44
0.0
173
     0
291
     0
 45
0.0
  0
VISUALSTYLE
  5
30
102
{ACAD_REACTORS
330
2A
102
}
102
{ACAD_XDICTIONARY
360
8F
102
}
330
2A
100
AcDbVisualStyle
  2
3dWireframe
 70
     5
 71
     0
 72
     2
 73
     0
 90
        0
 40
-0.6
 41
-30.0
 62
     5
 63
     7
421
 16777215
 74
     1
 91
        4
 64
     7
 65
   257
 75
     1
175
     1
 42
1.0
 92
        0
 66
   257
 43
1.0
 76
     1
 77
     6
 78
     2
 67
     7
 79
     5
170
     0
171
     0
290
     0
174
     0
 93
        1
 44
0.0
173
     0
291
     0
 45
0.0
  0
VISUALSTYLE
  5
32
102
{ACAD_REACTORS
330
2A
102
}
102
{ACAD_XDICTIONARY
360
93
102
}
330
2A
100
AcDbVisualStyle
  2
Basic
 70
     7
 71
     1
 72
     0
 73
     1
 90
        0
 40
-0.6
 41
-30.0
 62
     5
 63
     7
421
 16777215
 74
     0
 91
        4
 64
     7
 65
   257
 75
     1
175
     1
 42
1.0
 92
        8
 66
     7
 43
1.0
 76
     1
 77
     6
 78
     2
 67
     7
 79
     5
170
     0
171
     0
290
     0
174
     0
 93
        1
 44
0.0
173
     0
291
     1
 45
0.0
  0
VISUALSTYLE
  5
36
102
{ACAD_REACTORS
330
2A
102
}
102
{ACAD_XDICTIONARY
360
9B
102
}
330
2A
100
AcDbVisualStyle
  2
Brighten
 70
    12
 71
     2
 72
     2
 73
     0
 90
        0
 40
-0.6
 41
-30.0
 62
     5
 63
     7
421
 16777215
 74
     1
 91
        4
 64
     7
 65
   257
 75
     1
175
     1
 42
1.0
 92
        8
 66
     7
 43
1.0
 76
     1
 77
     6
 78
     2
 67
     7
 79
     5
170
     0
171
     0
290
     0
174
     0
 93
        1
 44
50.0
173
     0
291
     1
 45
0.0
  0
VISUALSTYLE
  5
3A
102
{ACAD_REACTORS
330
2A
102
}
102
{ACAD_XDICTIONARY
360
A3
102
}
330
2A
100
AcDbVisualStyle
  2
ColorChange
 70
    16
 71
     2
 72
     2
 73
     3
 90
        0
 40
-0.6
 41
-30.0
 62
     5
 63
     8
421
  8421504
 74
     1
 91
        4
 64
     7
 65
   257
 75
     1
175
     1
 42
1.0
 92
        8
 66
     8
424
  8421504
 43
1.0
 76
     1
 77
     6
 78
     2
 67
     7
 79
     5
170
     0
171
     0
290
     0
174
     0
 93
        1
 44
0.0
173
     0
291
     1
 45
0.0
  0
VISUALSTYLE
  5
34
102
{ACAD_REACTORS
330
2A
102
}
102
{ACAD_XDICTIONARY
360
97
102
}
330
2A
100
AcDbVisualStyle
  2
Conceptual
 70
     9
 71
     3
 72
     2
 73
     0
 90
        0
 40
-0.6
 41
-30.0
 62
     5
 63
     7
421
 16777215
 74
     2
 91
        2
 64
     7
 65
   257
 75
     1
175
     1
 42
40.0
 92
        8
 66
     7
 43
1.0
 76
     1
 77
     6
 78
     2
 67
     7
 79
     3
170
     0
171
     0
290
     0
174
     0
 93
        1
 44
0.0
173
     0
291
     0
 45
0.0
  0
VISUALSTYLE
  5
35
102
{ACAD_REACTORS
330
2A
102
}
102
{ACAD_XDICTIONARY
360
99
102
}
330
2A
100
AcDbVisualStyle
  2
Dim
 70
    11
 71
     2
 72
     2
 73
     0
 90
        0
 40
-0.6
 41
-30.0
 62
     5
 63
     7
421
 16777215
 74
     1
 91
        4
 64
     7
 65
   257
 75
     1
175
     1
 42
1.0
 92
        8
 66
     7
 43
1.0
 76
     1
 77
     6
 78
     2
 67
     7
 79
     5
170
     0
171
     0
290
     0
174
     0
 93
        1
 44
-50.0
173
     0
291
     1
 45
0.0
  0
VISUALSTYLE
  5
39
102
{ACAD_REACTORS
330
2A
102
}
102
{ACAD_XDICTIONARY
360
A1
102
}
330
2A
100
AcDbVisualStyle
  2
Facepattern
 70
    15
 71
     2
 72
     2
 73
     0
 90
        0
 40
-0.6
 41
-30.0
 62
     5
 63
     7
421
 16777215
 74
     1
 91
        4
 64
     7
 65
   257
 75
     1
175
     1
 42
1.0
 92
        8
 66
     7
 43
1.0
 76
     1
 77
     6
 78
     2
 67
     7
 79
     5
170
     0
171
     0
290
     0
174
     0
 93
        1
 44
0.0
173
     0
291
     1
 45
0.0
  0
VISUALSTYLE
  5
2B
102
{ACAD_REACTORS
330
2A
102
}
102
{ACAD_XDICTIONARY
360
85
102
}
330
2A
100
AcDbVisualStyle
  2
Flat
 70
     0
 71
     2
 72
     1
 73
     1
 90
        2
 40
-0.6
 41
30.0
 62
     5
 63
     7
421
 16777215
 74
     0
 91
        4
 64
     7
 65
   257
 75
     1
175
     1
 42
1.0
 92
        8
 66
     7
 43
1.0
 76
     1
 77
     6
 78
     2
 67
     7
 79
     5
170
     0
171
     0
290
     0
174
     0
 93
       13
 44
0.0
173
     0
291
     1
 45
0.0
  0
VISUALSTYLE
  5
2C
102
{ACAD_REACTORS
330
2A
102
}
102
{ACAD_XDICTIONARY
360
87
102
}
330
2A
100
AcDbVisualStyle
  2
FlatWithEdges
 70
     1
 71
     2
 72
     1
 73
     1
 90
        2
 40
-0.6
 41
30.0
 62
     5
 63
     7
421
 16777215
 74
     1
 91
        4
 64
     7
 65
   257
 75
     1
175
     1
 42
1.0
 92
        0
 66
   257
 43
1.0
 76
     1
 77
     6
 78
     2
 67
     7
 79
     5
170
     0
171
     0
290
     0
174
     0
 93
       13
 44
0.0
173
     0
291
     1
 45
0.0
  0
VISUALSTYLE
  5
2D
102
{ACAD_REACTORS
330
2A
102
}
102
{ACAD_XDICTIONARY
360
89
102
}
330
2A
100
AcDbVisualStyle
  2
Gouraud
 70
     2
 71
     2
 72
     2
 73
     1
 90
        2
 40
-0.6
 41
30.0
 62
     5
 63
     7
421
 16777215
 74
     0
 91
        4
 64
     7
 65
   257
 75
     1
175
     1
 42
1.0
 92
        0
 66
     7
 43
1.0
 76
     1
 77
     6
 78
     2
 67
     7
 79
     5
170
     0
171
     0
290
     0
174
     0
 93
       13
 44
0.0
173
     0
291
     1
 45
0.0
  0
VISUALSTYLE
  5
2E
102
{ACAD_REACTORS
330
2A
102
}
102
{ACAD_XDICTIONARY
360
8B
102
}
330
2A
100
AcDbVisualStyle
  2
GouraudWithEdges
 70
     3
 71
     2
 72
     2
 73
     1
 90
        2
 40
-0.6
 41
30.0
 62
     5
 63
     7
421
 16777215
 74
     1
 91
        4
 64
     7
 65
   257
 75
     1
175
     1
 42
1.0
 92
        0
 66
   257
 43
1.0
 76
     1
 77
     6
 78
     2
 67
     7
 79
     5
170
     0
171
     0
290
     0
174
     0
 93
       13
 44
0.0
173
     0
291
     1
 45
0.0
  0
VISUALSTYLE
  5
38
102
{ACAD_REACTORS
330
2A
102
}
102
{ACAD_XDICTIONARY
360
9F
102
}
330
2A
100
AcDbVisualStyle
  2
Linepattern
 70
    14
 71
     2
 72
     2
 73
     0
 90
        0
 40
-0.6
 41
-30.0
 62
     5
 63
     7
421
 16777215
 74
     1
 91
        4
 64
     7
 65
   257
 75
     7
175
     7
 42
1.0
 92
        8
 66
     7
 43
1.0
 76
     1
 77
     6
 78
     2
 67
     7
 79
     5
170
     0
171
     0
290
     0
174
     0
 93
        1
 44
0.0
173
     0
291
     1
 45
0.0
  0
VISUALSTYLE
  5
33
102
{ACAD_REACTORS
330
2A
102
}
102
{ACAD_XDICTIONARY
360
95
102
}
330
2A
100
AcDbVisualStyle
  2
Realistic
 70
     8
 71
     2
 72
     2
 73
     0
 90
        0
 40
-0.6
 41
-30.0
 62
     5
 63
     7
421
 16777215
 74
     1
 91
        0
 64
     7
 65
   257
 75
     1
175
     1
 42
1.0
 92
        8
 66
     8
424
  7895160
 43
1.0
 76
     1
 77
     6
 78
     2
 67
     7
 79
     5
170
     0
171
     0
290
     0
174
     0
 93
       13
 44
0.0
173
     0
291
     0
 45
0.0
  0
VISUALSTYLE
  5
37
102
{ACAD_REACTORS
330
2A
102
}
102
{ACAD_XDICTIONARY
360
9D
102
}
330
2A
100
AcDbVisualStyle
  2
Thicken
 70
    13
 71
     2
 72
     2
 73
     0
 90
        0
 40
-0.6
 41
-30.0
 62
     5
 63
     7
421
 16777215
 74
     1
 91
        4
 64
     7
 65
   257
 75
     1
175
     1
 42
1.0
 92
       12
 66
     7
 43
1.0
 76
     1
 77
     6
 78
     2
 67
     7
 79
     5
170
     0
171
     0
290
     0
174
     0
 93
        1
 44
0.0
173
     0
291
     1
 45
0.0
  0
DICTIONARY
  5
8D
330
2F
100
AcDbDictionary
280
     1
281
     1
  3
ACAD_XREC_ROUNDTRIP
360
8E
  0
DICTIONARY
  5
91
330
31
100
AcDbDictionary
280
     1
281
     1
  3
ACAD_XREC_ROUNDTRIP
360
92
  0
DICTIONARY
  5
8F
330
30
100
AcDbDictionary
280
     1
281
     1
  3
ACAD_XREC_ROUNDTRIP
360
90
  0
DICTIONARY
  5
93
330
32
100
AcDbDictionary
280
     1
281
     1
  3
ACAD_XREC_ROUNDTRIP
360
94
  0
DICTIONARY
  5
9B
330
36
100
AcDbDictionary
280
     1
281
     1
  3
ACAD_XREC_ROUNDTRIP
360
9C
  0
DICTIONARY
  5
A3
330
3A
100
AcDbDictionary
280
     1
281
     1
  3
ACAD_XREC_ROUNDTRIP
360
A4
  0
DICTIONARY
  5
97
330
34
100
AcDbDictionary
280
     1
281
     1
  3
ACAD_XREC_ROUNDTRIP
360
98
  0
DICTIONARY
  5
99
330
35
100
AcDbDictionary
280
     1
281
     1
  3
ACAD_XREC_ROUNDTRIP
360
9A
  0
DICTIONARY
  5
A1
330
39
100
AcDbDictionary
280
     1
281
     1
  3
ACAD_XREC_ROUNDTRIP
360
A2
  0
DICTIONARY
  5
85
330
2B
100
AcDbDictionary
280
     1
281
     1
  3
ACAD_XREC_ROUNDTRIP
360
86
  0
DICTIONARY
  5
87
330
2C
100
AcDbDictionary
280
     1
281
     1
  3
ACAD_XREC_ROUNDTRIP
360
88
  0
DICTIONARY
  5
89
330
2D
100
AcDbDictionary
280
     1
281
     1
  3
ACAD_XREC_ROUNDTRIP
360
8A
  0
DICTIONARY
  5
8B
330
2E
100
AcDbDictionary
280
     1
281
     1
  3
ACAD_XREC_ROUNDTRIP
360
8C
  0
DICTIONARY
  5
9F
330
38
100
AcDbDictionary
280
     1
281
     1
  3
ACAD_XREC_ROUNDTRIP
360
A0
  0
DICTIONARY
  5
95
330
33
100
AcDbDictionary
280
     1
281
     1
  3
ACAD_XREC_ROUNDTRIP
360
96
  0
DICTIONARY
  5
9D
330
37
100
AcDbDictionary
280
     1
281
     1
  3
ACAD_XREC_ROUNDTRIP
360
9E
  0
XRECORD
  5
8E
102
{ACAD_REACTORS
330
8D
102
}
330
8D
100
AcDbXrecord
280
     1
102
RTVSPropertyOp0
 70
     1
102
RTVSPropertyOp1
 70
     1
102
RTVSPropertyOp2
 70
     1
102
RTVSPropertyOp3
 70
     1
102
RTVSPropertyOp4
 70
     1
102
RTVSPropertyOp5
 70
     1
102
RTVSPropertyOp6
 70
     1
102
RTVSPropertyOp7
 70
     1
102
RTVSPropertyOp8
 70
     1
102
RTVSPropertyOp9
 70
     1
102
RTVSPropertyOp10
 70
     1
102
RTVSPropertyOp11
 70
     1
102
RTVSPropertyOp12
 70
     1
102
RTVSPropertyOp13
 70
     1
102
RTVSPropertyOp14
 70
     1
102
RTVSPropertyOp15
 70
     1
102
RTVSPropertyOp16
 70
     1
102
RTVSPropertyOp17
 70
     1
102
RTVSPropertyOp18
 70
     1
102
RTVSPropertyOp19
 70
     1
102
RTVSPropertyOp20
 70
     1
102
RTVSPropertyOp21
 70
     1
102
RTVSPropertyOp22
 70
     1
102
RTVSPropertyOp23
 70
     1
102
RTVSPropertyOp24
 70
     1
102
RTVSPropertyOp25
 70
     1
102
RTVSPropertyOp26
 70
     1
102
RTVSPropertyOp27
 70
     1
102
RTVSPropertyOp28
 70
     1
102
RTVSPropertyOp29
 70
     1
102
RTVSPropertyOp30
 70
     1
102
RTVSPropertyOp31
 70
     1
102
RTVSPropertyOp32
 70
     1
  0
XRECORD
  5
92
102
{ACAD_REACTORS
330
91
102
}
330
91
100
AcDbXrecord
280
     1
102
RTVSPropertyOp0
 70
     1
102
RTVSPropertyOp1
 70
     1
102
RTVSPropertyOp2
 70
     1
102
RTVSPropertyOp3
 70
     1
102
RTVSPropertyOp4
 70
     1
102
RTVSPropertyOp5
 70
     1
102
RTVSPropertyOp6
 70
     1
102
RTVSPropertyOp7
 70
     1
102
RTVSPropertyOp8
 70
     1
102
RTVSPropertyOp9
 70
     1
102
RTVSPropertyOp10
 70
     1
102
RTVSPropertyOp11
 70
     1
102
RTVSPropertyOp12
 70
     1
102
RTVSPropertyOp13
 70
     1
102
RTVSPropertyOp14
 70
     1
102
RTVSPropertyOp15
 70
     1
102
RTVSPropertyOp16
 70
     1
102
RTVSPropertyOp17
 70
     1
102
RTVSPropertyOp18
 70
     1
102
RTVSPropertyOp19
 70
     1
102
RTVSPropertyOp20
 70
     1
102
RTVSPropertyOp21
 70
     1
102
RTVSPropertyOp22
 70
     1
102
RTVSPropertyOp23
 70
     1
102
RTVSPropertyOp24
 70
     1
102
RTVSPropertyOp25
 70
     1
102
RTVSPropertyOp26
 70
     1
102
RTVSPropertyOp27
 70
     1
102
RTVSPropertyOp28
 70
     1
102
RTVSPropertyOp29
 70
     1
102
RTVSPropertyOp30
 70
     1
102
RTVSPropertyOp31
 70
     1
102
RTVSPropertyOp32
 70
     1
  0
XRECORD
  5
90
102
{ACAD_REACTORS
330
8F
102
}
330
8F
100
AcDbXrecord
280
     1
102
RTVSPropertyOp0
 70
     1
102
RTVSPropertyOp1
 70
     1
102
RTVSPropertyOp2
 70
     1
102
RTVSPropertyOp3
 70
     1
102
RTVSPropertyOp4
 70
     1
102
RTVSPropertyOp5
 70
     1
102
RTVSPropertyOp6
 70
     1
102
RTVSPropertyOp7
 70
     1
102
RTVSPropertyOp8
 70
     1
102
RTVSPropertyOp9
 70
     1
102
RTVSPropertyOp10
 70
     1
102
RTVSPropertyOp11
 70
     1
102
RTVSPropertyOp12
 70
     1
102
RTVSPropertyOp13
 70
     1
102
RTVSPropertyOp14
 70
     1
102
RTVSPropertyOp15
 70
     1
102
RTVSPropertyOp16
 70
     1
102
RTVSPropertyOp17
 70
     1
102
RTVSPropertyOp18
 70
     1
102
RTVSPropertyOp19
 70
     1
102
RTVSPropertyOp20
 70
     1
102
RTVSPropertyOp21
 70
     1
102
RTVSPropertyOp22
 70
     1
102
RTVSPropertyOp23
 70
     1
102
RTVSPropertyOp24
 70
     1
102
RTVSPropertyOp25
 70
     1
102
RTVSPropertyOp26
 70
     1
102
RTVSPropertyOp27
 70
     1
102
RTVSPropertyOp28
 70
     1
102
RTVSPropertyOp29
 70
     1
102
RTVSPropertyOp30
 70
     1
102
RTVSPropertyOp31
 70
     1
102
RTVSPropertyOp32
 70
     1
  0
XRECORD
  5
94
102
{ACAD_REACTORS
330
93
102
}
330
93
100
AcDbXrecord
280
     1
102
RTVSPropertyOp0
 70
     1
102
RTVSPropertyOp1
 70
     1
102
RTVSPropertyOp2
 70
     1
102
RTVSPropertyOp3
 70
     1
102
RTVSPropertyOp4
 70
     1
102
RTVSPropertyOp5
 70
     1
102
RTVSPropertyOp6
 70
     1
102
RTVSPropertyOp7
 70
     1
102
RTVSPropertyOp8
 70
     1
102
RTVSPropertyOp9
 70
     1
102
RTVSPropertyOp10
 70
     1
102
RTVSPropertyOp11
 70
     1
102
RTVSPropertyOp12
 70
     1
102
RTVSPropertyOp13
 70
     1
102
RTVSPropertyOp14
 70
     1
102
RTVSPropertyOp15
 70
     1
102
RTVSPropertyOp16
 70
     1
102
RTVSPropertyOp17
 70
     1
102
RTVSPropertyOp18
 70
     1
102
RTVSPropertyOp19
 70
     1
102
RTVSPropertyOp20
 70
     1
102
RTVSPropertyOp21
 70
     1
102
RTVSPropertyOp22
 70
     1
102
RTVSPropertyOp23
 70
     1
102
RTVSPropertyOp24
 70
     1
102
RTVSPropertyOp25
 70
     1
102
RTVSPropertyOp26
 70
     1
102
RTVSPropertyOp27
 70
     1
102
RTVSPropertyOp28
 70
     1
102
RTVSPropertyOp29
 70
     1
102
RTVSPropertyOp30
 70
     1
102
RTVSPropertyOp31
 70
     1
102
RTVSPropertyOp32
 70
     1
  0
XRECORD
  5
9C
102
{ACAD_REACTORS
330
9B
102
}
330
9B
100
AcDbXrecord
280
     1
102
RTVSPropertyOp0
 70
     1
102
RTVSPropertyOp1
 70
     1
102
RTVSPropertyOp2
 70
     1
102
RTVSPropertyOp3
 70
     1
102
RTVSPropertyOp4
 70
     1
102
RTVSPropertyOp5
 70
     1
102
RTVSPropertyOp6
 70
     1
102
RTVSPropertyOp7
 70
     1
102
RTVSPropertyOp8
 70
     1
102
RTVSPropertyOp9
 70
     1
102
RTVSPropertyOp10
 70
     1
102
RTVSPropertyOp11
 70
     1
102
RTVSPropertyOp12
 70
     1
102
RTVSPropertyOp13
 70
     1
102
RTVSPropertyOp14
 70
     1
102
RTVSPropertyOp15
 70
     1
102
RTVSPropertyOp16
 70
     1
102
RTVSPropertyOp17
 70
     1
102
RTVSPropertyOp18
 70
     1
102
RTVSPropertyOp19
 70
     1
102
RTVSPropertyOp20
 70
     1
102
RTVSPropertyOp21
 70
     1
102
RTVSPropertyOp22
 70
     1
102
RTVSPropertyOp23
 70
     1
102
RTVSPropertyOp24
 70
     1
102
RTVSPropertyOp25
 70
     1
102
RTVSPropertyOp26
 70
     1
102
RTVSPropertyOp27
 70
     1
102
RTVSPropertyOp28
 70
     1
102
RTVSPropertyOp29
 70
     1
102
RTVSPropertyOp30
 70
     1
102
RTVSPropertyOp31
 70
     1
102
RTVSPropertyOp32
 70
     1
  0
XRECORD
  5
A4
102
{ACAD_REACTORS
330
A3
102
}
330
A3
100
AcDbXrecord
280
     1
102
RTVSPropertyOp0
 70
     1
102
RTVSPropertyOp1
 70
     1
102
RTVSPropertyOp2
 70
     1
102
RTVSPropertyOp3
 70
     1
102
RTVSPropertyOp4
 70
     1
102
RTVSPropertyOp5
 70
     1
102
RTVSPropertyOp6
 70
     1
102
RTVSPropertyOp7
 70
     1
102
RTVSPropertyOp8
 70
     1
102
RTVSPropertyOp9
 70
     1
102
RTVSPropertyOp10
 70
     1
102
RTVSPropertyOp11
 70
     1
102
RTVSPropertyOp12
 70
     1
102
RTVSPropertyOp13
 70
     1
102
RTVSPropertyOp14
 70
     1
102
RTVSPropertyOp15
 70
     1
102
RTVSPropertyOp16
 70
     1
102
RTVSPropertyOp17
 70
     1
102
RTVSPropertyOp18
 70
     1
102
RTVSPropertyOp19
 70
     1
102
RTVSPropertyOp20
 70
     1
102
RTVSPropertyOp21
 70
     1
102
RTVSPropertyOp22
 70
     1
102
RTVSPropertyOp23
 70
     1
102
RTVSPropertyOp24
 70
     1
102
RTVSPropertyOp25
 70
     1
102
RTVSPropertyOp26
 70
     1
102
RTVSPropertyOp27
 70
     1
102
RTVSPropertyOp28
 70
     1
102
RTVSPropertyOp29
 70
     1
102
RTVSPropertyOp30
 70
     1
102
RTVSPropertyOp31
 70
     1
102
RTVSPropertyOp32
 70
     1
  0
XRECORD
  5
98
102
{ACAD_REACTORS
330
97
102
}
330
97
100
AcDbXrecord
280
     1
102
RTVSPropertyOp0
 70
     1
102
RTVSPropertyOp1
 70
     1
102
RTVSPropertyOp2
 70
     1
102
RTVSPropertyOp3
 70
     1
102
RTVSPropertyOp4
 70
     1
102
RTVSPropertyOp5
 70
     1
102
RTVSPropertyOp6
 70
     1
102
RTVSPropertyOp7
 70
     1
102
RTVSPropertyOp8
 70
     1
102
RTVSPropertyOp9
 70
     1
102
RTVSPropertyOp10
 70
     1
102
RTVSPropertyOp11
 70
     1
102
RTVSPropertyOp12
 70
     1
102
RTVSPropertyOp13
 70
     1
102
RTVSPropertyOp14
 70
     1
102
RTVSPropertyOp15
 70
     1
102
RTVSPropertyOp16
 70
     1
102
RTVSPropertyOp17
 70
     1
102
RTVSPropertyOp18
 70
     1
102
RTVSPropertyOp19
 70
     1
102
RTVSPropertyOp20
 70
     1
102
RTVSPropertyOp21
 70
     1
102
RTVSPropertyOp22
 70
     1
102
RTVSPropertyOp23
 70
     1
102
RTVSPropertyOp24
 70
     1
102
RTVSPropertyOp25
 70
     1
102
RTVSPropertyOp26
 70
     1
102
RTVSPropertyOp27
 70
     1
102
RTVSPropertyOp28
 70
     1
102
RTVSPropertyOp29
 70
     1
102
RTVSPropertyOp30
 70
     1
102
RTVSPropertyOp31
 70
     1
102
RTVSPropertyOp32
 70
     1
  0
XRECORD
  5
9A
102
{ACAD_REACTORS
330
99
102
}
330
99
100
AcDbXrecord
280
     1
102
RTVSPropertyOp0
 70
     1
102
RTVSPropertyOp1
 70
     1
102
RTVSPropertyOp2
 70
     1
102
RTVSPropertyOp3
 70
     1
102
RTVSPropertyOp4
 70
     1
102
RTVSPropertyOp5
 70
     1
102
RTVSPropertyOp6
 70
     1
102
RTVSPropertyOp7
 70
     1
102
RTVSPropertyOp8
 70
     1
102
RTVSPropertyOp9
 70
     1
102
RTVSPropertyOp10
 70
     1
102
RTVSPropertyOp11
 70
     1
102
RTVSPropertyOp12
 70
     1
102
RTVSPropertyOp13
 70
     1
102
RTVSPropertyOp14
 70
     1
102
RTVSPropertyOp15
 70
     1
102
RTVSPropertyOp16
 70
     1
102
RTVSPropertyOp17
 70
     1
102
RTVSPropertyOp18
 70
     1
102
RTVSPropertyOp19
 70
     1
102
RTVSPropertyOp20
 70
     1
102
RTVSPropertyOp21
 70
     1
102
RTVSPropertyOp22
 70
     1
102
RTVSPropertyOp23
 70
     1
102
RTVSPropertyOp24
 70
     1
102
RTVSPropertyOp25
 70
     1
102
RTVSPropertyOp26
 70
     1
102
RTVSPropertyOp27
 70
     1
102
RTVSPropertyOp28
 70
     1
102
RTVSPropertyOp29
 70
     1
102
RTVSPropertyOp30
 70
     1
102
RTVSPropertyOp31
 70
     1
102
RTVSPropertyOp32
 70
     1
  0
XRECORD
  5
A2
102
{ACAD_REACTORS
330
A1
102
}
330
A1
100
AcDbXrecord
280
     1
102
RTVSPropertyOp0
 70
     1
102
RTVSPropertyOp1
 70
     1
102
RTVSPropertyOp2
 70
     1
102
RTVSPropertyOp3
 70
     1
102
RTVSPropertyOp4
 70
     1
102
RTVSPropertyOp5
 70
     1
102
RTVSPropertyOp6
 70
     1
102
RTVSPropertyOp7
 70
     1
102
RTVSPropertyOp8
 70
     1
102
RTVSPropertyOp9
 70
     1
102
RTVSPropertyOp10
 70
     1
102
RTVSPropertyOp11
 70
     1
102
RTVSPropertyOp12
 70
     1
102
RTVSPropertyOp13
 70
     1
102
RTVSPropertyOp14
 70
     1
102
RTVSPropertyOp15
 70
     1
102
RTVSPropertyOp16
 70
     1
102
RTVSPropertyOp17
 70
     1
102
RTVSPropertyOp18
 70
     1
102
RTVSPropertyOp19
 70
     1
102
RTVSPropertyOp20
 70
     1
102
RTVSPropertyOp21
 70
     1
102
RTVSPropertyOp22
 70
     1
102
RTVSPropertyOp23
 70
     1
102
RTVSPropertyOp24
 70
     1
102
RTVSPropertyOp25
 70
     1
102
RTVSPropertyOp26
 70
     1
102
RTVSPropertyOp27
 70
     1
102
RTVSPropertyOp28
 70
     1
102
RTVSPropertyOp29
 70
     1
102
RTVSPropertyOp30
 70
     1
102
RTVSPropertyOp31
 70
     1
102
RTVSPropertyOp32
 70
     1
  0
XRECORD
  5
86
102
{ACAD_REACTORS
330
85
102
}
330
85
100
AcDbXrecord
280
     1
102
RTVSPropertyOp0
 70
     1
102
RTVSPropertyOp1
 70
     1
102
RTVSPropertyOp2
 70
     1
102
RTVSPropertyOp3
 70
     1
102
RTVSPropertyOp4
 70
     1
102
RTVSPropertyOp5
 70
     1
102
RTVSPropertyOp6
 70
     1
102
RTVSPropertyOp7
 70
     1
102
RTVSPropertyOp8
 70
     1
102
RTVSPropertyOp9
 70
     1
102
RTVSPropertyOp10
 70
     1
102
RTVSPropertyOp11
 70
     1
102
RTVSPropertyOp12
 70
     1
102
RTVSPropertyOp13
 70
     1
102
RTVSPropertyOp14
 70
     1
102
RTVSPropertyOp15
 70
     1
102
RTVSPropertyOp16
 70
     1
102
RTVSPropertyOp17
 70
     1
102
RTVSPropertyOp18
 70
     1
102
RTVSPropertyOp19
 70
     1
102
RTVSPropertyOp20
 70
     1
102
RTVSPropertyOp21
 70
     1
102
RTVSPropertyOp22
 70
     1
102
RTVSPropertyOp23
 70
     1
102
RTVSPropertyOp24
 70
     1
102
RTVSPropertyOp25
 70
     1
102
RTVSPropertyOp26
 70
     1
102
RTVSPropertyOp27
 70
     1
102
RTVSPropertyOp28
 70
     1
102
RTVSPropertyOp29
 70
     1
102
RTVSPropertyOp30
 70
     1
102
RTVSPropertyOp31
 70
     1
102
RTVSPropertyOp32
 70
     1
  0
XRECORD
  5
88
102
{ACAD_REACTORS
330
87
102
}
330
87
100
AcDbXrecord
280
     1
102
RTVSPropertyOp0
 70
     1
102
RTVSPropertyOp1
 70
     1
102
RTVSPropertyOp2
 70
     1
102
RTVSPropertyOp3
 70
     1
102
RTVSPropertyOp4
 70
     1
102
RTVSPropertyOp5
 70
     1
102
RTVSPropertyOp6
 70
     1
102
RTVSPropertyOp7
 70
     1
102
RTVSPropertyOp8
 70
     1
102
RTVSPropertyOp9
 70
     1
102
RTVSPropertyOp10
 70
     1
102
RTVSPropertyOp11
 70
     1
102
RTVSPropertyOp12
 70
     1
102
RTVSPropertyOp13
 70
     1
102
RTVSPropertyOp14
 70
     1
102
RTVSPropertyOp15
 70
     1
102
RTVSPropertyOp16
 70
     1
102
RTVSPropertyOp17
 70
     1
102
RTVSPropertyOp18
 70
     1
102
RTVSPropertyOp19
 70
     1
102
RTVSPropertyOp20
 70
     1
102
RTVSPropertyOp21
 70
     1
102
RTVSPropertyOp22
 70
     1
102
RTVSPropertyOp23
 70
     1
102
RTVSPropertyOp24
 70
     1
102
RTVSPropertyOp25
 70
     1
102
RTVSPropertyOp26
 70
     1
102
RTVSPropertyOp27
 70
     1
102
RTVSPropertyOp28
 70
     1
102
RTVSPropertyOp29
 70
     1
102
RTVSPropertyOp30
 70
     1
102
RTVSPropertyOp31
 70
     1
102
RTVSPropertyOp32
 70
     1
  0
XRECORD
  5
8A
102
{ACAD_REACTORS
330
89
102
}
330
89
100
AcDbXrecord
280
     1
102
RTVSPropertyOp0
 70
     1
102
RTVSPropertyOp1
 70
     1
102
RTVSPropertyOp2
 70
     1
102
RTVSPropertyOp3
 70
     1
102
RTVSPropertyOp4
 70
     1
102
RTVSPropertyOp5
 70
     1
102
RTVSPropertyOp6
 70
     1
102
RTVSPropertyOp7
 70
     1
102
RTVSPropertyOp8
 70
     1
102
RTVSPropertyOp9
 70
     1
102
RTVSPropertyOp10
 70
     1
102
RTVSPropertyOp11
 70
     1
102
RTVSPropertyOp12
 70
     1
102
RTVSPropertyOp13
 70
     1
102
RTVSPropertyOp14
 70
     1
102
RTVSPropertyOp15
 70
     1
102
RTVSPropertyOp16
 70
     1
102
RTVSPropertyOp17
 70
     1
102
RTVSPropertyOp18
 70
     1
102
RTVSPropertyOp19
 70
     1
102
RTVSPropertyOp20
 70
     1
102
RTVSPropertyOp21
 70
     1
102
RTVSPropertyOp22
 70
     1
102
RTVSPropertyOp23
 70
     1
102
RTVSPropertyOp24
 70
     1
102
RTVSPropertyOp25
 70
     1
102
RTVSPropertyOp26
 70
     1
102
RTVSPropertyOp27
 70
     1
102
RTVSPropertyOp28
 70
     1
102
RTVSPropertyOp29
 70
     1
102
RTVSPropertyOp30
 70
     1
102
RTVSPropertyOp31
 70
     1
102
RTVSPropertyOp32
 70
     1
  0
XRECORD
  5
8C
102
{ACAD_REACTORS
330
8B
102
}
330
8B
100
AcDbXrecord
280
     1
102
RTVSPropertyOp0
 70
     1
102
RTVSPropertyOp1
 70
     1
102
RTVSPropertyOp2
 70
     1
102
RTVSPropertyOp3
 70
     1
102
RTVSPropertyOp4
 70
     1
102
RTVSPropertyOp5
 70
     1
102
RTVSPropertyOp6
 70
     1
102
RTVSPropertyOp7
 70
     1
102
RTVSPropertyOp8
 70
     1
102
RTVSPropertyOp9
 70
     1
102
RTVSPropertyOp10
 70
     1
102
RTVSPropertyOp11
 70
     1
102
RTVSPropertyOp12
 70
     1
102
RTVSPropertyOp13
 70
     1
102
RTVSPropertyOp14
 70
     1
102
RTVSPropertyOp15
 70
     1
102
RTVSPropertyOp16
 70
     1
102
RTVSPropertyOp17
 70
     1
102
RTVSPropertyOp18
 70
     1
102
RTVSPropertyOp19
 70
     1
102
RTVSPropertyOp20
 70
     1
102
RTVSPropertyOp21
 70
     1
102
RTVSPropertyOp22
 70
     1
102
RTVSPropertyOp23
 70
     1
102
RTVSPropertyOp24
 70
     1
102
RTVSPropertyOp25
 70
     1
102
RTVSPropertyOp26
 70
     1
102
RTVSPropertyOp27
 70
     1
102
RTVSPropertyOp28
 70
     1
102
RTVSPropertyOp29
 70
     1
102
RTVSPropertyOp30
 70
     1
102
RTVSPropertyOp31
 70
     1
102
RTVSPropertyOp32
 70
     1
  0
XRECORD
  5
A0
102
{ACAD_REACTORS
330
9F
102
}
330
9F
100
AcDbXrecord
280
     1
102
RTVSPropertyOp0
 70
     1
102
RTVSPropertyOp1
 70
     1
102
RTVSPropertyOp2
 70
     1
102
RTVSPropertyOp3
 70
     1
102
RTVSPropertyOp4
 70
     1
102
RTVSPropertyOp5
 70
     1
102
RTVSPropertyOp6
 70
     1
102
RTVSPropertyOp7
 70
     1
102
RTVSPropertyOp8
 70
     1
102
RTVSPropertyOp9
 70
     1
102
RTVSPropertyOp10
 70
     1
102
RTVSPropertyOp11
 70
     1
102
RTVSPropertyOp12
 70
     1
102
RTVSPropertyOp13
 70
     1
102
RTVSPropertyOp14
 70
     1
102
RTVSPropertyOp15
 70
     1
102
RTVSPropertyOp16
 70
     1
102
RTVSPropertyOp17
 70
     1
102
RTVSPropertyOp18
 70
     1
102
RTVSPropertyOp19
 70
     1
102
RTVSPropertyOp20
 70
     1
102
RTVSPropertyOp21
 70
     1
102
RTVSPropertyOp22
 70
     1
102
RTVSPropertyOp23
 70
     1
102
RTVSPropertyOp24
 70
     1
102
RTVSPropertyOp25
 70
     1
102
RTVSPropertyOp26
 70
     1
102
RTVSPropertyOp27
 70
     1
102
RTVSPropertyOp28
 70
     1
102
RTVSPropertyOp29
 70
     1
102
RTVSPropertyOp30
 70
     1
102
RTVSPropertyOp31
 70
     1
102
RTVSPropertyOp32
 70
     1
  0
XRECORD
  5
96
102
{ACAD_REACTORS
330
95
102
}
330
95
100
AcDbXrecord
280
     1
102
RTVSPropertyOp0
 70
     1
102
RTVSPropertyOp1
 70
     1
102
RTVSPropertyOp2
 70
     1
102
RTVSPropertyOp3
 70
     1
102
RTVSPropertyOp4
 70
     1
102
RTVSPropertyOp5
 70
     1
102
RTVSPropertyOp6
 70
     1
102
RTVSPropertyOp7
 70
     1
102
RTVSPropertyOp8
 70
     1
102
RTVSPropertyOp9
 70
     1
102
RTVSPropertyOp10
 70
     1
102
RTVSPropertyOp11
 70
     1
102
RTVSPropertyOp12
 70
     1
102
RTVSPropertyOp13
 70
     1
102
RTVSPropertyOp14
 70
     1
102
RTVSPropertyOp15
 70
     1
102
RTVSPropertyOp16
 70
     1
102
RTVSPropertyOp17
 70
     1
102
RTVSPropertyOp18
 70
     1
102
RTVSPropertyOp19
 70
     1
102
RTVSPropertyOp20
 70
     1
102
RTVSPropertyOp21
 70
     1
102
RTVSPropertyOp22
 70
     1
102
RTVSPropertyOp23
 70
     1
102
RTVSPropertyOp24
 70
     1
102
RTVSPropertyOp25
 70
     1
102
RTVSPropertyOp26
 70
     1
102
RTVSPropertyOp27
 70
     1
102
RTVSPropertyOp28
 70
     1
102
RTVSPropertyOp29
 70
     1
102
RTVSPropertyOp30
 70
     1
102
RTVSPropertyOp31
 70
     1
102
RTVSPropertyOp32
 70
     1
  0
XRECORD
  5
9E
102
{ACAD_REACTORS
330
9D
102
}
330
9D
100
AcDbXrecord
280
     1
102
RTVSPropertyOp0
 70
     1
102
RTVSPropertyOp1
 70
     1
102
RTVSPropertyOp2
 70
     1
102
RTVSPropertyOp3
 70
     1
102
RTVSPropertyOp4
 70
     1
102
RTVSPropertyOp5
 70
     1
102
RTVSPropertyOp6
 70
     1
102
RTVSPropertyOp7
 70
     1
102
RTVSPropertyOp8
 70
     1
102
RTVSPropertyOp9
 70
     1
102
RTVSPropertyOp10
 70
     1
102
RTVSPropertyOp11
 70
     1
102
RTVSPropertyOp12
 70
     1
102
RTVSPropertyOp13
 70
     1
102
RTVSPropertyOp14
 70
     1
102
RTVSPropertyOp15
 70
     1
102
RTVSPropertyOp16
 70
     1
102
RTVSPropertyOp17
 70
     1
102
RTVSPropertyOp18
 70
     1
102
RTVSPropertyOp19
 70
     1
102
RTVSPropertyOp20
 70
     1
102
RTVSPropertyOp21
 70
     1
102
RTVSPropertyOp22
 70
     1
102
RTVSPropertyOp23
 70
     1
102
RTVSPropertyOp24
 70
     1
102
RTVSPropertyOp25
 70
     1
102
RTVSPropertyOp26
 70
     1
102
RTVSPropertyOp27
 70
     1
102
RTVSPropertyOp28
 70
     1
102
RTVSPropertyOp29
 70
     1
102
RTVSPropertyOp30
 70
     1
102
RTVSPropertyOp31
 70
     1
102
RTVSPropertyOp32
 70
     1
  0
ENDSEC
  0
EOF
