  0
SECTION
  2
HEADER
  9
$ACADVER
  1
AC1009
  9
$FILLMODE
 70
 0
  9
$SPLFRAME
 70
 1
  9
$EXTMIN
 10
0
 20
0
 30
0.0
  9
$EXTMAX
 10
41.6667
 20
41.6667
 30
0.0
  0
ENDSEC
  0
SECTION
  2
TABLES
  0
TABLE
  2
LAYER
 70
1
  0
LAYER
  2
0
 70
     0
 62
     7
  6
CONTINUOUS
  0
ENDTAB
  0
ENDSEC
  0
SECTION
  2
ENTITIES
  0
POLYLINE
  8
0
 62
     0
 66
     1
 10
0
 20
0
 30
0.0
 70
     1
 40
0
 41
0
  0
VERTEX
  8
0
 10
7.06125
 20
8.89022
 30
0.0
 40
0
 41
0
  0
VERTEX
  8
0
 10
6.99029
 20
8.9614
 30
0.0
 40
0
 41
0
  0
VERTEX
  8
0
 10
6.99029
 20
9.09813
 30
0.0
 40
0
 41
0
  0
VERTEX
  8
0
 10
6.9254
 20
9.16344
 30
0.0
 40
0
 41
0
  0
VERTEX
  8
0
 10
6.79563
 20
9.16344
 30
0.0
 40
0
 41
0
  0
VERTEX
  8
0
 10
6.79563
 20
8.89478
 30
0.0
 40
0
 41
0
  0
VERTEX
  8
0
 10
6.78674
 20
8.89478
 30
0.0
 40
0
 41
0
  0
VERTEX
  8
0
 10
6.78674
 20
9.17256
 30
0.0
 40
0
 41
0
  0
VERTEX
  8
0
 10
6.92865
 20
9.17256
 30
0.0
 40
0
 41
0
  0
VERTEX
  8
0
 10
6.9994
 20
9.10138
 30
0.0
 40
0
 41
0
  0
VERTEX
  8
0
 10
6.9994
 20
8.96488
 30
0.0
 40
0
 41
0
  0
VERTEX
  8
0
 10
7.06472
 20
8.89933
 30
0.0
 40
0
 41
0
  0
VERTEX
  8
0
 10
7.12918
 20
8.89933
 30
0.0
 40
0
 41
0
  0
VERTEX
  8
0
 10
7.1945
 20
8.96488
 30
0.0
 40
0
 41
0
  0
VERTEX
  8
0
 10
7.1945
 20
9.09813
 30
0.0
 40
0
 41
0
  0
VERTEX
  8
0
 10
7.12765
 20
9.16474
 30
0.0
 40
0
 41
0
  0
VERTEX
  8
0
 10
7.13417
 20
9.17147
 30
0.0
 40
0
 41
0
  0
VERTEX
  8
0
 10
7.2034
 20
9.10138
 30
0.0
 40
0
 41
0
  0
VERTEX
  8
0
 10
7.2034
 20
8.9614
 30
0.0
 40
0
 41
0
  0
VERTEX
  8
0
 10
7.13265
 20
8.89022
 30
0.0
 40
0
 41
0
  0
VERTEX
  8
0
 10
7.06125
 20
8.89022
 30
0.0
 40
0
 41
0
  0
SEQEND
 8
0
  0
POLYLINE
  8
0
 62
     0
 66
     1
 10
0
 20
0
 30
0.0
 70
     1
 40
0
 41
0
  0
VERTEX
  8
0
 10
6.85726
 20
8.5506
 30
0.0
 40
0
 41
0
  0
VERTEX
  8
0
 10
6.78674
 20
8.62178
 30
0.0
 40
0
 41
0
  0
VERTEX
  8
0
 10
6.78674
 20
8.69339
 30
0.0
 40
0
 41
0
  0
VERTEX
  8
0
 10
6.85726
 20
8.76457
 30
0.0
 40
0
 41
0
  0
VERTEX
  8
0
 10
7.13265
 20
8.76457
 30
0.0
 40
0
 41
0
  0
VERTEX
  8
0
 10
7.2034
 20
8.69339
 30
0.0
 40
0
 41
0
  0
VERTEX
  8
0
 10
7.2034
 20
8.62178
 30
0.0
 40
0
 41
0
  0
VERTEX
  8
0
 10
7.13265
 20
8.5506
 30
0.0
 40
0
 41
0
  0
VERTEX
  8
0
 10
6.85726
 20
8.5506
 30
0.0
 40
0
 41
0
  0
SEQEND
 8
0
  0
POLYLINE
  8
0
 62
     0
 66
     1
 10
0
 20
0
 30
0.0
 70
     1
 40
0
 41
0
  0
VERTEX
  8
0
 10
6.85682
 20
8.55971
 30
0.0
 40
0
 41
0
  0
VERTEX
  8
0
 10
7.12679
 20
8.55971
 30
0.0
 40
0
 41
0
  0
VERTEX
  8
0
 10
7.19233
 20
8.62503
 30
0.0
 40
0
 41
0
  0
VERTEX
  8
0
 10
7.19233
 20
8.69014
 30
0.0
 40
0
 41
0
  0
VERTEX
  8
0
 10
7.12679
 20
8.75546
 30
0.0
 40
0
 41
0
  0
VERTEX
  8
0
 10
6.85682
 20
8.75546
 30
0.0
 40
0
 41
0
  0
VERTEX
  8
0
 10
6.7915
 20
8.69014
 30
0.0
 40
0
 41
0
  0
VERTEX
  8
0
 10
6.7915
 20
8.62503
 30
0.0
 40
0
 41
0
  0
VERTEX
  8
0
 10
6.85682
 20
8.55971
 30
0.0
 40
0
 41
0
  0
SEQEND
 8
0
  0
POLYLINE
  8
0
 62
     0
 66
     1
 10
0
 20
0
 30
0.0
 70
     1
 40
0
 41
0
  0
VERTEX
  8
0
 10
6.78674
 20
8.28333
 30
0.0
 40
0
 41
0
  0
VERTEX
  8
0
 10
6.78674
 20
8.42028
 30
0.0
 40
0
 41
0
  0
VERTEX
  8
0
 10
6.79563
 20
8.42028
 30
0.0
 40
0
 41
0
  0
VERTEX
  8
0
 10
6.79563
 20
8.35625
 30
0.0
 40
0
 41
0
  0
VERTEX
  8
0
 10
7.18821
 20
8.35625
 30
0.0
 40
0
 41
0
  0
VERTEX
  8
0
 10
7.12765
 20
8.41681
 30
0.0
 40
0
 41
0
  0
VERTEX
  8
0
 10
7.13417
 20
8.42353
 30
0.0
 40
0
 41
0
  0
VERTEX
  8
0
 10
7.2034
 20
8.35388
 30
0.0
 40
0
 41
0
  0
VERTEX
  8
0
 10
7.2034
 20
8.34736
 30
0.0
 40
0
 41
0
  0
VERTEX
  8
0
 10
6.79563
 20
8.34736
 30
0.0
 40
0
 41
0
  0
VERTEX
  8
0
 10
6.79563
 20
8.28333
 30
0.0
 40
0
 41
0
  0
VERTEX
  8
0
 10
6.78674
 20
8.28333
 30
0.0
 40
0
 41
0
  0
SEQEND
 8
0
  0
POLYLINE
  8
0
 62
     0
 66
     1
 10
0
 20
0
 30
0.0
 70
     1
 40
0
 41
0
  0
VERTEX
  8
0
 10
6.85661
 20
7.86467
 30
0.0
 40
0
 41
0
  0
VERTEX
  8
0
 10
6.78674
 20
7.93585
 30
0.0
 40
0
 41
0
  0
VERTEX
  8
0
 10
6.78674
 20
8.07582
 30
0.0
 40
0
 41
0
  0
VERTEX
  8
0
 10
6.85553
 20
8.14592
 30
0.0
 40
0
 41
0
  0
VERTEX
  8
0
 10
6.86225
 20
8.13919
 30
0.0
 40
0
 41
0
  0
VERTEX
  8
0
 10
6.79563
 20
8.07257
 30
0.0
 40
0
 41
0
  0
VERTEX
  8
0
 10
6.79563
 20
7.93932
 30
0.0
 40
0
 41
0
  0
VERTEX
  8
0
 10
6.86051
 20
7.87378
 30
0.0
 40
0
 41
0
  0
VERTEX
  8
0
 10
6.99333
 20
7.87378
 30
0.0
 40
0
 41
0
  0
VERTEX
  8
0
 10
7.05843
 20
7.93932
 30
0.0
 40
0
 41
0
  0
VERTEX
  8
0
 10
7.05843
 20
8.147
 30
0.0
 40
0
 41
0
  0
VERTEX
  8
0
 10
7.2034
 20
8.147
 30
0.0
 40
0
 41
0
  0
VERTEX
  8
0
 10
7.2034
 20
7.86922
 30
0.0
 40
0
 41
0
  0
VERTEX
  8
0
 10
7.19428
 20
7.86922
 30
0.0
 40
0
 41
0
  0
VERTEX
  8
0
 10
7.19428
 20
8.13789
 30
0.0
 40
0
 41
0
  0
VERTEX
  8
0
 10
7.06451
 20
8.13789
 30
0.0
 40
0
 41
0
  0
VERTEX
  8
0
 10
7.06451
 20
7.93585
 30
0.0
 40
0
 41
0
  0
VERTEX
  8
0
 10
6.99442
 20
7.86467
 30
0.0
 40
0
 41
0
  0
VERTEX
  8
0
 10
6.85661
 20
7.86467
 30
0.0
 40
0
 41
0
  0
SEQEND
 8
0
  0
POLYLINE
  8
0
 62
     0
 66
     1
 10
0
 20
0
 30
0.0
 70
     1
 40
0
 41
0
  0
VERTEX
  8
0
 10
6.85726
 20
7.52504
 30
0.0
 40
0
 41
0
  0
VERTEX
  8
0
 10
6.78674
 20
7.59622
 30
0.0
 40
0
 41
0
  0
VERTEX
  8
0
 10
6.78674
 20
7.66783
 30
0.0
 40
0
 41
0
  0
VERTEX
  8
0
 10
6.85726
 20
7.73901
 30
0.0
 40
0
 41
0
  0
VERTEX
  8
0
 10
7.13265
 20
7.73901
 30
0.0
 40
0
 41
0
  0
VERTEX
  8
0
 10
7.2034
 20
7.66783
 30
0.0
 40
0
 41
0
  0
VERTEX
  8
0
 10
7.2034
 20
7.59622
 30
0.0
 40
0
 41
0
  0
VERTEX
  8
0
 10
7.13265
 20
7.52504
 30
0.0
 40
0
 41
0
  0
VERTEX
  8
0
 10
6.85726
 20
7.52504
 30
0.0
 40
0
 41
0
  0
SEQEND
 8
0
  0
POLYLINE
  8
0
 62
     0
 66
     1
 10
0
 20
0
 30
0.0
 70
     1
 40
0
 41
0
  0
VERTEX
  8
0
 10
6.85682
 20
7.53415
 30
0.0
 40
0
 41
0
  0
VERTEX
  8
0
 10
7.12679
 20
7.53415
 30
0.0
 40
0
 41
0
  0
VERTEX
  8
0
 10
7.19233
 20
7.59947
 30
0.0
 40
0
 41
0
  0
VERTEX
  8
0
 10
7.19233
 20
7.66458
 30
0.0
 40
0
 41
0
  0
VERTEX
  8
0
 10
7.12679
 20
7.7299
 30
0.0
 40
0
 41
0
  0
VERTEX
  8
0
 10
6.85682
 20
7.7299
 30
0.0
 40
0
 41
0
  0
VERTEX
  8
0
 10
6.7915
 20
7.66458
 30
0.0
 40
0
 41
0
  0
VERTEX
  8
0
 10
6.7915
 20
7.59947
 30
0.0
 40
0
 41
0
  0
VERTEX
  8
0
 10
6.85682
 20
7.53415
 30
0.0
 40
0
 41
0
  0
SEQEND
 8
0
  0
POLYLINE
  8
0
 62
     0
 66
     1
 10
0
 20
0
 30
0.0
 70
     1
 40
0
 41
0
  0
VERTEX
  8
0
 10
6.85726
 20
7.11672
 30
0.0
 40
0
 41
0
  0
VERTEX
  8
0
 10
6.78674
 20
7.1879
 30
0.0
 40
0
 41
0
  0
VERTEX
  8
0
 10
6.78674
 20
7.32787
 30
0.0
 40
0
 41
0
  0
VERTEX
  8
0
 10
6.85726
 20
7.39906
 30
0.0
 40
0
 41
0
  0
VERTEX
  8
0
 10
7.06472
 20
7.39906
 30
0.0
 40
0
 41
0
  0
VERTEX
  8
0
 10
7.2034
 20
7.25953
 30
0.0
 40
0
 41
0
  0
VERTEX
  8
0
 10
7.2034
 20
7.18986
 30
0.0
 40
0
 41
0
  0
VERTEX
  8
0
 10
7.1945
 20
7.18986
 30
0.0
 40
0
 41
0
  0
VERTEX
  8
0
 10
7.1945
 20
7.25626
 30
0.0
 40
0
 41
0
  0
VERTEX
  8
0
 10
7.06125
 20
7.38994
 30
0.0
 40
0
 41
0
  0
VERTEX
  8
0
 10
6.9994
 20
7.38994
 30
0.0
 40
0
 41
0
  0
VERTEX
  8
0
 10
6.9994
 20
7.1879
 30
0.0
 40
0
 41
0
  0
VERTEX
  8
0
 10
6.92865
 20
7.11672
 30
0.0
 40
0
 41
0
  0
VERTEX
  8
0
 10
6.85726
 20
7.11672
 30
0.0
 40
0
 41
0
  0
SEQEND
 8
0
  0
POLYLINE
  8
0
 62
     0
 66
     1
 10
0
 20
0
 30
0.0
 70
     1
 40
0
 41
0
  0
VERTEX
  8
0
 10
6.85682
 20
7.12585
 30
0.0
 40
0
 41
0
  0
VERTEX
  8
0
 10
6.92193
 20
7.12585
 30
0.0
 40
0
 41
0
  0
VERTEX
  8
0
 10
6.98725
 20
7.19137
 30
0.0
 40
0
 41
0
  0
VERTEX
  8
0
 10
6.98725
 20
7.38994
 30
0.0
 40
0
 41
0
  0
VERTEX
  8
0
 10
6.85682
 20
7.38994
 30
0.0
 40
0
 41
0
  0
VERTEX
  8
0
 10
6.7915
 20
7.32462
 30
0.0
 40
0
 41
0
  0
VERTEX
  8
0
 10
6.7915
 20
7.19137
 30
0.0
 40
0
 41
0
  0
VERTEX
  8
0
 10
6.85682
 20
7.12585
 30
0.0
 40
0
 41
0
  0
SEQEND
 8
0
  0
POLYLINE
  8
0
 62
     0
 66
     1
 10
0
 20
0
 30
0.0
 70
     1
 40
0
 41
0
  0
VERTEX
  8
0
 10
6.98118
 20
6.71329
 30
0.0
 40
0
 41
0
  0
VERTEX
  8
0
 10
6.98118
 20
6.98674
 30
0.0
 40
0
 41
0
  0
VERTEX
  8
0
 10
6.99507
 20
6.98674
 30
0.0
 40
0
 41
0
  0
VERTEX
  8
0
 10
6.99507
 20
6.71329
 30
0.0
 40
0
 41
0
  0
VERTEX
  8
0
 10
6.98118
 20
6.71329
 30
0.0
 40
0
 41
0
  0
SEQEND
 8
0
  0
POLYLINE
  8
0
 62
     0
 66
     1
 10
0
 20
0
 30
0.0
 70
     1
 40
0
 41
0
  0
VERTEX
  8
0
 10
7.06125
 20
6.30075
 30
0.0
 40
0
 41
0
  0
VERTEX
  8
0
 10
6.99029
 20
6.37193
 30
0.0
 40
0
 41
0
  0
VERTEX
  8
0
 10
6.99029
 20
6.50865
 30
0.0
 40
0
 41
0
  0
VERTEX
  8
0
 10
6.9254
 20
6.57397
 30
0.0
 40
0
 41
0
  0
VERTEX
  8
0
 10
6.79563
 20
6.57397
 30
0.0
 40
0
 41
0
  0
VERTEX
  8
0
 10
6.79563
 20
6.30531
 30
0.0
 40
0
 41
0
  0
VERTEX
  8
0
 10
6.78674
 20
6.30531
 30
0.0
 40
0
 41
0
  0
VERTEX
  8
0
 10
6.78674
 20
6.58308
 30
0.0
 40
0
 41
0
  0
VERTEX
  8
0
 10
6.92865
 20
6.58308
 30
0.0
 40
0
 41
0
  0
VERTEX
  8
0
 10
6.9994
 20
6.5119
 30
0.0
 40
0
 41
0
  0
VERTEX
  8
0
 10
6.9994
 20
6.3754
 30
0.0
 40
0
 41
0
  0
VERTEX
  8
0
 10
7.06472
 20
6.30988
 30
0.0
 40
0
 41
0
  0
VERTEX
  8
0
 10
7.12918
 20
6.30988
 30
0.0
 40
0
 41
0
  0
VERTEX
  8
0
 10
7.1945
 20
6.3754
 30
0.0
 40
0
 41
0
  0
VERTEX
  8
0
 10
7.1945
 20
6.50865
 30
0.0
 40
0
 41
0
  0
VERTEX
  8
0
 10
7.12765
 20
6.57528
 30
0.0
 40
0
 41
0
  0
VERTEX
  8
0
 10
7.13417
 20
6.582
 30
0.0
 40
0
 41
0
  0
VERTEX
  8
0
 10
7.2034
 20
6.5119
 30
0.0
 40
0
 41
0
  0
VERTEX
  8
0
 10
7.2034
 20
6.37193
 30
0.0
 40
0
 41
0
  0
VERTEX
  8
0
 10
7.13265
 20
6.30075
 30
0.0
 40
0
 41
0
  0
VERTEX
  8
0
 10
7.06125
 20
6.30075
 30
0.0
 40
0
 41
0
  0
SEQEND
 8
0
  0
POLYLINE
  8
0
 62
     0
 66
     1
 10
0
 20
0
 30
0.0
 70
     1
 40
0
 41
0
  0
VERTEX
  8
0
 10
7.1945
 20
5.48933
 30
0.0
 40
0
 41
0
  0
VERTEX
  8
0
 10
7.1945
 20
5.6215
 30
0.0
 40
0
 41
0
  0
VERTEX
  8
0
 10
6.78674
 20
5.6215
 30
0.0
 40
0
 41
0
  0
VERTEX
  8
0
 10
6.78674
 20
5.63061
 30
0.0
 40
0
 41
0
  0
VERTEX
  8
0
 10
7.1945
 20
5.63061
 30
0.0
 40
0
 41
0
  0
VERTEX
  8
0
 10
7.1945
 20
5.76278
 30
0.0
 40
0
 41
0
  0
VERTEX
  8
0
 10
7.2034
 20
5.76278
 30
0.0
 40
0
 41
0
  0
VERTEX
  8
0
 10
7.2034
 20
5.48933
 30
0.0
 40
0
 41
0
  0
VERTEX
  8
0
 10
7.1945
 20
5.48933
 30
0.0
 40
0
 41
0
  0
SEQEND
 8
0
  0
POLYLINE
  8
0
 62
     0
 66
     1
 10
0
 20
0
 30
0.0
 70
     1
 40
0
 41
0
  0
VERTEX
  8
0
 10
6.78674
 20
5.08135
 30
0.0
 40
0
 41
0
  0
VERTEX
  8
0
 10
6.78674
 20
5.35912
 30
0.0
 40
0
 41
0
  0
VERTEX
  8
0
 10
7.2034
 20
5.35912
 30
0.0
 40
0
 41
0
  0
VERTEX
  8
0
 10
7.2034
 20
5.08135
 30
0.0
 40
0
 41
0
  0
VERTEX
  8
0
 10
7.1945
 20
5.08135
 30
0.0
 40
0
 41
0
  0
VERTEX
  8
0
 10
7.1945
 20
5.35001
 30
0.0
 40
0
 41
0
  0
VERTEX
  8
0
 10
6.9994
 20
5.35001
 30
0.0
 40
0
 41
0
  0
VERTEX
  8
0
 10
6.9994
 20
5.21786
 30
0.0
 40
0
 41
0
  0
VERTEX
  8
0
 10
6.99029
 20
5.21786
 30
0.0
 40
0
 41
0
  0
VERTEX
  8
0
 10
6.99029
 20
5.35001
 30
0.0
 40
0
 41
0
  0
VERTEX
  8
0
 10
6.79563
 20
5.35001
 30
0.0
 40
0
 41
0
  0
VERTEX
  8
0
 10
6.79563
 20
5.08135
 30
0.0
 40
0
 41
0
  0
VERTEX
  8
0
 10
6.78674
 20
5.08135
 30
0.0
 40
0
 41
0
  0
SEQEND
 8
0
  0
POLYLINE
  8
0
 62
     0
 66
     1
 10
0
 20
0
 30
0.0
 70
     1
 40
0
 41
0
  0
VERTEX
  8
0
 10
6.78674
 20
4.66881
 30
0.0
 40
0
 41
0
  0
VERTEX
  8
0
 10
6.78674
 20
4.67793
 30
0.0
 40
0
 41
0
  0
VERTEX
  8
0
 10
7.17736
 20
4.67793
 30
0.0
 40
0
 41
0
  0
VERTEX
  8
0
 10
6.91325
 20
4.80988
 30
0.0
 40
0
 41
0
  0
VERTEX
  8
0
 10
7.17736
 20
4.94203
 30
0.0
 40
0
 41
0
  0
VERTEX
  8
0
 10
6.78674
 20
4.94203
 30
0.0
 40
0
 41
0
  0
VERTEX
  8
0
 10
6.78674
 20
4.95114
 30
0.0
 40
0
 41
0
  0
VERTEX
  8
0
 10
7.2034
 20
4.95114
 30
0.0
 40
0
 41
0
  0
VERTEX
  8
0
 10
7.2034
 20
4.94137
 30
0.0
 40
0
 41
0
  0
VERTEX
  8
0
 10
6.93625
 20
4.80988
 30
0.0
 40
0
 41
0
  0
VERTEX
  8
0
 10
7.2034
 20
4.67836
 30
0.0
 40
0
 41
0
  0
VERTEX
  8
0
 10
7.2034
 20
4.66881
 30
0.0
 40
0
 41
0
  0
VERTEX
  8
0
 10
6.78674
 20
4.66881
 30
0.0
 40
0
 41
0
  0
SEQEND
 8
0
  0
POLYLINE
  8
0
 62
     0
 66
     1
 10
0
 20
0
 30
0.0
 70
     1
 40
0
 41
0
  0
VERTEX
  8
0
 10
7.05974
 20
4.26082
 30
0.0
 40
0
 41
0
  0
VERTEX
  8
0
 10
6.98812
 20
4.332
 30
0.0
 40
0
 41
0
  0
VERTEX
  8
0
 10
6.98812
 20
4.53404
 30
0.0
 40
0
 41
0
  0
VERTEX
  8
0
 10
6.78674
 20
4.53404
 30
0.0
 40
0
 41
0
  0
VERTEX
  8
0
 10
6.78674
 20
4.54315
 30
0.0
 40
0
 41
0
  0
VERTEX
  8
0
 10
7.2034
 20
4.54315
 30
0.0
 40
0
 41
0
  0
VERTEX
  8
0
 10
7.2034
 20
4.332
 30
0.0
 40
0
 41
0
  0
VERTEX
  8
0
 10
7.13178
 20
4.26082
 30
0.0
 40
0
 41
0
  0
VERTEX
  8
0
 10
7.05974
 20
4.26082
 30
0.0
 40
0
 41
0
  0
SEQEND
 8
0
  0
POLYLINE
  8
0
 62
     0
 66
     1
 10
0
 20
0
 30
0.0
 70
     1
 40
0
 41
0
  0
VERTEX
  8
0
 10
7.0619
 20
4.26994
 30
0.0
 40
0
 41
0
  0
VERTEX
  8
0
 10
7.12679
 20
4.26994
 30
0.0
 40
0
 41
0
  0
VERTEX
  8
0
 10
7.19233
 20
4.33547
 30
0.0
 40
0
 41
0
  0
VERTEX
  8
0
 10
7.19233
 20
4.53404
 30
0.0
 40
0
 41
0
  0
VERTEX
  8
0
 10
6.99636
 20
4.53404
 30
0.0
 40
0
 41
0
  0
VERTEX
  8
0
 10
6.99636
 20
4.33547
 30
0.0
 40
0
 41
0
  0
VERTEX
  8
0
 10
7.0619
 20
4.26994
 30
0.0
 40
0
 41
0
  0
SEQEND
 8
0
  0
POLYLINE
  8
0
 62
     0
 66
     1
 10
0
 20
0
 30
0.0
 70
     1
 40
0
 41
0
  0
VERTEX
  8
0
 10
6.78674
 20
3.85739
 30
0.0
 40
0
 41
0
  0
VERTEX
  8
0
 10
6.78674
 20
4.13517
 30
0.0
 40
0
 41
0
  0
VERTEX
  8
0
 10
7.2034
 20
4.13517
 30
0.0
 40
0
 41
0
  0
VERTEX
  8
0
 10
7.2034
 20
4.12606
 30
0.0
 40
0
 41
0
  0
VERTEX
  8
0
 10
6.79563
 20
4.12606
 30
0.0
 40
0
 41
0
  0
VERTEX
  8
0
 10
6.79563
 20
3.85739
 30
0.0
 40
0
 41
0
  0
VERTEX
  8
0
 10
6.78674
 20
3.85739
 30
0.0
 40
0
 41
0
  0
SEQEND
 8
0
  0
POLYLINE
  8
0
 62
     0
 66
     1
 10
0
 20
0
 30
0.0
 70
     1
 40
0
 41
0
  0
VERTEX
  8
0
 10
6.78674
 20
3.4505
 30
0.0
 40
0
 41
0
  0
VERTEX
  8
0
 10
6.78674
 20
3.45961
 30
0.0
 40
0
 41
0
  0
VERTEX
  8
0
 10
6.91911
 20
3.45961
 30
0.0
 40
0
 41
0
  0
VERTEX
  8
0
 10
6.91911
 20
3.72371
 30
0.0
 40
0
 41
0
  0
VERTEX
  8
0
 10
6.78674
 20
3.72371
 30
0.0
 40
0
 41
0
  0
VERTEX
  8
0
 10
6.78674
 20
3.73283
 30
0.0
 40
0
 41
0
  0
VERTEX
  8
0
 10
6.92692
 20
3.73283
 30
0.0
 40
0
 41
0
  0
VERTEX
  8
0
 10
7.2034
 20
3.59697
 30
0.0
 40
0
 41
0
  0
VERTEX
  8
0
 10
7.2034
 20
3.58635
 30
0.0
 40
0
 41
0
  0
VERTEX
  8
0
 10
6.92692
 20
3.4505
 30
0.0
 40
0
 41
0
  0
VERTEX
  8
0
 10
6.78674
 20
3.4505
 30
0.0
 40
0
 41
0
  0
SEQEND
 8
0
  0
POLYLINE
  8
0
 62
     0
 66
     1
 10
0
 20
0
 30
0.0
 70
     1
 40
0
 41
0
  0
VERTEX
  8
0
 10
6.928
 20
3.46243
 30
0.0
 40
0
 41
0
  0
VERTEX
  8
0
 10
7.18647
 20
3.59156
 30
0.0
 40
0
 41
0
  0
VERTEX
  8
0
 10
6.928
 20
3.72089
 30
0.0
 40
0
 41
0
  0
VERTEX
  8
0
 10
6.928
 20
3.46243
 30
0.0
 40
0
 41
0
  0
SEQEND
 8
0
  0
POLYLINE
  8
0
 62
     0
 66
     1
 10
0
 20
0
 30
0.0
 70
     1
 40
0
 41
0
  0
VERTEX
  8
0
 10
7.1945
 20
3.04707
 30
0.0
 40
0
 41
0
  0
VERTEX
  8
0
 10
7.1945
 20
3.17922
 30
0.0
 40
0
 41
0
  0
VERTEX
  8
0
 10
6.78674
 20
3.17922
 30
0.0
 40
0
 41
0
  0
VERTEX
  8
0
 10
6.78674
 20
3.18835
 30
0.0
 40
0
 41
0
  0
VERTEX
  8
0
 10
7.1945
 20
3.18835
 30
0.0
 40
0
 41
0
  0
VERTEX
  8
0
 10
7.1945
 20
3.3205
 30
0.0
 40
0
 41
0
  0
VERTEX
  8
0
 10
7.2034
 20
3.3205
 30
0.0
 40
0
 41
0
  0
VERTEX
  8
0
 10
7.2034
 20
3.04707
 30
0.0
 40
0
 41
0
  0
VERTEX
  8
0
 10
7.1945
 20
3.04707
 30
0.0
 40
0
 41
0
  0
SEQEND
 8
0
  0
POLYLINE
  8
0
 62
     0
 66
     1
 10
0
 20
0
 30
0.0
 70
     1
 40
0
 41
0
  0
VERTEX
  8
0
 10
6.78674
 20
2.63908
 30
0.0
 40
0
 41
0
  0
VERTEX
  8
0
 10
6.78674
 20
2.91686
 30
0.0
 40
0
 41
0
  0
VERTEX
  8
0
 10
7.2034
 20
2.91686
 30
0.0
 40
0
 41
0
  0
VERTEX
  8
0
 10
7.2034
 20
2.63908
 30
0.0
 40
0
 41
0
  0
VERTEX
  8
0
 10
7.1945
 20
2.63908
 30
0.0
 40
0
 41
0
  0
VERTEX
  8
0
 10
7.1945
 20
2.90774
 30
0.0
 40
0
 41
0
  0
VERTEX
  8
0
 10
6.9994
 20
2.90774
 30
0.0
 40
0
 41
0
  0
VERTEX
  8
0
 10
6.9994
 20
2.77558
 30
0.0
 40
0
 41
0
  0
VERTEX
  8
0
 10
6.99029
 20
2.77558
 30
0.0
 40
0
 41
0
  0
VERTEX
  8
0
 10
6.99029
 20
2.90774
 30
0.0
 40
0
 41
0
  0
VERTEX
  8
0
 10
6.79563
 20
2.90774
 30
0.0
 40
0
 41
0
  0
VERTEX
  8
0
 10
6.79563
 20
2.63908
 30
0.0
 40
0
 41
0
  0
VERTEX
  8
0
 10
6.78674
 20
2.63908
 30
0.0
 40
0
 41
0
  0
SEQEND
 8
0
  0
POLYLINE
  8
0
 62
     0
 66
     1
 10
0
 20
0
 30
0.0
 40
0.72
 41
0.72
  0
VERTEX
  8
0
 10
4.97
 20
4.02
 30
0.0
 40
0.01
 41
0.01
  0
VERTEX
  8
0
 10
4.99333
 20
4.02168
 30
0.0
 40
0.01
 41
0.01
  0
VERTEX
  8
0
 10
5.01665
 20
4.02835
 30
0.0
 40
0.01
 41
0.01
  0
VERTEX
  8
0
 10
5.03836
 20
4.03833
 30
0.0
 40
0.01
 41
0.01
  0
VERTEX
  8
0
 10
5.05664
 20
4.05168
 30
0.0
 40
0.01
 41
0.01
  0
VERTEX
  8
0
 10
5.07335
 20
4.06833
 30
0.0
 40
0.01
 41
0.01
  0
VERTEX
  8
0
 10
5.08664
 20
4.08835
 30
0.0
 40
0.01
 41
0.01
  0
VERTEX
  8
0
 10
5.09668
 20
4.10832
 30
0.0
 40
0.01
 41
0.01
  0
VERTEX
  8
0
 10
5.10335
 20
4.13165
 30
0.0
 40
0.01
 41
0.01
  0
VERTEX
  8
0
 10
5.10499
 20
4.15497
 30
0.0
 40
0.01
 41
0.01
  0
SEQEND
 8
0
  0
POLYLINE
  8
0
 62
     0
 66
     1
 10
0
 20
0
 30
0.0
 40
0.72
 41
0.72
  0
VERTEX
  8
0
 10
4.97
 20
4.02
 30
0.0
 40
0.01
 41
0.01
  0
VERTEX
  8
0
 10
1.61165
 20
4.02
 30
0.0
 40
0.01
 41
0.01
  0
SEQEND
 8
0
  0
POLYLINE
  8
0
 62
     0
 66
     1
 10
0
 20
0
 30
0.0
 40
0.72
 41
0.72
  0
VERTEX
  8
0
 10
1.47667
 20
4.15497
 30
0.0
 40
0.01
 41
0.01
  0
VERTEX
  8
0
 10
1.47835
 20
4.13165
 30
0.0
 40
0.01
 41
0.01
  0
VERTEX
  8
0
 10
1.48503
 20
4.10832
 30
0.0
 40
0.01
 41
0.01
  0
VERTEX
  8
0
 10
1.49501
 20
4.08835
 30
0.0
 40
0.01
 41
0.01
  0
VERTEX
  8
0
 10
1.50836
 20
4.06833
 30
0.0
 40
0.01
 41
0.01
  0
VERTEX
  8
0
 10
1.52501
 20
4.05168
 30
0.0
 40
0.01
 41
0.01
  0
VERTEX
  8
0
 10
1.54497
 20
4.03833
 30
0.0
 40
0.01
 41
0.01
  0
VERTEX
  8
0
 10
1.565
 20
4.02835
 30
0.0
 40
0.01
 41
0.01
  0
VERTEX
  8
0
 10
1.58832
 20
4.02168
 30
0.0
 40
0.01
 41
0.01
  0
VERTEX
  8
0
 10
1.61165
 20
4.02
 30
0.0
 40
0.01
 41
0.01
  0
SEQEND
 8
0
  0
POLYLINE
  8
0
 62
     0
 66
     1
 10
0
 20
0
 30
0.0
 40
0.72
 41
0.72
  0
VERTEX
  8
0
 10
1.47499
 20
4.15497
 30
0.0
 40
0.01
 41
0.01
  0
VERTEX
  8
0
 10
1.47499
 20
8.02997
 30
0.0
 40
0.01
 41
0.01
  0
SEQEND
 8
0
  0
POLYLINE
  8
0
 62
     0
 66
     1
 10
0
 20
0
 30
0.0
 40
0.72
 41
0.72
  0
VERTEX
  8
0
 10
1.61165
 20
8.16501
 30
0.0
 40
0.01
 41
0.01
  0
VERTEX
  8
0
 10
1.58501
 20
8.16165
 30
0.0
 40
0.01
 41
0.01
  0
VERTEX
  8
0
 10
1.56
 20
8.15497
 30
0.0
 40
0.01
 41
0.01
  0
VERTEX
  8
0
 10
1.53668
 20
8.14168
 30
0.0
 40
0.01
 41
0.01
  0
VERTEX
  8
0
 10
1.51665
 20
8.12497
 30
0.0
 40
0.01
 41
0.01
  0
VERTEX
  8
0
 10
1.5
 20
8.10501
 30
0.0
 40
0.01
 41
0.01
  0
VERTEX
  8
0
 10
1.48665
 20
8.08168
 30
0.0
 40
0.01
 41
0.01
  0
VERTEX
  8
0
 10
1.47999
 20
8.05667
 30
0.0
 40
0.01
 41
0.01
  0
VERTEX
  8
0
 10
1.47667
 20
8.02997
 30
0.0
 40
0.01
 41
0.01
  0
SEQEND
 8
0
  0
POLYLINE
  8
0
 62
     0
 66
     1
 10
0
 20
0
 30
0.0
 40
0.72
 41
0.72
  0
VERTEX
  8
0
 10
1.61165
 20
8.16664
 30
0.0
 40
0.01
 41
0.01
  0
VERTEX
  8
0
 10
4.97
 20
8.16664
 30
0.0
 40
0.01
 41
0.01
  0
SEQEND
 8
0
  0
POLYLINE
  8
0
 62
     0
 66
     1
 10
0
 20
0
 30
0.0
 40
0.72
 41
0.72
  0
VERTEX
  8
0
 10
5.10499
 20
8.02997
 30
0.0
 40
0.01
 41
0.01
  0
VERTEX
  8
0
 10
5.10335
 20
8.05336
 30
0.0
 40
0.01
 41
0.01
  0
VERTEX
  8
0
 10
5.09668
 20
8.07669
 30
0.0
 40
0.01
 41
0.01
  0
VERTEX
  8
0
 10
5.08664
 20
8.09833
 30
0.0
 40
0.01
 41
0.01
  0
VERTEX
  8
0
 10
5.07335
 20
8.11667
 30
0.0
 40
0.01
 41
0.01
  0
VERTEX
  8
0
 10
5.05664
 20
8.13333
 30
0.0
 40
0.01
 41
0.01
  0
VERTEX
  8
0
 10
5.03836
 20
8.14668
 30
0.0
 40
0.01
 41
0.01
  0
VERTEX
  8
0
 10
5.01665
 20
8.15665
 30
0.0
 40
0.01
 41
0.01
  0
VERTEX
  8
0
 10
4.99333
 20
8.16333
 30
0.0
 40
0.01
 41
0.01
  0
VERTEX
  8
0
 10
4.97
 20
8.16501
 30
0.0
 40
0.01
 41
0.01
  0
SEQEND
 8
0
  0
POLYLINE
  8
0
 62
     0
 66
     1
 10
0
 20
0
 30
0.0
 40
0.72
 41
0.72
  0
VERTEX
  8
0
 10
5.10499
 20
8.02997
 30
0.0
 40
0.01
 41
0.01
  0
VERTEX
  8
0
 10
5.10499
 20
4.15497
 30
0.0
 40
0.01
 41
0.01
  0
SEQEND
 8
0
  0
POLYLINE
  8
0
 62
     1
 66
     1
 10
0
 20
0
 30
0.0
 40
0.72
 41
0.72
  0
VERTEX
  8
0
 10
5.10499
 20
8.09833
 30
0.0
 40
0.01
 41
0.01
  0
VERTEX
  8
0
 10
5.10499
 20
9.00833
 30
0.0
 40
0.01
 41
0.01
  0
SEQEND
 8
0
  0
POLYLINE
  8
0
 62
     1
 66
     1
 10
0
 20
0
 30
0.0
 40
0.72
 41
0.72
  0
VERTEX
  8
0
 10
1.47499
 20
8.09833
 30
0.0
 40
0.01
 41
0.01
  0
VERTEX
  8
0
 10
1.47499
 20
9.00833
 30
0.0
 40
0.01
 41
0.01
  0
SEQEND
 8
0
  0
POLYLINE
  8
0
 62
     1
 66
     1
 10
0
 20
0
 30
0.0
 40
0.72
 41
0.72
  0
VERTEX
  8
0
 10
4.97
 20
8.99167
 30
0.0
 40
0.01
 41
0.01
  0
VERTEX
  8
0
 10
1.61165
 20
8.99167
 30
0.0
 40
0.01
 41
0.01
  0
SEQEND
 8
0
  0
POLYLINE
  8
0
 62
     1
 66
     1
 10
0
 20
0
 30
0.0
 70
     1
 40
0
 41
0
  0
VERTEX
  8
0
 10
4.97
 20
9.01332
 30
0.0
 40
0
 41
0
  0
VERTEX
  8
0
 10
4.97
 20
8.96835
 30
0.0
 40
0
 41
0
  0
VERTEX
  8
0
 10
5.10499
 20
8.99167
 30
0.0
 40
0
 41
0
  0
VERTEX
  8
0
 10
4.97
 20
9.01332
 30
0.0
 40
0
 41
0
  0
SEQEND
 8
0
  0
POLYLINE
  8
0
 62
     1
 66
     1
 10
0
 20
0
 30
0.0
 70
     1
 40
0
 41
0
  0
VERTEX
  8
0
 10
1.61165
 20
9.01332
 30
0.0
 40
0
 41
0
  0
VERTEX
  8
0
 10
1.61165
 20
8.96835
 30
0.0
 40
0
 41
0
  0
VERTEX
  8
0
 10
1.47499
 20
8.99167
 30
0.0
 40
0
 41
0
  0
VERTEX
  8
0
 10
1.61165
 20
9.01332
 30
0.0
 40
0
 41
0
  0
SEQEND
 8
0
  0
POLYLINE
  8
0
 62
     1
 66
     1
 10
0
 20
0
 30
0.0
 70
     1
 40
0
 41
0
  0
VERTEX
  8
0
 10
2.99843
 20
9.13007
 30
0.0
 40
0
 41
0
  0
VERTEX
  8
0
 10
2.93181
 20
9.13007
 30
0.0
 40
0
 41
0
  0
VERTEX
  8
0
 10
2.93181
 20
9.13442
 30
0.0
 40
0
 41
0
  0
VERTEX
  8
0
 10
2.96306
 20
9.13442
 30
0.0
 40
0
 41
0
  0
VERTEX
  8
0
 10
2.96306
 20
9.33081
 30
0.0
 40
0
 41
0
  0
VERTEX
  8
0
 10
2.93332
 20
9.30043
 30
0.0
 40
0
 41
0
  0
VERTEX
  8
0
 10
2.93007
 20
9.3039
 30
0.0
 40
0
 41
0
  0
VERTEX
  8
0
 10
2.96414
 20
9.3384
 30
0.0
 40
0
 41
0
  0
VERTEX
  8
0
 10
2.96739
 20
9.3384
 30
0.0
 40
0
 41
0
  0
VERTEX
  8
0
 10
2.96739
 20
9.13442
 30
0.0
 40
0
 41
0
  0
VERTEX
  8
0
 10
2.99843
 20
9.13442
 30
0.0
 40
0
 41
0
  0
VERTEX
  8
0
 10
2.99843
 20
9.13007
 30
0.0
 40
0
 41
0
  0
SEQEND
 8
0
  0
POLYLINE
  8
0
 62
     1
 66
     1
 10
0
 20
0
 30
0.0
 70
     1
 40
0
 41
0
  0
VERTEX
  8
0
 10
3.16997
 20
9.16544
 30
0.0
 40
0
 41
0
  0
VERTEX
  8
0
 10
3.13525
 20
9.13007
 30
0.0
 40
0
 41
0
  0
VERTEX
  8
0
 10
3.10032
 20
9.13007
 30
0.0
 40
0
 41
0
  0
VERTEX
  8
0
 10
3.0656
 20
9.16544
 30
0.0
 40
0
 41
0
  0
VERTEX
  8
0
 10
3.0656
 20
9.30303
 30
0.0
 40
0
 41
0
  0
VERTEX
  8
0
 10
3.10032
 20
9.3384
 30
0.0
 40
0
 41
0
  0
VERTEX
  8
0
 10
3.13525
 20
9.3384
 30
0.0
 40
0
 41
0
  0
VERTEX
  8
0
 10
3.16997
 20
9.30303
 30
0.0
 40
0
 41
0
  0
VERTEX
  8
0
 10
3.16997
 20
9.16544
 30
0.0
 40
0
 41
0
  0
SEQEND
 8
0
  0
POLYLINE
  8
0
 62
     1
 66
     1
 10
0
 20
0
 30
0.0
 70
     1
 40
0
 41
0
  0
VERTEX
  8
0
 10
3.16542
 20
9.16436
 30
0.0
 40
0
 41
0
  0
VERTEX
  8
0
 10
3.16542
 20
9.29587
 30
0.0
 40
0
 41
0
  0
VERTEX
  8
0
 10
3.13374
 20
9.32799
 30
0.0
 40
0
 41
0
  0
VERTEX
  8
0
 10
3.10183
 20
9.32799
 30
0.0
 40
0
 41
0
  0
VERTEX
  8
0
 10
3.06993
 20
9.29587
 30
0.0
 40
0
 41
0
  0
VERTEX
  8
0
 10
3.06993
 20
9.16436
 30
0.0
 40
0
 41
0
  0
VERTEX
  8
0
 10
3.10183
 20
9.13246
 30
0.0
 40
0
 41
0
  0
VERTEX
  8
0
 10
3.13374
 20
9.13246
 30
0.0
 40
0
 41
0
  0
VERTEX
  8
0
 10
3.16542
 20
9.16436
 30
0.0
 40
0
 41
0
  0
SEQEND
 8
0
  0
POLYLINE
  8
0
 62
     1
 66
     1
 10
0
 20
0
 30
0.0
 70
     1
 40
0
 41
0
  0
VERTEX
  8
0
 10
3.28342
 20
9.33493
 30
0.0
 40
0
 41
0
  0
VERTEX
  8
0
 10
3.21679
 20
9.33493
 30
0.0
 40
0
 41
0
  0
VERTEX
  8
0
 10
3.21679
 20
9.33928
 30
0.0
 40
0
 41
0
  0
VERTEX
  8
0
 10
3.24804
 20
9.33928
 30
0.0
 40
0
 41
0
  0
VERTEX
  8
0
 10
3.24804
 20
9.53567
 30
0.0
 40
0
 41
0
  0
VERTEX
  8
0
 10
3.21832
 20
9.50529
 30
0.0
 40
0
 41
0
  0
VERTEX
  8
0
 10
3.21506
 20
9.50876
 30
0.0
 40
0
 41
0
  0
VERTEX
  8
0
 10
3.24914
 20
9.54326
 30
0.0
 40
0
 41
0
  0
VERTEX
  8
0
 10
3.25239
 20
9.54326
 30
0.0
 40
0
 41
0
  0
VERTEX
  8
0
 10
3.25239
 20
9.33928
 30
0.0
 40
0
 41
0
  0
VERTEX
  8
0
 10
3.28342
 20
9.33928
 30
0.0
 40
0
 41
0
  0
VERTEX
  8
0
 10
3.28342
 20
9.33493
 30
0.0
 40
0
 41
0
  0
SEQEND
 8
0
  0
POLYLINE
  8
0
 62
     1
 66
     1
 10
0
 20
0
 30
0.0
 40
0.72
 41
0.72
  0
VERTEX
  8
0
 10
3.20665
 20
9.16832
 30
0.0
 40
0.01
 41
0.01
  0
VERTEX
  8
0
 10
3.44
 20
9.50333
 30
0.0
 40
0.01
 41
0.01
  0
SEQEND
 8
0
  0
POLYLINE
  8
0
 62
     1
 66
     1
 10
0
 20
0
 30
0.0
 70
     1
 40
0
 41
0
  0
VERTEX
  8
0
 10
3.5191
 20
9.26722
 30
0.0
 40
0
 41
0
  0
VERTEX
  8
0
 10
3.48438
 20
9.23185
 30
0.0
 40
0
 41
0
  0
VERTEX
  8
0
 10
3.41754
 20
9.23185
 30
0.0
 40
0
 41
0
  0
VERTEX
  8
0
 10
3.38564
 20
9.19931
 30
0.0
 40
0
 41
0
  0
VERTEX
  8
0
 10
3.38564
 20
9.13442
 30
0.0
 40
0
 41
0
  0
VERTEX
  8
0
 10
3.51671
 20
9.13442
 30
0.0
 40
0
 41
0
  0
VERTEX
  8
0
 10
3.51671
 20
9.13007
 30
0.0
 40
0
 41
0
  0
VERTEX
  8
0
 10
3.38129
 20
9.13007
 30
0.0
 40
0
 41
0
  0
VERTEX
  8
0
 10
3.38129
 20
9.20104
 30
0.0
 40
0
 41
0
  0
VERTEX
  8
0
 10
3.41601
 20
9.23642
 30
0.0
 40
0
 41
0
  0
VERTEX
  8
0
 10
3.48264
 20
9.23642
 30
0.0
 40
0
 41
0
  0
VERTEX
  8
0
 10
3.51454
 20
9.26918
 30
0.0
 40
0
 41
0
  0
VERTEX
  8
0
 10
3.51454
 20
9.30129
 30
0.0
 40
0
 41
0
  0
VERTEX
  8
0
 10
3.48264
 20
9.33407
 30
0.0
 40
0
 41
0
  0
VERTEX
  8
0
 10
3.41754
 20
9.33407
 30
0.0
 40
0
 41
0
  0
VERTEX
  8
0
 10
3.38499
 20
9.30043
 30
0.0
 40
0
 41
0
  0
VERTEX
  8
0
 10
3.38172
 20
9.3039
 30
0.0
 40
0
 41
0
  0
VERTEX
  8
0
 10
3.41601
 20
9.3384
 30
0.0
 40
0
 41
0
  0
VERTEX
  8
0
 10
3.48438
 20
9.3384
 30
0.0
 40
0
 41
0
  0
VERTEX
  8
0
 10
3.5191
 20
9.30303
 30
0.0
 40
0
 41
0
  0
VERTEX
  8
0
 10
3.5191
 20
9.26722
 30
0.0
 40
0
 41
0
  0
SEQEND
 8
0
  0
POLYLINE
  8
0
 62
     1
 66
     1
 10
0
 20
0
 30
0.0
 70
     1
 40
0
 41
0
  0
VERTEX
  8
0
 10
3.60792
 20
9.32907
 30
0.0
 40
0
 41
0
  0
VERTEX
  8
0
 10
3.57449
 20
9.26224
 30
0.0
 40
0
 41
0
  0
VERTEX
  8
0
 10
3.57081
 20
9.26462
 30
0.0
 40
0
 41
0
  0
VERTEX
  8
0
 10
3.604
 20
9.33125
 30
0.0
 40
0
 41
0
  0
VERTEX
  8
0
 10
3.60792
 20
9.32907
 30
0.0
 40
0
 41
0
  0
SEQEND
 8
0
  0
POLYLINE
  8
0
 62
     1
 66
     1
 10
0
 20
0
 30
0.0
 70
     1
 40
0
 41
0
  0
VERTEX
  8
0
 10
3.57449
 20
9.32278
 30
0.0
 40
0
 41
0
  0
VERTEX
  8
0
 10
3.54129
 20
9.26896
 30
0.0
 40
0
 41
0
  0
VERTEX
  8
0
 10
3.53737
 20
9.27092
 30
0.0
 40
0
 41
0
  0
VERTEX
  8
0
 10
3.57081
 20
9.32451
 30
0.0
 40
0
 41
0
  0
VERTEX
  8
0
 10
3.57449
 20
9.32278
 30
0.0
 40
0
 41
0
  0
SEQEND
 8
0
  0
POLYLINE
  8
0
 62
     1
 66
     1
 10
0
 20
0
 30
0.0
 40
0.72
 41
0.72
  0
VERTEX
  8
0
 10
5.03836
 20
8.16664
 30
0.0
 40
0.01
 41
0.01
  0
VERTEX
  8
0
 10
6.05664
 20
8.16664
 30
0.0
 40
0.01
 41
0.01
  0
SEQEND
 8
0
  0
POLYLINE
  8
0
 62
     1
 66
     1
 10
0
 20
0
 30
0.0
 40
0.72
 41
0.72
  0
VERTEX
  8
0
 10
5.03836
 20
4.02
 30
0.0
 40
0.01
 41
0.01
  0
VERTEX
  8
0
 10
6.05664
 20
4.02
 30
0.0
 40
0.01
 41
0.01
  0
SEQEND
 8
0
  0
POLYLINE
  8
0
 62
     1
 66
     1
 10
0
 20
0
 30
0.0
 40
0.72
 41
0.72
  0
VERTEX
  8
0
 10
6.03836
 20
8.02997
 30
0.0
 40
0.01
 41
0.01
  0
VERTEX
  8
0
 10
6.03836
 20
4.15497
 30
0.0
 40
0.01
 41
0.01
  0
SEQEND
 8
0
  0
POLYLINE
  8
0
 62
     1
 66
     1
 10
0
 20
0
 30
0.0
 70
     1
 40
0
 41
0
  0
VERTEX
  8
0
 10
6.06168
 20
8.02997
 30
0.0
 40
0
 41
0
  0
VERTEX
  8
0
 10
6.01665
 20
8.02997
 30
0.0
 40
0
 41
0
  0
VERTEX
  8
0
 10
6.03836
 20
8.16664
 30
0.0
 40
0
 41
0
  0
VERTEX
  8
0
 10
6.06168
 20
8.02997
 30
0.0
 40
0
 41
0
  0
SEQEND
 8
0
  0
POLYLINE
  8
0
 62
     1
 66
     1
 10
0
 20
0
 30
0.0
 70
     1
 40
0
 41
0
  0
VERTEX
  8
0
 10
6.06168
 20
4.15497
 30
0.0
 40
0
 41
0
  0
VERTEX
  8
0
 10
6.01665
 20
4.15497
 30
0.0
 40
0
 41
0
  0
VERTEX
  8
0
 10
6.03836
 20
4.02
 30
0.0
 40
0
 41
0
  0
VERTEX
  8
0
 10
6.06168
 20
4.15497
 30
0.0
 40
0
 41
0
  0
SEQEND
 8
0
  0
POLYLINE
  8
0
 62
     1
 66
     1
 10
0
 20
0
 30
0.0
 70
     1
 40
0
 41
0
  0
VERTEX
  8
0
 10
6.17497
 20
6.23169
 30
0.0
 40
0
 41
0
  0
VERTEX
  8
0
 10
6.17497
 20
6.29832
 30
0.0
 40
0
 41
0
  0
VERTEX
  8
0
 10
6.17931
 20
6.29832
 30
0.0
 40
0
 41
0
  0
VERTEX
  8
0
 10
6.17931
 20
6.26707
 30
0.0
 40
0
 41
0
  0
VERTEX
  8
0
 10
6.37571
 20
6.26707
 30
0.0
 40
0
 41
0
  0
VERTEX
  8
0
 10
6.34532
 20
6.29679
 30
0.0
 40
0
 41
0
  0
VERTEX
  8
0
 10
6.34879
 20
6.30006
 30
0.0
 40
0
 41
0
  0
VERTEX
  8
0
 10
6.38331
 20
6.26597
 30
0.0
 40
0
 41
0
  0
VERTEX
  8
0
 10
6.38331
 20
6.26272
 30
0.0
 40
0
 41
0
  0
VERTEX
  8
0
 10
6.17931
 20
6.26272
 30
0.0
 40
0
 41
0
  0
VERTEX
  8
0
 10
6.17931
 20
6.23169
 30
0.0
 40
0
 41
0
  0
VERTEX
  8
0
 10
6.17497
 20
6.23169
 30
0.0
 40
0
 41
0
  0
SEQEND
 8
0
  0
POLYLINE
  8
0
 62
     1
 66
     1
 10
0
 20
0
 30
0.0
 70
     1
 40
0
 41
0
  0
VERTEX
  8
0
 10
6.31212
 20
6.02672
 30
0.0
 40
0
 41
0
  0
VERTEX
  8
0
 10
6.27675
 20
6.06144
 30
0.0
 40
0
 41
0
  0
VERTEX
  8
0
 10
6.27675
 20
6.12828
 30
0.0
 40
0
 41
0
  0
VERTEX
  8
0
 10
6.24419
 20
6.16018
 30
0.0
 40
0
 41
0
  0
VERTEX
  8
0
 10
6.17931
 20
6.16018
 30
0.0
 40
0
 41
0
  0
VERTEX
  8
0
 10
6.17931
 20
6.02911
 30
0.0
 40
0
 41
0
  0
VERTEX
  8
0
 10
6.17497
 20
6.02911
 30
0.0
 40
0
 41
0
  0
VERTEX
  8
0
 10
6.17497
 20
6.16453
 30
0.0
 40
0
 41
0
  0
VERTEX
  8
0
 10
6.24593
 20
6.16453
 30
0.0
 40
0
 41
0
  0
VERTEX
  8
0
 10
6.28131
 20
6.12981
 30
0.0
 40
0
 41
0
  0
VERTEX
  8
0
 10
6.28131
 20
6.06318
 30
0.0
 40
0
 41
0
  0
VERTEX
  8
0
 10
6.31407
 20
6.03128
 30
0.0
 40
0
 41
0
  0
VERTEX
  8
0
 10
6.34619
 20
6.03128
 30
0.0
 40
0
 41
0
  0
VERTEX
  8
0
 10
6.37896
 20
6.06318
 30
0.0
 40
0
 41
0
  0
VERTEX
  8
0
 10
6.37896
 20
6.12828
 30
0.0
 40
0
 41
0
  0
VERTEX
  8
0
 10
6.34532
 20
6.16083
 30
0.0
 40
0
 41
0
  0
VERTEX
  8
0
 10
6.34879
 20
6.1641
 30
0.0
 40
0
 41
0
  0
VERTEX
  8
0
 10
6.38331
 20
6.12981
 30
0.0
 40
0
 41
0
  0
VERTEX
  8
0
 10
6.38331
 20
6.06144
 30
0.0
 40
0
 41
0
  0
VERTEX
  8
0
 10
6.34793
 20
6.02672
 30
0.0
 40
0
 41
0
  0
VERTEX
  8
0
 10
6.31212
 20
6.02672
 30
0.0
 40
0
 41
0
  0
SEQEND
 8
0
  0
POLYLINE
  8
0
 62
     1
 66
     1
 10
0
 20
0
 30
0.0
 70
     1
 40
0
 41
0
  0
VERTEX
  8
0
 10
6.37397
 20
5.88979
 30
0.0
 40
0
 41
0
  0
VERTEX
  8
0
 10
6.30713
 20
5.92321
 30
0.0
 40
0
 41
0
  0
VERTEX
  8
0
 10
6.30951
 20
5.92689
 30
0.0
 40
0
 41
0
  0
VERTEX
  8
0
 10
6.37614
 20
5.89369
 30
0.0
 40
0
 41
0
  0
VERTEX
  8
0
 10
6.37397
 20
5.88979
 30
0.0
 40
0
 41
0
  0
SEQEND
 8
0
  0
POLYLINE
  8
0
 62
     1
 66
     1
 10
0
 20
0
 30
0.0
 70
     1
 40
0
 41
0
  0
VERTEX
  8
0
 10
6.36768
 20
5.92321
 30
0.0
 40
0
 41
0
  0
VERTEX
  8
0
 10
6.31386
 20
5.9564
 30
0.0
 40
0
 41
0
  0
VERTEX
  8
0
 10
6.31581
 20
5.96032
 30
0.0
 40
0
 41
0
  0
VERTEX
  8
0
 10
6.36942
 20
5.92689
 30
0.0
 40
0
 41
0
  0
VERTEX
  8
0
 10
6.36768
 20
5.92321
 30
0.0
 40
0
 41
0
  0
SEQEND
 8
0
  0
ENDSEC
  0
EOF
