  0
SECTION
  2
HEADER
  9
$ACADVER
  1
AC1009
  9
$FILLMODE
 70
 0
  9
$SPLFRAME
 70
 1
  9
$EXTMIN
 10
0
 20
0
 30
0.0
  9
$EXTMAX
 10
41.6667
 20
41.6667
 30
0.0
  0
ENDSEC
  0
SECTION
  2
TABLES
  0
TABLE
  2
LAYER
 70
1
  0
LAYER
  2
0
 70
     0
 62
     7
  6
CONTINUOUS
  0
ENDTAB
  0
ENDSEC
  0
SECTION
  2
ENTITIES
  0
POLYLINE
  8
0
 62
     0
 66
     1
 10
0
 20
0
 30
0.0
 70
     1
 40
0
 41
0
  0
VERTEX
  8
0
 10
6.79281
 20
8.7669
 30
0.0
 40
0
 41
0
  0
VERTEX
  8
0
 10
6.73139
 20
8.8294
 30
0.0
 40
0
 41
0
  0
VERTEX
  8
0
 10
6.73139
 20
8.94962
 30
0.0
 40
0
 41
0
  0
VERTEX
  8
0
 10
6.67518
 20
9.00692
 30
0.0
 40
0
 41
0
  0
VERTEX
  8
0
 10
6.56256
 20
9.00692
 30
0.0
 40
0
 41
0
  0
VERTEX
  8
0
 10
6.56256
 20
8.77103
 30
0.0
 40
0
 41
0
  0
VERTEX
  8
0
 10
6.55496
 20
8.77103
 30
0.0
 40
0
 41
0
  0
VERTEX
  8
0
 10
6.55496
 20
9.01494
 30
0.0
 40
0
 41
0
  0
VERTEX
  8
0
 10
6.678
 20
9.01494
 30
0.0
 40
0
 41
0
  0
VERTEX
  8
0
 10
6.73942
 20
8.95244
 30
0.0
 40
0
 41
0
  0
VERTEX
  8
0
 10
6.73942
 20
8.83265
 30
0.0
 40
0
 41
0
  0
VERTEX
  8
0
 10
6.79585
 20
8.77493
 30
0.0
 40
0
 41
0
  0
VERTEX
  8
0
 10
6.85183
 20
8.77493
 30
0.0
 40
0
 41
0
  0
VERTEX
  8
0
 10
6.90847
 20
8.83265
 30
0.0
 40
0
 41
0
  0
VERTEX
  8
0
 10
6.90847
 20
8.94962
 30
0.0
 40
0
 41
0
  0
VERTEX
  8
0
 10
6.85032
 20
9.00822
 30
0.0
 40
0
 41
0
  0
VERTEX
  8
0
 10
6.85618
 20
9.01408
 30
0.0
 40
0
 41
0
  0
VERTEX
  8
0
 10
6.91607
 20
8.95244
 30
0.0
 40
0
 41
0
  0
VERTEX
  8
0
 10
6.91607
 20
8.8294
 30
0.0
 40
0
 41
0
  0
VERTEX
  8
0
 10
6.85465
 20
8.7669
 30
0.0
 40
0
 41
0
  0
VERTEX
  8
0
 10
6.79281
 20
8.7669
 30
0.0
 40
0
 41
0
  0
SEQEND
 8
0
  0
POLYLINE
  8
0
 62
     0
 66
     1
 10
0
 20
0
 30
0.0
 70
     1
 40
0
 41
0
  0
VERTEX
  8
0
 10
6.61615
 20
8.46824
 30
0.0
 40
0
 41
0
  0
VERTEX
  8
0
 10
6.55496
 20
8.53074
 30
0.0
 40
0
 41
0
  0
VERTEX
  8
0
 10
6.55496
 20
8.59367
 30
0.0
 40
0
 41
0
  0
VERTEX
  8
0
 10
6.61615
 20
8.65617
 30
0.0
 40
0
 41
0
  0
VERTEX
  8
0
 10
6.85465
 20
8.65617
 30
0.0
 40
0
 41
0
  0
VERTEX
  8
0
 10
6.91607
 20
8.59367
 30
0.0
 40
0
 41
0
  0
VERTEX
  8
0
 10
6.91607
 20
8.53074
 30
0.0
 40
0
 41
0
  0
VERTEX
  8
0
 10
6.85465
 20
8.46824
 30
0.0
 40
0
 41
0
  0
VERTEX
  8
0
 10
6.61615
 20
8.46824
 30
0.0
 40
0
 41
0
  0
SEQEND
 8
0
  0
POLYLINE
  8
0
 62
     0
 66
     1
 10
0
 20
0
 30
0.0
 70
     1
 40
0
 41
0
  0
VERTEX
  8
0
 10
6.6166
 20
8.47626
 30
0.0
 40
0
 41
0
  0
VERTEX
  8
0
 10
6.85357
 20
8.47626
 30
0.0
 40
0
 41
0
  0
VERTEX
  8
0
 10
6.91108
 20
8.53356
 30
0.0
 40
0
 41
0
  0
VERTEX
  8
0
 10
6.91108
 20
8.59085
 30
0.0
 40
0
 41
0
  0
VERTEX
  8
0
 10
6.85357
 20
8.64814
 30
0.0
 40
0
 41
0
  0
VERTEX
  8
0
 10
6.6166
 20
8.64814
 30
0.0
 40
0
 41
0
  0
VERTEX
  8
0
 10
6.55908
 20
8.59085
 30
0.0
 40
0
 41
0
  0
VERTEX
  8
0
 10
6.55908
 20
8.53356
 30
0.0
 40
0
 41
0
  0
VERTEX
  8
0
 10
6.6166
 20
8.47626
 30
0.0
 40
0
 41
0
  0
SEQEND
 8
0
  0
POLYLINE
  8
0
 62
     0
 66
     1
 10
0
 20
0
 30
0.0
 70
     1
 40
0
 41
0
  0
VERTEX
  8
0
 10
6.55496
 20
8.23326
 30
0.0
 40
0
 41
0
  0
VERTEX
  8
0
 10
6.55496
 20
8.35328
 30
0.0
 40
0
 41
0
  0
VERTEX
  8
0
 10
6.56256
 20
8.35328
 30
0.0
 40
0
 41
0
  0
VERTEX
  8
0
 10
6.56256
 20
8.29707
 30
0.0
 40
0
 41
0
  0
VERTEX
  8
0
 10
6.90283
 20
8.29707
 30
0.0
 40
0
 41
0
  0
VERTEX
  8
0
 10
6.85032
 20
8.35044
 30
0.0
 40
0
 41
0
  0
VERTEX
  8
0
 10
6.85618
 20
8.35631
 30
0.0
 40
0
 41
0
  0
VERTEX
  8
0
 10
6.91607
 20
8.29489
 30
0.0
 40
0
 41
0
  0
VERTEX
  8
0
 10
6.91607
 20
8.28925
 30
0.0
 40
0
 41
0
  0
VERTEX
  8
0
 10
6.56256
 20
8.28925
 30
0.0
 40
0
 41
0
  0
VERTEX
  8
0
 10
6.56256
 20
8.23326
 30
0.0
 40
0
 41
0
  0
VERTEX
  8
0
 10
6.55496
 20
8.23326
 30
0.0
 40
0
 41
0
  0
SEQEND
 8
0
  0
POLYLINE
  8
0
 62
     0
 66
     1
 10
0
 20
0
 30
0.0
 70
     1
 40
0
 41
0
  0
VERTEX
  8
0
 10
6.61768
 20
7.86999
 30
0.0
 40
0
 41
0
  0
VERTEX
  8
0
 10
6.55496
 20
7.93249
 30
0.0
 40
0
 41
0
  0
VERTEX
  8
0
 10
6.55496
 20
8.05553
 30
0.0
 40
0
 41
0
  0
VERTEX
  8
0
 10
6.61464
 20
8.11717
 30
0.0
 40
0
 41
0
  0
VERTEX
  8
0
 10
6.6205
 20
8.11131
 30
0.0
 40
0
 41
0
  0
VERTEX
  8
0
 10
6.56256
 20
8.05271
 30
0.0
 40
0
 41
0
  0
VERTEX
  8
0
 10
6.56256
 20
7.93574
 30
0.0
 40
0
 41
0
  0
VERTEX
  8
0
 10
6.61897
 20
7.87801
 30
0.0
 40
0
 41
0
  0
VERTEX
  8
0
 10
6.734
 20
7.87801
 30
0.0
 40
0
 41
0
  0
VERTEX
  8
0
 10
6.79042
 20
7.93574
 30
0.0
 40
0
 41
0
  0
VERTEX
  8
0
 10
6.79042
 20
8.11803
 30
0.0
 40
0
 41
0
  0
VERTEX
  8
0
 10
6.91607
 20
8.11803
 30
0.0
 40
0
 41
0
  0
VERTEX
  8
0
 10
6.91607
 20
7.87411
 30
0.0
 40
0
 41
0
  0
VERTEX
  8
0
 10
6.9089
 20
7.87411
 30
0.0
 40
0
 41
0
  0
VERTEX
  8
0
 10
6.9089
 20
8.11
 30
0.0
 40
0
 41
0
  0
VERTEX
  8
0
 10
6.80496
 20
8.11
 30
0.0
 40
0
 41
0
  0
VERTEX
  8
0
 10
6.80496
 20
7.93249
 30
0.0
 40
0
 41
0
  0
VERTEX
  8
0
 10
6.74181
 20
7.86999
 30
0.0
 40
0
 41
0
  0
VERTEX
  8
0
 10
6.61768
 20
7.86999
 30
0.0
 40
0
 41
0
  0
SEQEND
 8
0
  0
POLYLINE
  8
0
 62
     0
 66
     1
 10
0
 20
0
 30
0.0
 70
     1
 40
0
 41
0
  0
VERTEX
  8
0
 10
6.61615
 20
7.57132
 30
0.0
 40
0
 41
0
  0
VERTEX
  8
0
 10
6.55496
 20
7.63382
 30
0.0
 40
0
 41
0
  0
VERTEX
  8
0
 10
6.55496
 20
7.69675
 30
0.0
 40
0
 41
0
  0
VERTEX
  8
0
 10
6.61615
 20
7.75925
 30
0.0
 40
0
 41
0
  0
VERTEX
  8
0
 10
6.85465
 20
7.75925
 30
0.0
 40
0
 41
0
  0
VERTEX
  8
0
 10
6.91607
 20
7.69675
 30
0.0
 40
0
 41
0
  0
VERTEX
  8
0
 10
6.91607
 20
7.63382
 30
0.0
 40
0
 41
0
  0
VERTEX
  8
0
 10
6.85465
 20
7.57132
 30
0.0
 40
0
 41
0
  0
VERTEX
  8
0
 10
6.61615
 20
7.57132
 30
0.0
 40
0
 41
0
  0
SEQEND
 8
0
  0
POLYLINE
  8
0
 62
     0
 66
     1
 10
0
 20
0
 30
0.0
 70
     1
 40
0
 41
0
  0
VERTEX
  8
0
 10
6.6166
 20
7.57935
 30
0.0
 40
0
 41
0
  0
VERTEX
  8
0
 10
6.85357
 20
7.57935
 30
0.0
 40
0
 41
0
  0
VERTEX
  8
0
 10
6.91108
 20
7.63664
 30
0.0
 40
0
 41
0
  0
VERTEX
  8
0
 10
6.91108
 20
7.69393
 30
0.0
 40
0
 41
0
  0
VERTEX
  8
0
 10
6.85357
 20
7.75122
 30
0.0
 40
0
 41
0
  0
VERTEX
  8
0
 10
6.6166
 20
7.75122
 30
0.0
 40
0
 41
0
  0
VERTEX
  8
0
 10
6.55908
 20
7.69393
 30
0.0
 40
0
 41
0
  0
VERTEX
  8
0
 10
6.55908
 20
7.63664
 30
0.0
 40
0
 41
0
  0
VERTEX
  8
0
 10
6.6166
 20
7.57935
 30
0.0
 40
0
 41
0
  0
SEQEND
 8
0
  0
POLYLINE
  8
0
 62
     0
 66
     1
 10
0
 20
0
 30
0.0
 70
     1
 40
0
 41
0
  0
VERTEX
  8
0
 10
6.61615
 20
7.21221
 30
0.0
 40
0
 41
0
  0
VERTEX
  8
0
 10
6.55496
 20
7.27471
 30
0.0
 40
0
 41
0
  0
VERTEX
  8
0
 10
6.55496
 20
7.39776
 30
0.0
 40
0
 41
0
  0
VERTEX
  8
0
 10
6.61615
 20
7.46026
 30
0.0
 40
0
 41
0
  0
VERTEX
  8
0
 10
6.79585
 20
7.46026
 30
0.0
 40
0
 41
0
  0
VERTEX
  8
0
 10
6.91607
 20
7.33765
 30
0.0
 40
0
 41
0
  0
VERTEX
  8
0
 10
6.91607
 20
7.27644
 30
0.0
 40
0
 41
0
  0
VERTEX
  8
0
 10
6.90847
 20
7.27644
 30
0.0
 40
0
 41
0
  0
VERTEX
  8
0
 10
6.90847
 20
7.33482
 30
0.0
 40
0
 41
0
  0
VERTEX
  8
0
 10
6.79281
 20
7.45224
 30
0.0
 40
0
 41
0
  0
VERTEX
  8
0
 10
6.73942
 20
7.45224
 30
0.0
 40
0
 41
0
  0
VERTEX
  8
0
 10
6.73942
 20
7.27471
 30
0.0
 40
0
 41
0
  0
VERTEX
  8
0
 10
6.678
 20
7.21221
 30
0.0
 40
0
 41
0
  0
VERTEX
  8
0
 10
6.61615
 20
7.21221
 30
0.0
 40
0
 41
0
  0
SEQEND
 8
0
  0
POLYLINE
  8
0
 62
     0
 66
     1
 10
0
 20
0
 30
0.0
 70
     1
 40
0
 41
0
  0
VERTEX
  8
0
 10
6.6166
 20
7.22024
 30
0.0
 40
0
 41
0
  0
VERTEX
  8
0
 10
6.67367
 20
7.22024
 30
0.0
 40
0
 41
0
  0
VERTEX
  8
0
 10
6.73096
 20
7.27797
 30
0.0
 40
0
 41
0
  0
VERTEX
  8
0
 10
6.73096
 20
7.45224
 30
0.0
 40
0
 41
0
  0
VERTEX
  8
0
 10
6.6166
 20
7.45224
 30
0.0
 40
0
 41
0
  0
VERTEX
  8
0
 10
6.55908
 20
7.39494
 30
0.0
 40
0
 41
0
  0
VERTEX
  8
0
 10
6.55908
 20
7.27797
 30
0.0
 40
0
 41
0
  0
VERTEX
  8
0
 10
6.6166
 20
7.22024
 30
0.0
 40
0
 41
0
  0
SEQEND
 8
0
  0
POLYLINE
  8
0
 62
     0
 66
     1
 10
0
 20
0
 30
0.0
 70
     1
 40
0
 41
0
  0
VERTEX
  8
0
 10
6.73551
 20
6.85756
 30
0.0
 40
0
 41
0
  0
VERTEX
  8
0
 10
6.73551
 20
7.09757
 30
0.0
 40
0
 41
0
  0
VERTEX
  8
0
 10
6.73551
 20
6.85756
 30
0.0
 40
0
 41
0
  0
SEQEND
 8
0
  0
POLYLINE
  8
0
 62
     0
 66
     1
 10
0
 20
0
 30
0.0
 70
     1
 40
0
 41
0
  0
VERTEX
  8
0
 10
6.55496
 20
6.61879
 30
0.0
 40
0
 41
0
  0
VERTEX
  8
0
 10
6.55496
 20
6.73879
 30
0.0
 40
0
 41
0
  0
VERTEX
  8
0
 10
6.56256
 20
6.73879
 30
0.0
 40
0
 41
0
  0
VERTEX
  8
0
 10
6.56256
 20
6.6826
 30
0.0
 40
0
 41
0
  0
VERTEX
  8
0
 10
6.90283
 20
6.6826
 30
0.0
 40
0
 41
0
  0
VERTEX
  8
0
 10
6.85032
 20
6.73597
 30
0.0
 40
0
 41
0
  0
VERTEX
  8
0
 10
6.85618
 20
6.74183
 30
0.0
 40
0
 41
0
  0
VERTEX
  8
0
 10
6.91607
 20
6.68042
 30
0.0
 40
0
 41
0
  0
VERTEX
  8
0
 10
6.91607
 20
6.67478
 30
0.0
 40
0
 41
0
  0
VERTEX
  8
0
 10
6.56256
 20
6.67478
 30
0.0
 40
0
 41
0
  0
VERTEX
  8
0
 10
6.56256
 20
6.61879
 30
0.0
 40
0
 41
0
  0
VERTEX
  8
0
 10
6.55496
 20
6.61879
 30
0.0
 40
0
 41
0
  0
SEQEND
 8
0
  0
POLYLINE
  8
0
 62
     0
 66
     1
 10
0
 20
0
 30
0.0
 70
     1
 40
0
 41
0
  0
VERTEX
  8
0
 10
6.90826
 20
5.90085
 30
0.0
 40
0
 41
0
  0
VERTEX
  8
0
 10
6.90826
 20
6.01696
 30
0.0
 40
0
 41
0
  0
VERTEX
  8
0
 10
6.55496
 20
6.01696
 30
0.0
 40
0
 41
0
  0
VERTEX
  8
0
 10
6.55496
 20
6.02499
 30
0.0
 40
0
 41
0
  0
VERTEX
  8
0
 10
6.90826
 20
6.02499
 30
0.0
 40
0
 41
0
  0
VERTEX
  8
0
 10
6.90826
 20
6.14088
 30
0.0
 40
0
 41
0
  0
VERTEX
  8
0
 10
6.91607
 20
6.14088
 30
0.0
 40
0
 41
0
  0
VERTEX
  8
0
 10
6.91607
 20
5.90085
 30
0.0
 40
0
 41
0
  0
VERTEX
  8
0
 10
6.90826
 20
5.90085
 30
0.0
 40
0
 41
0
  0
SEQEND
 8
0
  0
POLYLINE
  8
0
 62
     0
 66
     1
 10
0
 20
0
 30
0.0
 70
     1
 40
0
 41
0
  0
VERTEX
  8
0
 10
6.55496
 20
5.53708
 30
0.0
 40
0
 41
0
  0
VERTEX
  8
0
 10
6.55496
 20
5.781
 30
0.0
 40
0
 41
0
  0
VERTEX
  8
0
 10
6.91607
 20
5.781
 30
0.0
 40
0
 41
0
  0
VERTEX
  8
0
 10
6.91607
 20
5.53708
 30
0.0
 40
0
 41
0
  0
VERTEX
  8
0
 10
6.90847
 20
5.53708
 30
0.0
 40
0
 41
0
  0
VERTEX
  8
0
 10
6.90847
 20
5.77297
 30
0.0
 40
0
 41
0
  0
VERTEX
  8
0
 10
6.73942
 20
5.77297
 30
0.0
 40
0
 41
0
  0
VERTEX
  8
0
 10
6.73942
 20
5.6571
 30
0.0
 40
0
 41
0
  0
VERTEX
  8
0
 10
6.73139
 20
5.6571
 30
0.0
 40
0
 41
0
  0
VERTEX
  8
0
 10
6.73139
 20
5.77297
 30
0.0
 40
0
 41
0
  0
VERTEX
  8
0
 10
6.56256
 20
5.77297
 30
0.0
 40
0
 41
0
  0
VERTEX
  8
0
 10
6.56256
 20
5.53708
 30
0.0
 40
0
 41
0
  0
VERTEX
  8
0
 10
6.55496
 20
5.53708
 30
0.0
 40
0
 41
0
  0
SEQEND
 8
0
  0
POLYLINE
  8
0
 62
     0
 66
     1
 10
0
 20
0
 30
0.0
 70
     1
 40
0
 41
0
  0
VERTEX
  8
0
 10
6.55496
 20
5.17418
 30
0.0
 40
0
 41
0
  0
VERTEX
  8
0
 10
6.55496
 20
5.18221
 30
0.0
 40
0
 41
0
  0
VERTEX
  8
0
 10
6.89806
 20
5.18221
 30
0.0
 40
0
 41
0
  0
VERTEX
  8
0
 10
6.66607
 20
5.29832
 30
0.0
 40
0
 41
0
  0
VERTEX
  8
0
 10
6.89806
 20
5.41419
 30
0.0
 40
0
 41
0
  0
VERTEX
  8
0
 10
6.55496
 20
5.41419
 30
0.0
 40
0
 41
0
  0
VERTEX
  8
0
 10
6.55496
 20
5.42222
 30
0.0
 40
0
 41
0
  0
VERTEX
  8
0
 10
6.91607
 20
5.42222
 30
0.0
 40
0
 41
0
  0
VERTEX
  8
0
 10
6.91607
 20
5.41376
 30
0.0
 40
0
 41
0
  0
VERTEX
  8
0
 10
6.68451
 20
5.29832
 30
0.0
 40
0
 41
0
  0
VERTEX
  8
0
 10
6.91607
 20
5.18286
 30
0.0
 40
0
 41
0
  0
VERTEX
  8
0
 10
6.91607
 20
5.17418
 30
0.0
 40
0
 41
0
  0
VERTEX
  8
0
 10
6.55496
 20
5.17418
 30
0.0
 40
0
 41
0
  0
SEQEND
 8
0
  0
POLYLINE
  8
0
 62
     0
 66
     1
 10
0
 20
0
 30
0.0
 70
     1
 40
0
 41
0
  0
VERTEX
  8
0
 10
6.7915
 20
4.8154
 30
0.0
 40
0
 41
0
  0
VERTEX
  8
0
 10
6.72965
 20
4.8779
 30
0.0
 40
0
 41
0
  0
VERTEX
  8
0
 10
6.72965
 20
5.05542
 30
0.0
 40
0
 41
0
  0
VERTEX
  8
0
 10
6.55496
 20
5.05542
 30
0.0
 40
0
 41
0
  0
VERTEX
  8
0
 10
6.55496
 20
5.06344
 30
0.0
 40
0
 41
0
  0
VERTEX
  8
0
 10
6.91607
 20
5.06344
 30
0.0
 40
0
 41
0
  0
VERTEX
  8
0
 10
6.91607
 20
4.8779
 30
0.0
 40
0
 41
0
  0
VERTEX
  8
0
 10
6.854
 20
4.8154
 30
0.0
 40
0
 41
0
  0
VERTEX
  8
0
 10
6.7915
 20
4.8154
 30
0.0
 40
0
 41
0
  0
SEQEND
 8
0
  0
POLYLINE
  8
0
 62
     0
 66
     1
 10
0
 20
0
 30
0.0
 70
     1
 40
0
 41
0
  0
VERTEX
  8
0
 10
6.79671
 20
4.82343
 30
0.0
 40
0
 41
0
  0
VERTEX
  8
0
 10
6.85357
 20
4.82343
 30
0.0
 40
0
 41
0
  0
VERTEX
  8
0
 10
6.91108
 20
4.88115
 30
0.0
 40
0
 41
0
  0
VERTEX
  8
0
 10
6.91108
 20
5.05542
 30
0.0
 40
0
 41
0
  0
VERTEX
  8
0
 10
6.73899
 20
5.05542
 30
0.0
 40
0
 41
0
  0
VERTEX
  8
0
 10
6.73899
 20
4.88115
 30
0.0
 40
0
 41
0
  0
VERTEX
  8
0
 10
6.79671
 20
4.82343
 30
0.0
 40
0
 41
0
  0
SEQEND
 8
0
  0
POLYLINE
  8
0
 62
     0
 66
     1
 10
0
 20
0
 30
0.0
 70
     1
 40
0
 41
0
  0
VERTEX
  8
0
 10
6.55496
 20
4.46075
 30
0.0
 40
0
 41
0
  0
VERTEX
  8
0
 10
6.55496
 20
4.70467
 30
0.0
 40
0
 41
0
  0
VERTEX
  8
0
 10
6.91607
 20
4.70467
 30
0.0
 40
0
 41
0
  0
VERTEX
  8
0
 10
6.91607
 20
4.69664
 30
0.0
 40
0
 41
0
  0
VERTEX
  8
0
 10
6.56278
 20
4.69664
 30
0.0
 40
0
 41
0
  0
VERTEX
  8
0
 10
6.56278
 20
4.46075
 30
0.0
 40
0
 41
0
  0
VERTEX
  8
0
 10
6.55496
 20
4.46075
 30
0.0
 40
0
 41
0
  0
SEQEND
 8
0
  0
POLYLINE
  8
0
 62
     0
 66
     1
 10
0
 20
0
 30
0.0
 70
     1
 40
0
 41
0
  0
VERTEX
  8
0
 10
6.55496
 20
4.09785
 30
0.0
 40
0
 41
0
  0
VERTEX
  8
0
 10
6.55496
 20
4.10587
 30
0.0
 40
0
 41
0
  0
VERTEX
  8
0
 10
6.67128
 20
4.10587
 30
0.0
 40
0
 41
0
  0
VERTEX
  8
0
 10
6.67128
 20
4.33786
 30
0.0
 40
0
 41
0
  0
VERTEX
  8
0
 10
6.55496
 20
4.33786
 30
0.0
 40
0
 41
0
  0
VERTEX
  8
0
 10
6.55496
 20
4.34589
 30
0.0
 40
0
 41
0
  0
VERTEX
  8
0
 10
6.67649
 20
4.34589
 30
0.0
 40
0
 41
0
  0
VERTEX
  8
0
 10
6.91607
 20
4.22654
 30
0.0
 40
0
 41
0
  0
VERTEX
  8
0
 10
6.91607
 20
4.21721
 30
0.0
 40
0
 41
0
  0
VERTEX
  8
0
 10
6.67649
 20
4.09785
 30
0.0
 40
0
 41
0
  0
VERTEX
  8
0
 10
6.55496
 20
4.09785
 30
0.0
 40
0
 41
0
  0
SEQEND
 8
0
  0
POLYLINE
  8
0
 62
     0
 66
     1
 10
0
 20
0
 30
0.0
 70
     1
 40
0
 41
0
  0
VERTEX
  8
0
 10
6.6791
 20
4.10849
 30
0.0
 40
0
 41
0
  0
VERTEX
  8
0
 10
6.90608
 20
4.22197
 30
0.0
 40
0
 41
0
  0
VERTEX
  8
0
 10
6.6791
 20
4.33547
 30
0.0
 40
0
 41
0
  0
VERTEX
  8
0
 10
6.6791
 20
4.10849
 30
0.0
 40
0
 41
0
  0
SEQEND
 8
0
  0
POLYLINE
  8
0
 62
     0
 66
     1
 10
0
 20
0
 30
0.0
 70
     1
 40
0
 41
0
  0
VERTEX
  8
0
 10
6.90826
 20
3.74319
 30
0.0
 40
0
 41
0
  0
VERTEX
  8
0
 10
6.90826
 20
3.85929
 30
0.0
 40
0
 41
0
  0
VERTEX
  8
0
 10
6.55496
 20
3.85929
 30
0.0
 40
0
 41
0
  0
VERTEX
  8
0
 10
6.55496
 20
3.86732
 30
0.0
 40
0
 41
0
  0
VERTEX
  8
0
 10
6.90826
 20
3.86732
 30
0.0
 40
0
 41
0
  0
VERTEX
  8
0
 10
6.90826
 20
3.98321
 30
0.0
 40
0
 41
0
  0
VERTEX
  8
0
 10
6.91607
 20
3.98321
 30
0.0
 40
0
 41
0
  0
VERTEX
  8
0
 10
6.91607
 20
3.74319
 30
0.0
 40
0
 41
0
  0
VERTEX
  8
0
 10
6.90826
 20
3.74319
 30
0.0
 40
0
 41
0
  0
SEQEND
 8
0
  0
POLYLINE
  8
0
 62
     0
 66
     1
 10
0
 20
0
 30
0.0
 70
     1
 40
0
 41
0
  0
VERTEX
  8
0
 10
6.55496
 20
3.38442
 30
0.0
 40
0
 41
0
  0
VERTEX
  8
0
 10
6.55496
 20
3.62833
 30
0.0
 40
0
 41
0
  0
VERTEX
  8
0
 10
6.91607
 20
3.62833
 30
0.0
 40
0
 41
0
  0
VERTEX
  8
0
 10
6.91607
 20
3.38442
 30
0.0
 40
0
 41
0
  0
VERTEX
  8
0
 10
6.90847
 20
3.38442
 30
0.0
 40
0
 41
0
  0
VERTEX
  8
0
 10
6.90847
 20
3.62031
 30
0.0
 40
0
 41
0
  0
VERTEX
  8
0
 10
6.73942
 20
3.62031
 30
0.0
 40
0
 41
0
  0
VERTEX
  8
0
 10
6.73942
 20
3.50442
 30
0.0
 40
0
 41
0
  0
VERTEX
  8
0
 10
6.73139
 20
3.50442
 30
0.0
 40
0
 41
0
  0
VERTEX
  8
0
 10
6.73139
 20
3.62031
 30
0.0
 40
0
 41
0
  0
VERTEX
  8
0
 10
6.56256
 20
3.62031
 30
0.0
 40
0
 41
0
  0
VERTEX
  8
0
 10
6.56256
 20
3.38442
 30
0.0
 40
0
 41
0
  0
VERTEX
  8
0
 10
6.55496
 20
3.38442
 30
0.0
 40
0
 41
0
  0
SEQEND
 8
0
  0
POLYLINE
  8
0
 62
     0
 66
     1
 10
0
 20
0
 30
0.0
 40
0.72
 41
0.72
  0
VERTEX
  8
0
 10
4.49501
 20
4.49336
 30
0.0
 40
0.01
 41
0.01
  0
VERTEX
  8
0
 10
4.51833
 20
4.49499
 30
0.0
 40
0.01
 41
0.01
  0
VERTEX
  8
0
 10
4.53999
 20
4.50165
 30
0.0
 40
0.01
 41
0.01
  0
VERTEX
  8
0
 10
4.56
 20
4.51332
 30
0.0
 40
0.01
 41
0.01
  0
VERTEX
  8
0
 10
4.57835
 20
4.52835
 30
0.0
 40
0.01
 41
0.01
  0
VERTEX
  8
0
 10
4.59332
 20
4.54668
 30
0.0
 40
0.01
 41
0.01
  0
VERTEX
  8
0
 10
4.60499
 20
4.56665
 30
0.0
 40
0.01
 41
0.01
  0
VERTEX
  8
0
 10
4.61165
 20
4.58835
 30
0.0
 40
0.01
 41
0.01
  0
VERTEX
  8
0
 10
4.61333
 20
4.61168
 30
0.0
 40
0.01
 41
0.01
  0
SEQEND
 8
0
  0
POLYLINE
  8
0
 62
     0
 66
     1
 10
0
 20
0
 30
0.0
 40
0.72
 41
0.72
  0
VERTEX
  8
0
 10
4.49501
 20
4.49167
 30
0.0
 40
0.01
 41
0.01
  0
VERTEX
  8
0
 10
1.53836
 20
4.49167
 30
0.0
 40
0.01
 41
0.01
  0
SEQEND
 8
0
  0
POLYLINE
  8
0
 62
     0
 66
     1
 10
0
 20
0
 30
0.0
 40
0.72
 41
0.72
  0
VERTEX
  8
0
 10
1.41997
 20
4.61168
 30
0.0
 40
0.01
 41
0.01
  0
VERTEX
  8
0
 10
1.42165
 20
4.58835
 30
0.0
 40
0.01
 41
0.01
  0
VERTEX
  8
0
 10
1.42833
 20
4.56665
 30
0.0
 40
0.01
 41
0.01
  0
VERTEX
  8
0
 10
1.44
 20
4.54668
 30
0.0
 40
0.01
 41
0.01
  0
VERTEX
  8
0
 10
1.45503
 20
4.52835
 30
0.0
 40
0.01
 41
0.01
  0
VERTEX
  8
0
 10
1.47331
 20
4.51332
 30
0.0
 40
0.01
 41
0.01
  0
VERTEX
  8
0
 10
1.49333
 20
4.50165
 30
0.0
 40
0.01
 41
0.01
  0
VERTEX
  8
0
 10
1.51497
 20
4.49499
 30
0.0
 40
0.01
 41
0.01
  0
VERTEX
  8
0
 10
1.53836
 20
4.49336
 30
0.0
 40
0.01
 41
0.01
  0
SEQEND
 8
0
  0
POLYLINE
  8
0
 62
     0
 66
     1
 10
0
 20
0
 30
0.0
 40
0.72
 41
0.72
  0
VERTEX
  8
0
 10
1.41835
 20
4.61168
 30
0.0
 40
0.01
 41
0.01
  0
VERTEX
  8
0
 10
1.41835
 20
8.02336
 30
0.0
 40
0.01
 41
0.01
  0
SEQEND
 8
0
  0
POLYLINE
  8
0
 62
     0
 66
     1
 10
0
 20
0
 30
0.0
 40
0.72
 41
0.72
  0
VERTEX
  8
0
 10
1.53836
 20
8.14168
 30
0.0
 40
0.01
 41
0.01
  0
VERTEX
  8
0
 10
1.51497
 20
8.14
 30
0.0
 40
0.01
 41
0.01
  0
VERTEX
  8
0
 10
1.49333
 20
8.13333
 30
0.0
 40
0.01
 41
0.01
  0
VERTEX
  8
0
 10
1.47331
 20
8.12167
 30
0.0
 40
0.01
 41
0.01
  0
VERTEX
  8
0
 10
1.45503
 20
8.10669
 30
0.0
 40
0.01
 41
0.01
  0
VERTEX
  8
0
 10
1.44
 20
8.08835
 30
0.0
 40
0.01
 41
0.01
  0
VERTEX
  8
0
 10
1.42833
 20
8.06833
 30
0.0
 40
0.01
 41
0.01
  0
VERTEX
  8
0
 10
1.42165
 20
8.04668
 30
0.0
 40
0.01
 41
0.01
  0
VERTEX
  8
0
 10
1.41997
 20
8.02336
 30
0.0
 40
0.01
 41
0.01
  0
SEQEND
 8
0
  0
POLYLINE
  8
0
 62
     0
 66
     1
 10
0
 20
0
 30
0.0
 40
0.72
 41
0.72
  0
VERTEX
  8
0
 10
1.53836
 20
8.14331
 30
0.0
 40
0.01
 41
0.01
  0
VERTEX
  8
0
 10
4.49501
 20
8.14331
 30
0.0
 40
0.01
 41
0.01
  0
SEQEND
 8
0
  0
POLYLINE
  8
0
 62
     0
 66
     1
 10
0
 20
0
 30
0.0
 40
0.72
 41
0.72
  0
VERTEX
  8
0
 10
4.61333
 20
8.02336
 30
0.0
 40
0.01
 41
0.01
  0
VERTEX
  8
0
 10
4.61165
 20
8.04668
 30
0.0
 40
0.01
 41
0.01
  0
VERTEX
  8
0
 10
4.60499
 20
8.06833
 30
0.0
 40
0.01
 41
0.01
  0
VERTEX
  8
0
 10
4.59332
 20
8.08835
 30
0.0
 40
0.01
 41
0.01
  0
VERTEX
  8
0
 10
4.57835
 20
8.10669
 30
0.0
 40
0.01
 41
0.01
  0
VERTEX
  8
0
 10
4.56
 20
8.12167
 30
0.0
 40
0.01
 41
0.01
  0
VERTEX
  8
0
 10
4.53999
 20
8.13333
 30
0.0
 40
0.01
 41
0.01
  0
VERTEX
  8
0
 10
4.51833
 20
8.14
 30
0.0
 40
0.01
 41
0.01
  0
VERTEX
  8
0
 10
4.49501
 20
8.14168
 30
0.0
 40
0.01
 41
0.01
  0
SEQEND
 8
0
  0
POLYLINE
  8
0
 62
     0
 66
     1
 10
0
 20
0
 30
0.0
 40
0.72
 41
0.72
  0
VERTEX
  8
0
 10
4.61501
 20
8.02336
 30
0.0
 40
0.01
 41
0.01
  0
VERTEX
  8
0
 10
4.61501
 20
4.61168
 30
0.0
 40
0.01
 41
0.01
  0
SEQEND
 8
0
  0
POLYLINE
  8
0
 62
     1
 66
     1
 10
0
 20
0
 30
0.0
 40
0.72
 41
0.72
  0
VERTEX
  8
0
 10
4.61501
 20
8.08331
 30
0.0
 40
0.01
 41
0.01
  0
VERTEX
  8
0
 10
4.61501
 20
9.43335
 30
0.0
 40
0.01
 41
0.01
  0
SEQEND
 8
0
  0
POLYLINE
  8
0
 62
     1
 66
     1
 10
0
 20
0
 30
0.0
 40
0.72
 41
0.72
  0
VERTEX
  8
0
 10
1.41835
 20
8.08331
 30
0.0
 40
0.01
 41
0.01
  0
VERTEX
  8
0
 10
1.41835
 20
9.43335
 30
0.0
 40
0.01
 41
0.01
  0
SEQEND
 8
0
  0
POLYLINE
  8
0
 62
     1
 66
     1
 10
0
 20
0
 30
0.0
 40
0.72
 41
0.72
  0
VERTEX
  8
0
 10
4.49501
 20
9.41832
 30
0.0
 40
0.01
 41
0.01
  0
VERTEX
  8
0
 10
1.53836
 20
9.41832
 30
0.0
 40
0.01
 41
0.01
  0
SEQEND
 8
0
  0
POLYLINE
  8
0
 62
     1
 66
     1
 10
0
 20
0
 30
0.0
 70
     1
 40
0
 41
0
  0
VERTEX
  8
0
 10
4.49501
 20
9.43835
 30
0.0
 40
0
 41
0
  0
VERTEX
  8
0
 10
4.49501
 20
9.39836
 30
0.0
 40
0
 41
0
  0
VERTEX
  8
0
 10
4.61501
 20
9.41832
 30
0.0
 40
0
 41
0
  0
VERTEX
  8
0
 10
4.49501
 20
9.43835
 30
0.0
 40
0
 41
0
  0
SEQEND
 8
0
  0
POLYLINE
  8
0
 62
     1
 66
     1
 10
0
 20
0
 30
0.0
 70
     1
 40
0
 41
0
  0
VERTEX
  8
0
 10
1.53836
 20
9.43835
 30
0.0
 40
0
 41
0
  0
VERTEX
  8
0
 10
1.53836
 20
9.39836
 30
0.0
 40
0
 41
0
  0
VERTEX
  8
0
 10
1.41835
 20
9.41832
 30
0.0
 40
0
 41
0
  0
VERTEX
  8
0
 10
1.53836
 20
9.43835
 30
0.0
 40
0
 41
0
  0
SEQEND
 8
0
  0
POLYLINE
  8
0
 62
     1
 66
     1
 10
0
 20
0
 30
0.0
 70
     1
 40
0
 41
0
  0
VERTEX
  8
0
 10
2.78674
 20
9.54175
 30
0.0
 40
0
 41
0
  0
VERTEX
  8
0
 10
2.72661
 20
9.54175
 30
0.0
 40
0
 41
0
  0
VERTEX
  8
0
 10
2.72661
 20
9.54565
 30
0.0
 40
0
 41
0
  0
VERTEX
  8
0
 10
2.75483
 20
9.54565
 30
0.0
 40
0
 41
0
  0
VERTEX
  8
0
 10
2.75483
 20
9.71579
 30
0.0
 40
0
 41
0
  0
VERTEX
  8
0
 10
2.72814
 20
9.68954
 30
0.0
 40
0
 41
0
  0
VERTEX
  8
0
 10
2.72532
 20
9.69236
 30
0.0
 40
0
 41
0
  0
VERTEX
  8
0
 10
2.75592
 20
9.72231
 30
0.0
 40
0
 41
0
  0
VERTEX
  8
0
 10
2.75874
 20
9.72231
 30
0.0
 40
0
 41
0
  0
VERTEX
  8
0
 10
2.75874
 20
9.54565
 30
0.0
 40
0
 41
0
  0
VERTEX
  8
0
 10
2.78674
 20
9.54565
 30
0.0
 40
0
 41
0
  0
VERTEX
  8
0
 10
2.78674
 20
9.54175
 30
0.0
 40
0
 41
0
  0
SEQEND
 8
0
  0
POLYLINE
  8
0
 62
     1
 66
     1
 10
0
 20
0
 30
0.0
 70
     1
 40
0
 41
0
  0
VERTEX
  8
0
 10
2.93881
 20
9.57235
 30
0.0
 40
0
 41
0
  0
VERTEX
  8
0
 10
2.90756
 20
9.54175
 30
0.0
 40
0
 41
0
  0
VERTEX
  8
0
 10
2.87588
 20
9.54175
 30
0.0
 40
0
 41
0
  0
VERTEX
  8
0
 10
2.84463
 20
9.57235
 30
0.0
 40
0
 41
0
  0
VERTEX
  8
0
 10
2.84463
 20
9.69171
 30
0.0
 40
0
 41
0
  0
VERTEX
  8
0
 10
2.87588
 20
9.72231
 30
0.0
 40
0
 41
0
  0
VERTEX
  8
0
 10
2.90756
 20
9.72231
 30
0.0
 40
0
 41
0
  0
VERTEX
  8
0
 10
2.93881
 20
9.69171
 30
0.0
 40
0
 41
0
  0
VERTEX
  8
0
 10
2.93881
 20
9.57235
 30
0.0
 40
0
 41
0
  0
SEQEND
 8
0
  0
POLYLINE
  8
0
 62
     1
 66
     1
 10
0
 20
0
 30
0.0
 70
     1
 40
0
 41
0
  0
VERTEX
  8
0
 10
2.93468
 20
9.57257
 30
0.0
 40
0
 41
0
  0
VERTEX
  8
0
 10
2.93468
 20
9.69106
 30
0.0
 40
0
 41
0
  0
VERTEX
  8
0
 10
2.90603
 20
9.71992
 30
0.0
 40
0
 41
0
  0
VERTEX
  8
0
 10
2.87739
 20
9.71992
 30
0.0
 40
0
 41
0
  0
VERTEX
  8
0
 10
2.84874
 20
9.69106
 30
0.0
 40
0
 41
0
  0
VERTEX
  8
0
 10
2.84874
 20
9.57257
 30
0.0
 40
0
 41
0
  0
VERTEX
  8
0
 10
2.87739
 20
9.54392
 30
0.0
 40
0
 41
0
  0
VERTEX
  8
0
 10
2.90603
 20
9.54392
 30
0.0
 40
0
 41
0
  0
VERTEX
  8
0
 10
2.93468
 20
9.57257
 30
0.0
 40
0
 41
0
  0
SEQEND
 8
0
  0
POLYLINE
  8
0
 62
     1
 66
     1
 10
0
 20
0
 30
0.0
 70
     1
 40
0
 41
0
  0
VERTEX
  8
0
 10
3.03842
 20
9.72165
 30
0.0
 40
0
 41
0
  0
VERTEX
  8
0
 10
2.97831
 20
9.72165
 30
0.0
 40
0
 41
0
  0
VERTEX
  8
0
 10
2.97831
 20
9.72556
 30
0.0
 40
0
 41
0
  0
VERTEX
  8
0
 10
3.00651
 20
9.72556
 30
0.0
 40
0
 41
0
  0
VERTEX
  8
0
 10
3.00651
 20
9.89569
 30
0.0
 40
0
 41
0
  0
VERTEX
  8
0
 10
2.97982
 20
9.86944
 30
0.0
 40
0
 41
0
  0
VERTEX
  8
0
 10
2.977
 20
9.87226
 30
0.0
 40
0
 41
0
  0
VERTEX
  8
0
 10
3.0076
 20
9.90221
 30
0.0
 40
0
 41
0
  0
VERTEX
  8
0
 10
3.01042
 20
9.90221
 30
0.0
 40
0
 41
0
  0
VERTEX
  8
0
 10
3.01042
 20
9.72556
 30
0.0
 40
0
 41
0
  0
VERTEX
  8
0
 10
3.03842
 20
9.72556
 30
0.0
 40
0
 41
0
  0
VERTEX
  8
0
 10
3.03842
 20
9.72165
 30
0.0
 40
0
 41
0
  0
SEQEND
 8
0
  0
POLYLINE
  8
0
 62
     1
 66
     1
 10
0
 20
0
 30
0.0
 40
0.72
 41
0.72
  0
VERTEX
  8
0
 10
2.96832
 20
9.575
 30
0.0
 40
0.01
 41
0.01
  0
VERTEX
  8
0
 10
3.17503
 20
9.86836
 30
0.0
 40
0.01
 41
0.01
  0
SEQEND
 8
0
  0
POLYLINE
  8
0
 62
     1
 66
     1
 10
0
 20
0
 30
0.0
 70
     1
 40
0
 41
0
  0
VERTEX
  8
0
 10
3.2455
 20
9.66067
 30
0.0
 40
0
 41
0
  0
VERTEX
  8
0
 10
3.21425
 20
9.63007
 30
0.0
 40
0
 41
0
  0
VERTEX
  8
0
 10
3.15414
 20
9.63007
 30
0.0
 40
0
 41
0
  0
VERTEX
  8
0
 10
3.12549
 20
9.60186
 30
0.0
 40
0
 41
0
  0
VERTEX
  8
0
 10
3.12549
 20
9.54565
 30
0.0
 40
0
 41
0
  0
VERTEX
  8
0
 10
3.24333
 20
9.54565
 30
0.0
 40
0
 41
0
  0
VERTEX
  8
0
 10
3.24333
 20
9.54175
 30
0.0
 40
0
 41
0
  0
VERTEX
  8
0
 10
3.12136
 20
9.54175
 30
0.0
 40
0
 41
0
  0
VERTEX
  8
0
 10
3.12136
 20
9.60317
 30
0.0
 40
0
 41
0
  0
VERTEX
  8
0
 10
3.15261
 20
9.63399
 30
0.0
 40
0
 41
0
  0
VERTEX
  8
0
 10
3.21272
 20
9.63399
 30
0.0
 40
0
 41
0
  0
VERTEX
  8
0
 10
3.24137
 20
9.66219
 30
0.0
 40
0
 41
0
  0
VERTEX
  8
0
 10
3.24137
 20
9.69018
 30
0.0
 40
0
 41
0
  0
VERTEX
  8
0
 10
3.21272
 20
9.7184
 30
0.0
 40
0
 41
0
  0
VERTEX
  8
0
 10
3.15414
 20
9.7184
 30
0.0
 40
0
 41
0
  0
VERTEX
  8
0
 10
3.12483
 20
9.68954
 30
0.0
 40
0
 41
0
  0
VERTEX
  8
0
 10
3.12201
 20
9.69236
 30
0.0
 40
0
 41
0
  0
VERTEX
  8
0
 10
3.15261
 20
9.72231
 30
0.0
 40
0
 41
0
  0
VERTEX
  8
0
 10
3.21425
 20
9.72231
 30
0.0
 40
0
 41
0
  0
VERTEX
  8
0
 10
3.2455
 20
9.69171
 30
0.0
 40
0
 41
0
  0
VERTEX
  8
0
 10
3.2455
 20
9.66067
 30
0.0
 40
0
 41
0
  0
SEQEND
 8
0
  0
POLYLINE
  8
0
 62
     1
 66
     1
 10
0
 20
0
 30
0.0
 70
     1
 40
0
 41
0
  0
VERTEX
  8
0
 10
3.32264
 20
9.72079
 30
0.0
 40
0
 41
0
  0
VERTEX
  8
0
 10
3.29269
 20
9.66067
 30
0.0
 40
0
 41
0
  0
VERTEX
  8
0
 10
3.28922
 20
9.66285
 30
0.0
 40
0
 41
0
  0
VERTEX
  8
0
 10
3.31917
 20
9.72274
 30
0.0
 40
0
 41
0
  0
VERTEX
  8
0
 10
3.32264
 20
9.72079
 30
0.0
 40
0
 41
0
  0
SEQEND
 8
0
  0
POLYLINE
  8
0
 62
     1
 66
     1
 10
0
 20
0
 30
0.0
 70
     1
 40
0
 41
0
  0
VERTEX
  8
0
 10
3.29269
 20
9.72057
 30
0.0
 40
0
 41
0
  0
VERTEX
  8
0
 10
3.26253
 20
9.66675
 30
0.0
 40
0
 41
0
  0
VERTEX
  8
0
 10
3.25928
 20
9.66871
 30
0.0
 40
0
 41
0
  0
VERTEX
  8
0
 10
3.28922
 20
9.72231
 30
0.0
 40
0
 41
0
  0
VERTEX
  8
0
 10
3.29269
 20
9.72057
 30
0.0
 40
0
 41
0
  0
SEQEND
 8
0
  0
POLYLINE
  8
0
 62
     1
 66
     1
 10
0
 20
0
 30
0.0
 40
0.72
 41
0.72
  0
VERTEX
  8
0
 10
4.55501
 20
8.14331
 30
0.0
 40
0.01
 41
0.01
  0
VERTEX
  8
0
 10
5.83501
 20
8.14331
 30
0.0
 40
0.01
 41
0.01
  0
SEQEND
 8
0
  0
POLYLINE
  8
0
 62
     1
 66
     1
 10
0
 20
0
 30
0.0
 40
0.72
 41
0.72
  0
VERTEX
  8
0
 10
4.55501
 20
4.49167
 30
0.0
 40
0.01
 41
0.01
  0
VERTEX
  8
0
 10
5.83501
 20
4.49167
 30
0.0
 40
0.01
 41
0.01
  0
SEQEND
 8
0
  0
POLYLINE
  8
0
 62
     1
 66
     1
 10
0
 20
0
 30
0.0
 40
0.72
 41
0.72
  0
VERTEX
  8
0
 10
5.81999
 20
8.02336
 30
0.0
 40
0.01
 41
0.01
  0
VERTEX
  8
0
 10
5.81999
 20
4.61168
 30
0.0
 40
0.01
 41
0.01
  0
SEQEND
 8
0
  0
POLYLINE
  8
0
 62
     1
 66
     1
 10
0
 20
0
 30
0.0
 70
     1
 40
0
 41
0
  0
VERTEX
  8
0
 10
5.84
 20
8.02336
 30
0.0
 40
0
 41
0
  0
VERTEX
  8
0
 10
5.80003
 20
8.02336
 30
0.0
 40
0
 41
0
  0
VERTEX
  8
0
 10
5.81999
 20
8.14331
 30
0.0
 40
0
 41
0
  0
VERTEX
  8
0
 10
5.84
 20
8.02336
 30
0.0
 40
0
 41
0
  0
SEQEND
 8
0
  0
POLYLINE
  8
0
 62
     1
 66
     1
 10
0
 20
0
 30
0.0
 70
     1
 40
0
 41
0
  0
VERTEX
  8
0
 10
5.84
 20
4.61168
 30
0.0
 40
0
 41
0
  0
VERTEX
  8
0
 10
5.80003
 20
4.61168
 30
0.0
 40
0
 41
0
  0
VERTEX
  8
0
 10
5.81999
 20
4.49167
 30
0.0
 40
0
 41
0
  0
VERTEX
  8
0
 10
5.84
 20
4.61168
 30
0.0
 40
0
 41
0
  0
SEQEND
 8
0
  0
POLYLINE
  8
0
 62
     1
 66
     1
 10
0
 20
0
 30
0.0
 70
     1
 40
0
 41
0
  0
VERTEX
  8
0
 10
5.93994
 20
6.41994
 30
0.0
 40
0
 41
0
  0
VERTEX
  8
0
 10
5.93994
 20
6.48007
 30
0.0
 40
0
 41
0
  0
VERTEX
  8
0
 10
5.94385
 20
6.48007
 30
0.0
 40
0
 41
0
  0
VERTEX
  8
0
 10
5.94385
 20
6.45185
 30
0.0
 40
0
 41
0
  0
VERTEX
  8
0
 10
6.11399
 20
6.45185
 30
0.0
 40
0
 41
0
  0
VERTEX
  8
0
 10
6.08772
 20
6.47854
 30
0.0
 40
0
 41
0
  0
VERTEX
  8
0
 10
6.09056
 20
6.48136
 30
0.0
 40
0
 41
0
  0
VERTEX
  8
0
 10
6.1205
 20
6.45076
 30
0.0
 40
0
 41
0
  0
VERTEX
  8
0
 10
6.1205
 20
6.44794
 30
0.0
 40
0
 41
0
  0
VERTEX
  8
0
 10
5.94385
 20
6.44794
 30
0.0
 40
0
 41
0
  0
VERTEX
  8
0
 10
5.94385
 20
6.41994
 30
0.0
 40
0
 41
0
  0
VERTEX
  8
0
 10
5.93994
 20
6.41994
 30
0.0
 40
0
 41
0
  0
SEQEND
 8
0
  0
POLYLINE
  8
0
 62
     1
 66
     1
 10
0
 20
0
 30
0.0
 70
     1
 40
0
 41
0
  0
VERTEX
  8
0
 10
6.05886
 20
6.23793
 30
0.0
 40
0
 41
0
  0
VERTEX
  8
0
 10
6.02826
 20
6.26918
 30
0.0
 40
0
 41
0
  0
VERTEX
  8
0
 10
6.02826
 20
6.32929
 30
0.0
 40
0
 41
0
  0
VERTEX
  8
0
 10
6.00006
 20
6.35794
 30
0.0
 40
0
 41
0
  0
VERTEX
  8
0
 10
5.94385
 20
6.35794
 30
0.0
 40
0
 41
0
  0
VERTEX
  8
0
 10
5.94385
 20
6.2401
 30
0.0
 40
0
 41
0
  0
VERTEX
  8
0
 10
5.93994
 20
6.2401
 30
0.0
 40
0
 41
0
  0
VERTEX
  8
0
 10
5.93994
 20
6.36206
 30
0.0
 40
0
 41
0
  0
VERTEX
  8
0
 10
6.00136
 20
6.36206
 30
0.0
 40
0
 41
0
  0
VERTEX
  8
0
 10
6.03217
 20
6.33081
 30
0.0
 40
0
 41
0
  0
VERTEX
  8
0
 10
6.03217
 20
6.27069
 30
0.0
 40
0
 41
0
  0
VERTEX
  8
0
 10
6.06039
 20
6.24206
 30
0.0
 40
0
 41
0
  0
VERTEX
  8
0
 10
6.08838
 20
6.24206
 30
0.0
 40
0
 41
0
  0
VERTEX
  8
0
 10
6.1166
 20
6.27069
 30
0.0
 40
0
 41
0
  0
VERTEX
  8
0
 10
6.1166
 20
6.32929
 30
0.0
 40
0
 41
0
  0
VERTEX
  8
0
 10
6.08772
 20
6.35858
 30
0.0
 40
0
 41
0
  0
VERTEX
  8
0
 10
6.09056
 20
6.36142
 30
0.0
 40
0
 41
0
  0
VERTEX
  8
0
 10
6.1205
 20
6.33081
 30
0.0
 40
0
 41
0
  0
VERTEX
  8
0
 10
6.1205
 20
6.26918
 30
0.0
 40
0
 41
0
  0
VERTEX
  8
0
 10
6.0899
 20
6.23793
 30
0.0
 40
0
 41
0
  0
VERTEX
  8
0
 10
6.05886
 20
6.23793
 30
0.0
 40
0
 41
0
  0
SEQEND
 8
0
  0
POLYLINE
  8
0
 62
     1
 66
     1
 10
0
 20
0
 30
0.0
 70
     1
 40
0
 41
0
  0
VERTEX
  8
0
 10
6.11897
 20
6.11831
 30
0.0
 40
0
 41
0
  0
VERTEX
  8
0
 10
6.05886
 20
6.14825
 30
0.0
 40
0
 41
0
  0
VERTEX
  8
0
 10
6.06104
 20
6.15172
 30
0.0
 40
0
 41
0
  0
VERTEX
  8
0
 10
6.12093
 20
6.12178
 30
0.0
 40
0
 41
0
  0
VERTEX
  8
0
 10
6.11897
 20
6.11831
 30
0.0
 40
0
 41
0
  0
SEQEND
 8
0
  0
POLYLINE
  8
0
 62
     1
 66
     1
 10
0
 20
0
 30
0.0
 70
     1
 40
0
 41
0
  0
VERTEX
  8
0
 10
6.11876
 20
6.14825
 30
0.0
 40
0
 41
0
  0
VERTEX
  8
0
 10
6.06494
 20
6.17842
 30
0.0
 40
0
 41
0
  0
VERTEX
  8
0
 10
6.06689
 20
6.18167
 30
0.0
 40
0
 41
0
  0
VERTEX
  8
0
 10
6.1205
 20
6.15172
 30
0.0
 40
0
 41
0
  0
VERTEX
  8
0
 10
6.11876
 20
6.14825
 30
0.0
 40
0
 41
0
  0
SEQEND
 8
0
  0
ENDSEC
  0
EOF
