  0
SECTION
  2
HEADER
  9
$ACADVER
  1
AC1009
  9
$FILLMODE
 70
 0
  9
$SPLFRAME
 70
 1
  9
$EXTMIN
 10
0
 20
0
 30
0.0
  9
$EXTMAX
 10
41.6667
 20
41.6667
 30
0.0
  0
ENDSEC
  0
SECTION
  2
TABLES
  0
TABLE
  2
LAYER
 70
1
  0
LAYER
  2
0
 70
     0
 62
     7
  6
CONTINUOUS
  0
ENDTAB
  0
ENDSEC
  0
SECTION
  2
ENTITIES
  0
POLYLINE
  8
0
 62
     0
 66
     1
 10
0
 20
0
 30
0.0
 40
0.72
 41
0.72
  0
VERTEX
  8
0
 10
6.40831
 20
5.82335
 30
0.0
 40
0.01
 41
0.01
  0
VERTEX
  8
0
 10
6.40831
 20
3.72667
 30
0.0
 40
0.01
 41
0.01
  0
VERTEX
  8
0
 10
6.40668
 20
3.70665
 30
0.0
 40
0.01
 41
0.01
  0
SEQEND
 8
0
  0
POLYLINE
  8
0
 62
     0
 66
     1
 10
0
 20
0
 30
0.0
 40
0.72
 41
0.72
  0
VERTEX
  8
0
 10
6.40668
 20
5.84332
 30
0.0
 40
0.01
 41
0.01
  0
VERTEX
  8
0
 10
6.40831
 20
5.82335
 30
0.0
 40
0.01
 41
0.01
  0
SEQEND
 8
0
  0
POLYLINE
  8
0
 62
     0
 66
     1
 10
0
 20
0
 30
0.0
 40
0.72
 41
0.72
  0
VERTEX
  8
0
 10
6.40668
 20
3.70665
 30
0.0
 40
0.01
 41
0.01
  0
VERTEX
  8
0
 10
6.39833
 20
3.68832
 30
0.0
 40
0.01
 41
0.01
  0
SEQEND
 8
0
  0
POLYLINE
  8
0
 62
     0
 66
     1
 10
0
 20
0
 30
0.0
 40
0.72
 41
0.72
  0
VERTEX
  8
0
 10
6.39833
 20
5.86165
 30
0.0
 40
0.01
 41
0.01
  0
VERTEX
  8
0
 10
6.40668
 20
5.84332
 30
0.0
 40
0.01
 41
0.01
  0
SEQEND
 8
0
  0
POLYLINE
  8
0
 62
     0
 66
     1
 10
0
 20
0
 30
0.0
 40
0.72
 41
0.72
  0
VERTEX
  8
0
 10
6.39833
 20
3.68832
 30
0.0
 40
0.01
 41
0.01
  0
VERTEX
  8
0
 10
6.38667
 20
3.67165
 30
0.0
 40
0.01
 41
0.01
  0
SEQEND
 8
0
  0
POLYLINE
  8
0
 62
     0
 66
     1
 10
0
 20
0
 30
0.0
 40
0.72
 41
0.72
  0
VERTEX
  8
0
 10
6.38667
 20
5.87831
 30
0.0
 40
0.01
 41
0.01
  0
VERTEX
  8
0
 10
6.39833
 20
5.86165
 30
0.0
 40
0.01
 41
0.01
  0
SEQEND
 8
0
  0
POLYLINE
  8
0
 62
     0
 66
     1
 10
0
 20
0
 30
0.0
 40
0.72
 41
0.72
  0
VERTEX
  8
0
 10
6.38667
 20
3.67165
 30
0.0
 40
0.01
 41
0.01
  0
VERTEX
  8
0
 10
6.37001
 20
3.66
 30
0.0
 40
0.01
 41
0.01
  0
SEQEND
 8
0
  0
POLYLINE
  8
0
 62
     0
 66
     1
 10
0
 20
0
 30
0.0
 40
0.72
 41
0.72
  0
VERTEX
  8
0
 10
6.37001
 20
5.88997
 30
0.0
 40
0.01
 41
0.01
  0
VERTEX
  8
0
 10
6.38667
 20
5.87831
 30
0.0
 40
0.01
 41
0.01
  0
SEQEND
 8
0
  0
POLYLINE
  8
0
 62
     0
 66
     1
 10
0
 20
0
 30
0.0
 40
0.72
 41
0.72
  0
VERTEX
  8
0
 10
6.37001
 20
3.66
 30
0.0
 40
0.01
 41
0.01
  0
VERTEX
  8
0
 10
6.35167
 20
3.65169
 30
0.0
 40
0.01
 41
0.01
  0
SEQEND
 8
0
  0
POLYLINE
  8
0
 62
     0
 66
     1
 10
0
 20
0
 30
0.0
 40
0.72
 41
0.72
  0
VERTEX
  8
0
 10
6.35167
 20
5.89833
 30
0.0
 40
0.01
 41
0.01
  0
VERTEX
  8
0
 10
6.37001
 20
5.88997
 30
0.0
 40
0.01
 41
0.01
  0
SEQEND
 8
0
  0
POLYLINE
  8
0
 62
     0
 66
     1
 10
0
 20
0
 30
0.0
 40
0.72
 41
0.72
  0
VERTEX
  8
0
 10
6.35167
 20
3.65169
 30
0.0
 40
0.01
 41
0.01
  0
VERTEX
  8
0
 10
6.33003
 20
3.65001
 30
0.0
 40
0.01
 41
0.01
  0
SEQEND
 8
0
  0
POLYLINE
  8
0
 62
     0
 66
     1
 10
0
 20
0
 30
0.0
 40
0.72
 41
0.72
  0
VERTEX
  8
0
 10
6.35167
 20
5.89833
 30
0.0
 40
0.01
 41
0.01
  0
VERTEX
  8
0
 10
6.33003
 20
5.90001
 30
0.0
 40
0.01
 41
0.01
  0
VERTEX
  8
0
 10
2.25331
 20
5.90001
 30
0.0
 40
0.01
 41
0.01
  0
SEQEND
 8
0
  0
POLYLINE
  8
0
 62
     0
 66
     1
 10
0
 20
0
 30
0.0
 40
0.72
 41
0.72
  0
VERTEX
  8
0
 10
2.25331
 20
3.65001
 30
0.0
 40
0.01
 41
0.01
  0
VERTEX
  8
0
 10
6.33003
 20
3.65001
 30
0.0
 40
0.01
 41
0.01
  0
SEQEND
 8
0
  0
POLYLINE
  8
0
 62
     0
 66
     1
 10
0
 20
0
 30
0.0
 40
0.72
 41
0.72
  0
VERTEX
  8
0
 10
2.23335
 20
5.89833
 30
0.0
 40
0.01
 41
0.01
  0
VERTEX
  8
0
 10
2.25331
 20
5.90001
 30
0.0
 40
0.01
 41
0.01
  0
SEQEND
 8
0
  0
POLYLINE
  8
0
 62
     0
 66
     1
 10
0
 20
0
 30
0.0
 40
0.72
 41
0.72
  0
VERTEX
  8
0
 10
2.25331
 20
3.65001
 30
0.0
 40
0.01
 41
0.01
  0
VERTEX
  8
0
 10
2.23335
 20
3.65169
 30
0.0
 40
0.01
 41
0.01
  0
SEQEND
 8
0
  0
POLYLINE
  8
0
 62
     0
 66
     1
 10
0
 20
0
 30
0.0
 40
0.72
 41
0.72
  0
VERTEX
  8
0
 10
2.215
 20
5.88997
 30
0.0
 40
0.01
 41
0.01
  0
VERTEX
  8
0
 10
2.23335
 20
5.89833
 30
0.0
 40
0.01
 41
0.01
  0
SEQEND
 8
0
  0
POLYLINE
  8
0
 62
     0
 66
     1
 10
0
 20
0
 30
0.0
 40
0.72
 41
0.72
  0
VERTEX
  8
0
 10
2.23335
 20
3.65169
 30
0.0
 40
0.01
 41
0.01
  0
VERTEX
  8
0
 10
2.215
 20
3.66
 30
0.0
 40
0.01
 41
0.01
  0
SEQEND
 8
0
  0
POLYLINE
  8
0
 62
     0
 66
     1
 10
0
 20
0
 30
0.0
 40
0.72
 41
0.72
  0
VERTEX
  8
0
 10
2.19835
 20
5.87831
 30
0.0
 40
0.01
 41
0.01
  0
VERTEX
  8
0
 10
2.215
 20
5.88997
 30
0.0
 40
0.01
 41
0.01
  0
SEQEND
 8
0
  0
POLYLINE
  8
0
 62
     0
 66
     1
 10
0
 20
0
 30
0.0
 40
0.72
 41
0.72
  0
VERTEX
  8
0
 10
2.215
 20
3.66
 30
0.0
 40
0.01
 41
0.01
  0
VERTEX
  8
0
 10
2.19835
 20
3.67165
 30
0.0
 40
0.01
 41
0.01
  0
SEQEND
 8
0
  0
POLYLINE
  8
0
 62
     0
 66
     1
 10
0
 20
0
 30
0.0
 40
0.72
 41
0.72
  0
VERTEX
  8
0
 10
2.18668
 20
5.86165
 30
0.0
 40
0.01
 41
0.01
  0
VERTEX
  8
0
 10
2.19835
 20
5.87831
 30
0.0
 40
0.01
 41
0.01
  0
SEQEND
 8
0
  0
POLYLINE
  8
0
 62
     0
 66
     1
 10
0
 20
0
 30
0.0
 40
0.72
 41
0.72
  0
VERTEX
  8
0
 10
2.19835
 20
3.67165
 30
0.0
 40
0.01
 41
0.01
  0
VERTEX
  8
0
 10
2.18668
 20
3.68832
 30
0.0
 40
0.01
 41
0.01
  0
SEQEND
 8
0
  0
POLYLINE
  8
0
 62
     0
 66
     1
 10
0
 20
0
 30
0.0
 40
0.72
 41
0.72
  0
VERTEX
  8
0
 10
2.17833
 20
5.84332
 30
0.0
 40
0.01
 41
0.01
  0
VERTEX
  8
0
 10
2.18668
 20
5.86165
 30
0.0
 40
0.01
 41
0.01
  0
SEQEND
 8
0
  0
POLYLINE
  8
0
 62
     0
 66
     1
 10
0
 20
0
 30
0.0
 40
0.72
 41
0.72
  0
VERTEX
  8
0
 10
2.18668
 20
3.68832
 30
0.0
 40
0.01
 41
0.01
  0
VERTEX
  8
0
 10
2.17833
 20
3.70665
 30
0.0
 40
0.01
 41
0.01
  0
SEQEND
 8
0
  0
POLYLINE
  8
0
 62
     0
 66
     1
 10
0
 20
0
 30
0.0
 40
0.72
 41
0.72
  0
VERTEX
  8
0
 10
2.17833
 20
5.84332
 30
0.0
 40
0.01
 41
0.01
  0
VERTEX
  8
0
 10
2.17665
 20
5.82335
 30
0.0
 40
0.01
 41
0.01
  0
VERTEX
  8
0
 10
2.17665
 20
3.72667
 30
0.0
 40
0.01
 41
0.01
  0
VERTEX
  8
0
 10
2.17833
 20
3.70665
 30
0.0
 40
0.01
 41
0.01
  0
SEQEND
 8
0
  0
POLYLINE
  8
0
 62
     0
 66
     1
 10
0
 20
0
 30
0.0
 40
0.72
 41
0.72
  0
VERTEX
  8
0
 10
2.25331
 20
3.72667
 30
0.0
 40
0.01
 41
0.01
  0
VERTEX
  8
0
 10
2.66667
 20
3.97999
 30
0.0
 40
0.01
 41
0.01
  0
SEQEND
 8
0
  0
POLYLINE
  8
0
 62
     0
 66
     1
 10
0
 20
0
 30
0.0
 70
     1
 40
0.72
 41
0.72
  0
VERTEX
  8
0
 10
2.54335
 20
4.09
 30
0.0
 40
0.01
 41
0.01
  0
VERTEX
  8
0
 10
2.46832
 20
4.04497
 30
0.0
 40
0.01
 41
0.01
  0
VERTEX
  8
0
 10
2.54335
 20
4.09
 30
0.0
 40
0.01
 41
0.01
  0
SEQEND
 8
0
  0
POLYLINE
  8
0
 62
     0
 66
     1
 10
0
 20
0
 30
0.0
 70
     1
 40
0.72
 41
0.72
  0
VERTEX
  8
0
 10
2.46832
 20
4.04497
 30
0.0
 40
0.01
 41
0.01
  0
VERTEX
  8
0
 10
2.49164
 20
4.00836
 30
0.0
 40
0.01
 41
0.01
  0
VERTEX
  8
0
 10
2.46832
 20
4.04497
 30
0.0
 40
0.01
 41
0.01
  0
SEQEND
 8
0
  0
POLYLINE
  8
0
 62
     0
 66
     1
 10
0
 20
0
 30
0.0
 70
     1
 40
0.72
 41
0.72
  0
VERTEX
  8
0
 10
2.49164
 20
4.00836
 30
0.0
 40
0.01
 41
0.01
  0
VERTEX
  8
0
 10
2.54665
 20
4.04167
 30
0.0
 40
0.01
 41
0.01
  0
VERTEX
  8
0
 10
2.49164
 20
4.00836
 30
0.0
 40
0.01
 41
0.01
  0
SEQEND
 8
0
  0
POLYLINE
  8
0
 62
     0
 66
     1
 10
0
 20
0
 30
0.0
 70
     1
 40
0.72
 41
0.72
  0
VERTEX
  8
0
 10
2.54665
 20
4.04167
 30
0.0
 40
0.01
 41
0.01
  0
VERTEX
  8
0
 10
2.57667
 20
4.035
 30
0.0
 40
0.01
 41
0.01
  0
VERTEX
  8
0
 10
2.54665
 20
4.04167
 30
0.0
 40
0.01
 41
0.01
  0
SEQEND
 8
0
  0
POLYLINE
  8
0
 62
     0
 66
     1
 10
0
 20
0
 30
0.0
 70
     1
 40
0.72
 41
0.72
  0
VERTEX
  8
0
 10
2.57667
 20
4.035
 30
0.0
 40
0.01
 41
0.01
  0
VERTEX
  8
0
 10
2.59999
 20
3.99669
 30
0.0
 40
0.01
 41
0.01
  0
VERTEX
  8
0
 10
2.57667
 20
4.035
 30
0.0
 40
0.01
 41
0.01
  0
SEQEND
 8
0
  0
POLYLINE
  8
0
 62
     0
 66
     1
 10
0
 20
0
 30
0.0
 70
     1
 40
0.72
 41
0.72
  0
VERTEX
  8
0
 10
2.59999
 20
3.99669
 30
0.0
 40
0.01
 41
0.01
  0
VERTEX
  8
0
 10
2.59169
 20
3.96832
 30
0.0
 40
0.01
 41
0.01
  0
VERTEX
  8
0
 10
2.59999
 20
3.99669
 30
0.0
 40
0.01
 41
0.01
  0
SEQEND
 8
0
  0
POLYLINE
  8
0
 62
     0
 66
     1
 10
0
 20
0
 30
0.0
 70
     1
 40
0.72
 41
0.72
  0
VERTEX
  8
0
 10
2.59169
 20
3.96832
 30
0.0
 40
0.01
 41
0.01
  0
VERTEX
  8
0
 10
2.55501
 20
3.94499
 30
0.0
 40
0.01
 41
0.01
  0
VERTEX
  8
0
 10
2.59169
 20
3.96832
 30
0.0
 40
0.01
 41
0.01
  0
SEQEND
 8
0
  0
POLYLINE
  8
0
 62
     0
 66
     1
 10
0
 20
0
 30
0.0
 70
     1
 40
0.72
 41
0.72
  0
VERTEX
  8
0
 10
2.55501
 20
3.94499
 30
0.0
 40
0.01
 41
0.01
  0
VERTEX
  8
0
 10
2.52501
 20
3.95167
 30
0.0
 40
0.01
 41
0.01
  0
VERTEX
  8
0
 10
2.55501
 20
3.94499
 30
0.0
 40
0.01
 41
0.01
  0
SEQEND
 8
0
  0
POLYLINE
  8
0
 62
     0
 66
     1
 10
0
 20
0
 30
0.0
 70
     1
 40
0.72
 41
0.72
  0
VERTEX
  8
0
 10
2.5
 20
3.91168
 30
0.0
 40
0.01
 41
0.01
  0
VERTEX
  8
0
 10
2.46332
 20
3.88835
 30
0.0
 40
0.01
 41
0.01
  0
VERTEX
  8
0
 10
2.5
 20
3.91168
 30
0.0
 40
0.01
 41
0.01
  0
SEQEND
 8
0
  0
POLYLINE
  8
0
 62
     0
 66
     1
 10
0
 20
0
 30
0.0
 70
     1
 40
0.72
 41
0.72
  0
VERTEX
  8
0
 10
2.48167
 20
3.90001
 30
0.0
 40
0.01
 41
0.01
  0
VERTEX
  8
0
 10
2.41336
 20
4.00999
 30
0.0
 40
0.01
 41
0.01
  0
VERTEX
  8
0
 10
2.48167
 20
3.90001
 30
0.0
 40
0.01
 41
0.01
  0
SEQEND
 8
0
  0
POLYLINE
  8
0
 62
     0
 66
     1
 10
0
 20
0
 30
0.0
 70
     1
 40
0.72
 41
0.72
  0
VERTEX
  8
0
 10
2.41336
 20
4.00999
 30
0.0
 40
0.01
 41
0.01
  0
VERTEX
  8
0
 10
2.40668
 20
3.97999
 30
0.0
 40
0.01
 41
0.01
  0
VERTEX
  8
0
 10
2.41336
 20
4.00999
 30
0.0
 40
0.01
 41
0.01
  0
SEQEND
 8
0
  0
POLYLINE
  8
0
 62
     0
 66
     1
 10
0
 20
0
 30
0.0
 70
     1
 40
0.72
 41
0.72
  0
VERTEX
  8
0
 10
2.42665
 20
3.86501
 30
0.0
 40
0.01
 41
0.01
  0
VERTEX
  8
0
 10
2.33664
 20
3.88667
 30
0.0
 40
0.01
 41
0.01
  0
VERTEX
  8
0
 10
2.42665
 20
3.86501
 30
0.0
 40
0.01
 41
0.01
  0
SEQEND
 8
0
  0
POLYLINE
  8
0
 62
     0
 66
     1
 10
0
 20
0
 30
0.0
 70
     1
 40
0.72
 41
0.72
  0
VERTEX
  8
0
 10
2.31836
 20
3.875
 30
0.0
 40
0.01
 41
0.01
  0
VERTEX
  8
0
 10
2.37332
 20
3.91
 30
0.0
 40
0.01
 41
0.01
  0
VERTEX
  8
0
 10
2.31836
 20
3.875
 30
0.0
 40
0.01
 41
0.01
  0
SEQEND
 8
0
  0
POLYLINE
  8
0
 62
     0
 66
     1
 10
0
 20
0
 30
0.0
 70
     1
 40
0.72
 41
0.72
  0
VERTEX
  8
0
 10
2.37332
 20
3.91
 30
0.0
 40
0.01
 41
0.01
  0
VERTEX
  8
0
 10
2.37999
 20
3.94
 30
0.0
 40
0.01
 41
0.01
  0
VERTEX
  8
0
 10
2.37332
 20
3.91
 30
0.0
 40
0.01
 41
0.01
  0
SEQEND
 8
0
  0
POLYLINE
  8
0
 62
     0
 66
     1
 10
0
 20
0
 30
0.0
 70
     1
 40
0.72
 41
0.72
  0
VERTEX
  8
0
 10
2.37999
 20
3.94
 30
0.0
 40
0.01
 41
0.01
  0
VERTEX
  8
0
 10
2.37001
 20
3.95833
 30
0.0
 40
0.01
 41
0.01
  0
VERTEX
  8
0
 10
2.37999
 20
3.94
 30
0.0
 40
0.01
 41
0.01
  0
SEQEND
 8
0
  0
POLYLINE
  8
0
 62
     0
 66
     1
 10
0
 20
0
 30
0.0
 70
     1
 40
0.72
 41
0.72
  0
VERTEX
  8
0
 10
2.37001
 20
3.95833
 30
0.0
 40
0.01
 41
0.01
  0
VERTEX
  8
0
 10
2.34
 20
3.965
 30
0.0
 40
0.01
 41
0.01
  0
VERTEX
  8
0
 10
2.37001
 20
3.95833
 30
0.0
 40
0.01
 41
0.01
  0
SEQEND
 8
0
  0
POLYLINE
  8
0
 62
     0
 66
     1
 10
0
 20
0
 30
0.0
 70
     1
 40
0.72
 41
0.72
  0
VERTEX
  8
0
 10
2.34
 20
3.965
 30
0.0
 40
0.01
 41
0.01
  0
VERTEX
  8
0
 10
2.28331
 20
3.93164
 30
0.0
 40
0.01
 41
0.01
  0
VERTEX
  8
0
 10
2.34
 20
3.965
 30
0.0
 40
0.01
 41
0.01
  0
SEQEND
 8
0
  0
POLYLINE
  8
0
 62
     0
 66
     1
 10
0
 20
0
 30
0.0
 70
     1
 40
0.72
 41
0.72
  0
VERTEX
  8
0
 10
2.28331
 20
3.93164
 30
0.0
 40
0.01
 41
0.01
  0
VERTEX
  8
0
 10
2.35167
 20
3.81999
 30
0.0
 40
0.01
 41
0.01
  0
VERTEX
  8
0
 10
2.28331
 20
3.93164
 30
0.0
 40
0.01
 41
0.01
  0
SEQEND
 8
0
  0
POLYLINE
  8
0
 62
     0
 66
     1
 10
0
 20
0
 30
0.0
 70
     1
 40
0.72
 41
0.72
  0
VERTEX
  8
0
 10
2.24669
 20
3.73833
 30
0.0
 40
0.01
 41
0.01
  0
VERTEX
  8
0
 10
2.26167
 20
3.71669
 30
0.0
 40
0.01
 41
0.01
  0
VERTEX
  8
0
 10
2.18832
 20
3.68668
 30
0.0
 40
0.01
 41
0.01
  0
VERTEX
  8
0
 10
2.24669
 20
3.73833
 30
0.0
 40
0.01
 41
0.01
  0
SEQEND
 8
0
  0
POLYLINE
  8
0
 62
     0
 66
     1
 10
0
 20
0
 30
0.0
 40
0.72
 41
0.72
  0
VERTEX
  8
0
 10
1.69499
 20
5.90001
 30
0.0
 40
0.01
 41
0.01
  0
VERTEX
  8
0
 10
2.22835
 20
5.90001
 30
0.0
 40
0.01
 41
0.01
  0
SEQEND
 8
0
  0
POLYLINE
  8
0
 62
     0
 66
     1
 10
0
 20
0
 30
0.0
 40
0.72
 41
0.72
  0
VERTEX
  8
0
 10
1.69499
 20
3.65001
 30
0.0
 40
0.01
 41
0.01
  0
VERTEX
  8
0
 10
2.22835
 20
3.65001
 30
0.0
 40
0.01
 41
0.01
  0
SEQEND
 8
0
  0
POLYLINE
  8
0
 62
     0
 66
     1
 10
0
 20
0
 30
0.0
 40
0.72
 41
0.72
  0
VERTEX
  8
0
 10
1.70167
 20
3.72667
 30
0.0
 40
0.01
 41
0.01
  0
VERTEX
  8
0
 10
1.70167
 20
5.82335
 30
0.0
 40
0.01
 41
0.01
  0
SEQEND
 8
0
  0
POLYLINE
  8
0
 62
     0
 66
     1
 10
0
 20
0
 30
0.0
 70
     1
 40
0.72
 41
0.72
  0
VERTEX
  8
0
 10
1.70167
 20
5.90001
 30
0.0
 40
0.01
 41
0.01
  0
VERTEX
  8
0
 10
1.71332
 20
5.82335
 30
0.0
 40
0.01
 41
0.01
  0
VERTEX
  8
0
 10
1.68832
 20
5.82335
 30
0.0
 40
0.01
 41
0.01
  0
VERTEX
  8
0
 10
1.70167
 20
5.90001
 30
0.0
 40
0.01
 41
0.01
  0
SEQEND
 8
0
  0
POLYLINE
  8
0
 62
     0
 66
     1
 10
0
 20
0
 30
0.0
 70
     1
 40
0.72
 41
0.72
  0
VERTEX
  8
0
 10
1.68832
 20
3.72667
 30
0.0
 40
0.01
 41
0.01
  0
VERTEX
  8
0
 10
1.71332
 20
3.72667
 30
0.0
 40
0.01
 41
0.01
  0
VERTEX
  8
0
 10
1.70167
 20
3.65001
 30
0.0
 40
0.01
 41
0.01
  0
VERTEX
  8
0
 10
1.68832
 20
3.72667
 30
0.0
 40
0.01
 41
0.01
  0
SEQEND
 8
0
  0
POLYLINE
  8
0
 62
     0
 66
     1
 10
0
 20
0
 30
0.0
 70
     1
 40
0.72
 41
0.72
  0
VERTEX
  8
0
 10
1.58832
 20
4.875
 30
0.0
 40
0.01
 41
0.01
  0
VERTEX
  8
0
 10
1.54497
 20
4.89665
 30
0.0
 40
0.01
 41
0.01
  0
VERTEX
  8
0
 10
1.58832
 20
4.875
 30
0.0
 40
0.01
 41
0.01
  0
SEQEND
 8
0
  0
POLYLINE
  8
0
 62
     0
 66
     1
 10
0
 20
0
 30
0.0
 70
     1
 40
0.72
 41
0.72
  0
VERTEX
  8
0
 10
1.54497
 20
4.875
 30
0.0
 40
0.01
 41
0.01
  0
VERTEX
  8
0
 10
1.58832
 20
4.85335
 30
0.0
 40
0.01
 41
0.01
  0
VERTEX
  8
0
 10
1.54497
 20
4.875
 30
0.0
 40
0.01
 41
0.01
  0
SEQEND
 8
0
  0
POLYLINE
  8
0
 62
     0
 66
     1
 10
0
 20
0
 30
0.0
 70
     1
 40
0.72
 41
0.72
  0
VERTEX
  8
0
 10
1.67503
 20
4.74501
 30
0.0
 40
0.01
 41
0.01
  0
VERTEX
  8
0
 10
1.54497
 20
4.81
 30
0.0
 40
0.01
 41
0.01
  0
VERTEX
  8
0
 10
1.67503
 20
4.74501
 30
0.0
 40
0.01
 41
0.01
  0
SEQEND
 8
0
  0
POLYLINE
  8
0
 62
     0
 66
     1
 10
0
 20
0
 30
0.0
 70
     1
 40
0.72
 41
0.72
  0
VERTEX
  8
0
 10
1.54497
 20
4.81
 30
0.0
 40
0.01
 41
0.01
  0
VERTEX
  8
0
 10
1.54497
 20
4.72331
 30
0.0
 40
0.01
 41
0.01
  0
VERTEX
  8
0
 10
1.54497
 20
4.81
 30
0.0
 40
0.01
 41
0.01
  0
SEQEND
 8
0
  0
POLYLINE
  8
0
 62
     0
 66
     1
 10
0
 20
0
 30
0.0
 70
     1
 40
0.72
 41
0.72
  0
VERTEX
  8
0
 10
1.67503
 20
4.68001
 30
0.0
 40
0.01
 41
0.01
  0
VERTEX
  8
0
 10
1.67503
 20
4.63667
 30
0.0
 40
0.01
 41
0.01
  0
VERTEX
  8
0
 10
1.67503
 20
4.68001
 30
0.0
 40
0.01
 41
0.01
  0
SEQEND
 8
0
  0
POLYLINE
  8
0
 62
     0
 66
     1
 10
0
 20
0
 30
0.0
 70
     1
 40
0.72
 41
0.72
  0
VERTEX
  8
0
 10
1.67503
 20
4.65831
 30
0.0
 40
0.01
 41
0.01
  0
VERTEX
  8
0
 10
1.54497
 20
4.65831
 30
0.0
 40
0.01
 41
0.01
  0
VERTEX
  8
0
 10
1.67503
 20
4.65831
 30
0.0
 40
0.01
 41
0.01
  0
SEQEND
 8
0
  0
POLYLINE
  8
0
 62
     0
 66
     1
 10
0
 20
0
 30
0.0
 70
     1
 40
0.72
 41
0.72
  0
VERTEX
  8
0
 10
1.54497
 20
4.65831
 30
0.0
 40
0.01
 41
0.01
  0
VERTEX
  8
0
 10
1.56668
 20
4.63667
 30
0.0
 40
0.01
 41
0.01
  0
VERTEX
  8
0
 10
1.54497
 20
4.65831
 30
0.0
 40
0.01
 41
0.01
  0
SEQEND
 8
0
  0
POLYLINE
  8
0
 62
     0
 66
     1
 10
0
 20
0
 30
0.0
 40
0.72
 41
0.72
  0
VERTEX
  8
0
 10
2.17665
 20
6.25
 30
0.0
 40
0.01
 41
0.01
  0
VERTEX
  8
0
 10
2.17665
 20
5.84831
 30
0.0
 40
0.01
 41
0.01
  0
SEQEND
 8
0
  0
POLYLINE
  8
0
 62
     0
 66
     1
 10
0
 20
0
 30
0.0
 40
0.72
 41
0.72
  0
VERTEX
  8
0
 10
6.40831
 20
6.25
 30
0.0
 40
0.01
 41
0.01
  0
VERTEX
  8
0
 10
6.40831
 20
5.84831
 30
0.0
 40
0.01
 41
0.01
  0
SEQEND
 8
0
  0
POLYLINE
  8
0
 62
     0
 66
     1
 10
0
 20
0
 30
0.0
 40
0.72
 41
0.72
  0
VERTEX
  8
0
 10
6.33003
 20
6.24333
 30
0.0
 40
0.01
 41
0.01
  0
VERTEX
  8
0
 10
2.25331
 20
6.24333
 30
0.0
 40
0.01
 41
0.01
  0
SEQEND
 8
0
  0
POLYLINE
  8
0
 62
     0
 66
     1
 10
0
 20
0
 30
0.0
 70
     1
 40
0.72
 41
0.72
  0
VERTEX
  8
0
 10
2.25331
 20
6.25667
 30
0.0
 40
0.01
 41
0.01
  0
VERTEX
  8
0
 10
2.25331
 20
6.23167
 30
0.0
 40
0.01
 41
0.01
  0
VERTEX
  8
0
 10
2.17665
 20
6.24333
 30
0.0
 40
0.01
 41
0.01
  0
VERTEX
  8
0
 10
2.25331
 20
6.25667
 30
0.0
 40
0.01
 41
0.01
  0
SEQEND
 8
0
  0
POLYLINE
  8
0
 62
     0
 66
     1
 10
0
 20
0
 30
0.0
 70
     1
 40
0.72
 41
0.72
  0
VERTEX
  8
0
 10
6.40831
 20
6.24333
 30
0.0
 40
0.01
 41
0.01
  0
VERTEX
  8
0
 10
6.33003
 20
6.23167
 30
0.0
 40
0.01
 41
0.01
  0
VERTEX
  8
0
 10
6.33003
 20
6.25667
 30
0.0
 40
0.01
 41
0.01
  0
VERTEX
  8
0
 10
6.40831
 20
6.24333
 30
0.0
 40
0.01
 41
0.01
  0
SEQEND
 8
0
  0
POLYLINE
  8
0
 62
     0
 66
     1
 10
0
 20
0
 30
0.0
 70
     1
 40
0.72
 41
0.72
  0
VERTEX
  8
0
 10
4.44168
 20
6.35835
 30
0.0
 40
0.01
 41
0.01
  0
VERTEX
  8
0
 10
4.46332
 20
6.40169
 30
0.0
 40
0.01
 41
0.01
  0
VERTEX
  8
0
 10
4.44168
 20
6.35835
 30
0.0
 40
0.01
 41
0.01
  0
SEQEND
 8
0
  0
POLYLINE
  8
0
 62
     0
 66
     1
 10
0
 20
0
 30
0.0
 70
     1
 40
0.72
 41
0.72
  0
VERTEX
  8
0
 10
4.44168
 20
6.40169
 30
0.0
 40
0.01
 41
0.01
  0
VERTEX
  8
0
 10
4.41997
 20
6.35835
 30
0.0
 40
0.01
 41
0.01
  0
VERTEX
  8
0
 10
4.44168
 20
6.40169
 30
0.0
 40
0.01
 41
0.01
  0
SEQEND
 8
0
  0
POLYLINE
  8
0
 62
     0
 66
     1
 10
0
 20
0
 30
0.0
 70
     1
 40
0.72
 41
0.72
  0
VERTEX
  8
0
 10
4.37668
 20
6.27165
 30
0.0
 40
0.01
 41
0.01
  0
VERTEX
  8
0
 10
4.28999
 20
6.27165
 30
0.0
 40
0.01
 41
0.01
  0
VERTEX
  8
0
 10
4.37668
 20
6.27165
 30
0.0
 40
0.01
 41
0.01
  0
SEQEND
 8
0
  0
POLYLINE
  8
0
 62
     0
 66
     1
 10
0
 20
0
 30
0.0
 70
     1
 40
0.72
 41
0.72
  0
VERTEX
  8
0
 10
4.28999
 20
6.27165
 30
0.0
 40
0.01
 41
0.01
  0
VERTEX
  8
0
 10
4.28999
 20
6.315
 30
0.0
 40
0.01
 41
0.01
  0
VERTEX
  8
0
 10
4.28999
 20
6.27165
 30
0.0
 40
0.01
 41
0.01
  0
SEQEND
 8
0
  0
POLYLINE
  8
0
 62
     0
 66
     1
 10
0
 20
0
 30
0.0
 70
     1
 40
0.72
 41
0.72
  0
VERTEX
  8
0
 10
4.28999
 20
6.315
 30
0.0
 40
0.01
 41
0.01
  0
VERTEX
  8
0
 10
4.31168
 20
6.33664
 30
0.0
 40
0.01
 41
0.01
  0
VERTEX
  8
0
 10
4.28999
 20
6.315
 30
0.0
 40
0.01
 41
0.01
  0
SEQEND
 8
0
  0
POLYLINE
  8
0
 62
     0
 66
     1
 10
0
 20
0
 30
0.0
 70
     1
 40
0.72
 41
0.72
  0
VERTEX
  8
0
 10
4.31168
 20
6.33664
 30
0.0
 40
0.01
 41
0.01
  0
VERTEX
  8
0
 10
4.35499
 20
6.33664
 30
0.0
 40
0.01
 41
0.01
  0
VERTEX
  8
0
 10
4.31168
 20
6.33664
 30
0.0
 40
0.01
 41
0.01
  0
SEQEND
 8
0
  0
POLYLINE
  8
0
 62
     0
 66
     1
 10
0
 20
0
 30
0.0
 70
     1
 40
0.72
 41
0.72
  0
VERTEX
  8
0
 10
4.35499
 20
6.33664
 30
0.0
 40
0.01
 41
0.01
  0
VERTEX
  8
0
 10
4.37668
 20
6.35835
 30
0.0
 40
0.01
 41
0.01
  0
VERTEX
  8
0
 10
4.35499
 20
6.33664
 30
0.0
 40
0.01
 41
0.01
  0
SEQEND
 8
0
  0
POLYLINE
  8
0
 62
     0
 66
     1
 10
0
 20
0
 30
0.0
 70
     1
 40
0.72
 41
0.72
  0
VERTEX
  8
0
 10
4.37668
 20
6.35835
 30
0.0
 40
0.01
 41
0.01
  0
VERTEX
  8
0
 10
4.37668
 20
6.37999
 30
0.0
 40
0.01
 41
0.01
  0
VERTEX
  8
0
 10
4.37668
 20
6.35835
 30
0.0
 40
0.01
 41
0.01
  0
SEQEND
 8
0
  0
POLYLINE
  8
0
 62
     0
 66
     1
 10
0
 20
0
 30
0.0
 70
     1
 40
0.72
 41
0.72
  0
VERTEX
  8
0
 10
4.37668
 20
6.37999
 30
0.0
 40
0.01
 41
0.01
  0
VERTEX
  8
0
 10
4.35499
 20
6.40169
 30
0.0
 40
0.01
 41
0.01
  0
VERTEX
  8
0
 10
4.37668
 20
6.37999
 30
0.0
 40
0.01
 41
0.01
  0
SEQEND
 8
0
  0
POLYLINE
  8
0
 62
     0
 66
     1
 10
0
 20
0
 30
0.0
 70
     1
 40
0.72
 41
0.72
  0
VERTEX
  8
0
 10
4.35499
 20
6.40169
 30
0.0
 40
0.01
 41
0.01
  0
VERTEX
  8
0
 10
4.31168
 20
6.40169
 30
0.0
 40
0.01
 41
0.01
  0
VERTEX
  8
0
 10
4.35499
 20
6.40169
 30
0.0
 40
0.01
 41
0.01
  0
SEQEND
 8
0
  0
POLYLINE
  8
0
 62
     0
 66
     1
 10
0
 20
0
 30
0.0
 70
     1
 40
0.72
 41
0.72
  0
VERTEX
  8
0
 10
4.31168
 20
6.40169
 30
0.0
 40
0.01
 41
0.01
  0
VERTEX
  8
0
 10
4.28999
 20
6.37999
 30
0.0
 40
0.01
 41
0.01
  0
VERTEX
  8
0
 10
4.31168
 20
6.40169
 30
0.0
 40
0.01
 41
0.01
  0
SEQEND
 8
0
  0
POLYLINE
  8
0
 62
     0
 66
     1
 10
0
 20
0
 30
0.0
 70
     1
 40
0.72
 41
0.72
  0
VERTEX
  8
0
 10
4.16
 20
6.29335
 30
0.0
 40
0.01
 41
0.01
  0
VERTEX
  8
0
 10
4.18164
 20
6.27165
 30
0.0
 40
0.01
 41
0.01
  0
VERTEX
  8
0
 10
4.16
 20
6.29335
 30
0.0
 40
0.01
 41
0.01
  0
SEQEND
 8
0
  0
POLYLINE
  8
0
 62
     0
 66
     1
 10
0
 20
0
 30
0.0
 70
     1
 40
0.72
 41
0.72
  0
VERTEX
  8
0
 10
4.18164
 20
6.27165
 30
0.0
 40
0.01
 41
0.01
  0
VERTEX
  8
0
 10
4.22499
 20
6.27165
 30
0.0
 40
0.01
 41
0.01
  0
VERTEX
  8
0
 10
4.18164
 20
6.27165
 30
0.0
 40
0.01
 41
0.01
  0
SEQEND
 8
0
  0
POLYLINE
  8
0
 62
     0
 66
     1
 10
0
 20
0
 30
0.0
 70
     1
 40
0.72
 41
0.72
  0
VERTEX
  8
0
 10
4.22499
 20
6.27165
 30
0.0
 40
0.01
 41
0.01
  0
VERTEX
  8
0
 10
4.24669
 20
6.29335
 30
0.0
 40
0.01
 41
0.01
  0
VERTEX
  8
0
 10
4.22499
 20
6.27165
 30
0.0
 40
0.01
 41
0.01
  0
SEQEND
 8
0
  0
POLYLINE
  8
0
 62
     0
 66
     1
 10
0
 20
0
 30
0.0
 70
     1
 40
0.72
 41
0.72
  0
VERTEX
  8
0
 10
4.24669
 20
6.29335
 30
0.0
 40
0.01
 41
0.01
  0
VERTEX
  8
0
 10
4.24669
 20
6.315
 30
0.0
 40
0.01
 41
0.01
  0
VERTEX
  8
0
 10
4.24669
 20
6.29335
 30
0.0
 40
0.01
 41
0.01
  0
SEQEND
 8
0
  0
POLYLINE
  8
0
 62
     0
 66
     1
 10
0
 20
0
 30
0.0
 70
     1
 40
0.72
 41
0.72
  0
VERTEX
  8
0
 10
4.24669
 20
6.315
 30
0.0
 40
0.01
 41
0.01
  0
VERTEX
  8
0
 10
4.22499
 20
6.33664
 30
0.0
 40
0.01
 41
0.01
  0
VERTEX
  8
0
 10
4.24669
 20
6.315
 30
0.0
 40
0.01
 41
0.01
  0
SEQEND
 8
0
  0
POLYLINE
  8
0
 62
     0
 66
     1
 10
0
 20
0
 30
0.0
 70
     1
 40
0.72
 41
0.72
  0
VERTEX
  8
0
 10
4.20335
 20
6.33664
 30
0.0
 40
0.01
 41
0.01
  0
VERTEX
  8
0
 10
4.22499
 20
6.33664
 30
0.0
 40
0.01
 41
0.01
  0
VERTEX
  8
0
 10
4.20335
 20
6.33664
 30
0.0
 40
0.01
 41
0.01
  0
SEQEND
 8
0
  0
POLYLINE
  8
0
 62
     0
 66
     1
 10
0
 20
0
 30
0.0
 70
     1
 40
0.72
 41
0.72
  0
VERTEX
  8
0
 10
4.22499
 20
6.33664
 30
0.0
 40
0.01
 41
0.01
  0
VERTEX
  8
0
 10
4.24669
 20
6.35835
 30
0.0
 40
0.01
 41
0.01
  0
VERTEX
  8
0
 10
4.22499
 20
6.33664
 30
0.0
 40
0.01
 41
0.01
  0
SEQEND
 8
0
  0
POLYLINE
  8
0
 62
     0
 66
     1
 10
0
 20
0
 30
0.0
 70
     1
 40
0.72
 41
0.72
  0
VERTEX
  8
0
 10
4.24669
 20
6.35835
 30
0.0
 40
0.01
 41
0.01
  0
VERTEX
  8
0
 10
4.24669
 20
6.37999
 30
0.0
 40
0.01
 41
0.01
  0
VERTEX
  8
0
 10
4.24669
 20
6.35835
 30
0.0
 40
0.01
 41
0.01
  0
SEQEND
 8
0
  0
POLYLINE
  8
0
 62
     0
 66
     1
 10
0
 20
0
 30
0.0
 70
     1
 40
0.72
 41
0.72
  0
VERTEX
  8
0
 10
4.24669
 20
6.37999
 30
0.0
 40
0.01
 41
0.01
  0
VERTEX
  8
0
 10
4.22499
 20
6.40169
 30
0.0
 40
0.01
 41
0.01
  0
VERTEX
  8
0
 10
4.24669
 20
6.37999
 30
0.0
 40
0.01
 41
0.01
  0
SEQEND
 8
0
  0
POLYLINE
  8
0
 62
     0
 66
     1
 10
0
 20
0
 30
0.0
 70
     1
 40
0.72
 41
0.72
  0
VERTEX
  8
0
 10
4.22499
 20
6.40169
 30
0.0
 40
0.01
 41
0.01
  0
VERTEX
  8
0
 10
4.18164
 20
6.40169
 30
0.0
 40
0.01
 41
0.01
  0
VERTEX
  8
0
 10
4.22499
 20
6.40169
 30
0.0
 40
0.01
 41
0.01
  0
SEQEND
 8
0
  0
POLYLINE
  8
0
 62
     0
 66
     1
 10
0
 20
0
 30
0.0
 70
     1
 40
0.72
 41
0.72
  0
VERTEX
  8
0
 10
4.18164
 20
6.40169
 30
0.0
 40
0.01
 41
0.01
  0
VERTEX
  8
0
 10
4.16
 20
6.37999
 30
0.0
 40
0.01
 41
0.01
  0
VERTEX
  8
0
 10
4.18164
 20
6.40169
 30
0.0
 40
0.01
 41
0.01
  0
SEQEND
 8
0
  0
POLYLINE
  8
0
 62
     0
 66
     1
 10
0
 20
0
 30
0.0
 70
     1
 40
0.72
 41
0.72
  0
VERTEX
  8
0
 10
5.12332
 20
7.57497
 30
0.0
 40
0.01
 41
0.01
  0
VERTEX
  8
0
 10
4.98335
 20
7.57497
 30
0.0
 40
0.01
 41
0.01
  0
VERTEX
  8
0
 10
5.12332
 20
7.57497
 30
0.0
 40
0.01
 41
0.01
  0
SEQEND
 8
0
  0
POLYLINE
  8
0
 62
     0
 66
     1
 10
0
 20
0
 30
0.0
 70
     1
 40
0.72
 41
0.72
  0
VERTEX
  8
0
 10
5.05333
 20
7.68001
 30
0.0
 40
0.01
 41
0.01
  0
VERTEX
  8
0
 10
4.98335
 20
7.68001
 30
0.0
 40
0.01
 41
0.01
  0
VERTEX
  8
0
 10
5.05333
 20
7.68001
 30
0.0
 40
0.01
 41
0.01
  0
SEQEND
 8
0
  0
POLYLINE
  8
0
 62
     0
 66
     1
 10
0
 20
0
 30
0.0
 70
     1
 40
0.72
 41
0.72
  0
VERTEX
  8
0
 10
5.12332
 20
7.78331
 30
0.0
 40
0.01
 41
0.01
  0
VERTEX
  8
0
 10
4.98335
 20
7.78331
 30
0.0
 40
0.01
 41
0.01
  0
VERTEX
  8
0
 10
5.12332
 20
7.78331
 30
0.0
 40
0.01
 41
0.01
  0
SEQEND
 8
0
  0
POLYLINE
  8
0
 62
     0
 66
     1
 10
0
 20
0
 30
0.0
 70
     1
 40
0.72
 41
0.72
  0
VERTEX
  8
0
 10
4.98335
 20
7.78331
 30
0.0
 40
0.01
 41
0.01
  0
VERTEX
  8
0
 10
4.98335
 20
7.57497
 30
0.0
 40
0.01
 41
0.01
  0
VERTEX
  8
0
 10
4.98335
 20
7.78331
 30
0.0
 40
0.01
 41
0.01
  0
SEQEND
 8
0
  0
POLYLINE
  8
0
 62
     0
 66
     1
 10
0
 20
0
 30
0.0
 70
     1
 40
0.72
 41
0.72
  0
VERTEX
  8
0
 10
4.845
 20
7.57497
 30
0.0
 40
0.01
 41
0.01
  0
VERTEX
  8
0
 10
4.845
 20
7.78331
 30
0.0
 40
0.01
 41
0.01
  0
VERTEX
  8
0
 10
4.845
 20
7.57497
 30
0.0
 40
0.01
 41
0.01
  0
SEQEND
 8
0
  0
POLYLINE
  8
0
 62
     0
 66
     1
 10
0
 20
0
 30
0.0
 70
     1
 40
0.72
 41
0.72
  0
VERTEX
  8
0
 10
4.91499
 20
7.78331
 30
0.0
 40
0.01
 41
0.01
  0
VERTEX
  8
0
 10
4.77669
 20
7.78331
 30
0.0
 40
0.01
 41
0.01
  0
VERTEX
  8
0
 10
4.91499
 20
7.78331
 30
0.0
 40
0.01
 41
0.01
  0
SEQEND
 8
0
  0
POLYLINE
  8
0
 62
     0
 66
     1
 10
0
 20
0
 30
0.0
 70
     1
 40
0.72
 41
0.72
  0
VERTEX
  8
0
 10
4.70665
 20
7.64501
 30
0.0
 40
0.01
 41
0.01
  0
VERTEX
  8
0
 10
4.56836
 20
7.64501
 30
0.0
 40
0.01
 41
0.01
  0
VERTEX
  8
0
 10
4.70665
 20
7.64501
 30
0.0
 40
0.01
 41
0.01
  0
VERTEX
  8
0
 10
4.70665
 20
7.57497
 30
0.0
 40
0.01
 41
0.01
  0
VERTEX
  8
0
 10
4.70665
 20
7.64501
 30
0.0
 40
0.01
 41
0.01
  0
VERTEX
  8
0
 10
4.63667
 20
7.78331
 30
0.0
 40
0.01
 41
0.01
  0
VERTEX
  8
0
 10
4.70665
 20
7.64501
 30
0.0
 40
0.01
 41
0.01
  0
SEQEND
 8
0
  0
POLYLINE
  8
0
 62
     0
 66
     1
 10
0
 20
0
 30
0.0
 70
     1
 40
0.72
 41
0.72
  0
VERTEX
  8
0
 10
4.63667
 20
7.78331
 30
0.0
 40
0.01
 41
0.01
  0
VERTEX
  8
0
 10
4.56836
 20
7.64501
 30
0.0
 40
0.01
 41
0.01
  0
VERTEX
  8
0
 10
4.63667
 20
7.78331
 30
0.0
 40
0.01
 41
0.01
  0
SEQEND
 8
0
  0
POLYLINE
  8
0
 62
     0
 66
     1
 10
0
 20
0
 30
0.0
 70
     1
 40
0.72
 41
0.72
  0
VERTEX
  8
0
 10
4.56836
 20
7.64501
 30
0.0
 40
0.01
 41
0.01
  0
VERTEX
  8
0
 10
4.56836
 20
7.57497
 30
0.0
 40
0.01
 41
0.01
  0
VERTEX
  8
0
 10
4.56836
 20
7.64501
 30
0.0
 40
0.01
 41
0.01
  0
SEQEND
 8
0
  0
POLYLINE
  8
0
 62
     0
 66
     1
 10
0
 20
0
 30
0.0
 70
     1
 40
0.72
 41
0.72
  0
VERTEX
  8
0
 10
4.49832
 20
7.57497
 30
0.0
 40
0.01
 41
0.01
  0
VERTEX
  8
0
 10
4.36003
 20
7.57497
 30
0.0
 40
0.01
 41
0.01
  0
VERTEX
  8
0
 10
4.49832
 20
7.57497
 30
0.0
 40
0.01
 41
0.01
  0
SEQEND
 8
0
  0
POLYLINE
  8
0
 62
     0
 66
     1
 10
0
 20
0
 30
0.0
 70
     1
 40
0.72
 41
0.72
  0
VERTEX
  8
0
 10
4.36003
 20
7.57497
 30
0.0
 40
0.01
 41
0.01
  0
VERTEX
  8
0
 10
4.36003
 20
7.78331
 30
0.0
 40
0.01
 41
0.01
  0
VERTEX
  8
0
 10
4.36003
 20
7.57497
 30
0.0
 40
0.01
 41
0.01
  0
SEQEND
 8
0
  0
POLYLINE
  8
0
 62
     0
 66
     1
 10
0
 20
0
 30
0.0
 70
     1
 40
0.72
 41
0.72
  0
VERTEX
  8
0
 10
4.15169
 20
7.68001
 30
0.0
 40
0.01
 41
0.01
  0
VERTEX
  8
0
 10
4.25667
 20
7.68001
 30
0.0
 40
0.01
 41
0.01
  0
VERTEX
  8
0
 10
4.15169
 20
7.68001
 30
0.0
 40
0.01
 41
0.01
  0
SEQEND
 8
0
  0
POLYLINE
  8
0
 62
     0
 66
     1
 10
0
 20
0
 30
0.0
 70
     1
 40
0.72
 41
0.72
  0
VERTEX
  8
0
 10
4.25667
 20
7.68001
 30
0.0
 40
0.01
 41
0.01
  0
VERTEX
  8
0
 10
4.28999
 20
7.715
 30
0.0
 40
0.01
 41
0.01
  0
VERTEX
  8
0
 10
4.25667
 20
7.68001
 30
0.0
 40
0.01
 41
0.01
  0
SEQEND
 8
0
  0
POLYLINE
  8
0
 62
     0
 66
     1
 10
0
 20
0
 30
0.0
 70
     1
 40
0.72
 41
0.72
  0
VERTEX
  8
0
 10
4.28999
 20
7.715
 30
0.0
 40
0.01
 41
0.01
  0
VERTEX
  8
0
 10
4.28999
 20
7.74832
 30
0.0
 40
0.01
 41
0.01
  0
VERTEX
  8
0
 10
4.28999
 20
7.715
 30
0.0
 40
0.01
 41
0.01
  0
SEQEND
 8
0
  0
POLYLINE
  8
0
 62
     0
 66
     1
 10
0
 20
0
 30
0.0
 70
     1
 40
0.72
 41
0.72
  0
VERTEX
  8
0
 10
4.28999
 20
7.74832
 30
0.0
 40
0.01
 41
0.01
  0
VERTEX
  8
0
 10
4.25667
 20
7.78331
 30
0.0
 40
0.01
 41
0.01
  0
VERTEX
  8
0
 10
4.28999
 20
7.74832
 30
0.0
 40
0.01
 41
0.01
  0
SEQEND
 8
0
  0
POLYLINE
  8
0
 62
     0
 66
     1
 10
0
 20
0
 30
0.0
 70
     1
 40
0.72
 41
0.72
  0
VERTEX
  8
0
 10
4.25667
 20
7.78331
 30
0.0
 40
0.01
 41
0.01
  0
VERTEX
  8
0
 10
4.15169
 20
7.78331
 30
0.0
 40
0.01
 41
0.01
  0
VERTEX
  8
0
 10
4.25667
 20
7.78331
 30
0.0
 40
0.01
 41
0.01
  0
SEQEND
 8
0
  0
POLYLINE
  8
0
 62
     0
 66
     1
 10
0
 20
0
 30
0.0
 70
     1
 40
0.72
 41
0.72
  0
VERTEX
  8
0
 10
4.15169
 20
7.78331
 30
0.0
 40
0.01
 41
0.01
  0
VERTEX
  8
0
 10
4.15169
 20
7.57497
 30
0.0
 40
0.01
 41
0.01
  0
VERTEX
  8
0
 10
4.15169
 20
7.78331
 30
0.0
 40
0.01
 41
0.01
  0
SEQEND
 8
0
  0
POLYLINE
  8
0
 62
     0
 66
     1
 10
0
 20
0
 30
0.0
 70
     1
 40
0.72
 41
0.72
  0
VERTEX
  8
0
 10
4.08333
 20
7.57497
 30
0.0
 40
0.01
 41
0.01
  0
VERTEX
  8
0
 10
4.08333
 20
7.78331
 30
0.0
 40
0.01
 41
0.01
  0
VERTEX
  8
0
 10
4.08333
 20
7.57497
 30
0.0
 40
0.01
 41
0.01
  0
SEQEND
 8
0
  0
POLYLINE
  8
0
 62
     0
 66
     1
 10
0
 20
0
 30
0.0
 70
     1
 40
0.72
 41
0.72
  0
VERTEX
  8
0
 10
4.08333
 20
7.78331
 30
0.0
 40
0.01
 41
0.01
  0
VERTEX
  8
0
 10
4.01335
 20
7.64501
 30
0.0
 40
0.01
 41
0.01
  0
VERTEX
  8
0
 10
4.08333
 20
7.78331
 30
0.0
 40
0.01
 41
0.01
  0
SEQEND
 8
0
  0
POLYLINE
  8
0
 62
     0
 66
     1
 10
0
 20
0
 30
0.0
 70
     1
 40
0.72
 41
0.72
  0
VERTEX
  8
0
 10
4.01335
 20
7.64501
 30
0.0
 40
0.01
 41
0.01
  0
VERTEX
  8
0
 10
3.94336
 20
7.78331
 30
0.0
 40
0.01
 41
0.01
  0
VERTEX
  8
0
 10
4.01335
 20
7.64501
 30
0.0
 40
0.01
 41
0.01
  0
SEQEND
 8
0
  0
POLYLINE
  8
0
 62
     0
 66
     1
 10
0
 20
0
 30
0.0
 70
     1
 40
0.72
 41
0.72
  0
VERTEX
  8
0
 10
3.94336
 20
7.78331
 30
0.0
 40
0.01
 41
0.01
  0
VERTEX
  8
0
 10
3.94336
 20
7.57497
 30
0.0
 40
0.01
 41
0.01
  0
VERTEX
  8
0
 10
3.94336
 20
7.78331
 30
0.0
 40
0.01
 41
0.01
  0
SEQEND
 8
0
  0
POLYLINE
  8
0
 62
     0
 66
     1
 10
0
 20
0
 30
0.0
 70
     1
 40
0.72
 41
0.72
  0
VERTEX
  8
0
 10
3.875
 20
7.57497
 30
0.0
 40
0.01
 41
0.01
  0
VERTEX
  8
0
 10
3.73665
 20
7.57497
 30
0.0
 40
0.01
 41
0.01
  0
VERTEX
  8
0
 10
3.875
 20
7.57497
 30
0.0
 40
0.01
 41
0.01
  0
SEQEND
 8
0
  0
POLYLINE
  8
0
 62
     0
 66
     1
 10
0
 20
0
 30
0.0
 70
     1
 40
0.72
 41
0.72
  0
VERTEX
  8
0
 10
3.80501
 20
7.68001
 30
0.0
 40
0.01
 41
0.01
  0
VERTEX
  8
0
 10
3.73665
 20
7.68001
 30
0.0
 40
0.01
 41
0.01
  0
VERTEX
  8
0
 10
3.80501
 20
7.68001
 30
0.0
 40
0.01
 41
0.01
  0
SEQEND
 8
0
  0
POLYLINE
  8
0
 62
     0
 66
     1
 10
0
 20
0
 30
0.0
 70
     1
 40
0.72
 41
0.72
  0
VERTEX
  8
0
 10
3.875
 20
7.78331
 30
0.0
 40
0.01
 41
0.01
  0
VERTEX
  8
0
 10
3.73665
 20
7.78331
 30
0.0
 40
0.01
 41
0.01
  0
VERTEX
  8
0
 10
3.875
 20
7.78331
 30
0.0
 40
0.01
 41
0.01
  0
SEQEND
 8
0
  0
POLYLINE
  8
0
 62
     0
 66
     1
 10
0
 20
0
 30
0.0
 70
     1
 40
0.72
 41
0.72
  0
VERTEX
  8
0
 10
3.73665
 20
7.78331
 30
0.0
 40
0.01
 41
0.01
  0
VERTEX
  8
0
 10
3.73665
 20
7.57497
 30
0.0
 40
0.01
 41
0.01
  0
VERTEX
  8
0
 10
3.73665
 20
7.78331
 30
0.0
 40
0.01
 41
0.01
  0
SEQEND
 8
0
  0
POLYLINE
  8
0
 62
     0
 66
     1
 10
0
 20
0
 30
0.0
 70
     1
 40
0.72
 41
0.72
  0
VERTEX
  8
0
 10
3.59668
 20
7.57497
 30
0.0
 40
0.01
 41
0.01
  0
VERTEX
  8
0
 10
3.59668
 20
7.78331
 30
0.0
 40
0.01
 41
0.01
  0
VERTEX
  8
0
 10
3.59668
 20
7.57497
 30
0.0
 40
0.01
 41
0.01
  0
SEQEND
 8
0
  0
POLYLINE
  8
0
 62
     0
 66
     1
 10
0
 20
0
 30
0.0
 70
     1
 40
0.72
 41
0.72
  0
VERTEX
  8
0
 10
3.66667
 20
7.78331
 30
0.0
 40
0.01
 41
0.01
  0
VERTEX
  8
0
 10
3.52832
 20
7.78331
 30
0.0
 40
0.01
 41
0.01
  0
VERTEX
  8
0
 10
3.66667
 20
7.78331
 30
0.0
 40
0.01
 41
0.01
  0
SEQEND
 8
0
  0
POLYLINE
  8
0
 62
     0
 66
     1
 10
0
 20
0
 30
0.0
 70
     1
 40
0.72
 41
0.72
  0
VERTEX
  8
0
 10
2.93832
 20
7.57497
 30
0.0
 40
0.01
 41
0.01
  0
VERTEX
  8
0
 10
3.00836
 20
7.57497
 30
0.0
 40
0.01
 41
0.01
  0
VERTEX
  8
0
 10
2.93832
 20
7.57497
 30
0.0
 40
0.01
 41
0.01
  0
SEQEND
 8
0
  0
POLYLINE
  8
0
 62
     0
 66
     1
 10
0
 20
0
 30
0.0
 70
     1
 40
0.72
 41
0.72
  0
VERTEX
  8
0
 10
3.00836
 20
7.57497
 30
0.0
 40
0.01
 41
0.01
  0
VERTEX
  8
0
 10
3.04335
 20
7.61003
 30
0.0
 40
0.01
 41
0.01
  0
VERTEX
  8
0
 10
3.00836
 20
7.57497
 30
0.0
 40
0.01
 41
0.01
  0
SEQEND
 8
0
  0
POLYLINE
  8
0
 62
     0
 66
     1
 10
0
 20
0
 30
0.0
 70
     1
 40
0.72
 41
0.72
  0
VERTEX
  8
0
 10
3.04335
 20
7.61003
 30
0.0
 40
0.01
 41
0.01
  0
VERTEX
  8
0
 10
3.04335
 20
7.64501
 30
0.0
 40
0.01
 41
0.01
  0
VERTEX
  8
0
 10
3.04335
 20
7.61003
 30
0.0
 40
0.01
 41
0.01
  0
SEQEND
 8
0
  0
POLYLINE
  8
0
 62
     0
 66
     1
 10
0
 20
0
 30
0.0
 70
     1
 40
0.72
 41
0.72
  0
VERTEX
  8
0
 10
3.04335
 20
7.64501
 30
0.0
 40
0.01
 41
0.01
  0
VERTEX
  8
0
 10
3.00836
 20
7.68001
 30
0.0
 40
0.01
 41
0.01
  0
VERTEX
  8
0
 10
3.04335
 20
7.64501
 30
0.0
 40
0.01
 41
0.01
  0
SEQEND
 8
0
  0
POLYLINE
  8
0
 62
     0
 66
     1
 10
0
 20
0
 30
0.0
 70
     1
 40
0.72
 41
0.72
  0
VERTEX
  8
0
 10
2.93832
 20
7.68001
 30
0.0
 40
0.01
 41
0.01
  0
VERTEX
  8
0
 10
2.90332
 20
7.715
 30
0.0
 40
0.01
 41
0.01
  0
VERTEX
  8
0
 10
2.93832
 20
7.68001
 30
0.0
 40
0.01
 41
0.01
  0
SEQEND
 8
0
  0
POLYLINE
  8
0
 62
     0
 66
     1
 10
0
 20
0
 30
0.0
 70
     1
 40
0.72
 41
0.72
  0
VERTEX
  8
0
 10
2.90332
 20
7.715
 30
0.0
 40
0.01
 41
0.01
  0
VERTEX
  8
0
 10
2.90332
 20
7.74832
 30
0.0
 40
0.01
 41
0.01
  0
VERTEX
  8
0
 10
2.90332
 20
7.715
 30
0.0
 40
0.01
 41
0.01
  0
SEQEND
 8
0
  0
POLYLINE
  8
0
 62
     0
 66
     1
 10
0
 20
0
 30
0.0
 70
     1
 40
0.72
 41
0.72
  0
VERTEX
  8
0
 10
2.90332
 20
7.74832
 30
0.0
 40
0.01
 41
0.01
  0
VERTEX
  8
0
 10
2.93832
 20
7.78331
 30
0.0
 40
0.01
 41
0.01
  0
VERTEX
  8
0
 10
2.90332
 20
7.74832
 30
0.0
 40
0.01
 41
0.01
  0
SEQEND
 8
0
  0
POLYLINE
  8
0
 62
     0
 66
     1
 10
0
 20
0
 30
0.0
 70
     1
 40
0.72
 41
0.72
  0
VERTEX
  8
0
 10
2.93832
 20
7.78331
 30
0.0
 40
0.01
 41
0.01
  0
VERTEX
  8
0
 10
3.00836
 20
7.78331
 30
0.0
 40
0.01
 41
0.01
  0
VERTEX
  8
0
 10
2.93832
 20
7.78331
 30
0.0
 40
0.01
 41
0.01
  0
SEQEND
 8
0
  0
POLYLINE
  8
0
 62
     0
 66
     1
 10
0
 20
0
 30
0.0
 70
     1
 40
0.72
 41
0.72
  0
VERTEX
  8
0
 10
3.00836
 20
7.78331
 30
0.0
 40
0.01
 41
0.01
  0
VERTEX
  8
0
 10
3.04335
 20
7.74832
 30
0.0
 40
0.01
 41
0.01
  0
VERTEX
  8
0
 10
3.00836
 20
7.78331
 30
0.0
 40
0.01
 41
0.01
  0
SEQEND
 8
0
  0
POLYLINE
  8
0
 62
     0
 66
     1
 10
0
 20
0
 30
0.0
 70
     1
 40
0.72
 41
0.72
  0
VERTEX
  8
0
 10
3.04335
 20
7.74832
 30
0.0
 40
0.01
 41
0.01
  0
VERTEX
  8
0
 10
3.04335
 20
7.715
 30
0.0
 40
0.01
 41
0.01
  0
VERTEX
  8
0
 10
3.04335
 20
7.74832
 30
0.0
 40
0.01
 41
0.01
  0
SEQEND
 8
0
  0
POLYLINE
  8
0
 62
     0
 66
     1
 10
0
 20
0
 30
0.0
 70
     1
 40
0.72
 41
0.72
  0
VERTEX
  8
0
 10
3.04335
 20
7.715
 30
0.0
 40
0.01
 41
0.01
  0
VERTEX
  8
0
 10
3.00836
 20
7.68001
 30
0.0
 40
0.01
 41
0.01
  0
VERTEX
  8
0
 10
3.04335
 20
7.715
 30
0.0
 40
0.01
 41
0.01
  0
SEQEND
 8
0
  0
POLYLINE
  8
0
 62
     0
 66
     1
 10
0
 20
0
 30
0.0
 70
     1
 40
0.72
 41
0.72
  0
VERTEX
  8
0
 10
3.00836
 20
7.68001
 30
0.0
 40
0.01
 41
0.01
  0
VERTEX
  8
0
 10
2.93832
 20
7.68001
 30
0.0
 40
0.01
 41
0.01
  0
VERTEX
  8
0
 10
3.00836
 20
7.68001
 30
0.0
 40
0.01
 41
0.01
  0
SEQEND
 8
0
  0
POLYLINE
  8
0
 62
     0
 66
     1
 10
0
 20
0
 30
0.0
 70
     1
 40
0.72
 41
0.72
  0
VERTEX
  8
0
 10
2.93832
 20
7.68001
 30
0.0
 40
0.01
 41
0.01
  0
VERTEX
  8
0
 10
2.90332
 20
7.64501
 30
0.0
 40
0.01
 41
0.01
  0
VERTEX
  8
0
 10
2.93832
 20
7.68001
 30
0.0
 40
0.01
 41
0.01
  0
SEQEND
 8
0
  0
POLYLINE
  8
0
 62
     0
 66
     1
 10
0
 20
0
 30
0.0
 70
     1
 40
0.72
 41
0.72
  0
VERTEX
  8
0
 10
2.90332
 20
7.64501
 30
0.0
 40
0.01
 41
0.01
  0
VERTEX
  8
0
 10
2.90332
 20
7.61003
 30
0.0
 40
0.01
 41
0.01
  0
VERTEX
  8
0
 10
2.90332
 20
7.64501
 30
0.0
 40
0.01
 41
0.01
  0
SEQEND
 8
0
  0
POLYLINE
  8
0
 62
     0
 66
     1
 10
0
 20
0
 30
0.0
 70
     1
 40
0.72
 41
0.72
  0
VERTEX
  8
0
 10
2.90332
 20
7.61003
 30
0.0
 40
0.01
 41
0.01
  0
VERTEX
  8
0
 10
2.93832
 20
7.57497
 30
0.0
 40
0.01
 41
0.01
  0
VERTEX
  8
0
 10
2.90332
 20
7.61003
 30
0.0
 40
0.01
 41
0.01
  0
SEQEND
 8
0
  0
POLYLINE
  8
0
 62
     0
 66
     1
 10
0
 20
0
 30
0.0
 70
     1
 40
0.72
 41
0.72
  0
VERTEX
  8
0
 10
2.83501
 20
7.78331
 30
0.0
 40
0.01
 41
0.01
  0
VERTEX
  8
0
 10
2.69667
 20
7.78331
 30
0.0
 40
0.01
 41
0.01
  0
VERTEX
  8
0
 10
2.83501
 20
7.78331
 30
0.0
 40
0.01
 41
0.01
  0
SEQEND
 8
0
  0
POLYLINE
  8
0
 62
     0
 66
     1
 10
0
 20
0
 30
0.0
 70
     1
 40
0.72
 41
0.72
  0
VERTEX
  8
0
 10
2.69667
 20
7.78331
 30
0.0
 40
0.01
 41
0.01
  0
VERTEX
  8
0
 10
2.69667
 20
7.715
 30
0.0
 40
0.01
 41
0.01
  0
VERTEX
  8
0
 10
2.69667
 20
7.78331
 30
0.0
 40
0.01
 41
0.01
  0
SEQEND
 8
0
  0
POLYLINE
  8
0
 62
     0
 66
     1
 10
0
 20
0
 30
0.0
 70
     1
 40
0.72
 41
0.72
  0
VERTEX
  8
0
 10
2.69667
 20
7.715
 30
0.0
 40
0.01
 41
0.01
  0
VERTEX
  8
0
 10
2.80003
 20
7.715
 30
0.0
 40
0.01
 41
0.01
  0
VERTEX
  8
0
 10
2.69667
 20
7.715
 30
0.0
 40
0.01
 41
0.01
  0
SEQEND
 8
0
  0
POLYLINE
  8
0
 62
     0
 66
     1
 10
0
 20
0
 30
0.0
 70
     1
 40
0.72
 41
0.72
  0
VERTEX
  8
0
 10
2.80003
 20
7.715
 30
0.0
 40
0.01
 41
0.01
  0
VERTEX
  8
0
 10
2.83501
 20
7.68001
 30
0.0
 40
0.01
 41
0.01
  0
VERTEX
  8
0
 10
2.80003
 20
7.715
 30
0.0
 40
0.01
 41
0.01
  0
SEQEND
 8
0
  0
POLYLINE
  8
0
 62
     0
 66
     1
 10
0
 20
0
 30
0.0
 70
     1
 40
0.72
 41
0.72
  0
VERTEX
  8
0
 10
2.83501
 20
7.68001
 30
0.0
 40
0.01
 41
0.01
  0
VERTEX
  8
0
 10
2.83501
 20
7.61003
 30
0.0
 40
0.01
 41
0.01
  0
VERTEX
  8
0
 10
2.83501
 20
7.68001
 30
0.0
 40
0.01
 41
0.01
  0
SEQEND
 8
0
  0
POLYLINE
  8
0
 62
     0
 66
     1
 10
0
 20
0
 30
0.0
 70
     1
 40
0.72
 41
0.72
  0
VERTEX
  8
0
 10
2.83501
 20
7.61003
 30
0.0
 40
0.01
 41
0.01
  0
VERTEX
  8
0
 10
2.80003
 20
7.57497
 30
0.0
 40
0.01
 41
0.01
  0
VERTEX
  8
0
 10
2.83501
 20
7.61003
 30
0.0
 40
0.01
 41
0.01
  0
SEQEND
 8
0
  0
POLYLINE
  8
0
 62
     0
 66
     1
 10
0
 20
0
 30
0.0
 70
     1
 40
0.72
 41
0.72
  0
VERTEX
  8
0
 10
2.80003
 20
7.57497
 30
0.0
 40
0.01
 41
0.01
  0
VERTEX
  8
0
 10
2.72999
 20
7.57497
 30
0.0
 40
0.01
 41
0.01
  0
VERTEX
  8
0
 10
2.80003
 20
7.57497
 30
0.0
 40
0.01
 41
0.01
  0
SEQEND
 8
0
  0
POLYLINE
  8
0
 62
     0
 66
     1
 10
0
 20
0
 30
0.0
 70
     1
 40
0.72
 41
0.72
  0
VERTEX
  8
0
 10
2.72999
 20
7.57497
 30
0.0
 40
0.01
 41
0.01
  0
VERTEX
  8
0
 10
2.69667
 20
7.61003
 30
0.0
 40
0.01
 41
0.01
  0
VERTEX
  8
0
 10
2.72999
 20
7.57497
 30
0.0
 40
0.01
 41
0.01
  0
SEQEND
 8
0
  0
POLYLINE
  8
0
 62
     0
 66
     1
 10
0
 20
0
 30
0.0
 70
     1
 40
0.72
 41
0.72
  0
VERTEX
  8
0
 10
2.55664
 20
7.57497
 30
0.0
 40
0.01
 41
0.01
  0
VERTEX
  8
0
 10
2.59169
 20
7.57497
 30
0.0
 40
0.01
 41
0.01
  0
VERTEX
  8
0
 10
2.55664
 20
7.57497
 30
0.0
 40
0.01
 41
0.01
  0
SEQEND
 8
0
  0
POLYLINE
  8
0
 62
     0
 66
     1
 10
0
 20
0
 30
0.0
 70
     1
 40
0.72
 41
0.72
  0
VERTEX
  8
0
 10
2.59169
 20
7.57497
 30
0.0
 40
0.01
 41
0.01
  0
VERTEX
  8
0
 10
2.62668
 20
7.61003
 30
0.0
 40
0.01
 41
0.01
  0
VERTEX
  8
0
 10
2.59169
 20
7.57497
 30
0.0
 40
0.01
 41
0.01
  0
SEQEND
 8
0
  0
POLYLINE
  8
0
 62
     0
 66
     1
 10
0
 20
0
 30
0.0
 70
     1
 40
0.72
 41
0.72
  0
VERTEX
  8
0
 10
2.62668
 20
7.61003
 30
0.0
 40
0.01
 41
0.01
  0
VERTEX
  8
0
 10
2.62668
 20
7.74832
 30
0.0
 40
0.01
 41
0.01
  0
VERTEX
  8
0
 10
2.62668
 20
7.61003
 30
0.0
 40
0.01
 41
0.01
  0
SEQEND
 8
0
  0
POLYLINE
  8
0
 62
     0
 66
     1
 10
0
 20
0
 30
0.0
 70
     1
 40
0.72
 41
0.72
  0
VERTEX
  8
0
 10
2.62668
 20
7.74832
 30
0.0
 40
0.01
 41
0.01
  0
VERTEX
  8
0
 10
2.59169
 20
7.78331
 30
0.0
 40
0.01
 41
0.01
  0
VERTEX
  8
0
 10
2.62668
 20
7.74832
 30
0.0
 40
0.01
 41
0.01
  0
SEQEND
 8
0
  0
POLYLINE
  8
0
 62
     0
 66
     1
 10
0
 20
0
 30
0.0
 70
     1
 40
0.72
 41
0.72
  0
VERTEX
  8
0
 10
2.59169
 20
7.78331
 30
0.0
 40
0.01
 41
0.01
  0
VERTEX
  8
0
 10
2.55664
 20
7.78331
 30
0.0
 40
0.01
 41
0.01
  0
VERTEX
  8
0
 10
2.59169
 20
7.78331
 30
0.0
 40
0.01
 41
0.01
  0
SEQEND
 8
0
  0
POLYLINE
  8
0
 62
     0
 66
     1
 10
0
 20
0
 30
0.0
 70
     1
 40
0.72
 41
0.72
  0
VERTEX
  8
0
 10
2.55664
 20
7.78331
 30
0.0
 40
0.01
 41
0.01
  0
VERTEX
  8
0
 10
2.52333
 20
7.74832
 30
0.0
 40
0.01
 41
0.01
  0
VERTEX
  8
0
 10
2.55664
 20
7.78331
 30
0.0
 40
0.01
 41
0.01
  0
SEQEND
 8
0
  0
POLYLINE
  8
0
 62
     0
 66
     1
 10
0
 20
0
 30
0.0
 70
     1
 40
0.72
 41
0.72
  0
VERTEX
  8
0
 10
2.52333
 20
7.74832
 30
0.0
 40
0.01
 41
0.01
  0
VERTEX
  8
0
 10
2.52333
 20
7.61003
 30
0.0
 40
0.01
 41
0.01
  0
VERTEX
  8
0
 10
2.52333
 20
7.74832
 30
0.0
 40
0.01
 41
0.01
  0
SEQEND
 8
0
  0
POLYLINE
  8
0
 62
     0
 66
     1
 10
0
 20
0
 30
0.0
 70
     1
 40
0.72
 41
0.72
  0
VERTEX
  8
0
 10
2.52333
 20
7.61003
 30
0.0
 40
0.01
 41
0.01
  0
VERTEX
  8
0
 10
2.55664
 20
7.57497
 30
0.0
 40
0.01
 41
0.01
  0
VERTEX
  8
0
 10
2.52333
 20
7.61003
 30
0.0
 40
0.01
 41
0.01
  0
SEQEND
 8
0
  0
POLYLINE
  8
0
 62
     0
 66
     1
 10
0
 20
0
 30
0.0
 70
     1
 40
0.72
 41
0.72
  0
VERTEX
  8
0
 10
2.34999
 20
7.57497
 30
0.0
 40
0.01
 41
0.01
  0
VERTEX
  8
0
 10
2.41835
 20
7.57497
 30
0.0
 40
0.01
 41
0.01
  0
VERTEX
  8
0
 10
2.34999
 20
7.57497
 30
0.0
 40
0.01
 41
0.01
  0
SEQEND
 8
0
  0
POLYLINE
  8
0
 62
     0
 66
     1
 10
0
 20
0
 30
0.0
 70
     1
 40
0.72
 41
0.72
  0
VERTEX
  8
0
 10
2.41835
 20
7.57497
 30
0.0
 40
0.01
 41
0.01
  0
VERTEX
  8
0
 10
2.45335
 20
7.61003
 30
0.0
 40
0.01
 41
0.01
  0
VERTEX
  8
0
 10
2.41835
 20
7.57497
 30
0.0
 40
0.01
 41
0.01
  0
SEQEND
 8
0
  0
POLYLINE
  8
0
 62
     0
 66
     1
 10
0
 20
0
 30
0.0
 70
     1
 40
0.72
 41
0.72
  0
VERTEX
  8
0
 10
2.45335
 20
7.61003
 30
0.0
 40
0.01
 41
0.01
  0
VERTEX
  8
0
 10
2.45335
 20
7.64501
 30
0.0
 40
0.01
 41
0.01
  0
VERTEX
  8
0
 10
2.45335
 20
7.61003
 30
0.0
 40
0.01
 41
0.01
  0
SEQEND
 8
0
  0
POLYLINE
  8
0
 62
     0
 66
     1
 10
0
 20
0
 30
0.0
 70
     1
 40
0.72
 41
0.72
  0
VERTEX
  8
0
 10
2.45335
 20
7.64501
 30
0.0
 40
0.01
 41
0.01
  0
VERTEX
  8
0
 10
2.41835
 20
7.68001
 30
0.0
 40
0.01
 41
0.01
  0
VERTEX
  8
0
 10
2.45335
 20
7.64501
 30
0.0
 40
0.01
 41
0.01
  0
SEQEND
 8
0
  0
POLYLINE
  8
0
 62
     0
 66
     1
 10
0
 20
0
 30
0.0
 70
     1
 40
0.72
 41
0.72
  0
VERTEX
  8
0
 10
2.34999
 20
7.68001
 30
0.0
 40
0.01
 41
0.01
  0
VERTEX
  8
0
 10
2.315
 20
7.715
 30
0.0
 40
0.01
 41
0.01
  0
VERTEX
  8
0
 10
2.34999
 20
7.68001
 30
0.0
 40
0.01
 41
0.01
  0
SEQEND
 8
0
  0
POLYLINE
  8
0
 62
     0
 66
     1
 10
0
 20
0
 30
0.0
 70
     1
 40
0.72
 41
0.72
  0
VERTEX
  8
0
 10
2.315
 20
7.715
 30
0.0
 40
0.01
 41
0.01
  0
VERTEX
  8
0
 10
2.315
 20
7.74832
 30
0.0
 40
0.01
 41
0.01
  0
VERTEX
  8
0
 10
2.315
 20
7.715
 30
0.0
 40
0.01
 41
0.01
  0
SEQEND
 8
0
  0
POLYLINE
  8
0
 62
     0
 66
     1
 10
0
 20
0
 30
0.0
 70
     1
 40
0.72
 41
0.72
  0
VERTEX
  8
0
 10
2.315
 20
7.74832
 30
0.0
 40
0.01
 41
0.01
  0
VERTEX
  8
0
 10
2.34999
 20
7.78331
 30
0.0
 40
0.01
 41
0.01
  0
VERTEX
  8
0
 10
2.315
 20
7.74832
 30
0.0
 40
0.01
 41
0.01
  0
SEQEND
 8
0
  0
POLYLINE
  8
0
 62
     0
 66
     1
 10
0
 20
0
 30
0.0
 70
     1
 40
0.72
 41
0.72
  0
VERTEX
  8
0
 10
2.34999
 20
7.78331
 30
0.0
 40
0.01
 41
0.01
  0
VERTEX
  8
0
 10
2.41835
 20
7.78331
 30
0.0
 40
0.01
 41
0.01
  0
VERTEX
  8
0
 10
2.34999
 20
7.78331
 30
0.0
 40
0.01
 41
0.01
  0
SEQEND
 8
0
  0
POLYLINE
  8
0
 62
     0
 66
     1
 10
0
 20
0
 30
0.0
 70
     1
 40
0.72
 41
0.72
  0
VERTEX
  8
0
 10
2.41835
 20
7.78331
 30
0.0
 40
0.01
 41
0.01
  0
VERTEX
  8
0
 10
2.45335
 20
7.74832
 30
0.0
 40
0.01
 41
0.01
  0
VERTEX
  8
0
 10
2.41835
 20
7.78331
 30
0.0
 40
0.01
 41
0.01
  0
SEQEND
 8
0
  0
POLYLINE
  8
0
 62
     0
 66
     1
 10
0
 20
0
 30
0.0
 70
     1
 40
0.72
 41
0.72
  0
VERTEX
  8
0
 10
2.45335
 20
7.74832
 30
0.0
 40
0.01
 41
0.01
  0
VERTEX
  8
0
 10
2.45335
 20
7.715
 30
0.0
 40
0.01
 41
0.01
  0
VERTEX
  8
0
 10
2.45335
 20
7.74832
 30
0.0
 40
0.01
 41
0.01
  0
SEQEND
 8
0
  0
POLYLINE
  8
0
 62
     0
 66
     1
 10
0
 20
0
 30
0.0
 70
     1
 40
0.72
 41
0.72
  0
VERTEX
  8
0
 10
2.45335
 20
7.715
 30
0.0
 40
0.01
 41
0.01
  0
VERTEX
  8
0
 10
2.41835
 20
7.68001
 30
0.0
 40
0.01
 41
0.01
  0
VERTEX
  8
0
 10
2.45335
 20
7.715
 30
0.0
 40
0.01
 41
0.01
  0
SEQEND
 8
0
  0
POLYLINE
  8
0
 62
     0
 66
     1
 10
0
 20
0
 30
0.0
 70
     1
 40
0.72
 41
0.72
  0
VERTEX
  8
0
 10
2.41835
 20
7.68001
 30
0.0
 40
0.01
 41
0.01
  0
VERTEX
  8
0
 10
2.34999
 20
7.68001
 30
0.0
 40
0.01
 41
0.01
  0
VERTEX
  8
0
 10
2.41835
 20
7.68001
 30
0.0
 40
0.01
 41
0.01
  0
SEQEND
 8
0
  0
POLYLINE
  8
0
 62
     0
 66
     1
 10
0
 20
0
 30
0.0
 70
     1
 40
0.72
 41
0.72
  0
VERTEX
  8
0
 10
2.34999
 20
7.68001
 30
0.0
 40
0.01
 41
0.01
  0
VERTEX
  8
0
 10
2.315
 20
7.64501
 30
0.0
 40
0.01
 41
0.01
  0
VERTEX
  8
0
 10
2.34999
 20
7.68001
 30
0.0
 40
0.01
 41
0.01
  0
SEQEND
 8
0
  0
POLYLINE
  8
0
 62
     0
 66
     1
 10
0
 20
0
 30
0.0
 70
     1
 40
0.72
 41
0.72
  0
VERTEX
  8
0
 10
2.315
 20
7.64501
 30
0.0
 40
0.01
 41
0.01
  0
VERTEX
  8
0
 10
2.315
 20
7.61003
 30
0.0
 40
0.01
 41
0.01
  0
VERTEX
  8
0
 10
2.315
 20
7.64501
 30
0.0
 40
0.01
 41
0.01
  0
SEQEND
 8
0
  0
POLYLINE
  8
0
 62
     0
 66
     1
 10
0
 20
0
 30
0.0
 70
     1
 40
0.72
 41
0.72
  0
VERTEX
  8
0
 10
2.315
 20
7.61003
 30
0.0
 40
0.01
 41
0.01
  0
VERTEX
  8
0
 10
2.34999
 20
7.57497
 30
0.0
 40
0.01
 41
0.01
  0
VERTEX
  8
0
 10
2.315
 20
7.61003
 30
0.0
 40
0.01
 41
0.01
  0
SEQEND
 8
0
  0
POLYLINE
  8
0
 62
     0
 66
     1
 10
0
 20
0
 30
0.0
 70
     1
 40
0.72
 41
0.72
  0
VERTEX
  8
0
 10
2.17665
 20
7.57497
 30
0.0
 40
0.01
 41
0.01
  0
VERTEX
  8
0
 10
2.21001
 20
7.57497
 30
0.0
 40
0.01
 41
0.01
  0
VERTEX
  8
0
 10
2.17665
 20
7.57497
 30
0.0
 40
0.01
 41
0.01
  0
SEQEND
 8
0
  0
POLYLINE
  8
0
 62
     0
 66
     1
 10
0
 20
0
 30
0.0
 70
     1
 40
0.72
 41
0.72
  0
VERTEX
  8
0
 10
2.21001
 20
7.57497
 30
0.0
 40
0.01
 41
0.01
  0
VERTEX
  8
0
 10
2.24501
 20
7.61003
 30
0.0
 40
0.01
 41
0.01
  0
VERTEX
  8
0
 10
2.21001
 20
7.57497
 30
0.0
 40
0.01
 41
0.01
  0
SEQEND
 8
0
  0
POLYLINE
  8
0
 62
     0
 66
     1
 10
0
 20
0
 30
0.0
 70
     1
 40
0.72
 41
0.72
  0
VERTEX
  8
0
 10
2.24501
 20
7.61003
 30
0.0
 40
0.01
 41
0.01
  0
VERTEX
  8
0
 10
2.24501
 20
7.74832
 30
0.0
 40
0.01
 41
0.01
  0
VERTEX
  8
0
 10
2.24501
 20
7.61003
 30
0.0
 40
0.01
 41
0.01
  0
SEQEND
 8
0
  0
POLYLINE
  8
0
 62
     0
 66
     1
 10
0
 20
0
 30
0.0
 70
     1
 40
0.72
 41
0.72
  0
VERTEX
  8
0
 10
2.24501
 20
7.74832
 30
0.0
 40
0.01
 41
0.01
  0
VERTEX
  8
0
 10
2.21001
 20
7.78331
 30
0.0
 40
0.01
 41
0.01
  0
VERTEX
  8
0
 10
2.24501
 20
7.74832
 30
0.0
 40
0.01
 41
0.01
  0
SEQEND
 8
0
  0
POLYLINE
  8
0
 62
     0
 66
     1
 10
0
 20
0
 30
0.0
 70
     1
 40
0.72
 41
0.72
  0
VERTEX
  8
0
 10
2.21001
 20
7.78331
 30
0.0
 40
0.01
 41
0.01
  0
VERTEX
  8
0
 10
2.17665
 20
7.78331
 30
0.0
 40
0.01
 41
0.01
  0
VERTEX
  8
0
 10
2.21001
 20
7.78331
 30
0.0
 40
0.01
 41
0.01
  0
SEQEND
 8
0
  0
POLYLINE
  8
0
 62
     0
 66
     1
 10
0
 20
0
 30
0.0
 70
     1
 40
0.72
 41
0.72
  0
VERTEX
  8
0
 10
2.17665
 20
7.78331
 30
0.0
 40
0.01
 41
0.01
  0
VERTEX
  8
0
 10
2.14165
 20
7.74832
 30
0.0
 40
0.01
 41
0.01
  0
VERTEX
  8
0
 10
2.17665
 20
7.78331
 30
0.0
 40
0.01
 41
0.01
  0
SEQEND
 8
0
  0
POLYLINE
  8
0
 62
     0
 66
     1
 10
0
 20
0
 30
0.0
 70
     1
 40
0.72
 41
0.72
  0
VERTEX
  8
0
 10
2.14165
 20
7.74832
 30
0.0
 40
0.01
 41
0.01
  0
VERTEX
  8
0
 10
2.14165
 20
7.61003
 30
0.0
 40
0.01
 41
0.01
  0
VERTEX
  8
0
 10
2.14165
 20
7.74832
 30
0.0
 40
0.01
 41
0.01
  0
SEQEND
 8
0
  0
POLYLINE
  8
0
 62
     0
 66
     1
 10
0
 20
0
 30
0.0
 70
     1
 40
0.72
 41
0.72
  0
VERTEX
  8
0
 10
2.14165
 20
7.61003
 30
0.0
 40
0.01
 41
0.01
  0
VERTEX
  8
0
 10
2.17665
 20
7.57497
 30
0.0
 40
0.01
 41
0.01
  0
VERTEX
  8
0
 10
2.14165
 20
7.61003
 30
0.0
 40
0.01
 41
0.01
  0
SEQEND
 8
0
  0
POLYLINE
  8
0
 62
     0
 66
     1
 10
0
 20
0
 30
0.0
 70
     1
 40
0.72
 41
0.72
  0
VERTEX
  8
0
 10
2.07167
 20
7.57497
 30
0.0
 40
0.01
 41
0.01
  0
VERTEX
  8
0
 10
1.93332
 20
7.57497
 30
0.0
 40
0.01
 41
0.01
  0
VERTEX
  8
0
 10
2.07167
 20
7.57497
 30
0.0
 40
0.01
 41
0.01
  0
SEQEND
 8
0
  0
POLYLINE
  8
0
 62
     0
 66
     1
 10
0
 20
0
 30
0.0
 70
     1
 40
0.72
 41
0.72
  0
VERTEX
  8
0
 10
1.93332
 20
7.57497
 30
0.0
 40
0.01
 41
0.01
  0
VERTEX
  8
0
 10
1.93332
 20
7.64501
 30
0.0
 40
0.01
 41
0.01
  0
VERTEX
  8
0
 10
1.93332
 20
7.57497
 30
0.0
 40
0.01
 41
0.01
  0
SEQEND
 8
0
  0
POLYLINE
  8
0
 62
     0
 66
     1
 10
0
 20
0
 30
0.0
 70
     1
 40
0.72
 41
0.72
  0
VERTEX
  8
0
 10
1.93332
 20
7.64501
 30
0.0
 40
0.01
 41
0.01
  0
VERTEX
  8
0
 10
1.96832
 20
7.68001
 30
0.0
 40
0.01
 41
0.01
  0
VERTEX
  8
0
 10
1.93332
 20
7.64501
 30
0.0
 40
0.01
 41
0.01
  0
SEQEND
 8
0
  0
POLYLINE
  8
0
 62
     0
 66
     1
 10
0
 20
0
 30
0.0
 70
     1
 40
0.72
 41
0.72
  0
VERTEX
  8
0
 10
1.96832
 20
7.68001
 30
0.0
 40
0.01
 41
0.01
  0
VERTEX
  8
0
 10
2.03668
 20
7.68001
 30
0.0
 40
0.01
 41
0.01
  0
VERTEX
  8
0
 10
1.96832
 20
7.68001
 30
0.0
 40
0.01
 41
0.01
  0
SEQEND
 8
0
  0
POLYLINE
  8
0
 62
     0
 66
     1
 10
0
 20
0
 30
0.0
 70
     1
 40
0.72
 41
0.72
  0
VERTEX
  8
0
 10
2.03668
 20
7.68001
 30
0.0
 40
0.01
 41
0.01
  0
VERTEX
  8
0
 10
2.07167
 20
7.715
 30
0.0
 40
0.01
 41
0.01
  0
VERTEX
  8
0
 10
2.03668
 20
7.68001
 30
0.0
 40
0.01
 41
0.01
  0
SEQEND
 8
0
  0
POLYLINE
  8
0
 62
     0
 66
     1
 10
0
 20
0
 30
0.0
 70
     1
 40
0.72
 41
0.72
  0
VERTEX
  8
0
 10
2.07167
 20
7.715
 30
0.0
 40
0.01
 41
0.01
  0
VERTEX
  8
0
 10
2.07167
 20
7.74832
 30
0.0
 40
0.01
 41
0.01
  0
VERTEX
  8
0
 10
2.07167
 20
7.715
 30
0.0
 40
0.01
 41
0.01
  0
SEQEND
 8
0
  0
POLYLINE
  8
0
 62
     0
 66
     1
 10
0
 20
0
 30
0.0
 70
     1
 40
0.72
 41
0.72
  0
VERTEX
  8
0
 10
2.07167
 20
7.74832
 30
0.0
 40
0.01
 41
0.01
  0
VERTEX
  8
0
 10
2.03668
 20
7.78331
 30
0.0
 40
0.01
 41
0.01
  0
VERTEX
  8
0
 10
2.07167
 20
7.74832
 30
0.0
 40
0.01
 41
0.01
  0
SEQEND
 8
0
  0
POLYLINE
  8
0
 62
     0
 66
     1
 10
0
 20
0
 30
0.0
 70
     1
 40
0.72
 41
0.72
  0
VERTEX
  8
0
 10
2.03668
 20
7.78331
 30
0.0
 40
0.01
 41
0.01
  0
VERTEX
  8
0
 10
1.96832
 20
7.78331
 30
0.0
 40
0.01
 41
0.01
  0
VERTEX
  8
0
 10
2.03668
 20
7.78331
 30
0.0
 40
0.01
 41
0.01
  0
SEQEND
 8
0
  0
POLYLINE
  8
0
 62
     0
 66
     1
 10
0
 20
0
 30
0.0
 70
     1
 40
0.72
 41
0.72
  0
VERTEX
  8
0
 10
1.96832
 20
7.78331
 30
0.0
 40
0.01
 41
0.01
  0
VERTEX
  8
0
 10
1.93332
 20
7.74832
 30
0.0
 40
0.01
 41
0.01
  0
VERTEX
  8
0
 10
1.96832
 20
7.78331
 30
0.0
 40
0.01
 41
0.01
  0
SEQEND
 8
0
  0
ENDSEC
  0
EOF
