  0
SECTION
  2
HEADER
  9
$ACADVER
  1
AC1009
  9
$FILLMODE
 70
 0
  9
$SPLFRAME
 70
 1
  9
$EXTMIN
 10
0
 20
0
 30
0.0
  9
$EXTMAX
 10
41.6667
 20
41.6667
 30
0.0
  0
ENDSEC
  0
SECTION
  2
TABLES
  0
TABLE
  2
LAYER
 70
1
  0
LAYER
  2
0
 70
     0
 62
     7
  6
CONTINUOUS
  0
ENDTAB
  0
ENDSEC
  0
SECTION
  2
ENTITIES
  0
POLYLINE
  8
0
 62
     0
 66
     1
 10
0
 20
0
 30
0.0
 40
0.72
 41
0.72
  0
VERTEX
  8
0
 10
7.24164
 20
9.27336
 30
0.0
 40
0.01
 41
0.01
  0
VERTEX
  8
0
 10
7.29497
 20
9.22003
 30
0.0
 40
0.01
 41
0.01
  0
VERTEX
  8
0
 10
7.29497
 20
9.11499
 30
0.0
 40
0.01
 41
0.01
  0
VERTEX
  8
0
 10
7.24164
 20
9.06167
 30
0.0
 40
0.01
 41
0.01
  0
VERTEX
  8
0
 10
7.18832
 20
9.06167
 30
0.0
 40
0.01
 41
0.01
  0
VERTEX
  8
0
 10
7.13499
 20
9.11499
 30
0.0
 40
0.01
 41
0.01
  0
VERTEX
  8
0
 10
7.13499
 20
9.22003
 30
0.0
 40
0.01
 41
0.01
  0
VERTEX
  8
0
 10
7.08165
 20
9.27336
 30
0.0
 40
0.01
 41
0.01
  0
VERTEX
  8
0
 10
6.97667
 20
9.27336
 30
0.0
 40
0.01
 41
0.01
  0
VERTEX
  8
0
 10
6.97667
 20
9.06167
 30
0.0
 40
0.01
 41
0.01
  0
SEQEND
 8
0
  0
POLYLINE
  8
0
 62
     0
 66
     1
 10
0
 20
0
 30
0.0
 70
     1
 40
0.72
 41
0.72
  0
VERTEX
  8
0
 10
6.97667
 20
8.90167
 30
0.0
 40
0.01
 41
0.01
  0
VERTEX
  8
0
 10
7.02832
 20
8.955
 30
0.0
 40
0.01
 41
0.01
  0
VERTEX
  8
0
 10
7.24164
 20
8.955
 30
0.0
 40
0.01
 41
0.01
  0
VERTEX
  8
0
 10
7.29497
 20
8.90167
 30
0.0
 40
0.01
 41
0.01
  0
VERTEX
  8
0
 10
7.29497
 20
8.85001
 30
0.0
 40
0.01
 41
0.01
  0
VERTEX
  8
0
 10
7.24164
 20
8.79668
 30
0.0
 40
0.01
 41
0.01
  0
VERTEX
  8
0
 10
7.02832
 20
8.79668
 30
0.0
 40
0.01
 41
0.01
  0
VERTEX
  8
0
 10
6.97667
 20
8.85001
 30
0.0
 40
0.01
 41
0.01
  0
VERTEX
  8
0
 10
6.97667
 20
8.90167
 30
0.0
 40
0.01
 41
0.01
  0
SEQEND
 8
0
  0
POLYLINE
  8
0
 62
     0
 66
     1
 10
0
 20
0
 30
0.0
 40
0.72
 41
0.72
  0
VERTEX
  8
0
 10
6.97667
 20
8.63669
 30
0.0
 40
0.01
 41
0.01
  0
VERTEX
  8
0
 10
7.02832
 20
8.69003
 30
0.0
 40
0.01
 41
0.01
  0
VERTEX
  8
0
 10
7.08165
 20
8.69003
 30
0.0
 40
0.01
 41
0.01
  0
VERTEX
  8
0
 10
7.13499
 20
8.63669
 30
0.0
 40
0.01
 41
0.01
  0
VERTEX
  8
0
 10
7.13499
 20
8.52997
 30
0.0
 40
0.01
 41
0.01
  0
VERTEX
  8
0
 10
7.18832
 20
8.47833
 30
0.0
 40
0.01
 41
0.01
  0
VERTEX
  8
0
 10
7.24164
 20
8.47833
 30
0.0
 40
0.01
 41
0.01
  0
VERTEX
  8
0
 10
7.29497
 20
8.52997
 30
0.0
 40
0.01
 41
0.01
  0
VERTEX
  8
0
 10
7.29497
 20
8.63669
 30
0.0
 40
0.01
 41
0.01
  0
VERTEX
  8
0
 10
7.24164
 20
8.69003
 30
0.0
 40
0.01
 41
0.01
  0
VERTEX
  8
0
 10
7.18832
 20
8.69003
 30
0.0
 40
0.01
 41
0.01
  0
VERTEX
  8
0
 10
7.13499
 20
8.63669
 30
0.0
 40
0.01
 41
0.01
  0
SEQEND
 8
0
  0
POLYLINE
  8
0
 62
     0
 66
     1
 10
0
 20
0
 30
0.0
 40
0.72
 41
0.72
  0
VERTEX
  8
0
 10
7.13499
 20
8.52997
 30
0.0
 40
0.01
 41
0.01
  0
VERTEX
  8
0
 10
7.08165
 20
8.47833
 30
0.0
 40
0.01
 41
0.01
  0
VERTEX
  8
0
 10
7.02832
 20
8.47833
 30
0.0
 40
0.01
 41
0.01
  0
VERTEX
  8
0
 10
6.97667
 20
8.52997
 30
0.0
 40
0.01
 41
0.01
  0
VERTEX
  8
0
 10
6.97667
 20
8.63669
 30
0.0
 40
0.01
 41
0.01
  0
SEQEND
 8
0
  0
POLYLINE
  8
0
 62
     0
 66
     1
 10
0
 20
0
 30
0.0
 70
     1
 40
0.72
 41
0.72
  0
VERTEX
  8
0
 10
6.97667
 20
8.31833
 30
0.0
 40
0.01
 41
0.01
  0
VERTEX
  8
0
 10
7.02832
 20
8.37167
 30
0.0
 40
0.01
 41
0.01
  0
VERTEX
  8
0
 10
7.24164
 20
8.37167
 30
0.0
 40
0.01
 41
0.01
  0
VERTEX
  8
0
 10
7.29497
 20
8.31833
 30
0.0
 40
0.01
 41
0.01
  0
VERTEX
  8
0
 10
7.29497
 20
8.265
 30
0.0
 40
0.01
 41
0.01
  0
VERTEX
  8
0
 10
7.24164
 20
8.21167
 30
0.0
 40
0.01
 41
0.01
  0
VERTEX
  8
0
 10
7.02832
 20
8.21167
 30
0.0
 40
0.01
 41
0.01
  0
VERTEX
  8
0
 10
6.97667
 20
8.265
 30
0.0
 40
0.01
 41
0.01
  0
VERTEX
  8
0
 10
6.97667
 20
8.31833
 30
0.0
 40
0.01
 41
0.01
  0
SEQEND
 8
0
  0
POLYLINE
  8
0
 62
     0
 66
     1
 10
0
 20
0
 30
0.0
 40
0.72
 41
0.72
  0
VERTEX
  8
0
 10
7.24164
 20
8.10669
 30
0.0
 40
0.01
 41
0.01
  0
VERTEX
  8
0
 10
7.29497
 20
8.05336
 30
0.0
 40
0.01
 41
0.01
  0
VERTEX
  8
0
 10
6.97667
 20
8.05336
 30
0.0
 40
0.01
 41
0.01
  0
SEQEND
 8
0
  0
POLYLINE
  8
0
 62
     0
 66
     1
 10
0
 20
0
 30
0.0
 40
0.72
 41
0.72
  0
VERTEX
  8
0
 10
6.97667
 20
8.10669
 30
0.0
 40
0.01
 41
0.01
  0
VERTEX
  8
0
 10
6.97667
 20
7.99997
 30
0.0
 40
0.01
 41
0.01
  0
SEQEND
 8
0
  0
POLYLINE
  8
0
 62
     0
 66
     1
 10
0
 20
0
 30
0.0
 40
0.72
 41
0.72
  0
VERTEX
  8
0
 10
7.24164
 20
7.89331
 30
0.0
 40
0.01
 41
0.01
  0
VERTEX
  8
0
 10
7.29497
 20
7.83999
 30
0.0
 40
0.01
 41
0.01
  0
VERTEX
  8
0
 10
6.97667
 20
7.83999
 30
0.0
 40
0.01
 41
0.01
  0
SEQEND
 8
0
  0
POLYLINE
  8
0
 62
     0
 66
     1
 10
0
 20
0
 30
0.0
 40
0.72
 41
0.72
  0
VERTEX
  8
0
 10
6.97667
 20
7.89331
 30
0.0
 40
0.01
 41
0.01
  0
VERTEX
  8
0
 10
6.97667
 20
7.78833
 30
0.0
 40
0.01
 41
0.01
  0
SEQEND
 8
0
  0
POLYLINE
  8
0
 62
     0
 66
     1
 10
0
 20
0
 30
0.0
 40
0.72
 41
0.72
  0
VERTEX
  8
0
 10
6.87001
 20
7.68167
 30
0.0
 40
0.01
 41
0.01
  0
VERTEX
  8
0
 10
7.18832
 20
7.68167
 30
0.0
 40
0.01
 41
0.01
  0
SEQEND
 8
0
  0
POLYLINE
  8
0
 62
     0
 66
     1
 10
0
 20
0
 30
0.0
 40
0.72
 41
0.72
  0
VERTEX
  8
0
 10
7.13499
 20
7.68167
 30
0.0
 40
0.01
 41
0.01
  0
VERTEX
  8
0
 10
7.18832
 20
7.62833
 30
0.0
 40
0.01
 41
0.01
  0
VERTEX
  8
0
 10
7.18832
 20
7.52168
 30
0.0
 40
0.01
 41
0.01
  0
VERTEX
  8
0
 10
7.13499
 20
7.47003
 30
0.0
 40
0.01
 41
0.01
  0
VERTEX
  8
0
 10
7.02832
 20
7.47003
 30
0.0
 40
0.01
 41
0.01
  0
VERTEX
  8
0
 10
6.97667
 20
7.52168
 30
0.0
 40
0.01
 41
0.01
  0
VERTEX
  8
0
 10
6.97667
 20
7.68167
 30
0.0
 40
0.01
 41
0.01
  0
SEQEND
 8
0
  0
POLYLINE
  8
0
 62
     0
 66
     1
 10
0
 20
0
 30
0.0
 40
0.72
 41
0.72
  0
VERTEX
  8
0
 10
7.29497
 20
7.36331
 30
0.0
 40
0.01
 41
0.01
  0
VERTEX
  8
0
 10
7.02832
 20
7.36331
 30
0.0
 40
0.01
 41
0.01
  0
VERTEX
  8
0
 10
6.97667
 20
7.30997
 30
0.0
 40
0.01
 41
0.01
  0
SEQEND
 8
0
  0
POLYLINE
  8
0
 62
     0
 66
     1
 10
0
 20
0
 30
0.0
 40
0.72
 41
0.72
  0
VERTEX
  8
0
 10
7.18832
 20
7.20332
 30
0.0
 40
0.01
 41
0.01
  0
VERTEX
  8
0
 10
7.02832
 20
7.20332
 30
0.0
 40
0.01
 41
0.01
  0
VERTEX
  8
0
 10
6.97667
 20
7.14999
 30
0.0
 40
0.01
 41
0.01
  0
VERTEX
  8
0
 10
6.97667
 20
7.09833
 30
0.0
 40
0.01
 41
0.01
  0
VERTEX
  8
0
 10
7.08165
 20
6.99167
 30
0.0
 40
0.01
 41
0.01
  0
SEQEND
 8
0
  0
POLYLINE
  8
0
 62
     0
 66
     1
 10
0
 20
0
 30
0.0
 40
0.72
 41
0.72
  0
VERTEX
  8
0
 10
7.18832
 20
6.99167
 30
0.0
 40
0.01
 41
0.01
  0
VERTEX
  8
0
 10
6.97667
 20
6.99167
 30
0.0
 40
0.01
 41
0.01
  0
SEQEND
 8
0
  0
POLYLINE
  8
0
 62
     0
 66
     1
 10
0
 20
0
 30
0.0
 40
0.72
 41
0.72
  0
VERTEX
  8
0
 10
6.97667
 20
6.88501
 30
0.0
 40
0.01
 41
0.01
  0
VERTEX
  8
0
 10
6.97667
 20
6.72664
 30
0.0
 40
0.01
 41
0.01
  0
VERTEX
  8
0
 10
7.02832
 20
6.67332
 30
0.0
 40
0.01
 41
0.01
  0
VERTEX
  8
0
 10
7.08165
 20
6.72664
 30
0.0
 40
0.01
 41
0.01
  0
VERTEX
  8
0
 10
7.08165
 20
6.83168
 30
0.0
 40
0.01
 41
0.01
  0
VERTEX
  8
0
 10
7.13499
 20
6.88501
 30
0.0
 40
0.01
 41
0.01
  0
VERTEX
  8
0
 10
7.18832
 20
6.83168
 30
0.0
 40
0.01
 41
0.01
  0
VERTEX
  8
0
 10
7.18832
 20
6.67332
 30
0.0
 40
0.01
 41
0.01
  0
SEQEND
 8
0
  0
POLYLINE
  8
0
 62
     0
 66
     1
 10
0
 20
0
 30
0.0
 40
0.72
 41
0.72
  0
VERTEX
  8
0
 10
7.29497
 20
6.24835
 30
0.0
 40
0.01
 41
0.01
  0
VERTEX
  8
0
 10
7.29497
 20
6.03665
 30
0.0
 40
0.01
 41
0.01
  0
SEQEND
 8
0
  0
POLYLINE
  8
0
 62
     0
 66
     1
 10
0
 20
0
 30
0.0
 40
0.72
 41
0.72
  0
VERTEX
  8
0
 10
7.29497
 20
6.14168
 30
0.0
 40
0.01
 41
0.01
  0
VERTEX
  8
0
 10
6.97667
 20
6.14168
 30
0.0
 40
0.01
 41
0.01
  0
SEQEND
 8
0
  0
POLYLINE
  8
0
 62
     0
 66
     1
 10
0
 20
0
 30
0.0
 40
0.72
 41
0.72
  0
VERTEX
  8
0
 10
6.97667
 20
5.92999
 30
0.0
 40
0.01
 41
0.01
  0
VERTEX
  8
0
 10
7.29497
 20
5.92999
 30
0.0
 40
0.01
 41
0.01
  0
VERTEX
  8
0
 10
7.29497
 20
5.71835
 30
0.0
 40
0.01
 41
0.01
  0
SEQEND
 8
0
  0
POLYLINE
  8
0
 62
     0
 66
     1
 10
0
 20
0
 30
0.0
 40
0.72
 41
0.72
  0
VERTEX
  8
0
 10
7.13499
 20
5.92999
 30
0.0
 40
0.01
 41
0.01
  0
VERTEX
  8
0
 10
7.13499
 20
5.82332
 30
0.0
 40
0.01
 41
0.01
  0
SEQEND
 8
0
  0
POLYLINE
  8
0
 62
     0
 66
     1
 10
0
 20
0
 30
0.0
 40
0.72
 41
0.72
  0
VERTEX
  8
0
 10
6.97667
 20
5.92999
 30
0.0
 40
0.01
 41
0.01
  0
VERTEX
  8
0
 10
6.97667
 20
5.71835
 30
0.0
 40
0.01
 41
0.01
  0
SEQEND
 8
0
  0
POLYLINE
  8
0
 62
     0
 66
     1
 10
0
 20
0
 30
0.0
 40
0.72
 41
0.72
  0
VERTEX
  8
0
 10
6.97667
 20
5.61168
 30
0.0
 40
0.01
 41
0.01
  0
VERTEX
  8
0
 10
7.29497
 20
5.61168
 30
0.0
 40
0.01
 41
0.01
  0
VERTEX
  8
0
 10
7.08165
 20
5.50501
 30
0.0
 40
0.01
 41
0.01
  0
VERTEX
  8
0
 10
7.29497
 20
5.39836
 30
0.0
 40
0.01
 41
0.01
  0
VERTEX
  8
0
 10
6.97667
 20
5.39836
 30
0.0
 40
0.01
 41
0.01
  0
SEQEND
 8
0
  0
POLYLINE
  8
0
 62
     0
 66
     1
 10
0
 20
0
 30
0.0
 40
0.72
 41
0.72
  0
VERTEX
  8
0
 10
6.97667
 20
5.29332
 30
0.0
 40
0.01
 41
0.01
  0
VERTEX
  8
0
 10
7.29497
 20
5.29332
 30
0.0
 40
0.01
 41
0.01
  0
VERTEX
  8
0
 10
7.29497
 20
5.13333
 30
0.0
 40
0.01
 41
0.01
  0
VERTEX
  8
0
 10
7.24164
 20
5.08
 30
0.0
 40
0.01
 41
0.01
  0
VERTEX
  8
0
 10
7.18832
 20
5.08
 30
0.0
 40
0.01
 41
0.01
  0
VERTEX
  8
0
 10
7.13499
 20
5.13333
 30
0.0
 40
0.01
 41
0.01
  0
VERTEX
  8
0
 10
7.13499
 20
5.29332
 30
0.0
 40
0.01
 41
0.01
  0
SEQEND
 8
0
  0
POLYLINE
  8
0
 62
     0
 66
     1
 10
0
 20
0
 30
0.0
 40
0.72
 41
0.72
  0
VERTEX
  8
0
 10
7.29497
 20
4.97501
 30
0.0
 40
0.01
 41
0.01
  0
VERTEX
  8
0
 10
6.97667
 20
4.97501
 30
0.0
 40
0.01
 41
0.01
  0
VERTEX
  8
0
 10
6.97667
 20
4.76169
 30
0.0
 40
0.01
 41
0.01
  0
SEQEND
 8
0
  0
POLYLINE
  8
0
 62
     0
 66
     1
 10
0
 20
0
 30
0.0
 40
0.72
 41
0.72
  0
VERTEX
  8
0
 10
6.97667
 20
4.65665
 30
0.0
 40
0.01
 41
0.01
  0
VERTEX
  8
0
 10
7.08165
 20
4.65665
 30
0.0
 40
0.01
 41
0.01
  0
VERTEX
  8
0
 10
7.29497
 20
4.55
 30
0.0
 40
0.01
 41
0.01
  0
VERTEX
  8
0
 10
7.08165
 20
4.44333
 30
0.0
 40
0.01
 41
0.01
  0
VERTEX
  8
0
 10
6.97667
 20
4.44333
 30
0.0
 40
0.01
 41
0.01
  0
SEQEND
 8
0
  0
POLYLINE
  8
0
 62
     0
 66
     1
 10
0
 20
0
 30
0.0
 40
0.72
 41
0.72
  0
VERTEX
  8
0
 10
7.08165
 20
4.65665
 30
0.0
 40
0.01
 41
0.01
  0
VERTEX
  8
0
 10
7.08165
 20
4.44333
 30
0.0
 40
0.01
 41
0.01
  0
SEQEND
 8
0
  0
POLYLINE
  8
0
 62
     0
 66
     1
 10
0
 20
0
 30
0.0
 40
0.72
 41
0.72
  0
VERTEX
  8
0
 10
7.29497
 20
4.33835
 30
0.0
 40
0.01
 41
0.01
  0
VERTEX
  8
0
 10
7.29497
 20
4.12497
 30
0.0
 40
0.01
 41
0.01
  0
SEQEND
 8
0
  0
POLYLINE
  8
0
 62
     0
 66
     1
 10
0
 20
0
 30
0.0
 40
0.72
 41
0.72
  0
VERTEX
  8
0
 10
7.29497
 20
4.23169
 30
0.0
 40
0.01
 41
0.01
  0
VERTEX
  8
0
 10
6.97667
 20
4.23169
 30
0.0
 40
0.01
 41
0.01
  0
SEQEND
 8
0
  0
POLYLINE
  8
0
 62
     0
 66
     1
 10
0
 20
0
 30
0.0
 40
0.72
 41
0.72
  0
VERTEX
  8
0
 10
6.97667
 20
4.01831
 30
0.0
 40
0.01
 41
0.01
  0
VERTEX
  8
0
 10
7.29497
 20
4.01831
 30
0.0
 40
0.01
 41
0.01
  0
VERTEX
  8
0
 10
7.29497
 20
3.80667
 30
0.0
 40
0.01
 41
0.01
  0
SEQEND
 8
0
  0
POLYLINE
  8
0
 62
     0
 66
     1
 10
0
 20
0
 30
0.0
 40
0.72
 41
0.72
  0
VERTEX
  8
0
 10
7.13499
 20
4.01831
 30
0.0
 40
0.01
 41
0.01
  0
VERTEX
  8
0
 10
7.13499
 20
3.91333
 30
0.0
 40
0.01
 41
0.01
  0
SEQEND
 8
0
  0
POLYLINE
  8
0
 62
     0
 66
     1
 10
0
 20
0
 30
0.0
 40
0.72
 41
0.72
  0
VERTEX
  8
0
 10
6.97667
 20
4.01831
 30
0.0
 40
0.01
 41
0.01
  0
VERTEX
  8
0
 10
6.97667
 20
3.80667
 30
0.0
 40
0.01
 41
0.01
  0
SEQEND
 8
0
  0
POLYLINE
  8
0
 62
     0
 66
     1
 10
0
 20
0
 30
0.0
 40
0.72
 41
0.72
  0
VERTEX
  8
0
 10
6.09
 20
2.15665
 30
0.0
 40
0.01
 41
0.01
  0
VERTEX
  8
0
 10
6.11333
 20
2.16003
 30
0.0
 40
0.01
 41
0.01
  0
VERTEX
  8
0
 10
6.13499
 20
2.16664
 30
0.0
 40
0.01
 41
0.01
  0
VERTEX
  8
0
 10
6.155
 20
2.17999
 30
0.0
 40
0.01
 41
0.01
  0
VERTEX
  8
0
 10
6.17165
 20
2.19664
 30
0.0
 40
0.01
 41
0.01
  0
VERTEX
  8
0
 10
6.185
 20
2.21667
 30
0.0
 40
0.01
 41
0.01
  0
VERTEX
  8
0
 10
6.19168
 20
2.23831
 30
0.0
 40
0.01
 41
0.01
  0
VERTEX
  8
0
 10
6.19499
 20
2.26169
 30
0.0
 40
0.01
 41
0.01
  0
SEQEND
 8
0
  0
POLYLINE
  8
0
 62
     0
 66
     1
 10
0
 20
0
 30
0.0
 40
0.72
 41
0.72
  0
VERTEX
  8
0
 10
6.09
 20
2.15497
 30
0.0
 40
0.01
 41
0.01
  0
VERTEX
  8
0
 10
1.98167
 20
2.15497
 30
0.0
 40
0.01
 41
0.01
  0
SEQEND
 8
0
  0
POLYLINE
  8
0
 62
     0
 66
     1
 10
0
 20
0
 30
0.0
 40
0.72
 41
0.72
  0
VERTEX
  8
0
 10
1.87668
 20
2.26169
 30
0.0
 40
0.01
 41
0.01
  0
VERTEX
  8
0
 10
1.87999
 20
2.23831
 30
0.0
 40
0.01
 41
0.01
  0
VERTEX
  8
0
 10
1.88667
 20
2.21667
 30
0.0
 40
0.01
 41
0.01
  0
VERTEX
  8
0
 10
1.90001
 20
2.19664
 30
0.0
 40
0.01
 41
0.01
  0
VERTEX
  8
0
 10
1.91667
 20
2.17999
 30
0.0
 40
0.01
 41
0.01
  0
VERTEX
  8
0
 10
1.93668
 20
2.16664
 30
0.0
 40
0.01
 41
0.01
  0
VERTEX
  8
0
 10
1.95833
 20
2.16003
 30
0.0
 40
0.01
 41
0.01
  0
VERTEX
  8
0
 10
1.98167
 20
2.15665
 30
0.0
 40
0.01
 41
0.01
  0
SEQEND
 8
0
  0
POLYLINE
  8
0
 62
     0
 66
     1
 10
0
 20
0
 30
0.0
 40
0.72
 41
0.72
  0
VERTEX
  8
0
 10
1.87668
 20
2.26169
 30
0.0
 40
0.01
 41
0.01
  0
VERTEX
  8
0
 10
1.87668
 20
9.06665
 30
0.0
 40
0.01
 41
0.01
  0
SEQEND
 8
0
  0
POLYLINE
  8
0
 62
     0
 66
     1
 10
0
 20
0
 30
0.0
 40
0.72
 41
0.72
  0
VERTEX
  8
0
 10
1.98167
 20
9.17168
 30
0.0
 40
0.01
 41
0.01
  0
VERTEX
  8
0
 10
1.95833
 20
9.16832
 30
0.0
 40
0.01
 41
0.01
  0
VERTEX
  8
0
 10
1.93668
 20
9.16165
 30
0.0
 40
0.01
 41
0.01
  0
VERTEX
  8
0
 10
1.91667
 20
9.14836
 30
0.0
 40
0.01
 41
0.01
  0
VERTEX
  8
0
 10
1.90001
 20
9.13165
 30
0.0
 40
0.01
 41
0.01
  0
VERTEX
  8
0
 10
1.88667
 20
9.11168
 30
0.0
 40
0.01
 41
0.01
  0
VERTEX
  8
0
 10
1.87999
 20
9.08999
 30
0.0
 40
0.01
 41
0.01
  0
VERTEX
  8
0
 10
1.87668
 20
9.06665
 30
0.0
 40
0.01
 41
0.01
  0
SEQEND
 8
0
  0
POLYLINE
  8
0
 62
     0
 66
     1
 10
0
 20
0
 30
0.0
 40
0.72
 41
0.72
  0
VERTEX
  8
0
 10
1.98167
 20
9.17332
 30
0.0
 40
0.01
 41
0.01
  0
VERTEX
  8
0
 10
6.09
 20
9.17332
 30
0.0
 40
0.01
 41
0.01
  0
SEQEND
 8
0
  0
POLYLINE
  8
0
 62
     0
 66
     1
 10
0
 20
0
 30
0.0
 40
0.72
 41
0.72
  0
VERTEX
  8
0
 10
6.19499
 20
9.06665
 30
0.0
 40
0.01
 41
0.01
  0
VERTEX
  8
0
 10
6.19168
 20
9.08999
 30
0.0
 40
0.01
 41
0.01
  0
VERTEX
  8
0
 10
6.185
 20
9.11168
 30
0.0
 40
0.01
 41
0.01
  0
VERTEX
  8
0
 10
6.17165
 20
9.13165
 30
0.0
 40
0.01
 41
0.01
  0
VERTEX
  8
0
 10
6.155
 20
9.14836
 30
0.0
 40
0.01
 41
0.01
  0
VERTEX
  8
0
 10
6.13499
 20
9.16165
 30
0.0
 40
0.01
 41
0.01
  0
VERTEX
  8
0
 10
6.11333
 20
9.16832
 30
0.0
 40
0.01
 41
0.01
  0
VERTEX
  8
0
 10
6.09
 20
9.17168
 30
0.0
 40
0.01
 41
0.01
  0
SEQEND
 8
0
  0
POLYLINE
  8
0
 62
     0
 66
     1
 10
0
 20
0
 30
0.0
 40
0.72
 41
0.72
  0
VERTEX
  8
0
 10
6.19667
 20
9.06665
 30
0.0
 40
0.01
 41
0.01
  0
VERTEX
  8
0
 10
6.19667
 20
2.26169
 30
0.0
 40
0.01
 41
0.01
  0
SEQEND
 8
0
  0
POLYLINE
  8
0
 62
     1
 66
     1
 10
0
 20
0
 30
0.0
 40
0.72
 41
0.72
  0
VERTEX
  8
0
 10
6.14333
 20
9.17332
 30
0.0
 40
0.01
 41
0.01
  0
VERTEX
  8
0
 10
6.53168
 20
9.17332
 30
0.0
 40
0.01
 41
0.01
  0
SEQEND
 8
0
  0
POLYLINE
  8
0
 62
     1
 66
     1
 10
0
 20
0
 30
0.0
 40
0.72
 41
0.72
  0
VERTEX
  8
0
 10
6.14333
 20
2.15497
 30
0.0
 40
0.01
 41
0.01
  0
VERTEX
  8
0
 10
6.53168
 20
2.15497
 30
0.0
 40
0.01
 41
0.01
  0
SEQEND
 8
0
  0
POLYLINE
  8
0
 62
     1
 66
     1
 10
0
 20
0
 30
0.0
 40
0.72
 41
0.72
  0
VERTEX
  8
0
 10
6.51833
 20
9.06665
 30
0.0
 40
0.01
 41
0.01
  0
VERTEX
  8
0
 10
6.51833
 20
2.26169
 30
0.0
 40
0.01
 41
0.01
  0
SEQEND
 8
0
  0
POLYLINE
  8
0
 62
     1
 66
     1
 10
0
 20
0
 30
0.0
 70
     1
 40
0
 41
0
  0
VERTEX
  8
0
 10
6.535
 20
9.06665
 30
0.0
 40
0
 41
0
  0
VERTEX
  8
0
 10
6.5
 20
9.06665
 30
0.0
 40
0
 41
0
  0
VERTEX
  8
0
 10
6.51833
 20
9.17332
 30
0.0
 40
0
 41
0
  0
VERTEX
  8
0
 10
6.535
 20
9.06665
 30
0.0
 40
0
 41
0
  0
SEQEND
 8
0
  0
POLYLINE
  8
0
 62
     1
 66
     1
 10
0
 20
0
 30
0.0
 70
     1
 40
0
 41
0
  0
VERTEX
  8
0
 10
6.535
 20
2.26169
 30
0.0
 40
0
 41
0
  0
VERTEX
  8
0
 10
6.5
 20
2.26169
 30
0.0
 40
0
 41
0
  0
VERTEX
  8
0
 10
6.51833
 20
2.15497
 30
0.0
 40
0
 41
0
  0
VERTEX
  8
0
 10
6.535
 20
2.26169
 30
0.0
 40
0
 41
0
  0
SEQEND
 8
0
  0
POLYLINE
  8
0
 62
     1
 66
     1
 10
0
 20
0
 30
0.0
 40
0.72
 41
0.72
  0
VERTEX
  8
0
 10
6.74164
 20
5.80336
 30
0.0
 40
0.01
 41
0.01
  0
VERTEX
  8
0
 10
6.76497
 20
5.78165
 30
0.0
 40
0.01
 41
0.01
  0
VERTEX
  8
0
 10
6.76497
 20
5.735
 30
0.0
 40
0.01
 41
0.01
  0
VERTEX
  8
0
 10
6.74164
 20
5.71167
 30
0.0
 40
0.01
 41
0.01
  0
VERTEX
  8
0
 10
6.71832
 20
5.71167
 30
0.0
 40
0.01
 41
0.01
  0
VERTEX
  8
0
 10
6.69499
 20
5.735
 30
0.0
 40
0.01
 41
0.01
  0
VERTEX
  8
0
 10
6.69499
 20
5.78165
 30
0.0
 40
0.01
 41
0.01
  0
VERTEX
  8
0
 10
6.67165
 20
5.80336
 30
0.0
 40
0.01
 41
0.01
  0
VERTEX
  8
0
 10
6.62668
 20
5.80336
 30
0.0
 40
0.01
 41
0.01
  0
VERTEX
  8
0
 10
6.62668
 20
5.71167
 30
0.0
 40
0.01
 41
0.01
  0
SEQEND
 8
0
  0
POLYLINE
  8
0
 62
     1
 66
     1
 10
0
 20
0
 30
0.0
 40
0.72
 41
0.72
  0
VERTEX
  8
0
 10
6.69499
 20
5.66664
 30
0.0
 40
0.01
 41
0.01
  0
VERTEX
  8
0
 10
6.69499
 20
5.59665
 30
0.0
 40
0.01
 41
0.01
  0
VERTEX
  8
0
 10
6.67165
 20
5.57332
 30
0.0
 40
0.01
 41
0.01
  0
VERTEX
  8
0
 10
6.65001
 20
5.57332
 30
0.0
 40
0.01
 41
0.01
  0
VERTEX
  8
0
 10
6.62668
 20
5.59665
 30
0.0
 40
0.01
 41
0.01
  0
VERTEX
  8
0
 10
6.62668
 20
5.64331
 30
0.0
 40
0.01
 41
0.01
  0
VERTEX
  8
0
 10
6.65001
 20
5.66664
 30
0.0
 40
0.01
 41
0.01
  0
VERTEX
  8
0
 10
6.71832
 20
5.66664
 30
0.0
 40
0.01
 41
0.01
  0
VERTEX
  8
0
 10
6.76497
 20
5.61999
 30
0.0
 40
0.01
 41
0.01
  0
VERTEX
  8
0
 10
6.76497
 20
5.59665
 30
0.0
 40
0.01
 41
0.01
  0
SEQEND
 8
0
  0
POLYLINE
  8
0
 62
     1
 66
     1
 10
0
 20
0
 30
0.0
 40
0.72
 41
0.72
  0
VERTEX
  8
0
 10
6.71832
 20
5.52835
 30
0.0
 40
0.01
 41
0.01
  0
VERTEX
  8
0
 10
6.76497
 20
5.50501
 30
0.0
 40
0.01
 41
0.01
  0
SEQEND
 8
0
  0
POLYLINE
  8
0
 62
     1
 66
     1
 10
0
 20
0
 30
0.0
 40
0.72
 41
0.72
  0
VERTEX
  8
0
 10
6.76497
 20
5.48169
 30
0.0
 40
0.01
 41
0.01
  0
VERTEX
  8
0
 10
6.71832
 20
5.50501
 30
0.0
 40
0.01
 41
0.01
  0
SEQEND
 8
0
  0
POLYLINE
  8
0
 62
     1
 66
     1
 10
0
 20
0
 30
0.0
 40
0.72
 41
0.72
  0
VERTEX
  8
0
 10
6.19667
 20
9.11999
 30
0.0
 40
0.01
 41
0.01
  0
VERTEX
  8
0
 10
6.19667
 20
9.69664
 30
0.0
 40
0.01
 41
0.01
  0
SEQEND
 8
0
  0
POLYLINE
  8
0
 62
     1
 66
     1
 10
0
 20
0
 30
0.0
 40
0.72
 41
0.72
  0
VERTEX
  8
0
 10
1.87668
 20
9.11999
 30
0.0
 40
0.01
 41
0.01
  0
VERTEX
  8
0
 10
1.87668
 20
9.69664
 30
0.0
 40
0.01
 41
0.01
  0
SEQEND
 8
0
  0
POLYLINE
  8
0
 62
     1
 66
     1
 10
0
 20
0
 30
0.0
 40
0.72
 41
0.72
  0
VERTEX
  8
0
 10
6.09
 20
9.68335
 30
0.0
 40
0.01
 41
0.01
  0
VERTEX
  8
0
 10
1.98167
 20
9.68335
 30
0.0
 40
0.01
 41
0.01
  0
SEQEND
 8
0
  0
POLYLINE
  8
0
 62
     1
 66
     1
 10
0
 20
0
 30
0.0
 70
     1
 40
0
 41
0
  0
VERTEX
  8
0
 10
6.09
 20
9.70169
 30
0.0
 40
0
 41
0
  0
VERTEX
  8
0
 10
6.09
 20
9.66501
 30
0.0
 40
0
 41
0
  0
VERTEX
  8
0
 10
6.19667
 20
9.68335
 30
0.0
 40
0
 41
0
  0
VERTEX
  8
0
 10
6.09
 20
9.70169
 30
0.0
 40
0
 41
0
  0
SEQEND
 8
0
  0
POLYLINE
  8
0
 62
     1
 66
     1
 10
0
 20
0
 30
0.0
 70
     1
 40
0
 41
0
  0
VERTEX
  8
0
 10
1.98167
 20
9.70169
 30
0.0
 40
0
 41
0
  0
VERTEX
  8
0
 10
1.98167
 20
9.66501
 30
0.0
 40
0
 41
0
  0
VERTEX
  8
0
 10
1.87668
 20
9.68335
 30
0.0
 40
0
 41
0
  0
VERTEX
  8
0
 10
1.98167
 20
9.70169
 30
0.0
 40
0
 41
0
  0
SEQEND
 8
0
  0
POLYLINE
  8
0
 62
     1
 66
     1
 10
0
 20
0
 30
0.0
 40
0.72
 41
0.72
  0
VERTEX
  8
0
 10
3.88835
 20
9.90665
 30
0.0
 40
0.01
 41
0.01
  0
VERTEX
  8
0
 10
3.91168
 20
9.92999
 30
0.0
 40
0.01
 41
0.01
  0
VERTEX
  8
0
 10
3.91168
 20
9.79164
 30
0.0
 40
0.01
 41
0.01
  0
SEQEND
 8
0
  0
POLYLINE
  8
0
 62
     1
 66
     1
 10
0
 20
0
 30
0.0
 40
0.72
 41
0.72
  0
VERTEX
  8
0
 10
3.88835
 20
9.79164
 30
0.0
 40
0.01
 41
0.01
  0
VERTEX
  8
0
 10
3.935
 20
9.79164
 30
0.0
 40
0.01
 41
0.01
  0
SEQEND
 8
0
  0
POLYLINE
  8
0
 62
     1
 66
     1
 10
0
 20
0
 30
0.0
 40
0.72
 41
0.72
  0
VERTEX
  8
0
 10
3.98167
 20
9.86168
 30
0.0
 40
0.01
 41
0.01
  0
VERTEX
  8
0
 10
4.05003
 20
9.86168
 30
0.0
 40
0.01
 41
0.01
  0
VERTEX
  8
0
 10
4.07335
 20
9.83835
 30
0.0
 40
0.01
 41
0.01
  0
VERTEX
  8
0
 10
4.07335
 20
9.81503
 30
0.0
 40
0.01
 41
0.01
  0
VERTEX
  8
0
 10
4.05003
 20
9.79164
 30
0.0
 40
0.01
 41
0.01
  0
VERTEX
  8
0
 10
4.00331
 20
9.79164
 30
0.0
 40
0.01
 41
0.01
  0
VERTEX
  8
0
 10
3.98167
 20
9.81503
 30
0.0
 40
0.01
 41
0.01
  0
VERTEX
  8
0
 10
3.98167
 20
9.88333
 30
0.0
 40
0.01
 41
0.01
  0
VERTEX
  8
0
 10
4.02669
 20
9.92999
 30
0.0
 40
0.01
 41
0.01
  0
VERTEX
  8
0
 10
4.05003
 20
9.92999
 30
0.0
 40
0.01
 41
0.01
  0
SEQEND
 8
0
  0
POLYLINE
  8
0
 62
     1
 66
     1
 10
0
 20
0
 30
0.0
 40
0.72
 41
0.72
  0
VERTEX
  8
0
 10
4.11833
 20
9.88333
 30
0.0
 40
0.01
 41
0.01
  0
VERTEX
  8
0
 10
4.14165
 20
9.92999
 30
0.0
 40
0.01
 41
0.01
  0
SEQEND
 8
0
  0
POLYLINE
  8
0
 62
     1
 66
     1
 10
0
 20
0
 30
0.0
 40
0.72
 41
0.72
  0
VERTEX
  8
0
 10
4.16499
 20
9.92999
 30
0.0
 40
0.01
 41
0.01
  0
VERTEX
  8
0
 10
4.14165
 20
9.88333
 30
0.0
 40
0.01
 41
0.01
  0
SEQEND
 8
0
  0
ENDSEC
  0
EOF
