  0
SECTION
  2
HEADER
  9
$ACADVER
  1
AC1021
  9
$ACADMAINTVER
 70
    25
  9
$DWGCODEPAGE
  3
ANSI_1252
  9
$INSBASE
 10
0.0
 20
0.0
 30
0.0
  9
$EXTMIN
 10
-11.28239
 20
-8.10898
 30
0.0
  9
$EXTMAX
 10
8.9487
 20
7.85557
 30
0.0
  9
$LIMMIN
 10
0.0
 20
0.0
  9
$LIMMAX
 10
12.0
 20
9.0
  9
$ORTHOMODE
 70
     0
  9
$REGENMODE
 70
     1
  9
$FILLMODE
 70
     1
  9
$QTEXTMODE
 70
     0
  9
$MIRRTEXT
 70
     1
  9
$LTSCALE
 40
1.0
  9
$ATTMODE
 70
     1
  9
$TEXTSIZE
 40
0.2
  9
$TRACEWID
 40
0.05
  9
$TEXTSTYLE
  7
Standard
  9
$CLAYER
  8
0
  9
$CELTYPE
  6
ByLayer
  9
$CECOLOR
 62
   256
  9
$CELTSCALE
 40
1.0
  9
$DISPSILH
 70
     0
  9
$DIMSCALE
 40
1.0
  9
$DIMASZ
 40
0.18
  9
$DIMEXO
 40
0.0625
  9
$DIMDLI
 40
0.38
  9
$DIMRND
 40
0.0
  9
$DIMDLE
 40
0.0
  9
$DIMEXE
 40
0.18
  9
$DIMTP
 40
0.0
  9
$DIMTM
 40
0.0
  9
$DIMTXT
 40
0.18
  9
$DIMCEN
 40
0.09
  9
$DIMTSZ
 40
0.0
  9
$DIMTOL
 70
     0
  9
$DIMLIM
 70
     0
  9
$DIMTIH
 70
     1
  9
$DIMTOH
 70
     1
  9
$DIMSE1
 70
     0
  9
$DIMSE2
 70
     0
  9
$DIMTAD
 70
     0
  9
$DIMZIN
 70
     0
  9
$DIMBLK
  1

  9
$DIMASO
 70
     1
  9
$DIMSHO
 70
     1
  9
$DIMPOST
  1

  9
$DIMAPOST
  1

  9
$DIMALT
 70
     0
  9
$DIMALTD
 70
     2
  9
$DIMALTF
 40
25.4
  9
$DIMLFAC
 40
1.0
  9
$DIMTOFL
 70
     0
  9
$DIMTVP
 40
0.0
  9
$DIMTIX
 70
     0
  9
$DIMSOXD
 70
     0
  9
$DIMSAH
 70
     0
  9
$DIMBLK1
  1

  9
$DIMBLK2
  1

  9
$DIMSTYLE
  2
Standard
  9
$DIMCLRD
 70
     0
  9
$DIMCLRE
 70
     0
  9
$DIMCLRT
 70
     0
  9
$DIMTFAC
 40
1.0
  9
$DIMGAP
 40
0.09
  9
$DIMJUST
 70
     0
  9
$DIMSD1
 70
     0
  9
$DIMSD2
 70
     0
  9
$DIMTOLJ
 70
     1
  9
$DIMTZIN
 70
     0
  9
$DIMALTZ
 70
     0
  9
$DIMALTTZ
 70
     0
  9
$DIMUPT
 70
     0
  9
$DIMDEC
 70
     4
  9
$DIMTDEC
 70
     4
  9
$DIMALTU
 70
     2
  9
$DIMALTTD
 70
     2
  9
$DIMTXSTY
  7
Standard
  9
$DIMAUNIT
 70
     0
  9
$DIMADEC
 70
     0
  9
$DIMALTRND
 40
0.0
  9
$DIMAZIN
 70
     0
  9
$DIMDSEP
 70
    46
  9
$DIMATFIT
 70
     3
  9
$DIMFRAC
 70
     0
  9
$DIMLDRBLK
  1

  9
$DIMLUNIT
 70
     2
  9
$DIMLWD
 70
    -2
  9
$DIMLWE
 70
    -2
  9
$DIMTMOVE
 70
     0
  9
$DIMFXL
 40
1.0
  9
$DIMFXLON
 70
     0
  9
$DIMJOGANG
 40
0.7853981633974483
  9
$DIMTFILL
 70
     0
  9
$DIMTFILLCLR
 70
     0
  9
$DIMARCSYM
 70
     0
  9
$DIMLTYPE
  6

  9
$DIMLTEX1
  6

  9
$DIMLTEX2
  6

  9
$LUNITS
 70
     2
  9
$LUPREC
 70
     4
  9
$SKETCHINC
 40
0.1
  9
$FILLETRAD
 40
0.5
  9
$AUNITS
 70
     0
  9
$AUPREC
 70
     0
  9
$MENU
  1
.
  9
$ELEVATION
 40
0.0
  9
$PELEVATION
 40
0.0
  9
$THICKNESS
 40
0.0
  9
$LIMCHECK
 70
     0
  9
$CHAMFERA
 40
0.5
  9
$CHAMFERB
 40
0.5
  9
$CHAMFERC
 40
1.0
  9
$CHAMFERD
 40
0.0
  9
$SKPOLY
 70
     0
  9
$TDCREATE
 40
2456231.939156921
  9
$TDUCREATE
 40
2456232.105823588
  9
$TDUPDATE
 40
2456231.939157049
  9
$TDUUPDATE
 40
2456232.105823715
  9
$TDINDWG
 40
0.0000000116
  9
$TDUSRTIMER
 40
0.0000000116
  9
$USRTIMER
 70
     1
  9
$ANGBASE
 50
0.0
  9
$ANGDIR
 70
     0
  9
$PDMODE
 70
     0
  9
$PDSIZE
 40
0.0
  9
$PLINEWID
 40
0.0
  9
$SPLFRAME
 70
     0
  9
$SPLINETYPE
 70
     6
  9
$SPLINESEGS
 70
     8
  9
$HANDSEED
  5
104
  9
$SURFTAB1
 70
     6
  9
$SURFTAB2
 70
     6
  9
$SURFTYPE
 70
     6
  9
$SURFU
 70
     6
  9
$SURFV
 70
     6
  9
$UCSBASE
  2

  9
$UCSNAME
  2

  9
$UCSORG
 10
0.0
 20
0.0
 30
0.0
  9
$UCSXDIR
 10
1.0
 20
0.0
 30
0.0
  9
$UCSYDIR
 10
0.0
 20
1.0
 30
0.0
  9
$UCSORTHOREF
  2

  9
$UCSORTHOVIEW
 70
     0
  9
$UCSORGTOP
 10
0.0
 20
0.0
 30
0.0
  9
$UCSORGBOTTOM
 10
0.0
 20
0.0
 30
0.0
  9
$UCSORGLEFT
 10
0.0
 20
0.0
 30
0.0
  9
$UCSORGRIGHT
 10
0.0
 20
0.0
 30
0.0
  9
$UCSORGFRONT
 10
0.0
 20
0.0
 30
0.0
  9
$UCSORGBACK
 10
0.0
 20
0.0
 30
0.0
  9
$PUCSBASE
  2

  9
$PUCSNAME
  2

  9
$PUCSORG
 10
0.0
 20
0.0
 30
0.0
  9
$PUCSXDIR
 10
1.0
 20
0.0
 30
0.0
  9
$PUCSYDIR
 10
0.0
 20
1.0
 30
0.0
  9
$PUCSORTHOREF
  2

  9
$PUCSORTHOVIEW
 70
     0
  9
$PUCSORGTOP
 10
0.0
 20
0.0
 30
0.0
  9
$PUCSORGBOTTOM
 10
0.0
 20
0.0
 30
0.0
  9
$PUCSORGLEFT
 10
0.0
 20
0.0
 30
0.0
  9
$PUCSORGRIGHT
 10
0.0
 20
0.0
 30
0.0
  9
$PUCSORGFRONT
 10
0.0
 20
0.0
 30
0.0
  9
$PUCSORGBACK
 10
0.0
 20
0.0
 30
0.0
  9
$USERI1
 70
     0
  9
$USERI2
 70
     0
  9
$USERI3
 70
     0
  9
$USERI4
 70
     0
  9
$USERI5
 70
     0
  9
$USERR1
 40
0.0
  9
$USERR2
 40
0.0
  9
$USERR3
 40
0.0
  9
$USERR4
 40
0.0
  9
$USERR5
 40
0.0
  9
$WORLDVIEW
 70
     1
  9
$SHADEDGE
 70
     3
  9
$SHADEDIF
 70
    70
  9
$TILEMODE
 70
     1
  9
$MAXACTVP
 70
    64
  9
$PINSBASE
 10
0.0
 20
0.0
 30
0.0
  9
$PLIMCHECK
 70
     0
  9
$PEXTMIN
 10
1.000000000000000E+20
 20
1.000000000000000E+20
 30
1.000000000000000E+20
  9
$PEXTMAX
 10
-1.000000000000000E+20
 20
-1.000000000000000E+20
 30
-1.000000000000000E+20
  9
$PLIMMIN
 10
0.0
 20
0.0
  9
$PLIMMAX
 10
12.0
 20
9.0
  9
$UNITMODE
 70
     0
  9
$VISRETAIN
 70
     1
  9
$PLINEGEN
 70
     0
  9
$PSLTSCALE
 70
     1
  9
$TREEDEPTH
 70
  3020
  9
$CMLSTYLE
  2
Standard
  9
$CMLJUST
 70
     0
  9
$CMLSCALE
 40
1.0
  9
$PROXYGRAPHICS
 70
     1
  9
$MEASUREMENT
 70
     0
  9
$CELWEIGHT
370
    -1
  9
$ENDCAPS
280
     0
  9
$JOINSTYLE
280
     0
  9
$LWDISPLAY
290
     0
  9
$INSUNITS
 70
     5
  9
$HYPERLINKBASE
  1

  9
$STYLESHEET
  1

  9
$XEDIT
290
     1
  9
$CEPSNTYPE
380
     0
  9
$PSTYLEMODE
290
     1
  9
$FINGERPRINTGUID
  2
{0FB139E4-87DB-41C6-AD74-8A9D4BBCF911}
  9
$VERSIONGUID
  2
{FAEB1C32-E019-11D5-929B-00C0DF256EC4}
  9
$EXTNAMES
290
     1
  9
$PSVPSCALE
 40
0.0
  9
$OLESTARTUP
290
     0
  9
$SORTENTS
280
   127
  9
$INDEXCTL
280
     0
  9
$HIDETEXT
280
     1
  9
$XCLIPFRAME
290
     0
  9
$HALOGAP
280
     0
  9
$OBSCOLOR
 70
   257
  9
$OBSLTYPE
280
     0
  9
$INTERSECTIONDISPLAY
280
     0
  9
$INTERSECTIONCOLOR
 70
   257
  9
$DIMASSOC
280
     2
  9
$PROJECTNAME
  1

  9
$CAMERADISPLAY
290
     0
  9
$LENSLENGTH
 40
50.0
  9
$CAMERAHEIGHT
 40
0.0
  9
$STEPSPERSEC
 40
2.0
  9
$STEPSIZE
 40
6.0
  9
$3DDWFPREC
 40
2.0
  9
$PSOLWIDTH
 40
0.25
  9
$PSOLHEIGHT
 40
4.0
  9
$LOFTANG1
 40
1.570796326794897
  9
$LOFTANG2
 40
1.570796326794897
  9
$LOFTMAG1
 40
0.0
  9
$LOFTMAG2
 40
0.0
  9
$LOFTPARAM
 70
     7
  9
$LOFTNORMALS
280
     1
  9
$LATITUDE
 40
37.795
  9
$LONGITUDE
 40
-122.394
  9
$NORTHDIRECTION
 40
0.0
  9
$TIMEZONE
 70
 -8000
  9
$LIGHTGLYPHDISPLAY
280
     1
  9
$TILEMODELIGHTSYNCH
280
     1
  9
$SOLIDHIST
280
     1
  9
$SHOWHIST
280
     1
  9
$DWFFRAME
280
     2
  9
$DGNFRAME
280
     2
  9
$REALWORLDSCALE
290
     1
  9
$INTERFERECOLOR
 62
   256
  9
$CSHADOW
280
     0
  9
$SHADOWPLANELOCATION
 40
0.0
  0
ENDSEC
  0
SECTION
  2
CLASSES
  0
CLASS
  1
ACDBDICTIONARYWDFLT
  2
AcDbDictionaryWithDefault
  3
ObjectDBX Classes
 90
        0
 91
        4
280
     0
281
     0
  0
CLASS
  1
VISUALSTYLE
  2
AcDbVisualStyle
  3
ObjectDBX Classes
 90
     4095
 91
        4
280
     0
281
     0
  0
CLASS
  1
MATERIAL
  2
AcDbMaterial
  3
ObjectDBX Classes
 90
     1153
 91
        4
280
     0
281
     0
  0
ENDSEC
  0
SECTION
  2
TABLES
  0
TABLE
  2
VPORT
  5
8
330
0
100
AcDbSymbolTable
 70
     1
  0
VPORT
  5
29
330
8
100
AcDbSymbolTableRecord
100
AcDbViewportTableRecord
  2
*Active
 70
     0
 10
0.0
 20
0.0
 11
1.0
 21
1.0
 12
10.42990654205607
 22
4.5
 13
0.0
 23
0.0
 14
0.5
 24
0.5
 15
0.5
 25
0.5
 16
0.0
 26
0.0
 36
1.0
 17
0.0
 27
0.0
 37
0.0
 40
9.0
 41
1.972972972850329
 42
50.0
 43
0.0
 44
0.0
 50
0.0
 51
0.0
 71
     0
 72
   100
 73
     1
 74
     3
 75
     0
 76
     0
 77
     0
 78
     0
281
     0
 65
     1
110
0.0
120
0.0
130
0.0
111
1.0
121
0.0
131
0.0
112
0.0
122
1.0
132
0.0
 79
     0
146
0.0
 60
     3
 61
     5
292
     1
282
     1
141
0.0
142
0.0
 63
   250
  0
ENDTAB
  0
TABLE
  2
LTYPE
  5
5
330
0
100
AcDbSymbolTable
 70
    11
  0
LTYPE
  5
14
330
5
100
AcDbSymbolTableRecord
100
AcDbLinetypeTableRecord
  2
ByBlock
 70
     0
  3

 72
    65
 73
     0
 40
0.0
  0
LTYPE
  5
15
330
5
100
AcDbSymbolTableRecord
100
AcDbLinetypeTableRecord
  2
ByLayer
 70
     0
  3

 72
    65
 73
     0
 40
0.0
  0
LTYPE
  5
16
330
5
100
AcDbSymbolTableRecord
100
AcDbLinetypeTableRecord
  2
Continuous
 70
     0
  3
Solid line
 72
    65
 73
     0
 40
0.0
  0
LTYPE
  5
CF
330
5
100
AcDbSymbolTableRecord
100
AcDbLinetypeTableRecord
  2
New Line1
 70
     0
  3

 72
    65
 73
     2
 40
19.0
 49
12.7
 74
     4
 75
     0
340
0
 46
1.0
 50
0.0
 44
0.0
 45
0.0
 49
-6.300000000000001
 74
     4
 75
     0
340
0
 46
1.0
 50
0.0
 44
0.0
 45
0.0
  0
LTYPE
  5
D1
330
5
100
AcDbSymbolTableRecord
100
AcDbLinetypeTableRecord
  2
New Line2
 70
     0
  3

 72
    65
 73
     2
 40
19.0
 49
12.7
 74
     4
 75
     0
340
0
 46
1.0
 50
0.0
 44
0.0
 45
0.0
 49
-6.300000000000001
 74
     4
 75
     0
340
0
 46
1.0
 50
0.0
 44
0.0
 45
0.0
  0
LTYPE
  5
D3
330
5
100
AcDbSymbolTableRecord
100
AcDbLinetypeTableRecord
  2
New Line3
 70
     0
  3

 72
    65
 73
     2
 40
19.0
 49
12.7
 74
     4
 75
     0
340
0
 46
1.0
 50
0.0
 44
0.0
 45
0.0
 49
-6.300000000000001
 74
     4
 75
     0
340
0
 46
1.0
 50
0.0
 44
0.0
 45
0.0
  0
LTYPE
  5
D5
330
5
100
AcDbSymbolTableRecord
100
AcDbLinetypeTableRecord
  2
New Line4
 70
     0
  3

 72
    65
 73
     2
 40
19.0
 49
12.7
 74
     4
 75
     0
340
0
 46
1.0
 50
0.0
 44
0.0
 45
0.0
 49
-6.300000000000001
 74
     4
 75
     0
340
0
 46
1.0
 50
0.0
 44
0.0
 45
0.0
  0
LTYPE
  5
D7
330
5
100
AcDbSymbolTableRecord
100
AcDbLinetypeTableRecord
  2
New Line5
 70
     0
  3

 72
    65
 73
     2
 40
19.0
 49
12.7
 74
     4
 75
     0
340
0
 46
1.0
 50
0.0
 44
0.0
 45
0.0
 49
-6.300000000000001
 74
     4
 75
     0
340
0
 46
1.0
 50
0.0
 44
0.0
 45
0.0
  0
LTYPE
  5
D9
330
5
100
AcDbSymbolTableRecord
100
AcDbLinetypeTableRecord
  2
New Line6
 70
     0
  3

 72
    65
 73
     2
 40
19.0
 49
12.7
 74
     4
 75
     0
340
0
 46
1.0
 50
0.0
 44
0.0
 45
0.0
 49
-6.300000000000001
 74
     4
 75
     0
340
0
 46
1.0
 50
0.0
 44
0.0
 45
0.0
  0
LTYPE
  5
DB
330
5
100
AcDbSymbolTableRecord
100
AcDbLinetypeTableRecord
  2
New Line7
 70
     0
  3

 72
    65
 73
     2
 40
19.0
 49
12.7
 74
     4
 75
     0
340
0
 46
1.0
 50
0.0
 44
0.0
 45
0.0
 49
-6.300000000000001
 74
     4
 75
     0
340
0
 46
1.0
 50
0.0
 44
0.0
 45
0.0
  0
LTYPE
  5
DD
330
5
100
AcDbSymbolTableRecord
100
AcDbLinetypeTableRecord
  2
New Line8
 70
     0
  3

 72
    65
 73
     2
 40
19.0
 49
12.7
 74
     4
 75
     0
340
0
 46
1.0
 50
0.0
 44
0.0
 45
0.0
 49
-6.300000000000001
 74
     4
 75
     0
340
0
 46
1.0
 50
0.0
 44
0.0
 45
0.0
  0
LTYPE
  5
DF
330
5
100
AcDbSymbolTableRecord
100
AcDbLinetypeTableRecord
  2
New Line9
 70
     0
  3

 72
    65
 73
     2
 40
19.0
 49
12.7
 74
     4
 75
     0
340
0
 46
1.0
 50
0.0
 44
0.0
 45
0.0
 49
-6.300000000000001
 74
     4
 75
     0
340
0
 46
1.0
 50
0.0
 44
0.0
 45
0.0
  0
LTYPE
  5
E1
330
5
100
AcDbSymbolTableRecord
100
AcDbLinetypeTableRecord
  2
New Line10
 70
     0
  3

 72
    65
 73
     2
 40
19.0
 49
12.7
 74
     4
 75
     0
340
0
 46
1.0
 50
0.0
 44
0.0
 45
0.0
 49
-6.300000000000001
 74
     4
 75
     0
340
0
 46
1.0
 50
0.0
 44
0.0
 45
0.0
  0
ENDTAB
  0
TABLE
  2
LAYER
  5
2
330
0
100
AcDbSymbolTable
 70
     4
  0
LAYER
  5
10
330
2
100
AcDbSymbolTableRecord
100
AcDbLayerTableRecord
  2
0
 70
     0
 62
     7
  6
Continuous
370
    -3
390
F
347
3E
  0
LAYER
  5
40
330
2
100
AcDbSymbolTableRecord
100
AcDbLayerTableRecord
  2
Layer 1
 70
     0
 62
     7
  6
Continuous
370
    -3
390
F
347
3E
  0
LAYER
  5
5E
330
2
100
AcDbSymbolTableRecord
100
AcDbLayerTableRecord
  2
layer 2
 70
     0
 62
     7
  6
Continuous
370
    -3
390
F
347
3E
  0
LAYER
  5
CD
330
2
100
AcDbSymbolTableRecord
100
AcDbLayerTableRecord
  2
layer 3
 70
     0
 62
     7
  6
Continuous
370
    -3
390
F
347
3E
  0
ENDTAB
  0
TABLE
  2
STYLE
  5
3
330
0
100
AcDbSymbolTable
 70
     1
  0
STYLE
  5
11
330
3
100
AcDbSymbolTableRecord
100
AcDbTextStyleTableRecord
  2
Standard
 70
     0
 40
0.0
 41
1.0
 50
0.0
 71
     0
 42
0.2
  3
txt
  4

  0
ENDTAB
  0
TABLE
  2
VIEW
  5
6
330
0
100
AcDbSymbolTable
 70
     0
  0
ENDTAB
  0
TABLE
  2
UCS
  5
7
330
0
100
AcDbSymbolTable
 70
     0
  0
ENDTAB
  0
TABLE
  2
APPID
  5
9
330
0
100
AcDbSymbolTable
 70
     2
  0
APPID
  5
12
330
9
100
AcDbSymbolTableRecord
100
AcDbRegAppTableRecord
  2
ACAD
 70
     0
  0
APPID
  5
3F
330
9
100
AcDbSymbolTableRecord
100
AcDbRegAppTableRecord
  2
ODA
 70
     0
  0
ENDTAB
  0
TABLE
  2
DIMSTYLE
  5
A
330
0
100
AcDbSymbolTable
 70
     1
100
AcDbDimStyleTable
  0
DIMSTYLE
105
27
330
A
100
AcDbSymbolTableRecord
100
AcDbDimStyleTableRecord
  2
Standard
 70
     0
178
     0
340
11
  0
ENDTAB
  0
TABLE
  2
BLOCK_RECORD
  5
1
330
0
100
AcDbSymbolTable
 70
     1
  0
BLOCK_RECORD
  5
1F
330
1
100
AcDbSymbolTableRecord
100
AcDbBlockTableRecord
  2
*Model_Space
340
22
 70
     0
280
     1
281
     0
  0
BLOCK_RECORD
  5
1B
330
1
100
AcDbSymbolTableRecord
100
AcDbBlockTableRecord
  2
*Paper_Space
340
1E
 70
     0
280
     1
281
     0
  0
BLOCK_RECORD
  5
23
330
1
100
AcDbSymbolTableRecord
100
AcDbBlockTableRecord
  2
*Paper_Space0
340
26
 70
     0
280
     1
281
     0
  0
ENDTAB
  0
ENDSEC
  0
SECTION
  2
BLOCKS
  0
BLOCK
  5
20
330
1F
100
AcDbEntity
  8
0
100
AcDbBlockBegin
  2
*Model_Space
 70
     0
 10
0.0
 20
0.0
 30
0.0
  3
*Model_Space
  1

  0
ENDBLK
  5
21
330
1F
100
AcDbEntity
  8
0
100
AcDbBlockEnd
  0
BLOCK
  5
1C
330
1B
100
AcDbEntity
 67
     1
  8
0
100
AcDbBlockBegin
  2
*Paper_Space
 70
     0
 10
0.0
 20
0.0
 30
0.0
  3
*Paper_Space
  1

  0
ENDBLK
  5
1D
330
1B
100
AcDbEntity
 67
     1
  8
0
100
AcDbBlockEnd
  0
BLOCK
  5
24
330
23
100
AcDbEntity
  8
0
100
AcDbBlockBegin
  2
*Paper_Space0
 70
     0
 10
0.0
 20
0.0
 30
0.0
  3
*Paper_Space0
  1

  0
ENDBLK
  5
25
330
23
100
AcDbEntity
  8
0
100
AcDbBlockEnd
  0
ENDSEC
  0
SECTION
  2
ENTITIES
  0
SPLINE
  5
41
330
1F
100
AcDbEntity
  8
Layer 1
 62
   250
100
AcDbSpline
210
0.0
220
0.0
230
1.0
 70
    11
 71
     3
 72
    36
 73
    32
 74
     0
 42
0.0000000001
 43
0.0000000001
 12
1.0
 22
0.0
 32
0.0
 13
1.0
 23
0.0
 33
0.0
 40
0.0
 40
0.0
 40
0.0
 40
0.0
 40
0.1111111111111111
 40
0.1111111111111111
 40
0.1111111111111111
 40
0.1111111111111111
 40
0.2222222222222222
 40
0.2222222222222222
 40
0.2222222222222222
 40
0.2222222222222222
 40
0.3333333333333333
 40
0.3333333333333333
 40
0.3333333333333333
 40
0.3333333333333333
 40
0.4444444444444444
 40
0.4444444444444444
 40
0.4444444444444444
 40
0.4444444444444444
 40
0.5555555555555556
 40
0.5555555555555556
 40
0.5555555555555556
 40
0.5555555555555556
 40
0.6666666666666666
 40
0.6666666666666666
 40
0.6666666666666666
 40
0.6666666666666666
 40
0.7777777777777778
 40
0.7777777777777778
 40
0.7777777777777778
 40
0.7777777777777778
 40
1.0
 40
1.0
 40
1.0
 40
1.0
 10
-3.10728
 20
-7.94049
 30
0.0
 10
-3.10728
 20
-7.94049
 30
0.0
 10
-3.10728
 20
-7.40539
 30
0.0
 10
-3.10728
 20
-7.40539
 30
0.0
 10
-3.10728
 20
-7.40539
 30
0.0
 10
-3.10728
 20
-7.40539
 30
0.0
 10
-3.3071
 20
-7.40539
 30
0.0
 10
-3.3071
 20
-7.40539
 30
0.0
 10
-3.3071
 20
-7.40539
 30
0.0
 10
-3.3071
 20
-7.40539
 30
0.0
 10
-3.3071
 20
-7.33427
 30
0.0
 10
-3.3071
 20
-7.33427
 30
0.0
 10
-3.3071
 20
-7.33427
 30
0.0
 10
-3.3071
 20
-7.33427
 30
0.0
 10
-2.82703
 20
-7.33427
 30
0.0
 10
-2.82703
 20
-7.33427
 30
0.0
 10
-2.82703
 20
-7.33427
 30
0.0
 10
-2.82703
 20
-7.33427
 30
0.0
 10
-2.82703
 20
-7.40539
 30
0.0
 10
-2.82703
 20
-7.40539
 30
0.0
 10
-2.82703
 20
-7.40539
 30
0.0
 10
-2.82703
 20
-7.40539
 30
0.0
 10
-3.02685
 20
-7.40539
 30
0.0
 10
-3.02685
 20
-7.40539
 30
0.0
 10
-3.02685
 20
-7.40539
 30
0.0
 10
-3.02685
 20
-7.40539
 30
0.0
 10
-3.02685
 20
-7.94049
 30
0.0
 10
-3.02685
 20
-7.94049
 30
0.0
 10
-3.02685
 20
-7.94049
 30
0.0
 10
-3.02685
 20
-7.94049
 30
0.0
 10
-3.10728
 20
-7.94049
 30
0.0
 10
-3.10728
 20
-7.94049
 30
0.0
  0
SPLINE
  5
42
330
1F
100
AcDbEntity
  8
Layer 1
 62
   250
100
AcDbSpline
210
0.0
220
0.0
230
1.0
 70
    11
 71
     3
 72
    92
 73
    88
 74
     0
 42
0.0000000001
 43
0.0000000001
 12
1.0
 22
0.0
 32
0.0
 13
1.0
 23
0.0
 33
0.0
 40
0.0
 40
0.0
 40
0.0
 40
0.0
 40
0.0434782608695652
 40
0.0434782608695652
 40
0.0434782608695652
 40
0.0434782608695652
 40
0.0869565217391304
 40
0.0869565217391304
 40
0.0869565217391304
 40
0.0869565217391304
 40
0.1304347826086956
 40
0.1304347826086956
 40
0.1304347826086956
 40
0.1304347826086956
 40
0.1739130434782609
 40
0.1739130434782609
 40
0.1739130434782609
 40
0.1739130434782609
 40
0.2173913043478261
 40
0.2173913043478261
 40
0.2173913043478261
 40
0.2173913043478261
 40
0.2608695652173913
 40
0.2608695652173913
 40
0.2608695652173913
 40
0.2608695652173913
 40
0.3043478260869565
 40
0.3043478260869565
 40
0.3043478260869565
 40
0.3043478260869565
 40
0.3478260869565217
 40
0.3478260869565217
 40
0.3478260869565217
 40
0.3478260869565217
 40
0.391304347826087
 40
0.391304347826087
 40
0.391304347826087
 40
0.391304347826087
 40
0.4347826086956522
 40
0.4347826086956522
 40
0.4347826086956522
 40
0.4347826086956522
 40
0.4782608695652174
 40
0.4782608695652174
 40
0.4782608695652174
 40
0.4782608695652174
 40
0.5217391304347826
 40
0.5217391304347826
 40
0.5217391304347826
 40
0.5217391304347826
 40
0.5652173913043478
 40
0.5652173913043478
 40
0.5652173913043478
 40
0.5652173913043478
 40
0.6086956521739131
 40
0.6086956521739131
 40
0.6086956521739131
 40
0.6086956521739131
 40
0.6521739130434783
 40
0.6521739130434783
 40
0.6521739130434783
 40
0.6521739130434783
 40
0.6956521739130435
 40
0.6956521739130435
 40
0.6956521739130435
 40
0.6956521739130435
 40
0.7391304347826086
 40
0.7391304347826086
 40
0.7391304347826086
 40
0.7391304347826086
 40
0.782608695652174
 40
0.782608695652174
 40
0.782608695652174
 40
0.782608695652174
 40
0.8260869565217391
 40
0.8260869565217391
 40
0.8260869565217391
 40
0.8260869565217391
 40
0.8695652173913043
 40
0.8695652173913043
 40
0.8695652173913043
 40
0.8695652173913043
 40
0.9130434782608695
 40
0.9130434782608695
 40
0.9130434782608695
 40
0.9130434782608695
 40
1.0
 40
1.0
 40
1.0
 40
1.0
 10
-2.38352
 20
-7.86937
 30
0.0
 10
-2.38352
 20
-7.86937
 30
0.0
 10
-2.38352
 20
-7.94049
 30
0.0
 10
-2.38352
 20
-7.94049
 30
0.0
 10
-2.38352
 20
-7.94049
 30
0.0
 10
-2.38352
 20
-7.94049
 30
0.0
 10
-2.78485
 20
-7.94049
 30
0.0
 10
-2.78485
 20
-7.94049
 30
0.0
 10
-2.78485
 20
-7.94049
 30
0.0
 10
-2.78541
 20
-7.92257
 30
0.0
 10
-2.78245
 20
-7.90535
 30
0.0
 10
-2.7761
 20
-7.8887
 30
0.0
 10
-2.7761
 20
-7.8887
 30
0.0
 10
-2.7658
 20
-7.86147
 30
0.0
 10
-2.74929
 20
-7.83452
 30
0.0
 10
-2.72657
 20
-7.80813
 30
0.0
 10
-2.72657
 20
-7.80813
 30
0.0
 10
-2.70385
 20
-7.78174
 30
0.0
 10
-2.67139
 20
-7.75126
 30
0.0
 10
-2.6292
 20
-7.71669
 30
0.0
 10
-2.6292
 20
-7.71669
 30
0.0
 10
-2.56358
 20
-7.66264
 30
0.0
 10
-2.51899
 20
-7.61988
 30
0.0
 10
-2.49571
 20
-7.58828
 30
0.0
 10
-2.49571
 20
-7.58828
 30
0.0
 10
-2.47228
 20
-7.55667
 30
0.0
 10
-2.46057
 20
-7.52675
 30
0.0
 10
-2.46057
 20
-7.49853
 30
0.0
 10
-2.46057
 20
-7.49853
 30
0.0
 10
-2.46057
 20
-7.46904
 30
0.0
 10
-2.47116
 20
-7.4442
 30
0.0
 10
-2.49232
 20
-7.42388
 30
0.0
 10
-2.49232
 20
-7.42388
 30
0.0
 10
-2.51349
 20
-7.4037
 30
0.0
 10
-2.54115
 20
-7.39354
 30
0.0
 10
-2.57515
 20
-7.39354
 30
0.0
 10
-2.57515
 20
-7.39354
 30
0.0
 10
-2.61114
 20
-7.39354
 30
0.0
 10
-2.63992
 20
-7.40427
 30
0.0
 10
-2.66151
 20
-7.42571
 30
0.0
 10
-2.66151
 20
-7.42571
 30
0.0
 10
-2.68311
 20
-7.44702
 30
0.0
 10
-2.69397
 20
-7.47666
 30
0.0
 10
-2.69425
 20
-7.51461
 30
0.0
 10
-2.69425
 20
-7.51461
 30
0.0
 10
-2.69425
 20
-7.51461
 30
0.0
 10
-2.77045
 20
-7.50699
 30
0.0
 10
-2.77045
 20
-7.50699
 30
0.0
 10
-2.77045
 20
-7.50699
 30
0.0
 10
-2.76523
 20
-7.44999
 30
0.0
 10
-2.74548
 20
-7.40652
 30
0.0
 10
-2.71133
 20
-7.37661
 30
0.0
 10
-2.71133
 20
-7.37661
 30
0.0
 10
-2.67704
 20
-7.34669
 30
0.0
 10
-2.63118
 20
-7.33173
 30
0.0
 10
-2.57346
 20
-7.33173
 30
0.0
 10
-2.57346
 20
-7.33173
 30
0.0
 10
-2.51532
 20
-7.33173
 30
0.0
 10
-2.46918
 20
-7.34782
 30
0.0
 10
-2.43531
 20
-7.38014
 30
0.0
 10
-2.43531
 20
-7.38014
 30
0.0
 10
-2.40131
 20
-7.41245
 30
0.0
 10
-2.38437
 20
-7.45253
 30
0.0
 10
-2.38437
 20
-7.50022
 30
0.0
 10
-2.38437
 20
-7.50022
 30
0.0
 10
-2.38437
 20
-7.52449
 30
0.0
 10
-2.38931
 20
-7.54834
 30
0.0
 10
-2.39933
 20
-7.57177
 30
0.0
 10
-2.39933
 20
-7.57177
 30
0.0
 10
-2.40921
 20
-7.59533
 30
0.0
 10
-2.42572
 20
-7.62003
 30
0.0
 10
-2.44872
 20
-7.64599
 30
0.0
 10
-2.44872
 20
-7.64599
 30
0.0
 10
-2.47186
 20
-7.67181
 30
0.0
 10
-2.5101
 20
-7.70751
 30
0.0
 10
-2.56344
 20
-7.75267
 30
0.0
 10
-2.56344
 20
-7.75267
 30
0.0
 10
-2.60817
 20
-7.79021
 30
0.0
 10
-2.63696
 20
-7.81561
 30
0.0
 10
-2.64966
 20
-7.82901
 30
0.0
 10
-2.64966
 20
-7.82901
 30
0.0
 10
-2.66236
 20
-7.84242
 30
0.0
 10
-2.6728
 20
-7.85582
 30
0.0
 10
-2.68113
 20
-7.86937
 30
0.0
 10
-2.68113
 20
-7.86937
 30
0.0
 10
-2.68113
 20
-7.86937
 30
0.0
 10
-2.38352
 20
-7.86937
 30
0.0
 10
-2.38352
 20
-7.86937
 30
0.0
  0
SPLINE
  5
43
330
1F
100
AcDbEntity
  8
Layer 1
 62
   250
100
AcDbSpline
210
0.0
220
0.0
230
1.0
 70
    11
 71
     3
 72
    52
 73
    48
 74
     0
 42
0.0000000001
 43
0.0000000001
 12
1.0
 22
0.0
 32
0.0
 13
1.0
 23
0.0
 33
0.0
 40
0.0
 40
0.0
 40
0.0
 40
0.0
 40
0.0769230769230769
 40
0.0769230769230769
 40
0.0769230769230769
 40
0.0769230769230769
 40
0.1538461538461539
 40
0.1538461538461539
 40
0.1538461538461539
 40
0.1538461538461539
 40
0.2307692307692308
 40
0.2307692307692308
 40
0.2307692307692308
 40
0.2307692307692308
 40
0.3076923076923077
 40
0.3076923076923077
 40
0.3076923076923077
 40
0.3076923076923077
 40
0.3846153846153846
 40
0.3846153846153846
 40
0.3846153846153846
 40
0.3846153846153846
 40
0.4615384615384616
 40
0.4615384615384616
 40
0.4615384615384616
 40
0.4615384615384616
 40
0.5384615384615384
 40
0.5384615384615384
 40
0.5384615384615384
 40
0.5384615384615384
 40
0.6153846153846154
 40
0.6153846153846154
 40
0.6153846153846154
 40
0.6153846153846154
 40
0.6923076923076923
 40
0.6923076923076923
 40
0.6923076923076923
 40
0.6923076923076923
 40
0.7692307692307693
 40
0.7692307692307693
 40
0.7692307692307693
 40
0.7692307692307693
 40
0.8461538461538461
 40
0.8461538461538461
 40
0.8461538461538461
 40
0.8461538461538461
 40
1.0
 40
1.0
 40
1.0
 40
1.0
 10
-2.30295
 20
-7.64133
 30
0.0
 10
-2.30295
 20
-7.56979
 30
0.0
 10
-2.29561
 20
-7.51193
 30
0.0
 10
-2.28094
 20
-7.46819
 30
0.0
 10
-2.28094
 20
-7.46819
 30
0.0
 10
-2.26612
 20
-7.4243
 30
0.0
 10
-2.24425
 20
-7.39058
 30
0.0
 10
-2.21518
 20
-7.36701
 30
0.0
 10
-2.21518
 20
-7.36701
 30
0.0
 10
-2.18625
 20
-7.34345
 30
0.0
 10
-2.1497
 20
-7.33173
 30
0.0
 10
-2.10568
 20
-7.33173
 30
0.0
 10
-2.10568
 20
-7.33173
 30
0.0
 10
-2.07322
 20
-7.33173
 30
0.0
 10
-2.04472
 20
-7.33823
 30
0.0
 10
-2.02002
 20
-7.35135
 30
0.0
 10
-2.02002
 20
-7.35135
 30
0.0
 10
-1.99547
 20
-7.36447
 30
0.0
 10
-1.97515
 20
-7.38338
 30
0.0
 10
-1.95934
 20
-7.40808
 30
0.0
 10
-1.95934
 20
-7.40808
 30
0.0
 10
-1.94354
 20
-7.43263
 30
0.0
 10
-1.93112
 20
-7.46269
 30
0.0
 10
-1.92209
 20
-7.4981
 30
0.0
 10
-1.92209
 20
-7.4981
 30
0.0
 10
-1.91292
 20
-7.53352
 30
0.0
 10
-1.9084
 20
-7.58136
 30
0.0
 10
-1.9084
 20
-7.64133
 30
0.0
 10
-1.9084
 20
-7.64133
 30
0.0
 10
-1.9084
 20
-7.71245
 30
0.0
 10
-1.91574
 20
-7.77003
 30
0.0
 10
-1.93027
 20
-7.81377
 30
0.0
 10
-1.93027
 20
-7.81377
 30
0.0
 10
-1.94481
 20
-7.85766
 30
0.0
 10
-1.96668
 20
-7.89138
 30
0.0
 10
-1.99575
 20
-7.91509
 30
0.0
 10
-1.99575
 20
-7.91509
 30
0.0
 10
-2.02468
 20
-7.9388
 30
0.0
 10
-2.06137
 20
-7.95065
 30
0.0
 10
-2.10568
 20
-7.95065
 30
0.0
 10
-2.10568
 20
-7.95065
 30
0.0
 10
-2.16395
 20
-7.95065
 30
0.0
 10
-2.20982
 20
-7.92991
 30
0.0
 10
-2.24312
 20
-7.88828
 30
0.0
 10
-2.24312
 20
-7.88828
 30
0.0
 10
-2.28305
 20
-7.83748
 30
0.0
 10
-2.30295
 20
-7.75521
 30
0.0
 10
-2.30295
 20
-7.64133
 30
0.0
  0
SPLINE
  5
44
330
1F
100
AcDbEntity
  8
Layer 1
 62
   250
100
AcDbSpline
210
0.0
220
0.0
230
1.0
 70
    11
 71
     3
 72
    36
 73
    32
 74
     0
 42
0.0000000001
 43
0.0000000001
 12
1.0
 22
0.0
 32
0.0
 13
1.0
 23
0.0
 33
0.0
 40
0.0
 40
0.0
 40
0.0
 40
0.0
 40
0.1111111111111111
 40
0.1111111111111111
 40
0.1111111111111111
 40
0.1111111111111111
 40
0.2222222222222222
 40
0.2222222222222222
 40
0.2222222222222222
 40
0.2222222222222222
 40
0.3333333333333333
 40
0.3333333333333333
 40
0.3333333333333333
 40
0.3333333333333333
 40
0.4444444444444444
 40
0.4444444444444444
 40
0.4444444444444444
 40
0.4444444444444444
 40
0.5555555555555556
 40
0.5555555555555556
 40
0.5555555555555556
 40
0.5555555555555556
 40
0.6666666666666666
 40
0.6666666666666666
 40
0.6666666666666666
 40
0.6666666666666666
 40
0.7777777777777778
 40
0.7777777777777778
 40
0.7777777777777778
 40
0.7777777777777778
 40
1.0
 40
1.0
 40
1.0
 40
1.0
 10
-2.22675
 20
-7.64162
 30
0.0
 10
-2.22675
 20
-7.74138
 30
0.0
 10
-2.21518
 20
-7.8077
 30
0.0
 10
-2.19189
 20
-7.84044
 30
0.0
 10
-2.19189
 20
-7.84044
 30
0.0
 10
-2.16861
 20
-7.87332
 30
0.0
 10
-2.13982
 20
-7.88969
 30
0.0
 10
-2.10568
 20
-7.88969
 30
0.0
 10
-2.10568
 20
-7.88969
 30
0.0
 10
-2.07153
 20
-7.88969
 30
0.0
 10
-2.04274
 20
-7.87318
 30
0.0
 10
-2.01946
 20
-7.8403
 30
0.0
 10
-2.01946
 20
-7.8403
 30
0.0
 10
-1.99617
 20
-7.80728
 30
0.0
 10
-1.9846
 20
-7.7411
 30
0.0
 10
-1.9846
 20
-7.64162
 30
0.0
 10
-1.9846
 20
-7.64162
 30
0.0
 10
-1.9846
 20
-7.54185
 30
0.0
 10
-1.99617
 20
-7.47553
 30
0.0
 10
-2.01946
 20
-7.44279
 30
0.0
 10
-2.01946
 20
-7.44279
 30
0.0
 10
-2.0426
 20
-7.40991
 30
0.0
 10
-2.07167
 20
-7.39354
 30
0.0
 10
-2.10652
 20
-7.39354
 30
0.0
 10
-2.10652
 20
-7.39354
 30
0.0
 10
-2.14067
 20
-7.39354
 30
0.0
 10
-2.16805
 20
-7.40808
 30
0.0
 10
-2.18851
 20
-7.437
 30
0.0
 10
-2.18851
 20
-7.437
 30
0.0
 10
-2.21405
 20
-7.47383
 30
0.0
 10
-2.22675
 20
-7.54213
 30
0.0
 10
-2.22675
 20
-7.64162
 30
0.0
  0
SPLINE
  5
45
330
1F
100
AcDbEntity
  8
Layer 1
 62
   250
100
AcDbSpline
210
0.0
220
0.0
230
1.0
 70
    11
 71
     3
 72
    48
 73
    44
 74
     0
 42
0.0000000001
 43
0.0000000001
 12
1.0
 22
0.0
 32
0.0
 13
1.0
 23
0.0
 33
0.0
 40
0.0
 40
0.0
 40
0.0
 40
0.0
 40
0.0833333333333333
 40
0.0833333333333333
 40
0.0833333333333333
 40
0.0833333333333333
 40
0.1666666666666667
 40
0.1666666666666667
 40
0.1666666666666667
 40
0.1666666666666667
 40
0.25
 40
0.25
 40
0.25
 40
0.25
 40
0.3333333333333333
 40
0.3333333333333333
 40
0.3333333333333333
 40
0.3333333333333333
 40
0.4166666666666667
 40
0.4166666666666667
 40
0.4166666666666667
 40
0.4166666666666667
 40
0.5
 40
0.5
 40
0.5
 40
0.5
 40
0.5833333333333334
 40
0.5833333333333334
 40
0.5833333333333334
 40
0.5833333333333334
 40
0.6666666666666666
 40
0.6666666666666666
 40
0.6666666666666666
 40
0.6666666666666666
 40
0.75
 40
0.75
 40
0.75
 40
0.75
 40
0.8333333333333334
 40
0.8333333333333334
 40
0.8333333333333334
 40
0.8333333333333334
 40
1.0
 40
1.0
 40
1.0
 40
1.0
 10
-1.82783
 20
-7.41301
 30
0.0
 10
-1.82783
 20
-7.41301
 30
0.0
 10
-1.82783
 20
-7.34189
 30
0.0
 10
-1.82783
 20
-7.34189
 30
0.0
 10
-1.82783
 20
-7.34189
 30
0.0
 10
-1.82783
 20
-7.34189
 30
0.0
 10
-1.43582
 20
-7.34189
 30
0.0
 10
-1.43582
 20
-7.34189
 30
0.0
 10
-1.43582
 20
-7.34189
 30
0.0
 10
-1.43582
 20
-7.34189
 30
0.0
 10
-1.43582
 20
-7.39947
 30
0.0
 10
-1.43582
 20
-7.39947
 30
0.0
 10
-1.43582
 20
-7.39947
 30
0.0
 10
-1.47434
 20
-7.44053
 30
0.0
 10
-1.51272
 20
-7.49514
 30
0.0
 10
-1.55054
 20
-7.5633
 30
0.0
 10
-1.55054
 20
-7.5633
 30
0.0
 10
-1.5885
 20
-7.63146
 30
0.0
 10
-1.61771
 20
-7.70159
 30
0.0
 10
-1.63845
 20
-7.7737
 30
0.0
 10
-1.63845
 20
-7.7737
 30
0.0
 10
-1.65327
 20
-7.82436
 30
0.0
 10
-1.66287
 20
-7.88009
 30
0.0
 10
-1.66696
 20
-7.94049
 30
0.0
 10
-1.66696
 20
-7.94049
 30
0.0
 10
-1.66696
 20
-7.94049
 30
0.0
 10
-1.74316
 20
-7.94049
 30
0.0
 10
-1.74316
 20
-7.94049
 30
0.0
 10
-1.74316
 20
-7.94049
 30
0.0
 10
-1.74231
 20
-7.89279
 30
0.0
 10
-1.733
 20
-7.83508
 30
0.0
 10
-1.71508
 20
-7.76749
 30
0.0
 10
-1.71508
 20
-7.76749
 30
0.0
 10
-1.69716
 20
-7.69975
 30
0.0
 10
-1.67162
 20
-7.63456
 30
0.0
 10
-1.63817
 20
-7.57177
 30
0.0
 10
-1.63817
 20
-7.57177
 30
0.0
 10
-1.60473
 20
-7.50897
 30
0.0
 10
-1.56917
 20
-7.45605
 30
0.0
 10
-1.53149
 20
-7.41301
 30
0.0
 10
-1.53149
 20
-7.41301
 30
0.0
 10
-1.53149
 20
-7.41301
 30
0.0
 10
-1.82783
 20
-7.41301
 30
0.0
 10
-1.82783
 20
-7.41301
 30
0.0
  0
SPLINE
  5
46
330
1F
100
AcDbEntity
  8
Layer 1
 62
   250
100
AcDbSpline
210
0.0
220
0.0
230
1.0
 70
    11
 71
     3
 72
    52
 73
    48
 74
     0
 42
0.0000000001
 43
0.0000000001
 12
1.0
 22
0.0
 32
0.0
 13
1.0
 23
0.0
 33
0.0
 40
0.0
 40
0.0
 40
0.0
 40
0.0
 40
0.0769230769230769
 40
0.0769230769230769
 40
0.0769230769230769
 40
0.0769230769230769
 40
0.1538461538461539
 40
0.1538461538461539
 40
0.1538461538461539
 40
0.1538461538461539
 40
0.2307692307692308
 40
0.2307692307692308
 40
0.2307692307692308
 40
0.2307692307692308
 40
0.3076923076923077
 40
0.3076923076923077
 40
0.3076923076923077
 40
0.3076923076923077
 40
0.3846153846153846
 40
0.3846153846153846
 40
0.3846153846153846
 40
0.3846153846153846
 40
0.4615384615384616
 40
0.4615384615384616
 40
0.4615384615384616
 40
0.4615384615384616
 40
0.5384615384615384
 40
0.5384615384615384
 40
0.5384615384615384
 40
0.5384615384615384
 40
0.6153846153846154
 40
0.6153846153846154
 40
0.6153846153846154
 40
0.6153846153846154
 40
0.6923076923076923
 40
0.6923076923076923
 40
0.6923076923076923
 40
0.6923076923076923
 40
0.7692307692307693
 40
0.7692307692307693
 40
0.7692307692307693
 40
0.7692307692307693
 40
0.8461538461538461
 40
0.8461538461538461
 40
0.8461538461538461
 40
0.8461538461538461
 40
1.0
 40
1.0
 40
1.0
 40
1.0
 10
-1.36117
 20
-7.64133
 30
0.0
 10
-1.36117
 20
-7.56979
 30
0.0
 10
-1.35383
 20
-7.51193
 30
0.0
 10
-1.33916
 20
-7.46819
 30
0.0
 10
-1.33916
 20
-7.46819
 30
0.0
 10
-1.32434
 20
-7.4243
 30
0.0
 10
-1.30247
 20
-7.39058
 30
0.0
 10
-1.2734
 20
-7.36701
 30
0.0
 10
-1.2734
 20
-7.36701
 30
0.0
 10
-1.24447
 20
-7.34345
 30
0.0
 10
-1.20792
 20
-7.33173
 30
0.0
 10
-1.1639
 20
-7.33173
 30
0.0
 10
-1.1639
 20
-7.33173
 30
0.0
 10
-1.13144
 20
-7.33173
 30
0.0
 10
-1.10294
 20
-7.33823
 30
0.0
 10
-1.07824
 20
-7.35135
 30
0.0
 10
-1.07824
 20
-7.35135
 30
0.0
 10
-1.05369
 20
-7.36447
 30
0.0
 10
-1.03337
 20
-7.38338
 30
0.0
 10
-1.01756
 20
-7.40808
 30
0.0
 10
-1.01756
 20
-7.40808
 30
0.0
 10
-1.00176
 20
-7.43263
 30
0.0
 10
-0.98934
 20
-7.46269
 30
0.0
 10
-0.98031
 20
-7.4981
 30
0.0
 10
-0.98031
 20
-7.4981
 30
0.0
 10
-0.97114
 20
-7.53352
 30
0.0
 10
-0.96662
 20
-7.58136
 30
0.0
 10
-0.96662
 20
-7.64133
 30
0.0
 10
-0.96662
 20
-7.64133
 30
0.0
 10
-0.96662
 20
-7.71245
 30
0.0
 10
-0.97396
 20
-7.77003
 30
0.0
 10
-0.98849
 20
-7.81377
 30
0.0
 10
-0.98849
 20
-7.81377
 30
0.0
 10
-1.00303
 20
-7.85766
 30
0.0
 10
-1.0249
 20
-7.89138
 30
0.0
 10
-1.05397
 20
-7.91509
 30
0.0
 10
-1.05397
 20
-7.91509
 30
0.0
 10
-1.0829
 20
-7.9388
 30
0.0
 10
-1.11959
 20
-7.95065
 30
0.0
 10
-1.1639
 20
-7.95065
 30
0.0
 10
-1.1639
 20
-7.95065
 30
0.0
 10
-1.22217
 20
-7.95065
 30
0.0
 10
-1.26804
 20
-7.92991
 30
0.0
 10
-1.30134
 20
-7.88828
 30
0.0
 10
-1.30134
 20
-7.88828
 30
0.0
 10
-1.34127
 20
-7.83748
 30
0.0
 10
-1.36117
 20
-7.75521
 30
0.0
 10
-1.36117
 20
-7.64133
 30
0.0
  0
SPLINE
  5
47
330
1F
100
AcDbEntity
  8
Layer 1
 62
   250
100
AcDbSpline
210
0.0
220
0.0
230
1.0
 70
    11
 71
     3
 72
    36
 73
    32
 74
     0
 42
0.0000000001
 43
0.0000000001
 12
1.0
 22
0.0
 32
0.0
 13
1.0
 23
0.0
 33
0.0
 40
0.0
 40
0.0
 40
0.0
 40
0.0
 40
0.1111111111111111
 40
0.1111111111111111
 40
0.1111111111111111
 40
0.1111111111111111
 40
0.2222222222222222
 40
0.2222222222222222
 40
0.2222222222222222
 40
0.2222222222222222
 40
0.3333333333333333
 40
0.3333333333333333
 40
0.3333333333333333
 40
0.3333333333333333
 40
0.4444444444444444
 40
0.4444444444444444
 40
0.4444444444444444
 40
0.4444444444444444
 40
0.5555555555555556
 40
0.5555555555555556
 40
0.5555555555555556
 40
0.5555555555555556
 40
0.6666666666666666
 40
0.6666666666666666
 40
0.6666666666666666
 40
0.6666666666666666
 40
0.7777777777777778
 40
0.7777777777777778
 40
0.7777777777777778
 40
0.7777777777777778
 40
1.0
 40
1.0
 40
1.0
 40
1.0
 10
-1.28497
 20
-7.64162
 30
0.0
 10
-1.28497
 20
-7.74138
 30
0.0
 10
-1.2734
 20
-7.8077
 30
0.0
 10
-1.25011
 20
-7.84044
 30
0.0
 10
-1.25011
 20
-7.84044
 30
0.0
 10
-1.22683
 20
-7.87332
 30
0.0
 10
-1.19804
 20
-7.88969
 30
0.0
 10
-1.1639
 20
-7.88969
 30
0.0
 10
-1.1639
 20
-7.88969
 30
0.0
 10
-1.12975
 20
-7.88969
 30
0.0
 10
-1.10096
 20
-7.87318
 30
0.0
 10
-1.07768
 20
-7.8403
 30
0.0
 10
-1.07768
 20
-7.8403
 30
0.0
 10
-1.05439
 20
-7.80728
 30
0.0
 10
-1.04282
 20
-7.7411
 30
0.0
 10
-1.04282
 20
-7.64162
 30
0.0
 10
-1.04282
 20
-7.64162
 30
0.0
 10
-1.04282
 20
-7.54185
 30
0.0
 10
-1.05439
 20
-7.47553
 30
0.0
 10
-1.07768
 20
-7.44279
 30
0.0
 10
-1.07768
 20
-7.44279
 30
0.0
 10
-1.10082
 20
-7.40991
 30
0.0
 10
-1.12989
 20
-7.39354
 30
0.0
 10
-1.16474
 20
-7.39354
 30
0.0
 10
-1.16474
 20
-7.39354
 30
0.0
 10
-1.19889
 20
-7.39354
 30
0.0
 10
-1.22627
 20
-7.40808
 30
0.0
 10
-1.24673
 20
-7.437
 30
0.0
 10
-1.24673
 20
-7.437
 30
0.0
 10
-1.27227
 20
-7.47383
 30
0.0
 10
-1.28497
 20
-7.54213
 30
0.0
 10
-1.28497
 20
-7.64162
 30
0.0
  0
SPLINE
  5
48
330
1F
100
AcDbEntity
  8
Layer 1
 62
   250
100
AcDbSpline
210
0.0
220
0.0
230
1.0
 70
    11
 71
     3
 72
    52
 73
    48
 74
     0
 42
0.0000000001
 43
0.0000000001
 12
1.0
 22
0.0
 32
0.0
 13
1.0
 23
0.0
 33
0.0
 40
0.0
 40
0.0
 40
0.0
 40
0.0
 40
0.0769230769230769
 40
0.0769230769230769
 40
0.0769230769230769
 40
0.0769230769230769
 40
0.1538461538461539
 40
0.1538461538461539
 40
0.1538461538461539
 40
0.1538461538461539
 40
0.2307692307692308
 40
0.2307692307692308
 40
0.2307692307692308
 40
0.2307692307692308
 40
0.3076923076923077
 40
0.3076923076923077
 40
0.3076923076923077
 40
0.3076923076923077
 40
0.3846153846153846
 40
0.3846153846153846
 40
0.3846153846153846
 40
0.3846153846153846
 40
0.4615384615384616
 40
0.4615384615384616
 40
0.4615384615384616
 40
0.4615384615384616
 40
0.5384615384615384
 40
0.5384615384615384
 40
0.5384615384615384
 40
0.5384615384615384
 40
0.6153846153846154
 40
0.6153846153846154
 40
0.6153846153846154
 40
0.6153846153846154
 40
0.6923076923076923
 40
0.6923076923076923
 40
0.6923076923076923
 40
0.6923076923076923
 40
0.7692307692307693
 40
0.7692307692307693
 40
0.7692307692307693
 40
0.7692307692307693
 40
0.8461538461538461
 40
0.8461538461538461
 40
0.8461538461538461
 40
0.8461538461538461
 40
1.0
 40
1.0
 40
1.0
 40
1.0
 10
-0.89028
 20
-7.64133
 30
0.0
 10
-0.89028
 20
-7.56979
 30
0.0
 10
-0.88294
 20
-7.51193
 30
0.0
 10
-0.86827
 20
-7.46819
 30
0.0
 10
-0.86827
 20
-7.46819
 30
0.0
 10
-0.85345
 20
-7.4243
 30
0.0
 10
-0.83158
 20
-7.39058
 30
0.0
 10
-0.80251
 20
-7.36701
 30
0.0
 10
-0.80251
 20
-7.36701
 30
0.0
 10
-0.77358
 20
-7.34345
 30
0.0
 10
-0.73703
 20
-7.33173
 30
0.0
 10
-0.69301
 20
-7.33173
 30
0.0
 10
-0.69301
 20
-7.33173
 30
0.0
 10
-0.66055
 20
-7.33173
 30
0.0
 10
-0.63205
 20
-7.33823
 30
0.0
 10
-0.60735
 20
-7.35135
 30
0.0
 10
-0.60735
 20
-7.35135
 30
0.0
 10
-0.5828
 20
-7.36447
 30
0.0
 10
-0.56248
 20
-7.38338
 30
0.0
 10
-0.54667
 20
-7.40808
 30
0.0
 10
-0.54667
 20
-7.40808
 30
0.0
 10
-0.53087
 20
-7.43263
 30
0.0
 10
-0.51845
 20
-7.46269
 30
0.0
 10
-0.50942
 20
-7.4981
 30
0.0
 10
-0.50942
 20
-7.4981
 30
0.0
 10
-0.50025
 20
-7.53352
 30
0.0
 10
-0.49573
 20
-7.58136
 30
0.0
 10
-0.49573
 20
-7.64133
 30
0.0
 10
-0.49573
 20
-7.64133
 30
0.0
 10
-0.49573
 20
-7.71245
 30
0.0
 10
-0.50307
 20
-7.77003
 30
0.0
 10
-0.5176
 20
-7.81377
 30
0.0
 10
-0.5176
 20
-7.81377
 30
0.0
 10
-0.53214
 20
-7.85766
 30
0.0
 10
-0.55401
 20
-7.89138
 30
0.0
 10
-0.58308
 20
-7.91509
 30
0.0
 10
-0.58308
 20
-7.91509
 30
0.0
 10
-0.61201
 20
-7.9388
 30
0.0
 10
-0.6487
 20
-7.95065
 30
0.0
 10
-0.69301
 20
-7.95065
 30
0.0
 10
-0.69301
 20
-7.95065
 30
0.0
 10
-0.75128
 20
-7.95065
 30
0.0
 10
-0.79715
 20
-7.92991
 30
0.0
 10
-0.83045
 20
-7.88828
 30
0.0
 10
-0.83045
 20
-7.88828
 30
0.0
 10
-0.87038
 20
-7.83748
 30
0.0
 10
-0.89028
 20
-7.75521
 30
0.0
 10
-0.89028
 20
-7.64133
 30
0.0
  0
SPLINE
  5
49
330
1F
100
AcDbEntity
  8
Layer 1
 62
   250
100
AcDbSpline
210
0.0
220
0.0
230
1.0
 70
    11
 71
     3
 72
    36
 73
    32
 74
     0
 42
0.0000000001
 43
0.0000000001
 12
1.0
 22
0.0
 32
0.0
 13
1.0
 23
0.0
 33
0.0
 40
0.0
 40
0.0
 40
0.0
 40
0.0
 40
0.1111111111111111
 40
0.1111111111111111
 40
0.1111111111111111
 40
0.1111111111111111
 40
0.2222222222222222
 40
0.2222222222222222
 40
0.2222222222222222
 40
0.2222222222222222
 40
0.3333333333333333
 40
0.3333333333333333
 40
0.3333333333333333
 40
0.3333333333333333
 40
0.4444444444444444
 40
0.4444444444444444
 40
0.4444444444444444
 40
0.4444444444444444
 40
0.5555555555555556
 40
0.5555555555555556
 40
0.5555555555555556
 40
0.5555555555555556
 40
0.6666666666666666
 40
0.6666666666666666
 40
0.6666666666666666
 40
0.6666666666666666
 40
0.7777777777777778
 40
0.7777777777777778
 40
0.7777777777777778
 40
0.7777777777777778
 40
1.0
 40
1.0
 40
1.0
 40
1.0
 10
-0.81408
 20
-7.64162
 30
0.0
 10
-0.81408
 20
-7.74138
 30
0.0
 10
-0.80251
 20
-7.8077
 30
0.0
 10
-0.77922
 20
-7.84044
 30
0.0
 10
-0.77922
 20
-7.84044
 30
0.0
 10
-0.75594
 20
-7.87332
 30
0.0
 10
-0.72715
 20
-7.88969
 30
0.0
 10
-0.69301
 20
-7.88969
 30
0.0
 10
-0.69301
 20
-7.88969
 30
0.0
 10
-0.65886
 20
-7.88969
 30
0.0
 10
-0.63007
 20
-7.87318
 30
0.0
 10
-0.60679
 20
-7.8403
 30
0.0
 10
-0.60679
 20
-7.8403
 30
0.0
 10
-0.5835
 20
-7.80728
 30
0.0
 10
-0.57193
 20
-7.7411
 30
0.0
 10
-0.57193
 20
-7.64162
 30
0.0
 10
-0.57193
 20
-7.64162
 30
0.0
 10
-0.57193
 20
-7.54185
 30
0.0
 10
-0.5835
 20
-7.47553
 30
0.0
 10
-0.60679
 20
-7.44279
 30
0.0
 10
-0.60679
 20
-7.44279
 30
0.0
 10
-0.62993
 20
-7.40991
 30
0.0
 10
-0.659
 20
-7.39354
 30
0.0
 10
-0.69385
 20
-7.39354
 30
0.0
 10
-0.69385
 20
-7.39354
 30
0.0
 10
-0.728
 20
-7.39354
 30
0.0
 10
-0.75538
 20
-7.40808
 30
0.0
 10
-0.77584
 20
-7.437
 30
0.0
 10
-0.77584
 20
-7.437
 30
0.0
 10
-0.80138
 20
-7.47383
 30
0.0
 10
-0.81408
 20
-7.54213
 30
0.0
 10
-0.81408
 20
-7.64162
 30
0.0
  0
SPLINE
  5
4A
330
1F
100
AcDbEntity
  8
Layer 1
 62
   250
100
AcDbSpline
210
0.0
220
0.0
230
1.0
 70
    11
 71
     3
 72
    92
 73
    88
 74
     0
 42
0.0000000001
 43
0.0000000001
 12
1.0
 22
0.0
 32
0.0
 13
1.0
 23
0.0
 33
0.0
 40
0.0
 40
0.0
 40
0.0
 40
0.0
 40
0.0434782608695652
 40
0.0434782608695652
 40
0.0434782608695652
 40
0.0434782608695652
 40
0.0869565217391304
 40
0.0869565217391304
 40
0.0869565217391304
 40
0.0869565217391304
 40
0.1304347826086956
 40
0.1304347826086956
 40
0.1304347826086956
 40
0.1304347826086956
 40
0.1739130434782609
 40
0.1739130434782609
 40
0.1739130434782609
 40
0.1739130434782609
 40
0.2173913043478261
 40
0.2173913043478261
 40
0.2173913043478261
 40
0.2173913043478261
 40
0.2608695652173913
 40
0.2608695652173913
 40
0.2608695652173913
 40
0.2608695652173913
 40
0.3043478260869565
 40
0.3043478260869565
 40
0.3043478260869565
 40
0.3043478260869565
 40
0.3478260869565217
 40
0.3478260869565217
 40
0.3478260869565217
 40
0.3478260869565217
 40
0.391304347826087
 40
0.391304347826087
 40
0.391304347826087
 40
0.391304347826087
 40
0.4347826086956522
 40
0.4347826086956522
 40
0.4347826086956522
 40
0.4347826086956522
 40
0.4782608695652174
 40
0.4782608695652174
 40
0.4782608695652174
 40
0.4782608695652174
 40
0.5217391304347826
 40
0.5217391304347826
 40
0.5217391304347826
 40
0.5217391304347826
 40
0.5652173913043478
 40
0.5652173913043478
 40
0.5652173913043478
 40
0.5652173913043478
 40
0.6086956521739131
 40
0.6086956521739131
 40
0.6086956521739131
 40
0.6086956521739131
 40
0.6521739130434783
 40
0.6521739130434783
 40
0.6521739130434783
 40
0.6521739130434783
 40
0.6956521739130435
 40
0.6956521739130435
 40
0.6956521739130435
 40
0.6956521739130435
 40
0.7391304347826086
 40
0.7391304347826086
 40
0.7391304347826086
 40
0.7391304347826086
 40
0.782608695652174
 40
0.782608695652174
 40
0.782608695652174
 40
0.782608695652174
 40
0.8260869565217391
 40
0.8260869565217391
 40
0.8260869565217391
 40
0.8260869565217391
 40
0.8695652173913043
 40
0.8695652173913043
 40
0.8695652173913043
 40
0.8695652173913043
 40
0.9130434782608695
 40
0.9130434782608695
 40
0.9130434782608695
 40
0.9130434782608695
 40
1.0
 40
1.0
 40
1.0
 40
1.0
 10
-0.02907
 20
-7.86937
 30
0.0
 10
-0.02907
 20
-7.86937
 30
0.0
 10
-0.02907
 20
-7.94049
 30
0.0
 10
-0.02907
 20
-7.94049
 30
0.0
 10
-0.02907
 20
-7.94049
 30
0.0
 10
-0.02907
 20
-7.94049
 30
0.0
 10
-0.4304
 20
-7.94049
 30
0.0
 10
-0.4304
 20
-7.94049
 30
0.0
 10
-0.4304
 20
-7.94049
 30
0.0
 10
-0.43096
 20
-7.92257
 30
0.0
 10
-0.428
 20
-7.90535
 30
0.0
 10
-0.42165
 20
-7.8887
 30
0.0
 10
-0.42165
 20
-7.8887
 30
0.0
 10
-0.41135
 20
-7.86147
 30
0.0
 10
-0.39484
 20
-7.83452
 30
0.0
 10
-0.37212
 20
-7.80813
 30
0.0
 10
-0.37212
 20
-7.80813
 30
0.0
 10
-0.3494
 20
-7.78174
 30
0.0
 10
-0.31694
 20
-7.75126
 30
0.0
 10
-0.27475
 20
-7.71669
 30
0.0
 10
-0.27475
 20
-7.71669
 30
0.0
 10
-0.20913
 20
-7.66264
 30
0.0
 10
-0.16454
 20
-7.61988
 30
0.0
 10
-0.14126
 20
-7.58828
 30
0.0
 10
-0.14126
 20
-7.58828
 30
0.0
 10
-0.11783
 20
-7.55667
 30
0.0
 10
-0.10612
 20
-7.52675
 30
0.0
 10
-0.10612
 20
-7.49853
 30
0.0
 10
-0.10612
 20
-7.49853
 30
0.0
 10
-0.10612
 20
-7.46904
 30
0.0
 10
-0.11671
 20
-7.4442
 30
0.0
 10
-0.13787
 20
-7.42388
 30
0.0
 10
-0.13787
 20
-7.42388
 30
0.0
 10
-0.15904
 20
-7.4037
 30
0.0
 10
-0.1867
 20
-7.39354
 30
0.0
 10
-0.2207
 20
-7.39354
 30
0.0
 10
-0.2207
 20
-7.39354
 30
0.0
 10
-0.25669
 20
-7.39354
 30
0.0
 10
-0.28547
 20
-7.40427
 30
0.0
 10
-0.30706
 20
-7.42571
 30
0.0
 10
-0.30706
 20
-7.42571
 30
0.0
 10
-0.32866
 20
-7.44702
 30
0.0
 10
-0.33952
 20
-7.47666
 30
0.0
 10
-0.3398
 20
-7.51461
 30
0.0
 10
-0.3398
 20
-7.51461
 30
0.0
 10
-0.3398
 20
-7.51461
 30
0.0
 10
-0.416
 20
-7.50699
 30
0.0
 10
-0.416
 20
-7.50699
 30
0.0
 10
-0.416
 20
-7.50699
 30
0.0
 10
-0.41078
 20
-7.44999
 30
0.0
 10
-0.39103
 20
-7.40652
 30
0.0
 10
-0.35688
 20
-7.37661
 30
0.0
 10
-0.35688
 20
-7.37661
 30
0.0
 10
-0.32259
 20
-7.34669
 30
0.0
 10
-0.27673
 20
-7.33173
 30
0.0
 10
-0.21901
 20
-7.33173
 30
0.0
 10
-0.21901
 20
-7.33173
 30
0.0
 10
-0.16087
 20
-7.33173
 30
0.0
 10
-0.11473
 20
-7.34782
 30
0.0
 10
-0.08086
 20
-7.38014
 30
0.0
 10
-0.08086
 20
-7.38014
 30
0.0
 10
-0.04686
 20
-7.41245
 30
0.0
 10
-0.02992
 20
-7.45253
 30
0.0
 10
-0.02992
 20
-7.50022
 30
0.0
 10
-0.02992
 20
-7.50022
 30
0.0
 10
-0.02992
 20
-7.52449
 30
0.0
 10
-0.03486
 20
-7.54834
 30
0.0
 10
-0.04488
 20
-7.57177
 30
0.0
 10
-0.04488
 20
-7.57177
 30
0.0
 10
-0.05476
 20
-7.59533
 30
0.0
 10
-0.07127
 20
-7.62003
 30
0.0
 10
-0.09427
 20
-7.64599
 30
0.0
 10
-0.09427
 20
-7.64599
 30
0.0
 10
-0.11741
 20
-7.67181
 30
0.0
 10
-0.15565
 20
-7.70751
 30
0.0
 10
-0.20899
 20
-7.75267
 30
0.0
 10
-0.20899
 20
-7.75267
 30
0.0
 10
-0.25372
 20
-7.79021
 30
0.0
 10
-0.28251
 20
-7.81561
 30
0.0
 10
-0.29521
 20
-7.82901
 30
0.0
 10
-0.29521
 20
-7.82901
 30
0.0
 10
-0.30791
 20
-7.84242
 30
0.0
 10
-0.31835
 20
-7.85582
 30
0.0
 10
-0.32668
 20
-7.86937
 30
0.0
 10
-0.32668
 20
-7.86937
 30
0.0
 10
-0.32668
 20
-7.86937
 30
0.0
 10
-0.02907
 20
-7.86937
 30
0.0
 10
-0.02907
 20
-7.86937
 30
0.0
  0
SPLINE
  5
4B
330
1F
100
AcDbEntity
  8
Layer 1
 62
   250
100
AcDbSpline
210
0.0
220
0.0
230
1.0
 70
    11
 71
     3
 72
    20
 73
    16
 74
     0
 42
0.0000000001
 43
0.0000000001
 12
1.0
 22
0.0
 32
0.0
 13
1.0
 23
0.0
 33
0.0
 40
0.0
 40
0.0
 40
0.0
 40
0.0
 40
0.2
 40
0.2
 40
0.2
 40
0.2
 40
0.4
 40
0.4
 40
0.4
 40
0.4
 40
0.6
 40
0.6
 40
0.6
 40
0.6
 40
1.0
 40
1.0
 40
1.0
 40
1.0
 10
0.04219
 20
-7.75846
 30
0.0
 10
0.04219
 20
-7.75846
 30
0.0
 10
0.04219
 20
-7.68395
 30
0.0
 10
0.04219
 20
-7.68395
 30
0.0
 10
0.04219
 20
-7.68395
 30
0.0
 10
0.04219
 20
-7.68395
 30
0.0
 10
0.27248
 20
-7.68395
 30
0.0
 10
0.27248
 20
-7.68395
 30
0.0
 10
0.27248
 20
-7.68395
 30
0.0
 10
0.27248
 20
-7.68395
 30
0.0
 10
0.27248
 20
-7.75846
 30
0.0
 10
0.27248
 20
-7.75846
 30
0.0
 10
0.27248
 20
-7.75846
 30
0.0
 10
0.27248
 20
-7.75846
 30
0.0
 10
0.04219
 20
-7.75846
 30
0.0
 10
0.04219
 20
-7.75846
 30
0.0
  0
SPLINE
  5
4C
330
1F
100
AcDbEntity
  8
Layer 1
 62
   250
100
AcDbSpline
210
0.0
220
0.0
230
1.0
 70
    11
 71
     3
 72
    84
 73
    80
 74
     0
 42
0.0000000001
 43
0.0000000001
 12
1.0
 22
0.0
 32
0.0
 13
1.0
 23
0.0
 33
0.0
 40
0.0
 40
0.0
 40
0.0
 40
0.0
 40
0.0476190476190476
 40
0.0476190476190476
 40
0.0476190476190476
 40
0.0476190476190476
 40
0.0952380952380952
 40
0.0952380952380952
 40
0.0952380952380952
 40
0.0952380952380952
 40
0.1428571428571428
 40
0.1428571428571428
 40
0.1428571428571428
 40
0.1428571428571428
 40
0.1904761904761905
 40
0.1904761904761905
 40
0.1904761904761905
 40
0.1904761904761905
 40
0.2380952380952381
 40
0.2380952380952381
 40
0.2380952380952381
 40
0.2380952380952381
 40
0.2857142857142857
 40
0.2857142857142857
 40
0.2857142857142857
 40
0.2857142857142857
 40
0.3333333333333333
 40
0.3333333333333333
 40
0.3333333333333333
 40
0.3333333333333333
 40
0.3809523809523809
 40
0.3809523809523809
 40
0.3809523809523809
 40
0.3809523809523809
 40
0.4285714285714285
 40
0.4285714285714285
 40
0.4285714285714285
 40
0.4285714285714285
 40
0.4761904761904762
 40
0.4761904761904762
 40
0.4761904761904762
 40
0.4761904761904762
 40
0.5238095238095238
 40
0.5238095238095238
 40
0.5238095238095238
 40
0.5238095238095238
 40
0.5714285714285714
 40
0.5714285714285714
 40
0.5714285714285714
 40
0.5714285714285714
 40
0.6190476190476191
 40
0.6190476190476191
 40
0.6190476190476191
 40
0.6190476190476191
 40
0.6666666666666666
 40
0.6666666666666666
 40
0.6666666666666666
 40
0.6666666666666666
 40
0.7142857142857143
 40
0.7142857142857143
 40
0.7142857142857143
 40
0.7142857142857143
 40
0.7619047619047619
 40
0.7619047619047619
 40
0.7619047619047619
 40
0.7619047619047619
 40
0.8095238095238095
 40
0.8095238095238095
 40
0.8095238095238095
 40
0.8095238095238095
 40
0.8571428571428571
 40
0.8571428571428571
 40
0.8571428571428571
 40
0.8571428571428571
 40
0.9047619047619048
 40
0.9047619047619048
 40
0.9047619047619048
 40
0.9047619047619048
 40
1.0
 40
1.0
 40
1.0
 40
1.0
 10
0.51547
 20
-7.87403
 30
0.0
 10
0.51547
 20
-7.87403
 30
0.0
 10
0.52563
 20
-7.93978
 30
0.0
 10
0.52563
 20
-7.93978
 30
0.0
 10
0.52563
 20
-7.93978
 30
0.0
 10
0.50475
 20
-7.94416
 30
0.0
 10
0.48598
 20
-7.94642
 30
0.0
 10
0.46961
 20
-7.94642
 30
0.0
 10
0.46961
 20
-7.94642
 30
0.0
 10
0.44266
 20
-7.94642
 30
0.0
 10
0.42178
 20
-7.94218
 30
0.0
 10
0.40682
 20
-7.93358
 30
0.0
 10
0.40682
 20
-7.93358
 30
0.0
 10
0.392
 20
-7.92497
 30
0.0
 10
0.38156
 20
-7.91382
 30
0.0
 10
0.37549
 20
-7.89985
 30
0.0
 10
0.37549
 20
-7.89985
 30
0.0
 10
0.36942
 20
-7.88588
 30
0.0
 10
0.36646
 20
-7.85653
 30
0.0
 10
0.36646
 20
-7.8118
 30
0.0
 10
0.36646
 20
-7.8118
 30
0.0
 10
0.36646
 20
-7.8118
 30
0.0
 10
0.36646
 20
-7.55864
 30
0.0
 10
0.36646
 20
-7.55864
 30
0.0
 10
0.36646
 20
-7.55864
 30
0.0
 10
0.36646
 20
-7.55864
 30
0.0
 10
0.31143
 20
-7.55864
 30
0.0
 10
0.31143
 20
-7.55864
 30
0.0
 10
0.31143
 20
-7.55864
 30
0.0
 10
0.31143
 20
-7.55864
 30
0.0
 10
0.31143
 20
-7.50107
 30
0.0
 10
0.31143
 20
-7.50107
 30
0.0
 10
0.31143
 20
-7.50107
 30
0.0
 10
0.31143
 20
-7.50107
 30
0.0
 10
0.36646
 20
-7.50107
 30
0.0
 10
0.36646
 20
-7.50107
 30
0.0
 10
0.36646
 20
-7.50107
 30
0.0
 10
0.36646
 20
-7.50107
 30
0.0
 10
0.36646
 20
-7.39241
 30
0.0
 10
0.36646
 20
-7.39241
 30
0.0
 10
0.36646
 20
-7.39241
 30
0.0
 10
0.36646
 20
-7.39241
 30
0.0
 10
0.44097
 20
-7.34768
 30
0.0
 10
0.44097
 20
-7.34768
 30
0.0
 10
0.44097
 20
-7.34768
 30
0.0
 10
0.44097
 20
-7.34768
 30
0.0
 10
0.44097
 20
-7.50107
 30
0.0
 10
0.44097
 20
-7.50107
 30
0.0
 10
0.44097
 20
-7.50107
 30
0.0
 10
0.44097
 20
-7.50107
 30
0.0
 10
0.51547
 20
-7.50107
 30
0.0
 10
0.51547
 20
-7.50107
 30
0.0
 10
0.51547
 20
-7.50107
 30
0.0
 10
0.51547
 20
-7.50107
 30
0.0
 10
0.51547
 20
-7.55864
 30
0.0
 10
0.51547
 20
-7.55864
 30
0.0
 10
0.51547
 20
-7.55864
 30
0.0
 10
0.51547
 20
-7.55864
 30
0.0
 10
0.44097
 20
-7.55864
 30
0.0
 10
0.44097
 20
-7.55864
 30
0.0
 10
0.44097
 20
-7.55864
 30
0.0
 10
0.44097
 20
-7.55864
 30
0.0
 10
0.44097
 20
-7.81603
 30
0.0
 10
0.44097
 20
-7.81603
 30
0.0
 10
0.44097
 20
-7.81603
 30
0.0
 10
0.44097
 20
-7.83734
 30
0.0
 10
0.44224
 20
-7.85103
 30
0.0
 10
0.44492
 20
-7.85709
 30
0.0
 10
0.44492
 20
-7.85709
 30
0.0
 10
0.44746
 20
-7.86316
 30
0.0
 10
0.45169
 20
-7.86796
 30
0.0
 10
0.45762
 20
-7.87163
 30
0.0
 10
0.45762
 20
-7.87163
 30
0.0
 10
0.46355
 20
-7.87516
 30
0.0
 10
0.47201
 20
-7.87699
 30
0.0
 10
0.48302
 20
-7.87699
 30
0.0
 10
0.48302
 20
-7.87699
 30
0.0
 10
0.4912
 20
-7.87699
 30
0.0
 10
0.50207
 20
-7.876
 30
0.0
 10
0.51547
 20
-7.87403
 30
0.0
  0
SPLINE
  5
4D
330
1F
100
AcDbEntity
  8
Layer 1
 62
   250
100
AcDbSpline
210
0.0
220
0.0
230
1.0
 70
    11
 71
     3
 72
    64
 73
    60
 74
     0
 42
0.0000000001
 43
0.0000000001
 12
1.0
 22
0.0
 32
0.0
 13
1.0
 23
0.0
 33
0.0
 40
0.0
 40
0.0
 40
0.0
 40
0.0
 40
0.0625
 40
0.0625
 40
0.0625
 40
0.0625
 40
0.125
 40
0.125
 40
0.125
 40
0.125
 40
0.1875
 40
0.1875
 40
0.1875
 40
0.1875
 40
0.25
 40
0.25
 40
0.25
 40
0.25
 40
0.3125
 40
0.3125
 40
0.3125
 40
0.3125
 40
0.375
 40
0.375
 40
0.375
 40
0.375
 40
0.4375
 40
0.4375
 40
0.4375
 40
0.4375
 40
0.5
 40
0.5
 40
0.5
 40
0.5
 40
0.5625
 40
0.5625
 40
0.5625
 40
0.5625
 40
0.625
 40
0.625
 40
0.625
 40
0.625
 40
0.6875
 40
0.6875
 40
0.6875
 40
0.6875
 40
0.75
 40
0.75
 40
0.75
 40
0.75
 40
0.8125
 40
0.8125
 40
0.8125
 40
0.8125
 40
0.875
 40
0.875
 40
0.875
 40
0.875
 40
1.0
 40
1.0
 40
1.0
 40
1.0
 10
0.88871
 20
-7.79825
 30
0.0
 10
0.88871
 20
-7.79825
 30
0.0
 10
0.96576
 20
-7.80841
 30
0.0
 10
0.96576
 20
-7.80841
 30
0.0
 10
0.96576
 20
-7.80841
 30
0.0
 10
0.95376
 20
-7.85314
 30
0.0
 10
0.93133
 20
-7.888
 30
0.0
 10
0.89859
 20
-7.91269
 30
0.0
 10
0.89859
 20
-7.91269
 30
0.0
 10
0.86585
 20
-7.93739
 30
0.0
 10
0.82408
 20
-7.9498
 30
0.0
 10
0.77314
 20
-7.9498
 30
0.0
 10
0.77314
 20
-7.9498
 30
0.0
 10
0.70908
 20
-7.9498
 30
0.0
 10
0.65828
 20
-7.93005
 30
0.0
 10
0.62074
 20
-7.89054
 30
0.0
 10
0.62074
 20
-7.89054
 30
0.0
 10
0.5832
 20
-7.85117
 30
0.0
 10
0.56444
 20
-7.79571
 30
0.0
 10
0.56444
 20
-7.72445
 30
0.0
 10
0.56444
 20
-7.72445
 30
0.0
 10
0.56444
 20
-7.65079
 30
0.0
 10
0.58335
 20
-7.5935
 30
0.0
 10
0.6213
 20
-7.55286
 30
0.0
 10
0.6213
 20
-7.55286
 30
0.0
 10
0.65926
 20
-7.51207
 30
0.0
 10
0.70851
 20
-7.49175
 30
0.0
 10
0.76905
 20
-7.49175
 30
0.0
 10
0.76905
 20
-7.49175
 30
0.0
 10
0.82761
 20
-7.49175
 30
0.0
 10
0.87545
 20
-7.51165
 30
0.0
 10
0.91256
 20
-7.55159
 30
0.0
 10
0.91256
 20
-7.55159
 30
0.0
 10
0.94967
 20
-7.59152
 30
0.0
 10
0.9683
 20
-7.64768
 30
0.0
 10
0.9683
 20
-7.72007
 30
0.0
 10
0.9683
 20
-7.72007
 30
0.0
 10
0.9683
 20
-7.72445
 30
0.0
 10
0.96816
 20
-7.73108
 30
0.0
 10
0.96788
 20
-7.73983
 30
0.0
 10
0.96788
 20
-7.73983
 30
0.0
 10
0.96788
 20
-7.73983
 30
0.0
 10
0.64064
 20
-7.73983
 30
0.0
 10
0.64064
 20
-7.73983
 30
0.0
 10
0.64064
 20
-7.73983
 30
0.0
 10
0.64346
 20
-7.78795
 30
0.0
 10
0.65701
 20
-7.82492
 30
0.0
 10
0.68156
 20
-7.85046
 30
0.0
 10
0.68156
 20
-7.85046
 30
0.0
 10
0.70597
 20
-7.876
 30
0.0
 10
0.73659
 20
-7.88884
 30
0.0
 10
0.77314
 20
-7.88884
 30
0.0
 10
0.77314
 20
-7.88884
 30
0.0
 10
0.80038
 20
-7.88884
 30
0.0
 10
0.82366
 20
-7.88165
 30
0.0
 10
0.84285
 20
-7.86725
 30
0.0
 10
0.84285
 20
-7.86725
 30
0.0
 10
0.86218
 20
-7.85286
 30
0.0
 10
0.87742
 20
-7.82986
 30
0.0
 10
0.88871
 20
-7.79825
 30
0.0
  0
SPLINE
  5
4E
330
1F
100
AcDbEntity
  8
Layer 1
 62
   250
100
AcDbSpline
210
0.0
220
0.0
230
1.0
 70
    11
 71
     3
 72
    24
 73
    20
 74
     0
 42
0.0000000001
 43
0.0000000001
 12
1.0
 22
0.0
 32
0.0
 13
1.0
 23
0.0
 33
0.0
 40
0.0
 40
0.0
 40
0.0
 40
0.0
 40
0.1666666666666667
 40
0.1666666666666667
 40
0.1666666666666667
 40
0.1666666666666667
 40
0.3333333333333333
 40
0.3333333333333333
 40
0.3333333333333333
 40
0.3333333333333333
 40
0.5
 40
0.5
 40
0.5
 40
0.5
 40
0.6666666666666666
 40
0.6666666666666666
 40
0.6666666666666666
 40
0.6666666666666666
 40
1.0
 40
1.0
 40
1.0
 40
1.0
 10
0.64487
 20
-7.67887
 30
0.0
 10
0.64487
 20
-7.67887
 30
0.0
 10
0.88956
 20
-7.67887
 30
0.0
 10
0.88956
 20
-7.67887
 30
0.0
 10
0.88956
 20
-7.67887
 30
0.0
 10
0.88631
 20
-7.6419
 30
0.0
 10
0.87686
 20
-7.61424
 30
0.0
 10
0.86148
 20
-7.59575
 30
0.0
 10
0.86148
 20
-7.59575
 30
0.0
 10
0.83791
 20
-7.56711
 30
0.0
 10
0.80715
 20
-7.55272
 30
0.0
 10
0.76947
 20
-7.55272
 30
0.0
 10
0.76947
 20
-7.55272
 30
0.0
 10
0.73532
 20
-7.55272
 30
0.0
 10
0.70668
 20
-7.56415
 30
0.0
 10
0.68339
 20
-7.58701
 30
0.0
 10
0.68339
 20
-7.58701
 30
0.0
 10
0.66025
 20
-7.60987
 30
0.0
 10
0.64741
 20
-7.64049
 30
0.0
 10
0.64487
 20
-7.67887
 30
0.0
  0
SPLINE
  5
4F
330
1F
100
AcDbEntity
  8
Layer 1
 62
   250
100
AcDbSpline
210
0.0
220
0.0
230
1.0
 70
    11
 71
     3
 72
   116
 73
   112
 74
     0
 42
0.0000000001
 43
0.0000000001
 12
1.0
 22
0.0
 32
0.0
 13
1.0
 23
0.0
 33
0.0
 40
0.0
 40
0.0
 40
0.0
 40
0.0
 40
0.0344827586206897
 40
0.0344827586206897
 40
0.0344827586206897
 40
0.0344827586206897
 40
0.0689655172413793
 40
0.0689655172413793
 40
0.0689655172413793
 40
0.0689655172413793
 40
0.103448275862069
 40
0.103448275862069
 40
0.103448275862069
 40
0.103448275862069
 40
0.1379310344827586
 40
0.1379310344827586
 40
0.1379310344827586
 40
0.1379310344827586
 40
0.1724137931034483
 40
0.1724137931034483
 40
0.1724137931034483
 40
0.1724137931034483
 40
0.2068965517241379
 40
0.2068965517241379
 40
0.2068965517241379
 40
0.2068965517241379
 40
0.2413793103448276
 40
0.2413793103448276
 40
0.2413793103448276
 40
0.2413793103448276
 40
0.2758620689655172
 40
0.2758620689655172
 40
0.2758620689655172
 40
0.2758620689655172
 40
0.3103448275862069
 40
0.3103448275862069
 40
0.3103448275862069
 40
0.3103448275862069
 40
0.3448275862068966
 40
0.3448275862068966
 40
0.3448275862068966
 40
0.3448275862068966
 40
0.3793103448275862
 40
0.3793103448275862
 40
0.3793103448275862
 40
0.3793103448275862
 40
0.4137931034482759
 40
0.4137931034482759
 40
0.4137931034482759
 40
0.4137931034482759
 40
0.4482758620689655
 40
0.4482758620689655
 40
0.4482758620689655
 40
0.4482758620689655
 40
0.4827586206896552
 40
0.4827586206896552
 40
0.4827586206896552
 40
0.4827586206896552
 40
0.5172413793103449
 40
0.5172413793103449
 40
0.5172413793103449
 40
0.5172413793103449
 40
0.5517241379310345
 40
0.5517241379310345
 40
0.5517241379310345
 40
0.5517241379310345
 40
0.5862068965517241
 40
0.5862068965517241
 40
0.5862068965517241
 40
0.5862068965517241
 40
0.6206896551724138
 40
0.6206896551724138
 40
0.6206896551724138
 40
0.6206896551724138
 40
0.6551724137931034
 40
0.6551724137931034
 40
0.6551724137931034
 40
0.6551724137931034
 40
0.6896551724137931
 40
0.6896551724137931
 40
0.6896551724137931
 40
0.6896551724137931
 40
0.7241379310344828
 40
0.7241379310344828
 40
0.7241379310344828
 40
0.7241379310344828
 40
0.7586206896551724
 40
0.7586206896551724
 40
0.7586206896551724
 40
0.7586206896551724
 40
0.7931034482758621
 40
0.7931034482758621
 40
0.7931034482758621
 40
0.7931034482758621
 40
0.8275862068965517
 40
0.8275862068965517
 40
0.8275862068965517
 40
0.8275862068965517
 40
0.8620689655172413
 40
0.8620689655172413
 40
0.8620689655172413
 40
0.8620689655172413
 40
0.896551724137931
 40
0.896551724137931
 40
0.896551724137931
 40
0.896551724137931
 40
0.9310344827586207
 40
0.9310344827586207
 40
0.9310344827586207
 40
0.9310344827586207
 40
1.0
 40
1.0
 40
1.0
 40
1.0
 10
1.05988
 20
-7.94049
 30
0.0
 10
1.05988
 20
-7.94049
 30
0.0
 10
1.05988
 20
-7.50107
 30
0.0
 10
1.05988
 20
-7.50107
 30
0.0
 10
1.05988
 20
-7.50107
 30
0.0
 10
1.05988
 20
-7.50107
 30
0.0
 10
1.12677
 20
-7.50107
 30
0.0
 10
1.12677
 20
-7.50107
 30
0.0
 10
1.12677
 20
-7.50107
 30
0.0
 10
1.12677
 20
-7.50107
 30
0.0
 10
1.12677
 20
-7.56316
 30
0.0
 10
1.12677
 20
-7.56316
 30
0.0
 10
1.12677
 20
-7.56316
 30
0.0
 10
1.14045
 20
-7.54171
 30
0.0
 10
1.1588
 20
-7.52435
 30
0.0
 10
1.18166
 20
-7.51137
 30
0.0
 10
1.18166
 20
-7.51137
 30
0.0
 10
1.20452
 20
-7.49825
 30
0.0
 10
1.23048
 20
-7.49175
 30
0.0
 10
1.25969
 20
-7.49175
 30
0.0
 10
1.25969
 20
-7.49175
 30
0.0
 10
1.29215
 20
-7.49175
 30
0.0
 10
1.31882
 20
-7.49853
 30
0.0
 10
1.33956
 20
-7.51193
 30
0.0
 10
1.33956
 20
-7.51193
 30
0.0
 10
1.36031
 20
-7.52548
 30
0.0
 10
1.37498
 20
-7.54425
 30
0.0
 10
1.38345
 20
-7.56852
 30
0.0
 10
1.38345
 20
-7.56852
 30
0.0
 10
1.41844
 20
-7.5173
 30
0.0
 10
1.46374
 20
-7.49175
 30
0.0
 10
1.51962
 20
-7.49175
 30
0.0
 10
1.51962
 20
-7.49175
 30
0.0
 10
1.56337
 20
-7.49175
 30
0.0
 10
1.59709
 20
-7.50375
 30
0.0
 10
1.62052
 20
-7.52788
 30
0.0
 10
1.62052
 20
-7.52788
 30
0.0
 10
1.64408
 20
-7.55201
 30
0.0
 10
1.65594
 20
-7.58912
 30
0.0
 10
1.65594
 20
-7.63922
 30
0.0
 10
1.65594
 20
-7.63922
 30
0.0
 10
1.65594
 20
-7.63922
 30
0.0
 10
1.65594
 20
-7.94049
 30
0.0
 10
1.65594
 20
-7.94049
 30
0.0
 10
1.65594
 20
-7.94049
 30
0.0
 10
1.65594
 20
-7.94049
 30
0.0
 10
1.58143
 20
-7.94049
 30
0.0
 10
1.58143
 20
-7.94049
 30
0.0
 10
1.58143
 20
-7.94049
 30
0.0
 10
1.58143
 20
-7.94049
 30
0.0
 10
1.58143
 20
-7.66391
 30
0.0
 10
1.58143
 20
-7.66391
 30
0.0
 10
1.58143
 20
-7.66391
 30
0.0
 10
1.58143
 20
-7.63428
 30
0.0
 10
1.57889
 20
-7.61283
 30
0.0
 10
1.57409
 20
-7.59971
 30
0.0
 10
1.57409
 20
-7.59971
 30
0.0
 10
1.56929
 20
-7.58658
 30
0.0
 10
1.56054
 20
-7.57614
 30
0.0
 10
1.5477
 20
-7.5681
 30
0.0
 10
1.5477
 20
-7.5681
 30
0.0
 10
1.535
 20
-7.56005
 30
0.0
 10
1.52005
 20
-7.5561
 30
0.0
 10
1.50297
 20
-7.5561
 30
0.0
 10
1.50297
 20
-7.5561
 30
0.0
 10
1.47193
 20
-7.5561
 30
0.0
 10
1.44624
 20
-7.5664
 30
0.0
 10
1.42578
 20
-7.58686
 30
0.0
 10
1.42578
 20
-7.58686
 30
0.0
 10
1.40532
 20
-7.60747
 30
0.0
 10
1.39516
 20
-7.64035
 30
0.0
 10
1.39516
 20
-7.6855
 30
0.0
 10
1.39516
 20
-7.6855
 30
0.0
 10
1.39516
 20
-7.6855
 30
0.0
 10
1.39516
 20
-7.94049
 30
0.0
 10
1.39516
 20
-7.94049
 30
0.0
 10
1.39516
 20
-7.94049
 30
0.0
 10
1.39516
 20
-7.94049
 30
0.0
 10
1.32065
 20
-7.94049
 30
0.0
 10
1.32065
 20
-7.94049
 30
0.0
 10
1.32065
 20
-7.94049
 30
0.0
 10
1.32065
 20
-7.94049
 30
0.0
 10
1.32065
 20
-7.6553
 30
0.0
 10
1.32065
 20
-7.6553
 30
0.0
 10
1.32065
 20
-7.6553
 30
0.0
 10
1.32065
 20
-7.62228
 30
0.0
 10
1.31459
 20
-7.59745
 30
0.0
 10
1.30245
 20
-7.58094
 30
0.0
 10
1.30245
 20
-7.58094
 30
0.0
 10
1.29032
 20
-7.56443
 30
0.0
 10
1.27042
 20
-7.5561
 30
0.0
 10
1.2429
 20
-7.5561
 30
0.0
 10
1.2429
 20
-7.5561
 30
0.0
 10
1.22202
 20
-7.5561
 30
0.0
 10
1.20269
 20
-7.56161
 30
0.0
 10
1.18491
 20
-7.57261
 30
0.0
 10
1.18491
 20
-7.57261
 30
0.0
 10
1.16713
 20
-7.58362
 30
0.0
 10
1.15428
 20
-7.59971
 30
0.0
 10
1.14624
 20
-7.62101
 30
0.0
 10
1.14624
 20
-7.62101
 30
0.0
 10
1.13834
 20
-7.64218
 30
0.0
 10
1.13439
 20
-7.6728
 30
0.0
 10
1.13439
 20
-7.71274
 30
0.0
 10
1.13439
 20
-7.71274
 30
0.0
 10
1.13439
 20
-7.71274
 30
0.0
 10
1.13439
 20
-7.94049
 30
0.0
 10
1.13439
 20
-7.94049
 30
0.0
 10
1.13439
 20
-7.94049
 30
0.0
 10
1.13439
 20
-7.94049
 30
0.0
 10
1.05988
 20
-7.94049
 30
0.0
 10
1.05988
 20
-7.94049
 30
0.0
  0
SPLINE
  5
50
330
1F
100
AcDbEntity
  8
Layer 1
 62
   250
100
AcDbSpline
210
0.0
220
0.0
230
1.0
 70
    11
 71
     3
 72
    64
 73
    60
 74
     0
 42
0.0000000001
 43
0.0000000001
 12
1.0
 22
0.0
 32
0.0
 13
1.0
 23
0.0
 33
0.0
 40
0.0
 40
0.0
 40
0.0
 40
0.0
 40
0.0625
 40
0.0625
 40
0.0625
 40
0.0625
 40
0.125
 40
0.125
 40
0.125
 40
0.125
 40
0.1875
 40
0.1875
 40
0.1875
 40
0.1875
 40
0.25
 40
0.25
 40
0.25
 40
0.25
 40
0.3125
 40
0.3125
 40
0.3125
 40
0.3125
 40
0.375
 40
0.375
 40
0.375
 40
0.375
 40
0.4375
 40
0.4375
 40
0.4375
 40
0.4375
 40
0.5
 40
0.5
 40
0.5
 40
0.5
 40
0.5625
 40
0.5625
 40
0.5625
 40
0.5625
 40
0.625
 40
0.625
 40
0.625
 40
0.625
 40
0.6875
 40
0.6875
 40
0.6875
 40
0.6875
 40
0.75
 40
0.75
 40
0.75
 40
0.75
 40
0.8125
 40
0.8125
 40
0.8125
 40
0.8125
 40
0.875
 40
0.875
 40
0.875
 40
0.875
 40
1.0
 40
1.0
 40
1.0
 40
1.0
 10
1.76516
 20
-8.10898
 30
0.0
 10
1.76516
 20
-8.10898
 30
0.0
 10
1.76516
 20
-7.50107
 30
0.0
 10
1.76516
 20
-7.50107
 30
0.0
 10
1.76516
 20
-7.50107
 30
0.0
 10
1.76516
 20
-7.50107
 30
0.0
 10
1.83289
 20
-7.50107
 30
0.0
 10
1.83289
 20
-7.50107
 30
0.0
 10
1.83289
 20
-7.50107
 30
0.0
 10
1.83289
 20
-7.50107
 30
0.0
 10
1.83289
 20
-7.55878
 30
0.0
 10
1.83289
 20
-7.55878
 30
0.0
 10
1.83289
 20
-7.55878
 30
0.0
 10
1.84884
 20
-7.53649
 30
0.0
 10
1.8669
 20
-7.5197
 30
0.0
 10
1.88708
 20
-7.50855
 30
0.0
 10
1.88708
 20
-7.50855
 30
0.0
 10
1.90712
 20
-7.4974
 30
0.0
 10
1.93153
 20
-7.49175
 30
0.0
 10
1.96018
 20
-7.49175
 30
0.0
 10
1.96018
 20
-7.49175
 30
0.0
 10
1.99771
 20
-7.49175
 30
0.0
 10
2.03073
 20
-7.50135
 30
0.0
 10
2.05938
 20
-7.52068
 30
0.0
 10
2.05938
 20
-7.52068
 30
0.0
 10
2.08802
 20
-7.53987
 30
0.0
 10
2.10961
 20
-7.56711
 30
0.0
 10
2.12429
 20
-7.6021
 30
0.0
 10
2.12429
 20
-7.6021
 30
0.0
 10
2.13882
 20
-7.63724
 30
0.0
 10
2.14616
 20
-7.67562
 30
0.0
 10
2.14616
 20
-7.71753
 30
0.0
 10
2.14616
 20
-7.71753
 30
0.0
 10
2.14616
 20
-7.76227
 30
0.0
 10
2.13812
 20
-7.80262
 30
0.0
 10
2.12203
 20
-7.83861
 30
0.0
 10
2.12203
 20
-7.83861
 30
0.0
 10
2.10594
 20
-7.87445
 30
0.0
 10
2.08252
 20
-7.90197
 30
0.0
 10
2.05176
 20
-7.92116
 30
0.0
 10
2.05176
 20
-7.92116
 30
0.0
 10
2.02114
 20
-7.94021
 30
0.0
 10
1.98882
 20
-7.9498
 30
0.0
 10
1.95496
 20
-7.9498
 30
0.0
 10
1.95496
 20
-7.9498
 30
0.0
 10
1.93012
 20
-7.9498
 30
0.0
 10
1.90782
 20
-7.94458
 30
0.0
 10
1.88821
 20
-7.93414
 30
0.0
 10
1.88821
 20
-7.93414
 30
0.0
 10
1.86845
 20
-7.9237
 30
0.0
 10
1.85237
 20
-7.91057
 30
0.0
 10
1.83967
 20
-7.89463
 30
0.0
 10
1.83967
 20
-7.89463
 30
0.0
 10
1.83967
 20
-7.89463
 30
0.0
 10
1.83967
 20
-8.10898
 30
0.0
 10
1.83967
 20
-8.10898
 30
0.0
 10
1.83967
 20
-8.10898
 30
0.0
 10
1.83967
 20
-8.10898
 30
0.0
 10
1.76516
 20
-8.10898
 30
0.0
 10
1.76516
 20
-8.10898
 30
0.0
  0
SPLINE
  5
51
330
1F
100
AcDbEntity
  8
Layer 1
 62
   250
100
AcDbSpline
210
0.0
220
0.0
230
1.0
 70
    11
 71
     3
 72
    36
 73
    32
 74
     0
 42
0.0000000001
 43
0.0000000001
 12
1.0
 22
0.0
 32
0.0
 13
1.0
 23
0.0
 33
0.0
 40
0.0
 40
0.0
 40
0.0
 40
0.0
 40
0.1111111111111111
 40
0.1111111111111111
 40
0.1111111111111111
 40
0.1111111111111111
 40
0.2222222222222222
 40
0.2222222222222222
 40
0.2222222222222222
 40
0.2222222222222222
 40
0.3333333333333333
 40
0.3333333333333333
 40
0.3333333333333333
 40
0.3333333333333333
 40
0.4444444444444444
 40
0.4444444444444444
 40
0.4444444444444444
 40
0.4444444444444444
 40
0.5555555555555556
 40
0.5555555555555556
 40
0.5555555555555556
 40
0.5555555555555556
 40
0.6666666666666666
 40
0.6666666666666666
 40
0.6666666666666666
 40
0.6666666666666666
 40
0.7777777777777778
 40
0.7777777777777778
 40
0.7777777777777778
 40
0.7777777777777778
 40
1.0
 40
1.0
 40
1.0
 40
1.0
 10
1.83289
 20
-7.72346
 30
0.0
 10
1.83289
 20
-7.77976
 30
0.0
 10
1.84432
 20
-7.82139
 30
0.0
 10
1.86704
 20
-7.84834
 30
0.0
 10
1.86704
 20
-7.84834
 30
0.0
 10
1.8899
 20
-7.8753
 30
0.0
 10
1.91756
 20
-7.88884
 30
0.0
 10
1.95002
 20
-7.88884
 30
0.0
 10
1.95002
 20
-7.88884
 30
0.0
 10
1.98304
 20
-7.88884
 30
0.0
 10
2.01126
 20
-7.87487
 30
0.0
 10
2.03468
 20
-7.84693
 30
0.0
 10
2.03468
 20
-7.84693
 30
0.0
 10
2.05825
 20
-7.81899
 30
0.0
 10
2.06996
 20
-7.77581
 30
0.0
 10
2.06996
 20
-7.71725
 30
0.0
 10
2.06996
 20
-7.71725
 30
0.0
 10
2.06996
 20
-7.66137
 30
0.0
 10
2.05853
 20
-7.6196
 30
0.0
 10
2.03553
 20
-7.5918
 30
0.0
 10
2.03553
 20
-7.5918
 30
0.0
 10
2.01253
 20
-7.564
 30
0.0
 10
1.98515
 20
-7.55018
 30
0.0
 10
1.95326
 20
-7.55018
 30
0.0
 10
1.95326
 20
-7.55018
 30
0.0
 10
1.92165
 20
-7.55018
 30
0.0
 10
1.89371
 20
-7.56499
 30
0.0
 10
1.86944
 20
-7.59448
 30
0.0
 10
1.86944
 20
-7.59448
 30
0.0
 10
1.84503
 20
-7.62412
 30
0.0
 10
1.83289
 20
-7.66702
 30
0.0
 10
1.83289
 20
-7.72346
 30
0.0
  0
SPLINE
  5
52
330
1F
100
AcDbEntity
  8
Layer 1
 62
   250
100
AcDbSpline
210
0.0
220
0.0
230
1.0
 70
    11
 71
     3
 72
    20
 73
    16
 74
     0
 42
0.0000000001
 43
0.0000000001
 12
1.0
 22
0.0
 32
0.0
 13
1.0
 23
0.0
 33
0.0
 40
0.0
 40
0.0
 40
0.0
 40
0.0
 40
0.2
 40
0.2
 40
0.2
 40
0.2
 40
0.4
 40
0.4
 40
0.4
 40
0.4
 40
0.6
 40
0.6
 40
0.6
 40
0.6
 40
1.0
 40
1.0
 40
1.0
 40
1.0
 10
2.23436
 20
-7.94049
 30
0.0
 10
2.23436
 20
-7.94049
 30
0.0
 10
2.23436
 20
-7.33427
 30
0.0
 10
2.23436
 20
-7.33427
 30
0.0
 10
2.23436
 20
-7.33427
 30
0.0
 10
2.23436
 20
-7.33427
 30
0.0
 10
2.30886
 20
-7.33427
 30
0.0
 10
2.30886
 20
-7.33427
 30
0.0
 10
2.30886
 20
-7.33427
 30
0.0
 10
2.30886
 20
-7.33427
 30
0.0
 10
2.30886
 20
-7.94049
 30
0.0
 10
2.30886
 20
-7.94049
 30
0.0
 10
2.30886
 20
-7.94049
 30
0.0
 10
2.30886
 20
-7.94049
 30
0.0
 10
2.23436
 20
-7.94049
 30
0.0
 10
2.23436
 20
-7.94049
 30
0.0
  0
SPLINE
  5
53
330
1F
100
AcDbEntity
  8
Layer 1
 62
   250
100
AcDbSpline
210
0.0
220
0.0
230
1.0
 70
    11
 71
     3
 72
   112
 73
   108
 74
     0
 42
0.0000000001
 43
0.0000000001
 12
1.0
 22
0.0
 32
0.0
 13
1.0
 23
0.0
 33
0.0
 40
0.0
 40
0.0
 40
0.0
 40
0.0
 40
0.0357142857142857
 40
0.0357142857142857
 40
0.0357142857142857
 40
0.0357142857142857
 40
0.0714285714285714
 40
0.0714285714285714
 40
0.0714285714285714
 40
0.0714285714285714
 40
0.1071428571428571
 40
0.1071428571428571
 40
0.1071428571428571
 40
0.1071428571428571
 40
0.1428571428571428
 40
0.1428571428571428
 40
0.1428571428571428
 40
0.1428571428571428
 40
0.1785714285714286
 40
0.1785714285714286
 40
0.1785714285714286
 40
0.1785714285714286
 40
0.2142857142857143
 40
0.2142857142857143
 40
0.2142857142857143
 40
0.2142857142857143
 40
0.25
 40
0.25
 40
0.25
 40
0.25
 40
0.2857142857142857
 40
0.2857142857142857
 40
0.2857142857142857
 40
0.2857142857142857
 40
0.3214285714285715
 40
0.3214285714285715
 40
0.3214285714285715
 40
0.3214285714285715
 40
0.3571428571428572
 40
0.3571428571428572
 40
0.3571428571428572
 40
0.3571428571428572
 40
0.3928571428571428
 40
0.3928571428571428
 40
0.3928571428571428
 40
0.3928571428571428
 40
0.4285714285714285
 40
0.4285714285714285
 40
0.4285714285714285
 40
0.4285714285714285
 40
0.4642857142857143
 40
0.4642857142857143
 40
0.4642857142857143
 40
0.4642857142857143
 40
0.5
 40
0.5
 40
0.5
 40
0.5
 40
0.5357142857142857
 40
0.5357142857142857
 40
0.5357142857142857
 40
0.5357142857142857
 40
0.5714285714285714
 40
0.5714285714285714
 40
0.5714285714285714
 40
0.5714285714285714
 40
0.6071428571428571
 40
0.6071428571428571
 40
0.6071428571428571
 40
0.6071428571428571
 40
0.6428571428571429
 40
0.6428571428571429
 40
0.6428571428571429
 40
0.6428571428571429
 40
0.6785714285714286
 40
0.6785714285714286
 40
0.6785714285714286
 40
0.6785714285714286
 40
0.7142857142857143
 40
0.7142857142857143
 40
0.7142857142857143
 40
0.7142857142857143
 40
0.75
 40
0.75
 40
0.75
 40
0.75
 40
0.7857142857142857
 40
0.7857142857142857
 40
0.7857142857142857
 40
0.7857142857142857
 40
0.8214285714285714
 40
0.8214285714285714
 40
0.8214285714285714
 40
0.8214285714285714
 40
0.8571428571428571
 40
0.8571428571428571
 40
0.8571428571428571
 40
0.8571428571428571
 40
0.8928571428571429
 40
0.8928571428571429
 40
0.8928571428571429
 40
0.8928571428571429
 40
0.9285714285714286
 40
0.9285714285714286
 40
0.9285714285714286
 40
0.9285714285714286
 40
1.0
 40
1.0
 40
1.0
 40
1.0
 10
2.71117
 20
-7.88546
 30
0.0
 10
2.68351
 20
-7.90902
 30
0.0
 10
2.65684
 20
-7.92553
 30
0.0
 10
2.6313
 20
-7.93527
 30
0.0
 10
2.6313
 20
-7.93527
 30
0.0
 10
2.60576
 20
-7.94501
 30
0.0
 10
2.57839
 20
-7.9498
 30
0.0
 10
2.54903
 20
-7.9498
 30
0.0
 10
2.54903
 20
-7.9498
 30
0.0
 10
2.50077
 20
-7.9498
 30
0.0
 10
2.46366
 20
-7.93809
 30
0.0
 10
2.4377
 20
-7.91453
 30
0.0
 10
2.4377
 20
-7.91453
 30
0.0
 10
2.41173
 20
-7.8911
 30
0.0
 10
2.39875
 20
-7.86104
 30
0.0
 10
2.39875
 20
-7.8245
 30
0.0
 10
2.39875
 20
-7.8245
 30
0.0
 10
2.39875
 20
-7.80305
 30
0.0
 10
2.40369
 20
-7.78343
 30
0.0
 10
2.41343
 20
-7.76565
 30
0.0
 10
2.41343
 20
-7.76565
 30
0.0
 10
2.4233
 20
-7.74787
 30
0.0
 10
2.43614
 20
-7.73376
 30
0.0
 10
2.45195
 20
-7.72304
 30
0.0
 10
2.45195
 20
-7.72304
 30
0.0
 10
2.46789
 20
-7.71231
 30
0.0
 10
2.48567
 20
-7.70413
 30
0.0
 10
2.50557
 20
-7.69862
 30
0.0
 10
2.50557
 20
-7.69862
 30
0.0
 10
2.52025
 20
-7.69481
 30
0.0
 10
2.5424
 20
-7.69115
 30
0.0
 10
2.57189
 20
-7.68748
 30
0.0
 10
2.57189
 20
-7.68748
 30
0.0
 10
2.63201
 20
-7.68042
 30
0.0
 10
2.67646
 20
-7.67181
 30
0.0
 10
2.70482
 20
-7.66194
 30
0.0
 10
2.70482
 20
-7.66194
 30
0.0
 10
2.7051
 20
-7.65178
 30
0.0
 10
2.70524
 20
-7.64528
 30
0.0
 10
2.70524
 20
-7.6426
 30
0.0
 10
2.70524
 20
-7.6426
 30
0.0
 10
2.70524
 20
-7.61241
 30
0.0
 10
2.69819
 20
-7.5911
 30
0.0
 10
2.68408
 20
-7.57868
 30
0.0
 10
2.68408
 20
-7.57868
 30
0.0
 10
2.66503
 20
-7.56189
 30
0.0
 10
2.63666
 20
-7.55356
 30
0.0
 10
2.59913
 20
-7.55356
 30
0.0
 10
2.59913
 20
-7.55356
 30
0.0
 10
2.56399
 20
-7.55356
 30
0.0
 10
2.53803
 20
-7.55977
 30
0.0
 10
2.52138
 20
-7.57205
 30
0.0
 10
2.52138
 20
-7.57205
 30
0.0
 10
2.50458
 20
-7.58432
 30
0.0
 10
2.49231
 20
-7.60606
 30
0.0
 10
2.48426
 20
-7.63738
 30
0.0
 10
2.48426
 20
-7.63738
 30
0.0
 10
2.48426
 20
-7.63738
 30
0.0
 10
2.41145
 20
-7.62722
 30
0.0
 10
2.41145
 20
-7.62722
 30
0.0
 10
2.41145
 20
-7.62722
 30
0.0
 10
2.41808
 20
-7.59604
 30
0.0
 10
2.42895
 20
-7.57078
 30
0.0
 10
2.44419
 20
-7.55159
 30
0.0
 10
2.44419
 20
-7.55159
 30
0.0
 10
2.45943
 20
-7.5324
 30
0.0
 10
2.48144
 20
-7.51772
 30
0.0
 10
2.51023
 20
-7.50728
 30
0.0
 10
2.51023
 20
-7.50728
 30
0.0
 10
2.53887
 20
-7.49698
 30
0.0
 10
2.57232
 20
-7.49175
 30
0.0
 10
2.61014
 20
-7.49175
 30
0.0
 10
2.61014
 20
-7.49175
 30
0.0
 10
2.64767
 20
-7.49175
 30
0.0
 10
2.67829
 20
-7.49613
 30
0.0
 10
2.70186
 20
-7.50502
 30
0.0
 10
2.70186
 20
-7.50502
 30
0.0
 10
2.72528
 20
-7.51391
 30
0.0
 10
2.74264
 20
-7.52492
 30
0.0
 10
2.75365
 20
-7.53832
 30
0.0
 10
2.75365
 20
-7.53832
 30
0.0
 10
2.76465
 20
-7.55173
 30
0.0
 10
2.77241
 20
-7.56866
 30
0.0
 10
2.77693
 20
-7.58912
 30
0.0
 10
2.77693
 20
-7.58912
 30
0.0
 10
2.77933
 20
-7.60182
 30
0.0
 10
2.7806
 20
-7.62468
 30
0.0
 10
2.7806
 20
-7.65756
 30
0.0
 10
2.7806
 20
-7.65756
 30
0.0
 10
2.7806
 20
-7.65756
 30
0.0
 10
2.7806
 20
-7.75634
 30
0.0
 10
2.7806
 20
-7.75634
 30
0.0
 10
2.7806
 20
-7.75634
 30
0.0
 10
2.7806
 20
-7.82534
 30
0.0
 10
2.78215
 20
-7.86895
 30
0.0
 10
2.78525
 20
-7.88743
 30
0.0
 10
2.78525
 20
-7.88743
 30
0.0
 10
2.78822
 20
-7.90592
 30
0.0
 10
2.79443
 20
-7.92356
 30
0.0
 10
2.80346
 20
-7.94049
 30
0.0
 10
2.80346
 20
-7.94049
 30
0.0
 10
2.80346
 20
-7.94049
 30
0.0
 10
2.72556
 20
-7.94049
 30
0.0
 10
2.72556
 20
-7.94049
 30
0.0
 10
2.72556
 20
-7.94049
 30
0.0
 10
2.71809
 20
-7.92483
 30
0.0
 10
2.71329
 20
-7.90648
 30
0.0
 10
2.71117
 20
-7.88546
 30
0.0
  0
SPLINE
  5
54
330
1F
100
AcDbEntity
  8
Layer 1
 62
   250
100
AcDbSpline
210
0.0
220
0.0
230
1.0
 70
    11
 71
     3
 72
    44
 73
    40
 74
     0
 42
0.0000000001
 43
0.0000000001
 12
1.0
 22
0.0
 32
0.0
 13
1.0
 23
0.0
 33
0.0
 40
0.0
 40
0.0
 40
0.0
 40
0.0
 40
0.0909090909090909
 40
0.0909090909090909
 40
0.0909090909090909
 40
0.0909090909090909
 40
0.1818181818181818
 40
0.1818181818181818
 40
0.1818181818181818
 40
0.1818181818181818
 40
0.2727272727272727
 40
0.2727272727272727
 40
0.2727272727272727
 40
0.2727272727272727
 40
0.3636363636363636
 40
0.3636363636363636
 40
0.3636363636363636
 40
0.3636363636363636
 40
0.4545454545454545
 40
0.4545454545454545
 40
0.4545454545454545
 40
0.4545454545454545
 40
0.5454545454545454
 40
0.5454545454545454
 40
0.5454545454545454
 40
0.5454545454545454
 40
0.6363636363636364
 40
0.6363636363636364
 40
0.6363636363636364
 40
0.6363636363636364
 40
0.7272727272727273
 40
0.7272727272727273
 40
0.7272727272727273
 40
0.7272727272727273
 40
0.8181818181818182
 40
0.8181818181818182
 40
0.8181818181818182
 40
0.8181818181818182
 40
1.0
 40
1.0
 40
1.0
 40
1.0
 10
2.70524
 20
-7.72036
 30
0.0
 10
2.67815
 20
-7.73136
 30
0.0
 10
2.63751
 20
-7.74068
 30
0.0
 10
2.58332
 20
-7.7483
 30
0.0
 10
2.58332
 20
-7.7483
 30
0.0
 10
2.55256
 20
-7.75267
 30
0.0
 10
2.53083
 20
-7.75761
 30
0.0
 10
2.51813
 20
-7.76311
 30
0.0
 10
2.51813
 20
-7.76311
 30
0.0
 10
2.50543
 20
-7.76862
 30
0.0
 10
2.49569
 20
-7.77666
 30
0.0
 10
2.48878
 20
-7.7871
 30
0.0
 10
2.48878
 20
-7.7871
 30
0.0
 10
2.48186
 20
-7.79768
 30
0.0
 10
2.47834
 20
-7.8094
 30
0.0
 10
2.47834
 20
-7.82238
 30
0.0
 10
2.47834
 20
-7.82238
 30
0.0
 10
2.47834
 20
-7.84199
 30
0.0
 10
2.48582
 20
-7.8585
 30
0.0
 10
2.50091
 20
-7.87163
 30
0.0
 10
2.50091
 20
-7.87163
 30
0.0
 10
2.51601
 20
-7.88475
 30
0.0
 10
2.53803
 20
-7.89138
 30
0.0
 10
2.56696
 20
-7.89138
 30
0.0
 10
2.56696
 20
-7.89138
 30
0.0
 10
2.5956
 20
-7.89138
 30
0.0
 10
2.62114
 20
-7.88517
 30
0.0
 10
2.64358
 20
-7.87262
 30
0.0
 10
2.64358
 20
-7.87262
 30
0.0
 10
2.66587
 20
-7.8602
 30
0.0
 10
2.68238
 20
-7.84312
 30
0.0
 10
2.69283
 20
-7.82153
 30
0.0
 10
2.69283
 20
-7.82153
 30
0.0
 10
2.70087
 20
-7.80474
 30
0.0
 10
2.70482
 20
-7.78005
 30
0.0
 10
2.70482
 20
-7.74745
 30
0.0
 10
2.70482
 20
-7.74745
 30
0.0
 10
2.70482
 20
-7.74745
 30
0.0
 10
2.70524
 20
-7.72036
 30
0.0
 10
2.70524
 20
-7.72036
 30
0.0
  0
SPLINE
  5
55
330
1F
100
AcDbEntity
  8
Layer 1
 62
   250
100
AcDbSpline
210
0.0
220
0.0
230
1.0
 70
    11
 71
     3
 72
    84
 73
    80
 74
     0
 42
0.0000000001
 43
0.0000000001
 12
1.0
 22
0.0
 32
0.0
 13
1.0
 23
0.0
 33
0.0
 40
0.0
 40
0.0
 40
0.0
 40
0.0
 40
0.0476190476190476
 40
0.0476190476190476
 40
0.0476190476190476
 40
0.0476190476190476
 40
0.0952380952380952
 40
0.0952380952380952
 40
0.0952380952380952
 40
0.0952380952380952
 40
0.1428571428571428
 40
0.1428571428571428
 40
0.1428571428571428
 40
0.1428571428571428
 40
0.1904761904761905
 40
0.1904761904761905
 40
0.1904761904761905
 40
0.1904761904761905
 40
0.2380952380952381
 40
0.2380952380952381
 40
0.2380952380952381
 40
0.2380952380952381
 40
0.2857142857142857
 40
0.2857142857142857
 40
0.2857142857142857
 40
0.2857142857142857
 40
0.3333333333333333
 40
0.3333333333333333
 40
0.3333333333333333
 40
0.3333333333333333
 40
0.3809523809523809
 40
0.3809523809523809
 40
0.3809523809523809
 40
0.3809523809523809
 40
0.4285714285714285
 40
0.4285714285714285
 40
0.4285714285714285
 40
0.4285714285714285
 40
0.4761904761904762
 40
0.4761904761904762
 40
0.4761904761904762
 40
0.4761904761904762
 40
0.5238095238095238
 40
0.5238095238095238
 40
0.5238095238095238
 40
0.5238095238095238
 40
0.5714285714285714
 40
0.5714285714285714
 40
0.5714285714285714
 40
0.5714285714285714
 40
0.6190476190476191
 40
0.6190476190476191
 40
0.6190476190476191
 40
0.6190476190476191
 40
0.6666666666666666
 40
0.6666666666666666
 40
0.6666666666666666
 40
0.6666666666666666
 40
0.7142857142857143
 40
0.7142857142857143
 40
0.7142857142857143
 40
0.7142857142857143
 40
0.7619047619047619
 40
0.7619047619047619
 40
0.7619047619047619
 40
0.7619047619047619
 40
0.8095238095238095
 40
0.8095238095238095
 40
0.8095238095238095
 40
0.8095238095238095
 40
0.8571428571428571
 40
0.8571428571428571
 40
0.8571428571428571
 40
0.8571428571428571
 40
0.9047619047619048
 40
0.9047619047619048
 40
0.9047619047619048
 40
0.9047619047619048
 40
1.0
 40
1.0
 40
1.0
 40
1.0
 10
3.05675
 20
-7.87403
 30
0.0
 10
3.05675
 20
-7.87403
 30
0.0
 10
3.06691
 20
-7.93978
 30
0.0
 10
3.06691
 20
-7.93978
 30
0.0
 10
3.06691
 20
-7.93978
 30
0.0
 10
3.04603
 20
-7.94416
 30
0.0
 10
3.02726
 20
-7.94642
 30
0.0
 10
3.01089
 20
-7.94642
 30
0.0
 10
3.01089
 20
-7.94642
 30
0.0
 10
2.98394
 20
-7.94642
 30
0.0
 10
2.96306
 20
-7.94218
 30
0.0
 10
2.9481
 20
-7.93358
 30
0.0
 10
2.9481
 20
-7.93358
 30
0.0
 10
2.93328
 20
-7.92497
 30
0.0
 10
2.92284
 20
-7.91382
 30
0.0
 10
2.91677
 20
-7.89985
 30
0.0
 10
2.91677
 20
-7.89985
 30
0.0
 10
2.9107
 20
-7.88588
 30
0.0
 10
2.90774
 20
-7.85653
 30
0.0
 10
2.90774
 20
-7.8118
 30
0.0
 10
2.90774
 20
-7.8118
 30
0.0
 10
2.90774
 20
-7.8118
 30
0.0
 10
2.90774
 20
-7.55864
 30
0.0
 10
2.90774
 20
-7.55864
 30
0.0
 10
2.90774
 20
-7.55864
 30
0.0
 10
2.90774
 20
-7.55864
 30
0.0
 10
2.85271
 20
-7.55864
 30
0.0
 10
2.85271
 20
-7.55864
 30
0.0
 10
2.85271
 20
-7.55864
 30
0.0
 10
2.85271
 20
-7.55864
 30
0.0
 10
2.85271
 20
-7.50107
 30
0.0
 10
2.85271
 20
-7.50107
 30
0.0
 10
2.85271
 20
-7.50107
 30
0.0
 10
2.85271
 20
-7.50107
 30
0.0
 10
2.90774
 20
-7.50107
 30
0.0
 10
2.90774
 20
-7.50107
 30
0.0
 10
2.90774
 20
-7.50107
 30
0.0
 10
2.90774
 20
-7.50107
 30
0.0
 10
2.90774
 20
-7.39241
 30
0.0
 10
2.90774
 20
-7.39241
 30
0.0
 10
2.90774
 20
-7.39241
 30
0.0
 10
2.90774
 20
-7.39241
 30
0.0
 10
2.98225
 20
-7.34768
 30
0.0
 10
2.98225
 20
-7.34768
 30
0.0
 10
2.98225
 20
-7.34768
 30
0.0
 10
2.98225
 20
-7.34768
 30
0.0
 10
2.98225
 20
-7.50107
 30
0.0
 10
2.98225
 20
-7.50107
 30
0.0
 10
2.98225
 20
-7.50107
 30
0.0
 10
2.98225
 20
-7.50107
 30
0.0
 10
3.05675
 20
-7.50107
 30
0.0
 10
3.05675
 20
-7.50107
 30
0.0
 10
3.05675
 20
-7.50107
 30
0.0
 10
3.05675
 20
-7.50107
 30
0.0
 10
3.05675
 20
-7.55864
 30
0.0
 10
3.05675
 20
-7.55864
 30
0.0
 10
3.05675
 20
-7.55864
 30
0.0
 10
3.05675
 20
-7.55864
 30
0.0
 10
2.98225
 20
-7.55864
 30
0.0
 10
2.98225
 20
-7.55864
 30
0.0
 10
2.98225
 20
-7.55864
 30
0.0
 10
2.98225
 20
-7.55864
 30
0.0
 10
2.98225
 20
-7.81603
 30
0.0
 10
2.98225
 20
-7.81603
 30
0.0
 10
2.98225
 20
-7.81603
 30
0.0
 10
2.98225
 20
-7.83734
 30
0.0
 10
2.98352
 20
-7.85103
 30
0.0
 10
2.9862
 20
-7.85709
 30
0.0
 10
2.9862
 20
-7.85709
 30
0.0
 10
2.98874
 20
-7.86316
 30
0.0
 10
2.99297
 20
-7.86796
 30
0.0
 10
2.9989
 20
-7.87163
 30
0.0
 10
2.9989
 20
-7.87163
 30
0.0
 10
3.00483
 20
-7.87516
 30
0.0
 10
3.01329
 20
-7.87699
 30
0.0
 10
3.0243
 20
-7.87699
 30
0.0
 10
3.0243
 20
-7.87699
 30
0.0
 10
3.03248
 20
-7.87699
 30
0.0
 10
3.04335
 20
-7.876
 30
0.0
 10
3.05675
 20
-7.87403
 30
0.0
  0
SPLINE
  5
56
330
1F
100
AcDbEntity
  8
Layer 1
 62
   250
100
AcDbSpline
210
0.0
220
0.0
230
1.0
 70
    11
 71
     3
 72
    64
 73
    60
 74
     0
 42
0.0000000001
 43
0.0000000001
 12
1.0
 22
0.0
 32
0.0
 13
1.0
 23
0.0
 33
0.0
 40
0.0
 40
0.0
 40
0.0
 40
0.0
 40
0.0625
 40
0.0625
 40
0.0625
 40
0.0625
 40
0.125
 40
0.125
 40
0.125
 40
0.125
 40
0.1875
 40
0.1875
 40
0.1875
 40
0.1875
 40
0.25
 40
0.25
 40
0.25
 40
0.25
 40
0.3125
 40
0.3125
 40
0.3125
 40
0.3125
 40
0.375
 40
0.375
 40
0.375
 40
0.375
 40
0.4375
 40
0.4375
 40
0.4375
 40
0.4375
 40
0.5
 40
0.5
 40
0.5
 40
0.5
 40
0.5625
 40
0.5625
 40
0.5625
 40
0.5625
 40
0.625
 40
0.625
 40
0.625
 40
0.625
 40
0.6875
 40
0.6875
 40
0.6875
 40
0.6875
 40
0.75
 40
0.75
 40
0.75
 40
0.75
 40
0.8125
 40
0.8125
 40
0.8125
 40
0.8125
 40
0.875
 40
0.875
 40
0.875
 40
0.875
 40
1.0
 40
1.0
 40
1.0
 40
1.0
 10
3.42999
 20
-7.79825
 30
0.0
 10
3.42999
 20
-7.79825
 30
0.0
 10
3.50704
 20
-7.80841
 30
0.0
 10
3.50704
 20
-7.80841
 30
0.0
 10
3.50704
 20
-7.80841
 30
0.0
 10
3.49504
 20
-7.85314
 30
0.0
 10
3.47261
 20
-7.888
 30
0.0
 10
3.43987
 20
-7.91269
 30
0.0
 10
3.43987
 20
-7.91269
 30
0.0
 10
3.40713
 20
-7.93739
 30
0.0
 10
3.36536
 20
-7.9498
 30
0.0
 10
3.31442
 20
-7.9498
 30
0.0
 10
3.31442
 20
-7.9498
 30
0.0
 10
3.25036
 20
-7.9498
 30
0.0
 10
3.19956
 20
-7.93005
 30
0.0
 10
3.16202
 20
-7.89054
 30
0.0
 10
3.16202
 20
-7.89054
 30
0.0
 10
3.12448
 20
-7.85117
 30
0.0
 10
3.10572
 20
-7.79571
 30
0.0
 10
3.10572
 20
-7.72445
 30
0.0
 10
3.10572
 20
-7.72445
 30
0.0
 10
3.10572
 20
-7.65079
 30
0.0
 10
3.12463
 20
-7.5935
 30
0.0
 10
3.16258
 20
-7.55286
 30
0.0
 10
3.16258
 20
-7.55286
 30
0.0
 10
3.20054
 20
-7.51207
 30
0.0
 10
3.24979
 20
-7.49175
 30
0.0
 10
3.31033
 20
-7.49175
 30
0.0
 10
3.31033
 20
-7.49175
 30
0.0
 10
3.36889
 20
-7.49175
 30
0.0
 10
3.41673
 20
-7.51165
 30
0.0
 10
3.45384
 20
-7.55159
 30
0.0
 10
3.45384
 20
-7.55159
 30
0.0
 10
3.49095
 20
-7.59152
 30
0.0
 10
3.50958
 20
-7.64768
 30
0.0
 10
3.50958
 20
-7.72007
 30
0.0
 10
3.50958
 20
-7.72007
 30
0.0
 10
3.50958
 20
-7.72445
 30
0.0
 10
3.50944
 20
-7.73108
 30
0.0
 10
3.50916
 20
-7.73983
 30
0.0
 10
3.50916
 20
-7.73983
 30
0.0
 10
3.50916
 20
-7.73983
 30
0.0
 10
3.18192
 20
-7.73983
 30
0.0
 10
3.18192
 20
-7.73983
 30
0.0
 10
3.18192
 20
-7.73983
 30
0.0
 10
3.18474
 20
-7.78795
 30
0.0
 10
3.19829
 20
-7.82492
 30
0.0
 10
3.22284
 20
-7.85046
 30
0.0
 10
3.22284
 20
-7.85046
 30
0.0
 10
3.24725
 20
-7.876
 30
0.0
 10
3.27787
 20
-7.88884
 30
0.0
 10
3.31442
 20
-7.88884
 30
0.0
 10
3.31442
 20
-7.88884
 30
0.0
 10
3.34166
 20
-7.88884
 30
0.0
 10
3.36494
 20
-7.88165
 30
0.0
 10
3.38413
 20
-7.86725
 30
0.0
 10
3.38413
 20
-7.86725
 30
0.0
 10
3.40346
 20
-7.85286
 30
0.0
 10
3.4187
 20
-7.82986
 30
0.0
 10
3.42999
 20
-7.79825
 30
0.0
  0
SPLINE
  5
57
330
1F
100
AcDbEntity
  8
Layer 1
 62
   250
100
AcDbSpline
210
0.0
220
0.0
230
1.0
 70
    11
 71
     3
 72
    24
 73
    20
 74
     0
 42
0.0000000001
 43
0.0000000001
 12
1.0
 22
0.0
 32
0.0
 13
1.0
 23
0.0
 33
0.0
 40
0.0
 40
0.0
 40
0.0
 40
0.0
 40
0.1666666666666667
 40
0.1666666666666667
 40
0.1666666666666667
 40
0.1666666666666667
 40
0.3333333333333333
 40
0.3333333333333333
 40
0.3333333333333333
 40
0.3333333333333333
 40
0.5
 40
0.5
 40
0.5
 40
0.5
 40
0.6666666666666666
 40
0.6666666666666666
 40
0.6666666666666666
 40
0.6666666666666666
 40
1.0
 40
1.0
 40
1.0
 40
1.0
 10
3.18615
 20
-7.67887
 30
0.0
 10
3.18615
 20
-7.67887
 30
0.0
 10
3.43084
 20
-7.67887
 30
0.0
 10
3.43084
 20
-7.67887
 30
0.0
 10
3.43084
 20
-7.67887
 30
0.0
 10
3.42759
 20
-7.6419
 30
0.0
 10
3.41814
 20
-7.61424
 30
0.0
 10
3.40276
 20
-7.59575
 30
0.0
 10
3.40276
 20
-7.59575
 30
0.0
 10
3.37919
 20
-7.56711
 30
0.0
 10
3.34843
 20
-7.55272
 30
0.0
 10
3.31075
 20
-7.55272
 30
0.0
 10
3.31075
 20
-7.55272
 30
0.0
 10
3.2766
 20
-7.55272
 30
0.0
 10
3.24796
 20
-7.56415
 30
0.0
 10
3.22467
 20
-7.58701
 30
0.0
 10
3.22467
 20
-7.58701
 30
0.0
 10
3.20153
 20
-7.60987
 30
0.0
 10
3.18869
 20
-7.64049
 30
0.0
 10
3.18615
 20
-7.67887
 30
0.0
  0
SPLINE
  5
58
330
1F
100
AcDbEntity
  8
Layer 1
370
    20
100
AcDbSpline
210
0.0
220
0.0
230
1.0
 70
    27
 71
     3
 72
     8
 73
     4
 74
     0
 42
0.0000000001
 43
0.0000000001
 12
1.0
 22
0.0
 32
0.0
 13
1.0
 23
0.0
 33
0.0
 40
0.0
 40
0.0
 40
0.0
 40
0.0
 40
1.0
 40
1.0
 40
1.0
 40
1.0
 10
8.9387
 20
5.90808
 30
0.0
 10
8.9387
 20
5.90808
 30
0.0
 10
8.9387
 20
5.90808
 30
0.0
 10
8.9387
 20
5.90808
 30
0.0
  0
SPLINE
  5
59
330
1F
100
AcDbEntity
  8
Layer 1
370
    20
100
AcDbSpline
210
0.0
220
0.0
230
1.0
 70
    24
 71
     3
 72
     8
 73
     4
 74
     0
 42
0.0000000001
 43
0.0000000001
 12
1.0
 22
0.0
 32
0.0
 13
1.0
 23
0.0
 33
0.0
 40
0.0
 40
0.0
 40
0.0
 40
0.0
 40
1.0
 40
1.0
 40
1.0
 40
1.0
 10
8.9387
 20
5.90808
 30
0.0
 10
8.9387
 20
5.90808
 30
0.0
 10
8.9387
 20
-5.92838
 30
0.0
 10
8.9387
 20
-5.92838
 30
0.0
  0
SPLINE
  5
5A
330
1F
100
AcDbEntity
  8
Layer 1
370
    20
100
AcDbSpline
210
0.0
220
0.0
230
1.0
 70
    27
 71
     3
 72
     8
 73
     4
 74
     0
 42
0.0000000001
 43
0.0000000001
 12
1.0
 22
0.0
 32
0.0
 13
1.0
 23
0.0
 33
0.0
 40
0.0
 40
0.0
 40
0.0
 40
0.0
 40
1.0
 40
1.0
 40
1.0
 40
1.0
 10
8.9387
 20
5.90808
 30
0.0
 10
8.9387
 20
5.90808
 30
0.0
 10
8.9387
 20
5.90808
 30
0.0
 10
8.9387
 20
5.90808
 30
0.0
  0
SPLINE
  5
5B
330
1F
100
AcDbEntity
  8
Layer 1
370
    20
100
AcDbSpline
210
0.0
220
0.0
230
1.0
 70
    24
 71
     3
 72
     8
 73
     4
 74
     0
 42
0.0000000001
 43
0.0000000001
 12
1.0
 22
0.0
 32
0.0
 13
1.0
 23
0.0
 33
0.0
 40
0.0
 40
0.0
 40
0.0
 40
0.0
 40
1.0
 40
1.0
 40
1.0
 40
1.0
 10
8.9387
 20
5.90808
 30
0.0
 10
8.9387
 20
5.90808
 30
0.0
 10
-8.8693
 20
5.90808
 30
0.0
 10
-8.8693
 20
5.90808
 30
0.0
  0
SPLINE
  5
5C
330
1F
100
AcDbEntity
  8
Layer 1
370
    20
100
AcDbSpline
210
0.0
220
0.0
230
1.0
 70
    24
 71
     3
 72
     8
 73
     4
 74
     0
 42
0.0000000001
 43
0.0000000001
 12
1.0
 22
0.0
 32
0.0
 13
1.0
 23
0.0
 33
0.0
 40
0.0
 40
0.0
 40
0.0
 40
0.0
 40
1.0
 40
1.0
 40
1.0
 40
1.0
 10
-8.8693
 20
5.90808
 30
0.0
 10
-8.8693
 20
5.90808
 30
0.0
 10
-8.8693
 20
-5.92838
 30
0.0
 10
-8.8693
 20
-5.92838
 30
0.0
  0
SPLINE
  5
5D
330
1F
100
AcDbEntity
  8
Layer 1
370
    20
100
AcDbSpline
210
0.0
220
0.0
230
1.0
 70
    24
 71
     3
 72
     8
 73
     4
 74
     0
 42
0.0000000001
 43
0.0000000001
 12
1.0
 22
0.0
 32
0.0
 13
1.0
 23
0.0
 33
0.0
 40
0.0
 40
0.0
 40
0.0
 40
0.0
 40
1.0
 40
1.0
 40
1.0
 40
1.0
 10
8.9387
 20
-5.92838
 30
0.0
 10
8.9387
 20
-5.92838
 30
0.0
 10
-8.8693
 20
-5.92838
 30
0.0
 10
-8.8693
 20
-5.92838
 30
0.0
  0
SPLINE
  5
5F
330
1F
100
AcDbEntity
  8
layer 2
370
     5
100
AcDbSpline
210
0.0
220
0.0
230
1.0
 70
    24
 71
     3
 72
     8
 73
     4
 74
     0
 42
0.0000000001
 43
0.0000000001
 12
1.0
 22
0.0
 32
0.0
 13
1.0
 23
0.0
 33
0.0
 40
0.0
 40
0.0
 40
0.0
 40
0.0
 40
1.0
 40
1.0
 40
1.0
 40
1.0
 10
-7.74964
 20
4.36188
 30
0.0
 10
-7.74964
 20
4.36188
 30
0.0
 10
-7.74964
 20
6.65172
 30
0.0
 10
-7.74964
 20
6.65172
 30
0.0
  0
SPLINE
  5
60
330
1F
100
AcDbEntity
  8
layer 2
370
     5
100
AcDbSpline
210
0.0
220
0.0
230
1.0
 70
    27
 71
     3
 72
     8
 73
     4
 74
     0
 42
0.0000000001
 43
0.0000000001
 12
1.0
 22
0.0
 32
0.0
 13
1.0
 23
0.0
 33
0.0
 40
0.0
 40
0.0
 40
0.0
 40
0.0
 40
1.0
 40
1.0
 40
1.0
 40
1.0
 10
7.81904
 20
6.65172
 30
0.0
 10
7.81904
 20
6.65172
 30
0.0
 10
7.81904
 20
6.65172
 30
0.0
 10
7.81904
 20
6.65172
 30
0.0
  0
SPLINE
  5
61
330
1F
100
AcDbEntity
  8
layer 2
370
     5
100
AcDbSpline
210
0.0
220
0.0
230
1.0
 70
    24
 71
     3
 72
     8
 73
     4
 74
     0
 42
0.0000000001
 43
0.0000000001
 12
1.0
 22
0.0
 32
0.0
 13
1.0
 23
0.0
 33
0.0
 40
0.0
 40
0.0
 40
0.0
 40
0.0
 40
1.0
 40
1.0
 40
1.0
 40
1.0
 10
7.81904
 20
4.36188
 30
0.0
 10
7.81904
 20
4.36188
 30
0.0
 10
7.81904
 20
6.65172
 30
0.0
 10
7.81904
 20
6.65172
 30
0.0
  0
SPLINE
  5
62
330
1F
100
AcDbEntity
  8
layer 2
370
     5
100
AcDbSpline
210
0.0
220
0.0
230
1.0
 70
    24
 71
     3
 72
     8
 73
     4
 74
     0
 42
0.0000000001
 43
0.0000000001
 12
1.0
 22
0.0
 32
0.0
 13
1.0
 23
0.0
 33
0.0
 40
0.0
 40
0.0
 40
0.0
 40
0.0
 40
1.0
 40
1.0
 40
1.0
 40
1.0
 10
-7.51504
 20
6.62506
 30
0.0
 10
-7.51504
 20
6.62506
 30
0.0
 10
7.58444
 20
6.62506
 30
0.0
 10
7.58444
 20
6.62506
 30
0.0
  0
SPLINE
  5
63
330
1F
100
AcDbEntity
  8
layer 2
370
     9
100
AcDbSpline
210
0.0
220
0.0
230
1.0
 70
    27
 71
     3
 72
    12
 73
     8
 74
     0
 42
0.0000000001
 43
0.0000000001
 12
1.0
 22
0.0
 32
0.0
 13
1.0
 23
0.0
 33
0.0
 40
0.0
 40
0.0
 40
0.0
 40
0.0
 40
0.3333333333333333
 40
0.3333333333333333
 40
0.3333333333333333
 40
0.3333333333333333
 40
1.0
 40
1.0
 40
1.0
 40
1.0
 10
-7.51504
 20
6.66416
 30
0.0
 10
-7.51504
 20
6.66416
 30
0.0
 10
-7.74964
 20
6.62506
 30
0.0
 10
-7.74964
 20
6.62506
 30
0.0
 10
-7.74964
 20
6.62506
 30
0.0
 10
-7.74964
 20
6.62506
 30
0.0
 10
-7.51504
 20
6.66416
 30
0.0
 10
-7.51504
 20
6.66416
 30
0.0
  0
SPLINE
  5
64
330
1F
100
AcDbEntity
  8
layer 2
370
     9
100
AcDbSpline
210
0.0
220
0.0
230
1.0
 70
    11
 71
     3
 72
    16
 73
    12
 74
     0
 42
0.0000000001
 43
0.0000000001
 12
1.0
 22
0.0
 32
0.0
 13
1.0
 23
0.0
 33
0.0
 40
0.0
 40
0.0
 40
0.0
 40
0.0
 40
0.25
 40
0.25
 40
0.25
 40
0.25
 40
0.5
 40
0.5
 40
0.5
 40
0.5
 40
1.0
 40
1.0
 40
1.0
 40
1.0
 10
-7.74964
 20
6.62506
 30
0.0
 10
-7.74964
 20
6.62506
 30
0.0
 10
-7.51504
 20
6.58596
 30
0.0
 10
-7.51504
 20
6.58596
 30
0.0
 10
-7.51504
 20
6.58596
 30
0.0
 10
-7.51504
 20
6.58596
 30
0.0
 10
-7.51504
 20
6.66416
 30
0.0
 10
-7.51504
 20
6.66416
 30
0.0
 10
-7.51504
 20
6.66416
 30
0.0
 10
-7.51504
 20
6.66416
 30
0.0
 10
-7.74964
 20
6.62506
 30
0.0
 10
-7.74964
 20
6.62506
 30
0.0
  0
SPLINE
  5
65
330
1F
100
AcDbEntity
  8
layer 2
370
    13
100
AcDbSpline
210
0.0
220
0.0
230
1.0
 70
    24
 71
     3
 72
     8
 73
     4
 74
     0
 42
0.0000000001
 43
0.0000000001
 12
1.0
 22
0.0
 32
0.0
 13
1.0
 23
0.0
 33
0.0
 40
0.0
 40
0.0
 40
0.0
 40
0.0
 40
1.0
 40
1.0
 40
1.0
 40
1.0
 10
-7.51504
 20
6.66416
 30
0.0
 10
-7.51504
 20
6.66416
 30
0.0
 10
-7.74964
 20
6.62506
 30
0.0
 10
-7.74964
 20
6.62506
 30
0.0
  0
SPLINE
  5
66
330
1F
100
AcDbEntity
  8
layer 2
370
    13
100
AcDbSpline
210
0.0
220
0.0
230
1.0
 70
     8
 71
     3
 72
    12
 73
     8
 74
     0
 42
0.0000000001
 43
0.0000000001
 12
1.0
 22
0.0
 32
0.0
 13
1.0
 23
0.0
 33
0.0
 40
0.0
 40
0.0
 40
0.0
 40
0.0
 40
0.3333333333333333
 40
0.3333333333333333
 40
0.3333333333333333
 40
0.3333333333333333
 40
1.0
 40
1.0
 40
1.0
 40
1.0
 10
-7.74964
 20
6.62506
 30
0.0
 10
-7.74964
 20
6.62506
 30
0.0
 10
-7.51504
 20
6.58596
 30
0.0
 10
-7.51504
 20
6.58596
 30
0.0
 10
-7.51504
 20
6.58596
 30
0.0
 10
-7.51504
 20
6.58596
 30
0.0
 10
-7.51504
 20
6.66416
 30
0.0
 10
-7.51504
 20
6.66416
 30
0.0
  0
SPLINE
  5
67
330
1F
100
AcDbEntity
  8
layer 2
370
     9
100
AcDbSpline
210
0.0
220
0.0
230
1.0
 70
    27
 71
     3
 72
    12
 73
     8
 74
     0
 42
0.0000000001
 43
0.0000000001
 12
1.0
 22
0.0
 32
0.0
 13
1.0
 23
0.0
 33
0.0
 40
0.0
 40
0.0
 40
0.0
 40
0.0
 40
0.3333333333333333
 40
0.3333333333333333
 40
0.3333333333333333
 40
0.3333333333333333
 40
1.0
 40
1.0
 40
1.0
 40
1.0
 10
7.58444
 20
6.66416
 30
0.0
 10
7.58444
 20
6.66416
 30
0.0
 10
7.81904
 20
6.62506
 30
0.0
 10
7.81904
 20
6.62506
 30
0.0
 10
7.81904
 20
6.62506
 30
0.0
 10
7.81904
 20
6.62506
 30
0.0
 10
7.58444
 20
6.66416
 30
0.0
 10
7.58444
 20
6.66416
 30
0.0
  0
SPLINE
  5
68
330
1F
100
AcDbEntity
  8
layer 2
370
     9
100
AcDbSpline
210
0.0
220
0.0
230
1.0
 70
    11
 71
     3
 72
    16
 73
    12
 74
     0
 42
0.0000000001
 43
0.0000000001
 12
1.0
 22
0.0
 32
0.0
 13
1.0
 23
0.0
 33
0.0
 40
0.0
 40
0.0
 40
0.0
 40
0.0
 40
0.25
 40
0.25
 40
0.25
 40
0.25
 40
0.5
 40
0.5
 40
0.5
 40
0.5
 40
1.0
 40
1.0
 40
1.0
 40
1.0
 10
7.81904
 20
6.62506
 30
0.0
 10
7.81904
 20
6.62506
 30
0.0
 10
7.58444
 20
6.58596
 30
0.0
 10
7.58444
 20
6.58596
 30
0.0
 10
7.58444
 20
6.58596
 30
0.0
 10
7.58444
 20
6.58596
 30
0.0
 10
7.58444
 20
6.66416
 30
0.0
 10
7.58444
 20
6.66416
 30
0.0
 10
7.58444
 20
6.66416
 30
0.0
 10
7.58444
 20
6.66416
 30
0.0
 10
7.81904
 20
6.62506
 30
0.0
 10
7.81904
 20
6.62506
 30
0.0
  0
SPLINE
  5
69
330
1F
100
AcDbEntity
  8
layer 2
370
    13
100
AcDbSpline
210
0.0
220
0.0
230
1.0
 70
    24
 71
     3
 72
     8
 73
     4
 74
     0
 42
0.0000000001
 43
0.0000000001
 12
1.0
 22
0.0
 32
0.0
 13
1.0
 23
0.0
 33
0.0
 40
0.0
 40
0.0
 40
0.0
 40
0.0
 40
1.0
 40
1.0
 40
1.0
 40
1.0
 10
7.58444
 20
6.66416
 30
0.0
 10
7.58444
 20
6.66416
 30
0.0
 10
7.81904
 20
6.62506
 30
0.0
 10
7.81904
 20
6.62506
 30
0.0
  0
SPLINE
  5
6A
330
1F
100
AcDbEntity
  8
layer 2
370
    13
100
AcDbSpline
210
0.0
220
0.0
230
1.0
 70
     8
 71
     3
 72
    12
 73
     8
 74
     0
 42
0.0000000001
 43
0.0000000001
 12
1.0
 22
0.0
 32
0.0
 13
1.0
 23
0.0
 33
0.0
 40
0.0
 40
0.0
 40
0.0
 40
0.0
 40
0.3333333333333333
 40
0.3333333333333333
 40
0.3333333333333333
 40
0.3333333333333333
 40
1.0
 40
1.0
 40
1.0
 40
1.0
 10
7.81904
 20
6.62506
 30
0.0
 10
7.81904
 20
6.62506
 30
0.0
 10
7.58444
 20
6.58596
 30
0.0
 10
7.58444
 20
6.58596
 30
0.0
 10
7.58444
 20
6.58596
 30
0.0
 10
7.58444
 20
6.58596
 30
0.0
 10
7.58444
 20
6.66416
 30
0.0
 10
7.58444
 20
6.66416
 30
0.0
  0
SPLINE
  5
6B
330
1F
100
AcDbEntity
  8
layer 2
370
     9
100
AcDbSpline
210
0.0
220
0.0
230
1.0
 70
    11
 71
     3
 72
    48
 73
    44
 74
     0
 42
0.0000000001
 43
0.0000000001
 12
1.0
 22
0.0
 32
0.0
 13
1.0
 23
0.0
 33
0.0
 40
0.0
 40
0.0
 40
0.0
 40
0.0
 40
0.0833333333333333
 40
0.0833333333333333
 40
0.0833333333333333
 40
0.0833333333333333
 40
0.1666666666666667
 40
0.1666666666666667
 40
0.1666666666666667
 40
0.1666666666666667
 40
0.25
 40
0.25
 40
0.25
 40
0.25
 40
0.3333333333333333
 40
0.3333333333333333
 40
0.3333333333333333
 40
0.3333333333333333
 40
0.4166666666666667
 40
0.4166666666666667
 40
0.4166666666666667
 40
0.4166666666666667
 40
0.5
 40
0.5
 40
0.5
 40
0.5
 40
0.5833333333333334
 40
0.5833333333333334
 40
0.5833333333333334
 40
0.5833333333333334
 40
0.6666666666666666
 40
0.6666666666666666
 40
0.6666666666666666
 40
0.6666666666666666
 40
0.75
 40
0.75
 40
0.75
 40
0.75
 40
0.8333333333333334
 40
0.8333333333333334
 40
0.8333333333333334
 40
0.8333333333333334
 40
1.0
 40
1.0
 40
1.0
 40
1.0
 10
-0.62912
 20
6.90877
 30
0.0
 10
-0.62912
 20
6.90877
 30
0.0
 10
-0.62912
 20
6.9304
 30
0.0
 10
-0.62912
 20
6.9304
 30
0.0
 10
-0.62912
 20
6.9304
 30
0.0
 10
-0.62912
 20
6.9304
 30
0.0
 10
-0.51055
 20
6.9304
 30
0.0
 10
-0.51055
 20
6.9304
 30
0.0
 10
-0.51055
 20
6.9304
 30
0.0
 10
-0.51055
 20
6.9304
 30
0.0
 10
-0.51055
 20
6.91291
 30
0.0
 10
-0.51055
 20
6.91291
 30
0.0
 10
-0.51055
 20
6.91291
 30
0.0
 10
-0.52219
 20
6.9005
 30
0.0
 10
-0.53375
 20
6.88399
 30
0.0
 10
-0.54522
 20
6.86343
 30
0.0
 10
-0.54522
 20
6.86343
 30
0.0
 10
-0.55665
 20
6.84287
 30
0.0
 10
-0.56553
 20
6.82167
 30
0.0
 10
-0.57175
 20
6.79996
 30
0.0
 10
-0.57175
 20
6.79996
 30
0.0
 10
-0.57628
 20
6.78461
 30
0.0
 10
-0.57913
 20
6.76784
 30
0.0
 10
-0.58037
 20
6.74959
 30
0.0
 10
-0.58037
 20
6.74959
 30
0.0
 10
-0.58037
 20
6.74959
 30
0.0
 10
-0.60349
 20
6.74959
 30
0.0
 10
-0.60349
 20
6.74959
 30
0.0
 10
-0.60349
 20
6.74959
 30
0.0
 10
-0.60323
 20
6.764
 30
0.0
 10
-0.60042
 20
6.78141
 30
0.0
 10
-0.595
 20
6.80184
 30
0.0
 10
-0.595
 20
6.80184
 30
0.0
 10
-0.58958
 20
6.82223
 30
0.0
 10
-0.58182
 20
6.84193
 30
0.0
 10
-0.57171
 20
6.86087
 30
0.0
 10
-0.57171
 20
6.86087
 30
0.0
 10
-0.56156
 20
6.87981
 30
0.0
 10
-0.55081
 20
6.89581
 30
0.0
 10
-0.53938
 20
6.90877
 30
0.0
 10
-0.53938
 20
6.90877
 30
0.0
 10
-0.53938
 20
6.90877
 30
0.0
 10
-0.62912
 20
6.90877
 30
0.0
 10
-0.62912
 20
6.90877
 30
0.0
  0
SPLINE
  5
6C
330
1F
100
AcDbEntity
  8
layer 2
370
     9
100
AcDbSpline
210
0.0
220
0.0
230
1.0
 70
    11
 71
     3
 72
   124
 73
   120
 74
     0
 42
0.0000000001
 43
0.0000000001
 12
1.0
 22
0.0
 32
0.0
 13
1.0
 23
0.0
 33
0.0
 40
0.0
 40
0.0
 40
0.0
 40
0.0
 40
0.032258064516129
 40
0.032258064516129
 40
0.032258064516129
 40
0.032258064516129
 40
0.0645161290322581
 40
0.0645161290322581
 40
0.0645161290322581
 40
0.0645161290322581
 40
0.0967741935483871
 40
0.0967741935483871
 40
0.0967741935483871
 40
0.0967741935483871
 40
0.1290322580645161
 40
0.1290322580645161
 40
0.1290322580645161
 40
0.1290322580645161
 40
0.1612903225806452
 40
0.1612903225806452
 40
0.1612903225806452
 40
0.1612903225806452
 40
0.1935483870967742
 40
0.1935483870967742
 40
0.1935483870967742
 40
0.1935483870967742
 40
0.2258064516129032
 40
0.2258064516129032
 40
0.2258064516129032
 40
0.2258064516129032
 40
0.2580645161290323
 40
0.2580645161290323
 40
0.2580645161290323
 40
0.2580645161290323
 40
0.2903225806451613
 40
0.2903225806451613
 40
0.2903225806451613
 40
0.2903225806451613
 40
0.3225806451612903
 40
0.3225806451612903
 40
0.3225806451612903
 40
0.3225806451612903
 40
0.3548387096774194
 40
0.3548387096774194
 40
0.3548387096774194
 40
0.3548387096774194
 40
0.3870967741935484
 40
0.3870967741935484
 40
0.3870967741935484
 40
0.3870967741935484
 40
0.4193548387096774
 40
0.4193548387096774
 40
0.4193548387096774
 40
0.4193548387096774
 40
0.4516129032258064
 40
0.4516129032258064
 40
0.4516129032258064
 40
0.4516129032258064
 40
0.4838709677419355
 40
0.4838709677419355
 40
0.4838709677419355
 40
0.4838709677419355
 40
0.5161290322580645
 40
0.5161290322580645
 40
0.5161290322580645
 40
0.5161290322580645
 40
0.5483870967741935
 40
0.5483870967741935
 40
0.5483870967741935
 40
0.5483870967741935
 40
0.5806451612903226
 40
0.5806451612903226
 40
0.5806451612903226
 40
0.5806451612903226
 40
0.6129032258064516
 40
0.6129032258064516
 40
0.6129032258064516
 40
0.6129032258064516
 40
0.6451612903225806
 40
0.6451612903225806
 40
0.6451612903225806
 40
0.6451612903225806
 40
0.6774193548387096
 40
0.6774193548387096
 40
0.6774193548387096
 40
0.6774193548387096
 40
0.7096774193548387
 40
0.7096774193548387
 40
0.7096774193548387
 40
0.7096774193548387
 40
0.7419354838709677
 40
0.7419354838709677
 40
0.7419354838709677
 40
0.7419354838709677
 40
0.7741935483870968
 40
0.7741935483870968
 40
0.7741935483870968
 40
0.7741935483870968
 40
0.8064516129032258
 40
0.8064516129032258
 40
0.8064516129032258
 40
0.8064516129032258
 40
0.8387096774193549
 40
0.8387096774193549
 40
0.8387096774193549
 40
0.8387096774193549
 40
0.8709677419354839
 40
0.8709677419354839
 40
0.8709677419354839
 40
0.8709677419354839
 40
0.9032258064516129
 40
0.9032258064516129
 40
0.9032258064516129
 40
0.9032258064516129
 40
0.9354838709677419
 40
0.9354838709677419
 40
0.9354838709677419
 40
0.9354838709677419
 40
1.0
 40
1.0
 40
1.0
 40
1.0
 10
-0.48815
 20
6.79796
 30
0.0
 10
-0.48815
 20
6.79796
 30
0.0
 10
-0.46567
 20
6.80094
 30
0.0
 10
-0.46567
 20
6.80094
 30
0.0
 10
-0.46567
 20
6.80094
 30
0.0
 10
-0.46307
 20
6.78819
 30
0.0
 10
-0.45868
 20
6.77902
 30
0.0
 10
-0.45249
 20
6.77339
 30
0.0
 10
-0.45249
 20
6.77339
 30
0.0
 10
-0.44627
 20
6.76776
 30
0.0
 10
-0.43872
 20
6.76494
 30
0.0
 10
-0.4298
 20
6.76494
 30
0.0
 10
-0.4298
 20
6.76494
 30
0.0
 10
-0.41922
 20
6.76494
 30
0.0
 10
-0.41027
 20
6.76861
 30
0.0
 10
-0.40297
 20
6.77595
 30
0.0
 10
-0.40297
 20
6.77595
 30
0.0
 10
-0.39572
 20
6.78328
 30
0.0
 10
-0.39205
 20
6.79237
 30
0.0
 10
-0.39205
 20
6.8032
 30
0.0
 10
-0.39205
 20
6.8032
 30
0.0
 10
-0.39205
 20
6.81353
 30
0.0
 10
-0.39542
 20
6.82206
 30
0.0
 10
-0.40216
 20
6.82875
 30
0.0
 10
-0.40216
 20
6.82875
 30
0.0
 10
-0.40894
 20
6.83545
 30
0.0
 10
-0.41752
 20
6.83882
 30
0.0
 10
-0.42793
 20
6.83882
 30
0.0
 10
-0.42793
 20
6.83882
 30
0.0
 10
-0.43219
 20
6.83882
 30
0.0
 10
-0.43748
 20
6.83797
 30
0.0
 10
-0.44379
 20
6.8363
 30
0.0
 10
-0.44379
 20
6.8363
 30
0.0
 10
-0.44379
 20
6.8363
 30
0.0
 10
-0.44128
 20
6.85605
 30
0.0
 10
-0.44128
 20
6.85605
 30
0.0
 10
-0.44128
 20
6.85605
 30
0.0
 10
-0.43978
 20
6.85588
 30
0.0
 10
-0.43859
 20
6.8558
 30
0.0
 10
-0.43765
 20
6.8558
 30
0.0
 10
-0.43765
 20
6.8558
 30
0.0
 10
-0.4281
 20
6.8558
 30
0.0
 10
-0.41948
 20
6.85831
 30
0.0
 10
-0.4118
 20
6.8633
 30
0.0
 10
-0.4118
 20
6.8633
 30
0.0
 10
-0.40412
 20
6.86829
 30
0.0
 10
-0.40029
 20
6.87601
 30
0.0
 10
-0.40029
 20
6.88642
 30
0.0
 10
-0.40029
 20
6.88642
 30
0.0
 10
-0.40029
 20
6.89465
 30
0.0
 10
-0.4031
 20
6.90152
 30
0.0
 10
-0.40869
 20
6.9069
 30
0.0
 10
-0.40869
 20
6.9069
 30
0.0
 10
-0.41428
 20
6.91231
 30
0.0
 10
-0.42148
 20
6.91504
 30
0.0
 10
-0.43031
 20
6.91504
 30
0.0
 10
-0.43031
 20
6.91504
 30
0.0
 10
-0.43906
 20
6.91504
 30
0.0
 10
-0.44635
 20
6.91227
 30
0.0
 10
-0.45215
 20
6.90681
 30
0.0
 10
-0.45215
 20
6.90681
 30
0.0
 10
-0.458
 20
6.90131
 30
0.0
 10
-0.46175
 20
6.89303
 30
0.0
 10
-0.46341
 20
6.88203
 30
0.0
 10
-0.46341
 20
6.88203
 30
0.0
 10
-0.46341
 20
6.88203
 30
0.0
 10
-0.48589
 20
6.88604
 30
0.0
 10
-0.48589
 20
6.88604
 30
0.0
 10
-0.48589
 20
6.88604
 30
0.0
 10
-0.48316
 20
6.90114
 30
0.0
 10
-0.47689
 20
6.91282
 30
0.0
 10
-0.46717
 20
6.9211
 30
0.0
 10
-0.46717
 20
6.9211
 30
0.0
 10
-0.4574
 20
6.92937
 30
0.0
 10
-0.44529
 20
6.93355
 30
0.0
 10
-0.43078
 20
6.93355
 30
0.0
 10
-0.43078
 20
6.93355
 30
0.0
 10
-0.4208
 20
6.93355
 30
0.0
 10
-0.41159
 20
6.93138
 30
0.0
 10
-0.40319
 20
6.92711
 30
0.0
 10
-0.40319
 20
6.92711
 30
0.0
 10
-0.39478
 20
6.92281
 30
0.0
 10
-0.38834
 20
6.91696
 30
0.0
 10
-0.38386
 20
6.90954
 30
0.0
 10
-0.38386
 20
6.90954
 30
0.0
 10
-0.37943
 20
6.90212
 30
0.0
 10
-0.37717
 20
6.89427
 30
0.0
 10
-0.37717
 20
6.88591
 30
0.0
 10
-0.37717
 20
6.88591
 30
0.0
 10
-0.37717
 20
6.87802
 30
0.0
 10
-0.3793
 20
6.87081
 30
0.0
 10
-0.38357
 20
6.86428
 30
0.0
 10
-0.38357
 20
6.86428
 30
0.0
 10
-0.38783
 20
6.8578
 30
0.0
 10
-0.3941
 20
6.85264
 30
0.0
 10
-0.40242
 20
6.8488
 30
0.0
 10
-0.40242
 20
6.8488
 30
0.0
 10
-0.39158
 20
6.84633
 30
0.0
 10
-0.38318
 20
6.84112
 30
0.0
 10
-0.37717
 20
6.83323
 30
0.0
 10
-0.37717
 20
6.83323
 30
0.0
 10
-0.3712
 20
6.82538
 30
0.0
 10
-0.36821
 20
6.81553
 30
0.0
 10
-0.36821
 20
6.80372
 30
0.0
 10
-0.36821
 20
6.80372
 30
0.0
 10
-0.36821
 20
6.78772
 30
0.0
 10
-0.37401
 20
6.77416
 30
0.0
 10
-0.3857
 20
6.76302
 30
0.0
 10
-0.3857
 20
6.76302
 30
0.0
 10
-0.39734
 20
6.75189
 30
0.0
 10
-0.4121
 20
6.74635
 30
0.0
 10
-0.42993
 20
6.74635
 30
0.0
 10
-0.42993
 20
6.74635
 30
0.0
 10
-0.44601
 20
6.74635
 30
0.0
 10
-0.45936
 20
6.75112
 30
0.0
 10
-0.46998
 20
6.76072
 30
0.0
 10
-0.46998
 20
6.76072
 30
0.0
 10
-0.4806
 20
6.77027
 30
0.0
 10
-0.48666
 20
6.78269
 30
0.0
 10
-0.48815
 20
6.79796
 30
0.0
  0
SPLINE
  5
6D
330
1F
100
AcDbEntity
  8
layer 2
370
     9
100
AcDbSpline
210
0.0
220
0.0
230
1.0
 70
    11
 71
     3
 72
    52
 73
    48
 74
     0
 42
0.0000000001
 43
0.0000000001
 12
1.0
 22
0.0
 32
0.0
 13
1.0
 23
0.0
 33
0.0
 40
0.0
 40
0.0
 40
0.0
 40
0.0
 40
0.0769230769230769
 40
0.0769230769230769
 40
0.0769230769230769
 40
0.0769230769230769
 40
0.1538461538461539
 40
0.1538461538461539
 40
0.1538461538461539
 40
0.1538461538461539
 40
0.2307692307692308
 40
0.2307692307692308
 40
0.2307692307692308
 40
0.2307692307692308
 40
0.3076923076923077
 40
0.3076923076923077
 40
0.3076923076923077
 40
0.3076923076923077
 40
0.3846153846153846
 40
0.3846153846153846
 40
0.3846153846153846
 40
0.3846153846153846
 40
0.4615384615384616
 40
0.4615384615384616
 40
0.4615384615384616
 40
0.4615384615384616
 40
0.5384615384615384
 40
0.5384615384615384
 40
0.5384615384615384
 40
0.5384615384615384
 40
0.6153846153846154
 40
0.6153846153846154
 40
0.6153846153846154
 40
0.6153846153846154
 40
0.6923076923076923
 40
0.6923076923076923
 40
0.6923076923076923
 40
0.6923076923076923
 40
0.7692307692307693
 40
0.7692307692307693
 40
0.7692307692307693
 40
0.7692307692307693
 40
0.8461538461538461
 40
0.8461538461538461
 40
0.8461538461538461
 40
0.8461538461538461
 40
1.0
 40
1.0
 40
1.0
 40
1.0
 10
-0.34594
 20
6.83993
 30
0.0
 10
-0.34594
 20
6.8616
 30
0.0
 10
-0.34373
 20
6.87904
 30
0.0
 10
-0.33925
 20
6.89222
 30
0.0
 10
-0.33925
 20
6.89222
 30
0.0
 10
-0.33481
 20
6.90544
 30
0.0
 10
-0.32816
 20
6.91564
 30
0.0
 10
-0.31937
 20
6.92281
 30
0.0
 10
-0.31937
 20
6.92281
 30
0.0
 10
-0.31058
 20
6.92997
 30
0.0
 10
-0.29954
 20
6.93355
 30
0.0
 10
-0.28623
 20
6.93355
 30
0.0
 10
-0.28623
 20
6.93355
 30
0.0
 10
-0.27638
 20
6.93355
 30
0.0
 10
-0.26776
 20
6.93155
 30
0.0
 10
-0.26034
 20
6.92758
 30
0.0
 10
-0.26034
 20
6.92758
 30
0.0
 10
-0.25292
 20
6.92366
 30
0.0
 10
-0.24682
 20
6.91794
 30
0.0
 10
-0.24195
 20
6.91048
 30
0.0
 10
-0.24195
 20
6.91048
 30
0.0
 10
-0.23713
 20
6.90301
 30
0.0
 10
-0.23334
 20
6.89393
 30
0.0
 10
-0.23061
 20
6.88322
 30
0.0
 10
-0.23061
 20
6.88322
 30
0.0
 10
-0.22784
 20
6.87252
 30
0.0
 10
-0.22647
 20
6.8581
 30
0.0
 10
-0.22647
 20
6.83993
 30
0.0
 10
-0.22647
 20
6.83993
 30
0.0
 10
-0.22647
 20
6.81843
 30
0.0
 10
-0.22869
 20
6.80111
 30
0.0
 10
-0.23308
 20
6.78789
 30
0.0
 10
-0.23308
 20
6.78789
 30
0.0
 10
-0.23752
 20
6.77467
 30
0.0
 10
-0.24413
 20
6.76447
 30
0.0
 10
-0.25292
 20
6.75727
 30
0.0
 10
-0.25292
 20
6.75727
 30
0.0
 10
-0.2617
 20
6.75006
 30
0.0
 10
-0.27279
 20
6.74647
 30
0.0
 10
-0.28623
 20
6.74647
 30
0.0
 10
-0.28623
 20
6.74647
 30
0.0
 10
-0.30389
 20
6.74647
 30
0.0
 10
-0.31775
 20
6.75279
 30
0.0
 10
-0.32782
 20
6.76545
 30
0.0
 10
-0.32782
 20
6.76545
 30
0.0
 10
-0.33989
 20
6.78068
 30
0.0
 10
-0.34594
 20
6.80555
 30
0.0
 10
-0.34594
 20
6.83993
 30
0.0
  0
SPLINE
  5
6E
330
1F
100
AcDbEntity
  8
layer 2
370
     9
100
AcDbSpline
210
0.0
220
0.0
230
1.0
 70
    11
 71
     3
 72
    36
 73
    32
 74
     0
 42
0.0000000001
 43
0.0000000001
 12
1.0
 22
0.0
 32
0.0
 13
1.0
 23
0.0
 33
0.0
 40
0.0
 40
0.0
 40
0.0
 40
0.0
 40
0.1111111111111111
 40
0.1111111111111111
 40
0.1111111111111111
 40
0.1111111111111111
 40
0.2222222222222222
 40
0.2222222222222222
 40
0.2222222222222222
 40
0.2222222222222222
 40
0.3333333333333333
 40
0.3333333333333333
 40
0.3333333333333333
 40
0.3333333333333333
 40
0.4444444444444444
 40
0.4444444444444444
 40
0.4444444444444444
 40
0.4444444444444444
 40
0.5555555555555556
 40
0.5555555555555556
 40
0.5555555555555556
 40
0.5555555555555556
 40
0.6666666666666666
 40
0.6666666666666666
 40
0.6666666666666666
 40
0.6666666666666666
 40
0.7777777777777778
 40
0.7777777777777778
 40
0.7777777777777778
 40
0.7777777777777778
 40
1.0
 40
1.0
 40
1.0
 40
1.0
 10
-0.32283
 20
6.83993
 30
0.0
 10
-0.32283
 20
6.80986
 30
0.0
 10
-0.31929
 20
6.78985
 30
0.0
 10
-0.31225
 20
6.77987
 30
0.0
 10
-0.31225
 20
6.77987
 30
0.0
 10
-0.30521
 20
6.76993
 30
0.0
 10
-0.29655
 20
6.76494
 30
0.0
 10
-0.28623
 20
6.76494
 30
0.0
 10
-0.28623
 20
6.76494
 30
0.0
 10
-0.27586
 20
6.76494
 30
0.0
 10
-0.26721
 20
6.76998
 30
0.0
 10
-0.26017
 20
6.77996
 30
0.0
 10
-0.26017
 20
6.77996
 30
0.0
 10
-0.25313
 20
6.78994
 30
0.0
 10
-0.24959
 20
6.80994
 30
0.0
 10
-0.24959
 20
6.83993
 30
0.0
 10
-0.24959
 20
6.83993
 30
0.0
 10
-0.24959
 20
6.87008
 30
0.0
 10
-0.25313
 20
6.89013
 30
0.0
 10
-0.26017
 20
6.90003
 30
0.0
 10
-0.26017
 20
6.90003
 30
0.0
 10
-0.26721
 20
6.90997
 30
0.0
 10
-0.27595
 20
6.91491
 30
0.0
 10
-0.28644
 20
6.91491
 30
0.0
 10
-0.28644
 20
6.91491
 30
0.0
 10
-0.29681
 20
6.91491
 30
0.0
 10
-0.30504
 20
6.91052
 30
0.0
 10
-0.31122
 20
6.90178
 30
0.0
 10
-0.31122
 20
6.90178
 30
0.0
 10
-0.31894
 20
6.89064
 30
0.0
 10
-0.32283
 20
6.87
 30
0.0
 10
-0.32283
 20
6.83993
 30
0.0
  0
SPLINE
  5
6F
330
1F
100
AcDbEntity
  8
layer 2
370
     9
100
AcDbSpline
210
0.0
220
0.0
230
1.0
 70
    11
 71
     3
 72
    36
 73
    32
 74
     0
 42
0.0000000001
 43
0.0000000001
 12
1.0
 22
0.0
 32
0.0
 13
1.0
 23
0.0
 33
0.0
 40
0.0
 40
0.0
 40
0.0
 40
0.0
 40
0.1111111111111111
 40
0.1111111111111111
 40
0.1111111111111111
 40
0.1111111111111111
 40
0.2222222222222222
 40
0.2222222222222222
 40
0.2222222222222222
 40
0.2222222222222222
 40
0.3333333333333333
 40
0.3333333333333333
 40
0.3333333333333333
 40
0.3333333333333333
 40
0.4444444444444444
 40
0.4444444444444444
 40
0.4444444444444444
 40
0.4444444444444444
 40
0.5555555555555556
 40
0.5555555555555556
 40
0.5555555555555556
 40
0.5555555555555556
 40
0.6666666666666666
 40
0.6666666666666666
 40
0.6666666666666666
 40
0.6666666666666666
 40
0.7777777777777778
 40
0.7777777777777778
 40
0.7777777777777778
 40
0.7777777777777778
 40
1.0
 40
1.0
 40
1.0
 40
1.0
 10
-0.12577
 20
6.69874
 30
0.0
 10
-0.12577
 20
6.69874
 30
0.0
 10
-0.12577
 20
6.93279
 30
0.0
 10
-0.12577
 20
6.93279
 30
0.0
 10
-0.12577
 20
6.93279
 30
0.0
 10
-0.12577
 20
6.93279
 30
0.0
 10
-0.07616
 20
6.93279
 30
0.0
 10
-0.07616
 20
6.93279
 30
0.0
 10
-0.07616
 20
6.93279
 30
0.0
 10
-0.07616
 20
6.93279
 30
0.0
 10
-0.07616
 20
6.91415
 30
0.0
 10
-0.07616
 20
6.91415
 30
0.0
 10
-0.07616
 20
6.91415
 30
0.0
 10
-0.07616
 20
6.91415
 30
0.0
 10
-0.10324
 20
6.91415
 30
0.0
 10
-0.10324
 20
6.91415
 30
0.0
 10
-0.10324
 20
6.91415
 30
0.0
 10
-0.10324
 20
6.91415
 30
0.0
 10
-0.10324
 20
6.71734
 30
0.0
 10
-0.10324
 20
6.71734
 30
0.0
 10
-0.10324
 20
6.71734
 30
0.0
 10
-0.10324
 20
6.71734
 30
0.0
 10
-0.07616
 20
6.71734
 30
0.0
 10
-0.07616
 20
6.71734
 30
0.0
 10
-0.07616
 20
6.71734
 30
0.0
 10
-0.07616
 20
6.71734
 30
0.0
 10
-0.07616
 20
6.69874
 30
0.0
 10
-0.07616
 20
6.69874
 30
0.0
 10
-0.07616
 20
6.69874
 30
0.0
 10
-0.07616
 20
6.69874
 30
0.0
 10
-0.12577
 20
6.69874
 30
0.0
 10
-0.12577
 20
6.69874
 30
0.0
  0
SPLINE
  5
70
330
1F
100
AcDbEntity
  8
layer 2
370
     9
100
AcDbSpline
210
0.0
220
0.0
230
1.0
 70
    11
 71
     3
 72
    92
 73
    88
 74
     0
 42
0.0000000001
 43
0.0000000001
 12
1.0
 22
0.0
 32
0.0
 13
1.0
 23
0.0
 33
0.0
 40
0.0
 40
0.0
 40
0.0
 40
0.0
 40
0.0434782608695652
 40
0.0434782608695652
 40
0.0434782608695652
 40
0.0434782608695652
 40
0.0869565217391304
 40
0.0869565217391304
 40
0.0869565217391304
 40
0.0869565217391304
 40
0.1304347826086956
 40
0.1304347826086956
 40
0.1304347826086956
 40
0.1304347826086956
 40
0.1739130434782609
 40
0.1739130434782609
 40
0.1739130434782609
 40
0.1739130434782609
 40
0.2173913043478261
 40
0.2173913043478261
 40
0.2173913043478261
 40
0.2173913043478261
 40
0.2608695652173913
 40
0.2608695652173913
 40
0.2608695652173913
 40
0.2608695652173913
 40
0.3043478260869565
 40
0.3043478260869565
 40
0.3043478260869565
 40
0.3043478260869565
 40
0.3478260869565217
 40
0.3478260869565217
 40
0.3478260869565217
 40
0.3478260869565217
 40
0.391304347826087
 40
0.391304347826087
 40
0.391304347826087
 40
0.391304347826087
 40
0.4347826086956522
 40
0.4347826086956522
 40
0.4347826086956522
 40
0.4347826086956522
 40
0.4782608695652174
 40
0.4782608695652174
 40
0.4782608695652174
 40
0.4782608695652174
 40
0.5217391304347826
 40
0.5217391304347826
 40
0.5217391304347826
 40
0.5217391304347826
 40
0.5652173913043478
 40
0.5652173913043478
 40
0.5652173913043478
 40
0.5652173913043478
 40
0.6086956521739131
 40
0.6086956521739131
 40
0.6086956521739131
 40
0.6086956521739131
 40
0.6521739130434783
 40
0.6521739130434783
 40
0.6521739130434783
 40
0.6521739130434783
 40
0.6956521739130435
 40
0.6956521739130435
 40
0.6956521739130435
 40
0.6956521739130435
 40
0.7391304347826086
 40
0.7391304347826086
 40
0.7391304347826086
 40
0.7391304347826086
 40
0.782608695652174
 40
0.782608695652174
 40
0.782608695652174
 40
0.782608695652174
 40
0.8260869565217391
 40
0.8260869565217391
 40
0.8260869565217391
 40
0.8260869565217391
 40
0.8695652173913043
 40
0.8695652173913043
 40
0.8695652173913043
 40
0.8695652173913043
 40
0.9130434782608695
 40
0.9130434782608695
 40
0.9130434782608695
 40
0.9130434782608695
 40
1.0
 40
1.0
 40
1.0
 40
1.0
 10
0.05684
 20
6.77121
 30
0.0
 10
0.05684
 20
6.77121
 30
0.0
 10
0.05684
 20
6.74959
 30
0.0
 10
0.05684
 20
6.74959
 30
0.0
 10
0.05684
 20
6.74959
 30
0.0
 10
0.05684
 20
6.74959
 30
0.0
 10
-0.06426
 20
6.74959
 30
0.0
 10
-0.06426
 20
6.74959
 30
0.0
 10
-0.06426
 20
6.74959
 30
0.0
 10
-0.06443
 20
6.755
 30
0.0
 10
-0.06358
 20
6.76021
 30
0.0
 10
-0.06166
 20
6.7652
 30
0.0
 10
-0.06166
 20
6.7652
 30
0.0
 10
-0.05859
 20
6.77347
 30
0.0
 10
-0.05364
 20
6.78158
 30
0.0
 10
-0.04686
 20
6.7896
 30
0.0
 10
-0.04686
 20
6.7896
 30
0.0
 10
-0.04003
 20
6.79757
 30
0.0
 10
-0.03022
 20
6.80683
 30
0.0
 10
-0.01742
 20
6.81732
 30
0.0
 10
-0.01742
 20
6.81732
 30
0.0
 10
0.0025
 20
6.83366
 30
0.0
 10
0.01597
 20
6.84658
 30
0.0
 10
0.02297
 20
6.85614
 30
0.0
 10
0.02297
 20
6.85614
 30
0.0
 10
0.02996
 20
6.86565
 30
0.0
 10
0.03346
 20
6.87469
 30
0.0
 10
0.03346
 20
6.88318
 30
0.0
 10
0.03346
 20
6.88318
 30
0.0
 10
0.03346
 20
6.89209
 30
0.0
 10
0.03026
 20
6.8996
 30
0.0
 10
0.02391
 20
6.90574
 30
0.0
 10
0.02391
 20
6.90574
 30
0.0
 10
0.01751
 20
6.91184
 30
0.0
 10
0.00919
 20
6.91491
 30
0.0
 10
-0.00105
 20
6.91491
 30
0.0
 10
-0.00105
 20
6.91491
 30
0.0
 10
-0.01188
 20
6.91491
 30
0.0
 10
-0.02054
 20
6.91167
 30
0.0
 10
-0.02702
 20
6.90515
 30
0.0
 10
-0.02702
 20
6.90515
 30
0.0
 10
-0.03355
 20
6.89866
 30
0.0
 10
-0.03683
 20
6.88966
 30
0.0
 10
-0.03692
 20
6.87819
 30
0.0
 10
-0.03692
 20
6.87819
 30
0.0
 10
-0.03692
 20
6.87819
 30
0.0
 10
-0.06004
 20
6.88054
 30
0.0
 10
-0.06004
 20
6.88054
 30
0.0
 10
-0.06004
 20
6.88054
 30
0.0
 10
-0.05846
 20
6.89781
 30
0.0
 10
-0.05249
 20
6.91095
 30
0.0
 10
-0.04216
 20
6.91999
 30
0.0
 10
-0.04216
 20
6.91999
 30
0.0
 10
-0.03184
 20
6.92903
 30
0.0
 10
-0.01794
 20
6.93355
 30
0.0
 10
-0.00053
 20
6.93355
 30
0.0
 10
-0.00053
 20
6.93355
 30
0.0
 10
0.01704
 20
6.93355
 30
0.0
 10
0.03095
 20
6.92865
 30
0.0
 10
0.04118
 20
6.91892
 30
0.0
 10
0.04118
 20
6.91892
 30
0.0
 10
0.05146
 20
6.90916
 30
0.0
 10
0.05658
 20
6.89708
 30
0.0
 10
0.05658
 20
6.88267
 30
0.0
 10
0.05658
 20
6.88267
 30
0.0
 10
0.05658
 20
6.87533
 30
0.0
 10
0.05509
 20
6.86812
 30
0.0
 10
0.05206
 20
6.86104
 30
0.0
 10
0.05206
 20
6.86104
 30
0.0
 10
0.04907
 20
6.85396
 30
0.0
 10
0.04408
 20
6.8465
 30
0.0
 10
0.03713
 20
6.83869
 30
0.0
 10
0.03713
 20
6.83869
 30
0.0
 10
0.03018
 20
6.83084
 30
0.0
 10
0.01862
 20
6.82009
 30
0.0
 10
0.00245
 20
6.80645
 30
0.0
 10
0.00245
 20
6.80645
 30
0.0
 10
-0.01103
 20
6.7951
 30
0.0
 10
-0.01968
 20
6.78742
 30
0.0
 10
-0.02352
 20
6.78337
 30
0.0
 10
-0.02352
 20
6.78337
 30
0.0
 10
-0.02736
 20
6.77936
 30
0.0
 10
-0.03052
 20
6.77531
 30
0.0
 10
-0.03304
 20
6.77121
 30
0.0
 10
-0.03304
 20
6.77121
 30
0.0
 10
-0.03304
 20
6.77121
 30
0.0
 10
0.05684
 20
6.77121
 30
0.0
 10
0.05684
 20
6.77121
 30
0.0
  0
SPLINE
  5
71
330
1F
100
AcDbEntity
  8
layer 2
370
     9
100
AcDbSpline
210
0.0
220
0.0
230
1.0
 70
    11
 71
     3
 72
    68
 73
    64
 74
     0
 42
0.0000000001
 43
0.0000000001
 12
1.0
 22
0.0
 32
0.0
 13
1.0
 23
0.0
 33
0.0
 40
0.0
 40
0.0
 40
0.0
 40
0.0
 40
0.0588235294117647
 40
0.0588235294117647
 40
0.0588235294117647
 40
0.0588235294117647
 40
0.1176470588235294
 40
0.1176470588235294
 40
0.1176470588235294
 40
0.1176470588235294
 40
0.1764705882352941
 40
0.1764705882352941
 40
0.1764705882352941
 40
0.1764705882352941
 40
0.2352941176470588
 40
0.2352941176470588
 40
0.2352941176470588
 40
0.2352941176470588
 40
0.2941176470588235
 40
0.2941176470588235
 40
0.2941176470588235
 40
0.2941176470588235
 40
0.3529411764705883
 40
0.3529411764705883
 40
0.3529411764705883
 40
0.3529411764705883
 40
0.4117647058823529
 40
0.4117647058823529
 40
0.4117647058823529
 40
0.4117647058823529
 40
0.4705882352941176
 40
0.4705882352941176
 40
0.4705882352941176
 40
0.4705882352941176
 40
0.5294117647058824
 40
0.5294117647058824
 40
0.5294117647058824
 40
0.5294117647058824
 40
0.5882352941176471
 40
0.5882352941176471
 40
0.5882352941176471
 40
0.5882352941176471
 40
0.6470588235294118
 40
0.6470588235294118
 40
0.6470588235294118
 40
0.6470588235294118
 40
0.7058823529411765
 40
0.7058823529411765
 40
0.7058823529411765
 40
0.7058823529411765
 40
0.7647058823529411
 40
0.7647058823529411
 40
0.7647058823529411
 40
0.7647058823529411
 40
0.8235294117647058
 40
0.8235294117647058
 40
0.8235294117647058
 40
0.8235294117647058
 40
0.8823529411764706
 40
0.8823529411764706
 40
0.8823529411764706
 40
0.8823529411764706
 40
1.0
 40
1.0
 40
1.0
 40
1.0
 10
0.11557
 20
6.84893
 30
0.0
 10
0.10623
 20
6.85234
 30
0.0
 10
0.09932
 20
6.8572
 30
0.0
 10
0.0948
 20
6.86356
 30
0.0
 10
0.0948
 20
6.86356
 30
0.0
 10
0.09032
 20
6.86987
 30
0.0
 10
0.08806
 20
6.87746
 30
0.0
 10
0.08806
 20
6.88629
 30
0.0
 10
0.08806
 20
6.88629
 30
0.0
 10
0.08806
 20
6.89964
 30
0.0
 10
0.09284
 20
6.91082
 30
0.0
 10
0.10243
 20
6.9199
 30
0.0
 10
0.10243
 20
6.9199
 30
0.0
 10
0.11203
 20
6.92899
 30
0.0
 10
0.12474
 20
6.93355
 30
0.0
 10
0.14065
 20
6.93355
 30
0.0
 10
0.14065
 20
6.93355
 30
0.0
 10
0.15665
 20
6.93355
 30
0.0
 10
0.16953
 20
6.9289
 30
0.0
 10
0.1793
 20
6.91961
 30
0.0
 10
0.1793
 20
6.91961
 30
0.0
 10
0.18902
 20
6.91031
 30
0.0
 10
0.19388
 20
6.899
 30
0.0
 10
0.19388
 20
6.88565
 30
0.0
 10
0.19388
 20
6.88565
 30
0.0
 10
0.19388
 20
6.87717
 30
0.0
 10
0.19167
 20
6.86979
 30
0.0
 10
0.18723
 20
6.86347
 30
0.0
 10
0.18723
 20
6.86347
 30
0.0
 10
0.18275
 20
6.8572
 30
0.0
 10
0.17601
 20
6.85234
 30
0.0
 10
0.16693
 20
6.84893
 30
0.0
 10
0.16693
 20
6.84893
 30
0.0
 10
0.17814
 20
6.84526
 30
0.0
 10
0.18672
 20
6.83937
 30
0.0
 10
0.1926
 20
6.83118
 30
0.0
 10
0.1926
 20
6.83118
 30
0.0
 10
0.19845
 20
6.82304
 30
0.0
 10
0.20139
 20
6.81327
 30
0.0
 10
0.20139
 20
6.80197
 30
0.0
 10
0.20139
 20
6.80197
 30
0.0
 10
0.20139
 20
6.78627
 30
0.0
 10
0.19585
 20
6.77313
 30
0.0
 10
0.1848
 20
6.76247
 30
0.0
 10
0.1848
 20
6.76247
 30
0.0
 10
0.17371
 20
6.75181
 30
0.0
 10
0.15912
 20
6.74647
 30
0.0
 10
0.14104
 20
6.74647
 30
0.0
 10
0.14104
 20
6.74647
 30
0.0
 10
0.12295
 20
6.74647
 30
0.0
 10
0.1084
 20
6.75181
 30
0.0
 10
0.09731
 20
6.76251
 30
0.0
 10
0.09731
 20
6.76251
 30
0.0
 10
0.08622
 20
6.77322
 30
0.0
 10
0.08068
 20
6.78657
 30
0.0
 10
0.08068
 20
6.80256
 30
0.0
 10
0.08068
 20
6.80256
 30
0.0
 10
0.08068
 20
6.81446
 30
0.0
 10
0.08371
 20
6.82445
 30
0.0
 10
0.08977
 20
6.83251
 30
0.0
 10
0.08977
 20
6.83251
 30
0.0
 10
0.09578
 20
6.84053
 30
0.0
 10
0.1044
 20
6.84603
 30
0.0
 10
0.11557
 20
6.84893
 30
0.0
  0
SPLINE
  5
72
330
1F
100
AcDbEntity
  8
layer 2
370
     9
100
AcDbSpline
210
0.0
220
0.0
230
1.0
 70
    11
 71
     3
 72
    36
 73
    32
 74
     0
 42
0.0000000001
 43
0.0000000001
 12
1.0
 22
0.0
 32
0.0
 13
1.0
 23
0.0
 33
0.0
 40
0.0
 40
0.0
 40
0.0
 40
0.0
 40
0.1111111111111111
 40
0.1111111111111111
 40
0.1111111111111111
 40
0.1111111111111111
 40
0.2222222222222222
 40
0.2222222222222222
 40
0.2222222222222222
 40
0.2222222222222222
 40
0.3333333333333333
 40
0.3333333333333333
 40
0.3333333333333333
 40
0.3333333333333333
 40
0.4444444444444444
 40
0.4444444444444444
 40
0.4444444444444444
 40
0.4444444444444444
 40
0.5555555555555556
 40
0.5555555555555556
 40
0.5555555555555556
 40
0.5555555555555556
 40
0.6666666666666666
 40
0.6666666666666666
 40
0.6666666666666666
 40
0.6666666666666666
 40
0.7777777777777778
 40
0.7777777777777778
 40
0.7777777777777778
 40
0.7777777777777778
 40
1.0
 40
1.0
 40
1.0
 40
1.0
 10
0.11105
 20
6.88706
 30
0.0
 10
0.11105
 20
6.8784
 30
0.0
 10
0.11386
 20
6.87132
 30
0.0
 10
0.11941
 20
6.86582
 30
0.0
 10
0.11941
 20
6.86582
 30
0.0
 10
0.125
 20
6.86032
 30
0.0
 10
0.13225
 20
6.85754
 30
0.0
 10
0.14116
 20
6.85754
 30
0.0
 10
0.14116
 20
6.85754
 30
0.0
 10
0.14982
 20
6.85754
 30
0.0
 10
0.15695
 20
6.86027
 30
0.0
 10
0.16249
 20
6.86573
 30
0.0
 10
0.16249
 20
6.86573
 30
0.0
 10
0.16804
 20
6.87119
 30
0.0
 10
0.17076
 20
6.87789
 30
0.0
 10
0.17076
 20
6.88578
 30
0.0
 10
0.17076
 20
6.88578
 30
0.0
 10
0.17076
 20
6.89406
 30
0.0
 10
0.16795
 20
6.90097
 30
0.0
 10
0.16223
 20
6.9066
 30
0.0
 10
0.16223
 20
6.9066
 30
0.0
 10
0.15652
 20
6.91223
 30
0.0
 10
0.14944
 20
6.91504
 30
0.0
 10
0.14091
 20
6.91504
 30
0.0
 10
0.14091
 20
6.91504
 30
0.0
 10
0.13233
 20
6.91504
 30
0.0
 10
0.12521
 20
6.91227
 30
0.0
 10
0.11954
 20
6.90681
 30
0.0
 10
0.11954
 20
6.90681
 30
0.0
 10
0.11386
 20
6.90131
 30
0.0
 10
0.11105
 20
6.8947
 30
0.0
 10
0.11105
 20
6.88706
 30
0.0
  0
SPLINE
  5
73
330
1F
100
AcDbEntity
  8
layer 2
370
     9
100
AcDbSpline
210
0.0
220
0.0
230
1.0
 70
    11
 71
     3
 72
    40
 73
    36
 74
     0
 42
0.0000000001
 43
0.0000000001
 12
1.0
 22
0.0
 32
0.0
 13
1.0
 23
0.0
 33
0.0
 40
0.0
 40
0.0
 40
0.0
 40
0.0
 40
0.1
 40
0.1
 40
0.1
 40
0.1
 40
0.2
 40
0.2
 40
0.2
 40
0.2
 40
0.3
 40
0.3
 40
0.3
 40
0.3
 40
0.4
 40
0.4
 40
0.4
 40
0.4
 40
0.5
 40
0.5
 40
0.5
 40
0.5
 40
0.6
 40
0.6
 40
0.6
 40
0.6
 40
0.7
 40
0.7
 40
0.7
 40
0.7
 40
0.8
 40
0.8
 40
0.8
 40
0.8
 40
1.0
 40
1.0
 40
1.0
 40
1.0
 10
0.1038
 20
6.80244
 30
0.0
 10
0.1038
 20
6.79604
 30
0.0
 10
0.10533
 20
6.78981
 30
0.0
 10
0.10836
 20
6.78384
 30
0.0
 10
0.10836
 20
6.78384
 30
0.0
 10
0.11139
 20
6.77782
 30
0.0
 10
0.11591
 20
6.77318
 30
0.0
 10
0.12193
 20
6.76989
 30
0.0
 10
0.12193
 20
6.76989
 30
0.0
 10
0.12794
 20
6.76661
 30
0.0
 10
0.13438
 20
6.76494
 30
0.0
 10
0.14129
 20
6.76494
 30
0.0
 10
0.14129
 20
6.76494
 30
0.0
 10
0.15204
 20
6.76494
 30
0.0
 10
0.16091
 20
6.7684
 30
0.0
 10
0.16791
 20
6.77535
 30
0.0
 10
0.16791
 20
6.77535
 30
0.0
 10
0.1749
 20
6.78226
 30
0.0
 10
0.1784
 20
6.79105
 30
0.0
 10
0.1784
 20
6.80171
 30
0.0
 10
0.1784
 20
6.80171
 30
0.0
 10
0.1784
 20
6.81254
 30
0.0
 10
0.17482
 20
6.8215
 30
0.0
 10
0.16761
 20
6.82858
 30
0.0
 10
0.16761
 20
6.82858
 30
0.0
 10
0.1604
 20
6.83566
 30
0.0
 10
0.15136
 20
6.8392
 30
0.0
 10
0.14052
 20
6.8392
 30
0.0
 10
0.14052
 20
6.8392
 30
0.0
 10
0.12995
 20
6.8392
 30
0.0
 10
0.1212
 20
6.83571
 30
0.0
 10
0.11425
 20
6.82871
 30
0.0
 10
0.11425
 20
6.82871
 30
0.0
 10
0.1073
 20
6.82167
 30
0.0
 10
0.1038
 20
6.81293
 30
0.0
 10
0.1038
 20
6.80244
 30
0.0
  0
SPLINE
  5
74
330
1F
100
AcDbEntity
  8
layer 2
370
     9
100
AcDbSpline
210
0.0
220
0.0
230
1.0
 70
    11
 71
     3
 72
   124
 73
   120
 74
     0
 42
0.0000000001
 43
0.0000000001
 12
1.0
 22
0.0
 32
0.0
 13
1.0
 23
0.0
 33
0.0
 40
0.0
 40
0.0
 40
0.0
 40
0.0
 40
0.032258064516129
 40
0.032258064516129
 40
0.032258064516129
 40
0.032258064516129
 40
0.0645161290322581
 40
0.0645161290322581
 40
0.0645161290322581
 40
0.0645161290322581
 40
0.0967741935483871
 40
0.0967741935483871
 40
0.0967741935483871
 40
0.0967741935483871
 40
0.1290322580645161
 40
0.1290322580645161
 40
0.1290322580645161
 40
0.1290322580645161
 40
0.1612903225806452
 40
0.1612903225806452
 40
0.1612903225806452
 40
0.1612903225806452
 40
0.1935483870967742
 40
0.1935483870967742
 40
0.1935483870967742
 40
0.1935483870967742
 40
0.2258064516129032
 40
0.2258064516129032
 40
0.2258064516129032
 40
0.2258064516129032
 40
0.2580645161290323
 40
0.2580645161290323
 40
0.2580645161290323
 40
0.2580645161290323
 40
0.2903225806451613
 40
0.2903225806451613
 40
0.2903225806451613
 40
0.2903225806451613
 40
0.3225806451612903
 40
0.3225806451612903
 40
0.3225806451612903
 40
0.3225806451612903
 40
0.3548387096774194
 40
0.3548387096774194
 40
0.3548387096774194
 40
0.3548387096774194
 40
0.3870967741935484
 40
0.3870967741935484
 40
0.3870967741935484
 40
0.3870967741935484
 40
0.4193548387096774
 40
0.4193548387096774
 40
0.4193548387096774
 40
0.4193548387096774
 40
0.4516129032258064
 40
0.4516129032258064
 40
0.4516129032258064
 40
0.4516129032258064
 40
0.4838709677419355
 40
0.4838709677419355
 40
0.4838709677419355
 40
0.4838709677419355
 40
0.5161290322580645
 40
0.5161290322580645
 40
0.5161290322580645
 40
0.5161290322580645
 40
0.5483870967741935
 40
0.5483870967741935
 40
0.5483870967741935
 40
0.5483870967741935
 40
0.5806451612903226
 40
0.5806451612903226
 40
0.5806451612903226
 40
0.5806451612903226
 40
0.6129032258064516
 40
0.6129032258064516
 40
0.6129032258064516
 40
0.6129032258064516
 40
0.6451612903225806
 40
0.6451612903225806
 40
0.6451612903225806
 40
0.6451612903225806
 40
0.6774193548387096
 40
0.6774193548387096
 40
0.6774193548387096
 40
0.6774193548387096
 40
0.7096774193548387
 40
0.7096774193548387
 40
0.7096774193548387
 40
0.7096774193548387
 40
0.7419354838709677
 40
0.7419354838709677
 40
0.7419354838709677
 40
0.7419354838709677
 40
0.7741935483870968
 40
0.7741935483870968
 40
0.7741935483870968
 40
0.7741935483870968
 40
0.8064516129032258
 40
0.8064516129032258
 40
0.8064516129032258
 40
0.8064516129032258
 40
0.8387096774193549
 40
0.8387096774193549
 40
0.8387096774193549
 40
0.8387096774193549
 40
0.8709677419354839
 40
0.8709677419354839
 40
0.8709677419354839
 40
0.8709677419354839
 40
0.9032258064516129
 40
0.9032258064516129
 40
0.9032258064516129
 40
0.9032258064516129
 40
0.9354838709677419
 40
0.9354838709677419
 40
0.9354838709677419
 40
0.9354838709677419
 40
1.0
 40
1.0
 40
1.0
 40
1.0
 10
0.2945
 20
6.79796
 30
0.0
 10
0.2945
 20
6.79796
 30
0.0
 10
0.31698
 20
6.80094
 30
0.0
 10
0.31698
 20
6.80094
 30
0.0
 10
0.31698
 20
6.80094
 30
0.0
 10
0.31958
 20
6.78819
 30
0.0
 10
0.32398
 20
6.77902
 30
0.0
 10
0.33016
 20
6.77339
 30
0.0
 10
0.33016
 20
6.77339
 30
0.0
 10
0.33639
 20
6.76776
 30
0.0
 10
0.34394
 20
6.76494
 30
0.0
 10
0.35285
 20
6.76494
 30
0.0
 10
0.35285
 20
6.76494
 30
0.0
 10
0.36343
 20
6.76494
 30
0.0
 10
0.37239
 20
6.76861
 30
0.0
 10
0.37968
 20
6.77595
 30
0.0
 10
0.37968
 20
6.77595
 30
0.0
 10
0.38693
 20
6.78328
 30
0.0
 10
0.3906
 20
6.79237
 30
0.0
 10
0.3906
 20
6.8032
 30
0.0
 10
0.3906
 20
6.8032
 30
0.0
 10
0.3906
 20
6.81353
 30
0.0
 10
0.38723
 20
6.82206
 30
0.0
 10
0.38049
 20
6.82875
 30
0.0
 10
0.38049
 20
6.82875
 30
0.0
 10
0.37371
 20
6.83545
 30
0.0
 10
0.36514
 20
6.83882
 30
0.0
 10
0.35473
 20
6.83882
 30
0.0
 10
0.35473
 20
6.83882
 30
0.0
 10
0.35047
 20
6.83882
 30
0.0
 10
0.34518
 20
6.83797
 30
0.0
 10
0.33886
 20
6.8363
 30
0.0
 10
0.33886
 20
6.8363
 30
0.0
 10
0.33886
 20
6.8363
 30
0.0
 10
0.34138
 20
6.85605
 30
0.0
 10
0.34138
 20
6.85605
 30
0.0
 10
0.34138
 20
6.85605
 30
0.0
 10
0.34287
 20
6.85588
 30
0.0
 10
0.34407
 20
6.8558
 30
0.0
 10
0.34501
 20
6.8558
 30
0.0
 10
0.34501
 20
6.8558
 30
0.0
 10
0.35456
 20
6.8558
 30
0.0
 10
0.36318
 20
6.85831
 30
0.0
 10
0.37085
 20
6.8633
 30
0.0
 10
0.37085
 20
6.8633
 30
0.0
 10
0.37853
 20
6.86829
 30
0.0
 10
0.38237
 20
6.87601
 30
0.0
 10
0.38237
 20
6.88642
 30
0.0
 10
0.38237
 20
6.88642
 30
0.0
 10
0.38237
 20
6.89465
 30
0.0
 10
0.37956
 20
6.90152
 30
0.0
 10
0.37397
 20
6.9069
 30
0.0
 10
0.37397
 20
6.9069
 30
0.0
 10
0.36838
 20
6.91231
 30
0.0
 10
0.36117
 20
6.91504
 30
0.0
 10
0.35234
 20
6.91504
 30
0.0
 10
0.35234
 20
6.91504
 30
0.0
 10
0.3436
 20
6.91504
 30
0.0
 10
0.3363
 20
6.91227
 30
0.0
 10
0.3305
 20
6.90681
 30
0.0
 10
0.3305
 20
6.90681
 30
0.0
 10
0.32466
 20
6.90131
 30
0.0
 10
0.32091
 20
6.89303
 30
0.0
 10
0.31924
 20
6.88203
 30
0.0
 10
0.31924
 20
6.88203
 30
0.0
 10
0.31924
 20
6.88203
 30
0.0
 10
0.29676
 20
6.88604
 30
0.0
 10
0.29676
 20
6.88604
 30
0.0
 10
0.29676
 20
6.88604
 30
0.0
 10
0.29949
 20
6.90114
 30
0.0
 10
0.30576
 20
6.91282
 30
0.0
 10
0.31549
 20
6.9211
 30
0.0
 10
0.31549
 20
6.9211
 30
0.0
 10
0.32526
 20
6.92937
 30
0.0
 10
0.33737
 20
6.93355
 30
0.0
 10
0.35187
 20
6.93355
 30
0.0
 10
0.35187
 20
6.93355
 30
0.0
 10
0.36185
 20
6.93355
 30
0.0
 10
0.37107
 20
6.93138
 30
0.0
 10
0.37947
 20
6.92711
 30
0.0
 10
0.37947
 20
6.92711
 30
0.0
 10
0.38787
 20
6.92281
 30
0.0
 10
0.39431
 20
6.91696
 30
0.0
 10
0.39879
 20
6.90954
 30
0.0
 10
0.39879
 20
6.90954
 30
0.0
 10
0.40323
 20
6.90212
 30
0.0
 10
0.40549
 20
6.89427
 30
0.0
 10
0.40549
 20
6.88591
 30
0.0
 10
0.40549
 20
6.88591
 30
0.0
 10
0.40549
 20
6.87802
 30
0.0
 10
0.40336
 20
6.87081
 30
0.0
 10
0.39909
 20
6.86428
 30
0.0
 10
0.39909
 20
6.86428
 30
0.0
 10
0.39483
 20
6.8578
 30
0.0
 10
0.38856
 20
6.85264
 30
0.0
 10
0.38024
 20
6.8488
 30
0.0
 10
0.38024
 20
6.8488
 30
0.0
 10
0.39107
 20
6.84633
 30
0.0
 10
0.39948
 20
6.84112
 30
0.0
 10
0.40549
 20
6.83323
 30
0.0
 10
0.40549
 20
6.83323
 30
0.0
 10
0.41146
 20
6.82538
 30
0.0
 10
0.41445
 20
6.81553
 30
0.0
 10
0.41445
 20
6.80372
 30
0.0
 10
0.41445
 20
6.80372
 30
0.0
 10
0.41445
 20
6.78772
 30
0.0
 10
0.40865
 20
6.77416
 30
0.0
 10
0.39696
 20
6.76302
 30
0.0
 10
0.39696
 20
6.76302
 30
0.0
 10
0.38531
 20
6.75189
 30
0.0
 10
0.37056
 20
6.74635
 30
0.0
 10
0.35273
 20
6.74635
 30
0.0
 10
0.35273
 20
6.74635
 30
0.0
 10
0.33665
 20
6.74635
 30
0.0
 10
0.3233
 20
6.75112
 30
0.0
 10
0.31267
 20
6.76072
 30
0.0
 10
0.31267
 20
6.76072
 30
0.0
 10
0.30205
 20
6.77027
 30
0.0
 10
0.296
 20
6.78269
 30
0.0
 10
0.2945
 20
6.79796
 30
0.0
  0
SPLINE
  5
75
330
1F
100
AcDbEntity
  8
layer 2
370
     9
100
AcDbSpline
210
0.0
220
0.0
230
1.0
 70
    11
 71
     3
 72
    20
 73
    16
 74
     0
 42
0.0000000001
 43
0.0000000001
 12
1.0
 22
0.0
 32
0.0
 13
1.0
 23
0.0
 33
0.0
 40
0.0
 40
0.0
 40
0.0
 40
0.0
 40
0.2
 40
0.2
 40
0.2
 40
0.2
 40
0.4
 40
0.4
 40
0.4
 40
0.4
 40
0.6
 40
0.6
 40
0.6
 40
0.6
 40
1.0
 40
1.0
 40
1.0
 40
1.0
 10
0.42609
 20
6.74647
 30
0.0
 10
0.42609
 20
6.74647
 30
0.0
 10
0.4792
 20
6.9359
 30
0.0
 10
0.4792
 20
6.9359
 30
0.0
 10
0.4792
 20
6.9359
 30
0.0
 10
0.4792
 20
6.9359
 30
0.0
 10
0.4972
 20
6.9359
 30
0.0
 10
0.4972
 20
6.9359
 30
0.0
 10
0.4972
 20
6.9359
 30
0.0
 10
0.4972
 20
6.9359
 30
0.0
 10
0.44422
 20
6.74647
 30
0.0
 10
0.44422
 20
6.74647
 30
0.0
 10
0.44422
 20
6.74647
 30
0.0
 10
0.44422
 20
6.74647
 30
0.0
 10
0.42609
 20
6.74647
 30
0.0
 10
0.42609
 20
6.74647
 30
0.0
  0
SPLINE
  5
76
330
1F
100
AcDbEntity
  8
layer 2
370
     9
100
AcDbSpline
210
0.0
220
0.0
230
1.0
 70
    11
 71
     3
 72
    48
 73
    44
 74
     0
 42
0.0000000001
 43
0.0000000001
 12
1.0
 22
0.0
 32
0.0
 13
1.0
 23
0.0
 33
0.0
 40
0.0
 40
0.0
 40
0.0
 40
0.0
 40
0.0833333333333333
 40
0.0833333333333333
 40
0.0833333333333333
 40
0.0833333333333333
 40
0.1666666666666667
 40
0.1666666666666667
 40
0.1666666666666667
 40
0.1666666666666667
 40
0.25
 40
0.25
 40
0.25
 40
0.25
 40
0.3333333333333333
 40
0.3333333333333333
 40
0.3333333333333333
 40
0.3333333333333333
 40
0.4166666666666667
 40
0.4166666666666667
 40
0.4166666666666667
 40
0.4166666666666667
 40
0.5
 40
0.5
 40
0.5
 40
0.5
 40
0.5833333333333334
 40
0.5833333333333334
 40
0.5833333333333334
 40
0.5833333333333334
 40
0.6666666666666666
 40
0.6666666666666666
 40
0.6666666666666666
 40
0.6666666666666666
 40
0.75
 40
0.75
 40
0.75
 40
0.75
 40
0.8333333333333334
 40
0.8333333333333334
 40
0.8333333333333334
 40
0.8333333333333334
 40
1.0
 40
1.0
 40
1.0
 40
1.0
 10
0.5799
 20
6.74959
 30
0.0
 10
0.5799
 20
6.74959
 30
0.0
 10
0.5799
 20
6.79344
 30
0.0
 10
0.5799
 20
6.79344
 30
0.0
 10
0.5799
 20
6.79344
 30
0.0
 10
0.5799
 20
6.79344
 30
0.0
 10
0.50044
 20
6.79344
 30
0.0
 10
0.50044
 20
6.79344
 30
0.0
 10
0.50044
 20
6.79344
 30
0.0
 10
0.50044
 20
6.79344
 30
0.0
 10
0.50044
 20
6.81408
 30
0.0
 10
0.50044
 20
6.81408
 30
0.0
 10
0.50044
 20
6.81408
 30
0.0
 10
0.50044
 20
6.81408
 30
0.0
 10
0.58404
 20
6.93279
 30
0.0
 10
0.58404
 20
6.93279
 30
0.0
 10
0.58404
 20
6.93279
 30
0.0
 10
0.58404
 20
6.93279
 30
0.0
 10
0.60242
 20
6.93279
 30
0.0
 10
0.60242
 20
6.93279
 30
0.0
 10
0.60242
 20
6.93279
 30
0.0
 10
0.60242
 20
6.93279
 30
0.0
 10
0.60242
 20
6.81408
 30
0.0
 10
0.60242
 20
6.81408
 30
0.0
 10
0.60242
 20
6.81408
 30
0.0
 10
0.60242
 20
6.81408
 30
0.0
 10
0.62716
 20
6.81408
 30
0.0
 10
0.62716
 20
6.81408
 30
0.0
 10
0.62716
 20
6.81408
 30
0.0
 10
0.62716
 20
6.81408
 30
0.0
 10
0.62716
 20
6.79344
 30
0.0
 10
0.62716
 20
6.79344
 30
0.0
 10
0.62716
 20
6.79344
 30
0.0
 10
0.62716
 20
6.79344
 30
0.0
 10
0.60242
 20
6.79344
 30
0.0
 10
0.60242
 20
6.79344
 30
0.0
 10
0.60242
 20
6.79344
 30
0.0
 10
0.60242
 20
6.79344
 30
0.0
 10
0.60242
 20
6.74959
 30
0.0
 10
0.60242
 20
6.74959
 30
0.0
 10
0.60242
 20
6.74959
 30
0.0
 10
0.60242
 20
6.74959
 30
0.0
 10
0.5799
 20
6.74959
 30
0.0
 10
0.5799
 20
6.74959
 30
0.0
  0
SPLINE
  5
77
330
1F
100
AcDbEntity
  8
layer 2
370
     9
100
AcDbSpline
210
0.0
220
0.0
230
1.0
 70
    11
 71
     3
 72
    16
 73
    12
 74
     0
 42
0.0000000001
 43
0.0000000001
 12
1.0
 22
0.0
 32
0.0
 13
1.0
 23
0.0
 33
0.0
 40
0.0
 40
0.0
 40
0.0
 40
0.0
 40
0.25
 40
0.25
 40
0.25
 40
0.25
 40
0.5
 40
0.5
 40
0.5
 40
0.5
 40
1.0
 40
1.0
 40
1.0
 40
1.0
 10
0.5799
 20
6.81408
 30
0.0
 10
0.5799
 20
6.81408
 30
0.0
 10
0.5799
 20
6.89666
 30
0.0
 10
0.5799
 20
6.89666
 30
0.0
 10
0.5799
 20
6.89666
 30
0.0
 10
0.5799
 20
6.89666
 30
0.0
 10
0.52257
 20
6.81408
 30
0.0
 10
0.52257
 20
6.81408
 30
0.0
 10
0.52257
 20
6.81408
 30
0.0
 10
0.52257
 20
6.81408
 30
0.0
 10
0.5799
 20
6.81408
 30
0.0
 10
0.5799
 20
6.81408
 30
0.0
  0
SPLINE
  5
78
330
1F
100
AcDbEntity
  8
layer 2
370
     9
100
AcDbSpline
210
0.0
220
0.0
230
1.0
 70
    11
 71
     3
 72
    36
 73
    32
 74
     0
 42
0.0000000001
 43
0.0000000001
 12
1.0
 22
0.0
 32
0.0
 13
1.0
 23
0.0
 33
0.0
 40
0.0
 40
0.0
 40
0.0
 40
0.0
 40
0.1111111111111111
 40
0.1111111111111111
 40
0.1111111111111111
 40
0.1111111111111111
 40
0.2222222222222222
 40
0.2222222222222222
 40
0.2222222222222222
 40
0.2222222222222222
 40
0.3333333333333333
 40
0.3333333333333333
 40
0.3333333333333333
 40
0.3333333333333333
 40
0.4444444444444444
 40
0.4444444444444444
 40
0.4444444444444444
 40
0.4444444444444444
 40
0.5555555555555556
 40
0.5555555555555556
 40
0.5555555555555556
 40
0.5555555555555556
 40
0.6666666666666666
 40
0.6666666666666666
 40
0.6666666666666666
 40
0.6666666666666666
 40
0.7777777777777778
 40
0.7777777777777778
 40
0.7777777777777778
 40
0.7777777777777778
 40
1.0
 40
1.0
 40
1.0
 40
1.0
 10
0.694
 20
6.69874
 30
0.0
 10
0.694
 20
6.69874
 30
0.0
 10
0.64439
 20
6.69874
 30
0.0
 10
0.64439
 20
6.69874
 30
0.0
 10
0.64439
 20
6.69874
 30
0.0
 10
0.64439
 20
6.69874
 30
0.0
 10
0.64439
 20
6.71734
 30
0.0
 10
0.64439
 20
6.71734
 30
0.0
 10
0.64439
 20
6.71734
 30
0.0
 10
0.64439
 20
6.71734
 30
0.0
 10
0.67152
 20
6.71734
 30
0.0
 10
0.67152
 20
6.71734
 30
0.0
 10
0.67152
 20
6.71734
 30
0.0
 10
0.67152
 20
6.71734
 30
0.0
 10
0.67152
 20
6.91415
 30
0.0
 10
0.67152
 20
6.91415
 30
0.0
 10
0.67152
 20
6.91415
 30
0.0
 10
0.67152
 20
6.91415
 30
0.0
 10
0.64439
 20
6.91415
 30
0.0
 10
0.64439
 20
6.91415
 30
0.0
 10
0.64439
 20
6.91415
 30
0.0
 10
0.64439
 20
6.91415
 30
0.0
 10
0.64439
 20
6.93279
 30
0.0
 10
0.64439
 20
6.93279
 30
0.0
 10
0.64439
 20
6.93279
 30
0.0
 10
0.64439
 20
6.93279
 30
0.0
 10
0.694
 20
6.93279
 30
0.0
 10
0.694
 20
6.93279
 30
0.0
 10
0.694
 20
6.93279
 30
0.0
 10
0.694
 20
6.93279
 30
0.0
 10
0.694
 20
6.69874
 30
0.0
 10
0.694
 20
6.69874
 30
0.0
  0
SPLINE
  5
79
330
1F
100
AcDbEntity
  8
layer 2
370
     5
100
AcDbSpline
210
0.0
220
0.0
230
1.0
 70
    24
 71
     3
 72
     8
 73
     4
 74
     0
 42
0.0000000001
 43
0.0000000001
 12
1.0
 22
0.0
 32
0.0
 13
1.0
 23
0.0
 33
0.0
 40
0.0
 40
0.0
 40
0.0
 40
0.0
 40
1.0
 40
1.0
 40
1.0
 40
1.0
 10
-7.3231
 20
4.78842
 30
0.0
 10
-7.3231
 20
4.78842
 30
0.0
 10
-9.83037
 20
4.78842
 30
0.0
 10
-9.83037
 20
4.78842
 30
0.0
  0
SPLINE
  5
7A
330
1F
100
AcDbEntity
  8
layer 2
370
     5
100
AcDbSpline
210
0.0
220
0.0
230
1.0
 70
    27
 71
     3
 72
     8
 73
     4
 74
     0
 42
0.0000000001
 43
0.0000000001
 12
1.0
 22
0.0
 32
0.0
 13
1.0
 23
0.0
 33
0.0
 40
0.0
 40
0.0
 40
0.0
 40
0.0
 40
1.0
 40
1.0
 40
1.0
 40
1.0
 10
-7.3231
 20
-4.80871
 30
0.0
 10
-7.3231
 20
-4.80871
 30
0.0
 10
-7.3231
 20
-4.80871
 30
0.0
 10
-7.3231
 20
-4.80871
 30
0.0
  0
SPLINE
  5
7B
330
1F
100
AcDbEntity
  8
layer 2
370
     5
100
AcDbSpline
210
0.0
220
0.0
230
1.0
 70
    24
 71
     3
 72
     8
 73
     4
 74
     0
 42
0.0000000001
 43
0.0000000001
 12
1.0
 22
0.0
 32
0.0
 13
1.0
 23
0.0
 33
0.0
 40
0.0
 40
0.0
 40
0.0
 40
0.0
 40
1.0
 40
1.0
 40
1.0
 40
1.0
 10
-7.3231
 20
-4.80871
 30
0.0
 10
-7.3231
 20
-4.80871
 30
0.0
 10
-9.83037
 20
-4.80871
 30
0.0
 10
-9.83037
 20
-4.80871
 30
0.0
  0
SPLINE
  5
7C
330
1F
100
AcDbEntity
  8
layer 2
370
     5
100
AcDbSpline
210
0.0
220
0.0
230
1.0
 70
    24
 71
     3
 72
     8
 73
     4
 74
     0
 42
0.0000000001
 43
0.0000000001
 12
1.0
 22
0.0
 32
0.0
 13
1.0
 23
0.0
 33
0.0
 40
0.0
 40
0.0
 40
0.0
 40
0.0
 40
1.0
 40
1.0
 40
1.0
 40
1.0
 10
-9.80371
 20
4.55382
 30
0.0
 10
-9.80371
 20
4.55382
 30
0.0
 10
-9.80371
 20
-4.57412
 30
0.0
 10
-9.80371
 20
-4.57412
 30
0.0
  0
SPLINE
  5
7D
330
1F
100
AcDbEntity
  8
layer 2
370
     9
100
AcDbSpline
210
0.0
220
0.0
230
1.0
 70
    27
 71
     3
 72
    12
 73
     8
 74
     0
 42
0.0000000001
 43
0.0000000001
 12
1.0
 22
0.0
 32
0.0
 13
1.0
 23
0.0
 33
0.0
 40
0.0
 40
0.0
 40
0.0
 40
0.0
 40
0.3333333333333333
 40
0.3333333333333333
 40
0.3333333333333333
 40
0.3333333333333333
 40
1.0
 40
1.0
 40
1.0
 40
1.0
 10
-9.84281
 20
4.55382
 30
0.0
 10
-9.84281
 20
4.55382
 30
0.0
 10
-9.80371
 20
4.78842
 30
0.0
 10
-9.80371
 20
4.78842
 30
0.0
 10
-9.80371
 20
4.78842
 30
0.0
 10
-9.80371
 20
4.78842
 30
0.0
 10
-9.84281
 20
4.55382
 30
0.0
 10
-9.84281
 20
4.55382
 30
0.0
  0
SPLINE
  5
7E
330
1F
100
AcDbEntity
  8
layer 2
370
     9
100
AcDbSpline
210
0.0
220
0.0
230
1.0
 70
    11
 71
     3
 72
    16
 73
    12
 74
     0
 42
0.0000000001
 43
0.0000000001
 12
1.0
 22
0.0
 32
0.0
 13
1.0
 23
0.0
 33
0.0
 40
0.0
 40
0.0
 40
0.0
 40
0.0
 40
0.25
 40
0.25
 40
0.25
 40
0.25
 40
0.5
 40
0.5
 40
0.5
 40
0.5
 40
1.0
 40
1.0
 40
1.0
 40
1.0
 10
-9.80371
 20
4.78842
 30
0.0
 10
-9.80371
 20
4.78842
 30
0.0
 10
-9.76461
 20
4.55382
 30
0.0
 10
-9.76461
 20
4.55382
 30
0.0
 10
-9.76461
 20
4.55382
 30
0.0
 10
-9.76461
 20
4.55382
 30
0.0
 10
-9.84281
 20
4.55382
 30
0.0
 10
-9.84281
 20
4.55382
 30
0.0
 10
-9.84281
 20
4.55382
 30
0.0
 10
-9.84281
 20
4.55382
 30
0.0
 10
-9.80371
 20
4.78842
 30
0.0
 10
-9.80371
 20
4.78842
 30
0.0
  0
SPLINE
  5
7F
330
1F
100
AcDbEntity
  8
layer 2
370
    13
100
AcDbSpline
210
0.0
220
0.0
230
1.0
 70
    24
 71
     3
 72
     8
 73
     4
 74
     0
 42
0.0000000001
 43
0.0000000001
 12
1.0
 22
0.0
 32
0.0
 13
1.0
 23
0.0
 33
0.0
 40
0.0
 40
0.0
 40
0.0
 40
0.0
 40
1.0
 40
1.0
 40
1.0
 40
1.0
 10
-9.84281
 20
4.55382
 30
0.0
 10
-9.84281
 20
4.55382
 30
0.0
 10
-9.80371
 20
4.78842
 30
0.0
 10
-9.80371
 20
4.78842
 30
0.0
  0
SPLINE
  5
80
330
1F
100
AcDbEntity
  8
layer 2
370
    13
100
AcDbSpline
210
0.0
220
0.0
230
1.0
 70
     8
 71
     3
 72
    12
 73
     8
 74
     0
 42
0.0000000001
 43
0.0000000001
 12
1.0
 22
0.0
 32
0.0
 13
1.0
 23
0.0
 33
0.0
 40
0.0
 40
0.0
 40
0.0
 40
0.0
 40
0.3333333333333333
 40
0.3333333333333333
 40
0.3333333333333333
 40
0.3333333333333333
 40
1.0
 40
1.0
 40
1.0
 40
1.0
 10
-9.80371
 20
4.78842
 30
0.0
 10
-9.80371
 20
4.78842
 30
0.0
 10
-9.76461
 20
4.55382
 30
0.0
 10
-9.76461
 20
4.55382
 30
0.0
 10
-9.76461
 20
4.55382
 30
0.0
 10
-9.76461
 20
4.55382
 30
0.0
 10
-9.84281
 20
4.55382
 30
0.0
 10
-9.84281
 20
4.55382
 30
0.0
  0
SPLINE
  5
81
330
1F
100
AcDbEntity
  8
layer 2
370
     9
100
AcDbSpline
210
0.0
220
0.0
230
1.0
 70
    27
 71
     3
 72
    12
 73
     8
 74
     0
 42
0.0000000001
 43
0.0000000001
 12
1.0
 22
0.0
 32
0.0
 13
1.0
 23
0.0
 33
0.0
 40
0.0
 40
0.0
 40
0.0
 40
0.0
 40
0.3333333333333333
 40
0.3333333333333333
 40
0.3333333333333333
 40
0.3333333333333333
 40
1.0
 40
1.0
 40
1.0
 40
1.0
 10
-9.84281
 20
-4.57412
 30
0.0
 10
-9.84281
 20
-4.57412
 30
0.0
 10
-9.80371
 20
-4.80871
 30
0.0
 10
-9.80371
 20
-4.80871
 30
0.0
 10
-9.80371
 20
-4.80871
 30
0.0
 10
-9.80371
 20
-4.80871
 30
0.0
 10
-9.84281
 20
-4.57412
 30
0.0
 10
-9.84281
 20
-4.57412
 30
0.0
  0
SPLINE
  5
82
330
1F
100
AcDbEntity
  8
layer 2
370
     9
100
AcDbSpline
210
0.0
220
0.0
230
1.0
 70
    11
 71
     3
 72
    16
 73
    12
 74
     0
 42
0.0000000001
 43
0.0000000001
 12
1.0
 22
0.0
 32
0.0
 13
1.0
 23
0.0
 33
0.0
 40
0.0
 40
0.0
 40
0.0
 40
0.0
 40
0.25
 40
0.25
 40
0.25
 40
0.25
 40
0.5
 40
0.5
 40
0.5
 40
0.5
 40
1.0
 40
1.0
 40
1.0
 40
1.0
 10
-9.80371
 20
-4.80871
 30
0.0
 10
-9.80371
 20
-4.80871
 30
0.0
 10
-9.76461
 20
-4.57412
 30
0.0
 10
-9.76461
 20
-4.57412
 30
0.0
 10
-9.76461
 20
-4.57412
 30
0.0
 10
-9.76461
 20
-4.57412
 30
0.0
 10
-9.84281
 20
-4.57412
 30
0.0
 10
-9.84281
 20
-4.57412
 30
0.0
 10
-9.84281
 20
-4.57412
 30
0.0
 10
-9.84281
 20
-4.57412
 30
0.0
 10
-9.80371
 20
-4.80871
 30
0.0
 10
-9.80371
 20
-4.80871
 30
0.0
  0
SPLINE
  5
83
330
1F
100
AcDbEntity
  8
layer 2
370
    13
100
AcDbSpline
210
0.0
220
0.0
230
1.0
 70
    24
 71
     3
 72
     8
 73
     4
 74
     0
 42
0.0000000001
 43
0.0000000001
 12
1.0
 22
0.0
 32
0.0
 13
1.0
 23
0.0
 33
0.0
 40
0.0
 40
0.0
 40
0.0
 40
0.0
 40
1.0
 40
1.0
 40
1.0
 40
1.0
 10
-9.84281
 20
-4.57412
 30
0.0
 10
-9.84281
 20
-4.57412
 30
0.0
 10
-9.80371
 20
-4.80871
 30
0.0
 10
-9.80371
 20
-4.80871
 30
0.0
  0
SPLINE
  5
84
330
1F
100
AcDbEntity
  8
layer 2
370
    13
100
AcDbSpline
210
0.0
220
0.0
230
1.0
 70
     8
 71
     3
 72
    12
 73
     8
 74
     0
 42
0.0000000001
 43
0.0000000001
 12
1.0
 22
0.0
 32
0.0
 13
1.0
 23
0.0
 33
0.0
 40
0.0
 40
0.0
 40
0.0
 40
0.0
 40
0.3333333333333333
 40
0.3333333333333333
 40
0.3333333333333333
 40
0.3333333333333333
 40
1.0
 40
1.0
 40
1.0
 40
1.0
 10
-9.80371
 20
-4.80871
 30
0.0
 10
-9.80371
 20
-4.80871
 30
0.0
 10
-9.76461
 20
-4.57412
 30
0.0
 10
-9.76461
 20
-4.57412
 30
0.0
 10
-9.76461
 20
-4.57412
 30
0.0
 10
-9.76461
 20
-4.57412
 30
0.0
 10
-9.84281
 20
-4.57412
 30
0.0
 10
-9.84281
 20
-4.57412
 30
0.0
  0
SPLINE
  5
85
330
1F
100
AcDbEntity
  8
layer 2
370
     9
100
AcDbSpline
210
0.0
220
0.0
230
1.0
 70
    11
 71
     3
 72
    48
 73
    44
 74
     0
 42
0.0000000001
 43
0.0000000001
 12
1.0
 22
0.0
 32
0.0
 13
1.0
 23
0.0
 33
0.0
 40
0.0
 40
0.0
 40
0.0
 40
0.0
 40
0.0833333333333333
 40
0.0833333333333333
 40
0.0833333333333333
 40
0.0833333333333333
 40
0.1666666666666667
 40
0.1666666666666667
 40
0.1666666666666667
 40
0.1666666666666667
 40
0.25
 40
0.25
 40
0.25
 40
0.25
 40
0.3333333333333333
 40
0.3333333333333333
 40
0.3333333333333333
 40
0.3333333333333333
 40
0.4166666666666667
 40
0.4166666666666667
 40
0.4166666666666667
 40
0.4166666666666667
 40
0.5
 40
0.5
 40
0.5
 40
0.5
 40
0.5833333333333334
 40
0.5833333333333334
 40
0.5833333333333334
 40
0.5833333333333334
 40
0.6666666666666666
 40
0.6666666666666666
 40
0.6666666666666666
 40
0.6666666666666666
 40
0.75
 40
0.75
 40
0.75
 40
0.75
 40
0.8333333333333334
 40
0.8333333333333334
 40
0.8333333333333334
 40
0.8333333333333334
 40
1.0
 40
1.0
 40
1.0
 40
1.0
 10
-9.92824
 20
-0.73622
 30
0.0
 10
-9.92824
 20
-0.73622
 30
0.0
 10
-9.97208
 20
-0.73622
 30
0.0
 10
-9.97208
 20
-0.73622
 30
0.0
 10
-9.97208
 20
-0.73622
 30
0.0
 10
-9.97208
 20
-0.73622
 30
0.0
 10
-9.97208
 20
-0.81569
 30
0.0
 10
-9.97208
 20
-0.81569
 30
0.0
 10
-9.97208
 20
-0.81569
 30
0.0
 10
-9.97208
 20
-0.81569
 30
0.0
 10
-9.99273
 20
-0.81569
 30
0.0
 10
-9.99273
 20
-0.81569
 30
0.0
 10
-9.99273
 20
-0.81569
 30
0.0
 10
-9.99273
 20
-0.81569
 30
0.0
 10
-10.11143
 20
-0.73209
 30
0.0
 10
-10.11143
 20
-0.73209
 30
0.0
 10
-10.11143
 20
-0.73209
 30
0.0
 10
-10.11143
 20
-0.73209
 30
0.0
 10
-10.11143
 20
-0.7137
 30
0.0
 10
-10.11143
 20
-0.7137
 30
0.0
 10
-10.11143
 20
-0.7137
 30
0.0
 10
-10.11143
 20
-0.7137
 30
0.0
 10
-9.99273
 20
-0.7137
 30
0.0
 10
-9.99273
 20
-0.7137
 30
0.0
 10
-9.99273
 20
-0.7137
 30
0.0
 10
-9.99273
 20
-0.7137
 30
0.0
 10
-9.99273
 20
-0.68896
 30
0.0
 10
-9.99273
 20
-0.68896
 30
0.0
 10
-9.99273
 20
-0.68896
 30
0.0
 10
-9.99273
 20
-0.68896
 30
0.0
 10
-9.97208
 20
-0.68896
 30
0.0
 10
-9.97208
 20
-0.68896
 30
0.0
 10
-9.97208
 20
-0.68896
 30
0.0
 10
-9.97208
 20
-0.68896
 30
0.0
 10
-9.97208
 20
-0.7137
 30
0.0
 10
-9.97208
 20
-0.7137
 30
0.0
 10
-9.97208
 20
-0.7137
 30
0.0
 10
-9.97208
 20
-0.7137
 30
0.0
 10
-9.92824
 20
-0.7137
 30
0.0
 10
-9.92824
 20
-0.7137
 30
0.0
 10
-9.92824
 20
-0.7137
 30
0.0
 10
-9.92824
 20
-0.7137
 30
0.0
 10
-9.92824
 20
-0.73622
 30
0.0
 10
-9.92824
 20
-0.73622
 30
0.0
  0
SPLINE
  5
86
330
1F
100
AcDbEntity
  8
layer 2
370
     9
100
AcDbSpline
210
0.0
220
0.0
230
1.0
 70
    11
 71
     3
 72
    16
 73
    12
 74
     0
 42
0.0000000001
 43
0.0000000001
 12
1.0
 22
0.0
 32
0.0
 13
1.0
 23
0.0
 33
0.0
 40
0.0
 40
0.0
 40
0.0
 40
0.0
 40
0.25
 40
0.25
 40
0.25
 40
0.25
 40
0.5
 40
0.5
 40
0.5
 40
0.5
 40
1.0
 40
1.0
 40
1.0
 40
1.0
 10
-9.99273
 20
-0.73622
 30
0.0
 10
-9.99273
 20
-0.73622
 30
0.0
 10
-10.07531
 20
-0.73622
 30
0.0
 10
-10.07531
 20
-0.73622
 30
0.0
 10
-10.07531
 20
-0.73622
 30
0.0
 10
-10.07531
 20
-0.73622
 30
0.0
 10
-9.99273
 20
-0.79355
 30
0.0
 10
-9.99273
 20
-0.79355
 30
0.0
 10
-9.99273
 20
-0.79355
 30
0.0
 10
-9.99273
 20
-0.79355
 30
0.0
 10
-9.99273
 20
-0.73622
 30
0.0
 10
-9.99273
 20
-0.73622
 30
0.0
  0
SPLINE
  5
87
330
1F
100
AcDbEntity
  8
layer 2
370
     9
100
AcDbSpline
210
0.0
220
0.0
230
1.0
 70
    11
 71
     3
 72
    92
 73
    88
 74
     0
 42
0.0000000001
 43
0.0000000001
 12
1.0
 22
0.0
 32
0.0
 13
1.0
 23
0.0
 33
0.0
 40
0.0
 40
0.0
 40
0.0
 40
0.0
 40
0.0434782608695652
 40
0.0434782608695652
 40
0.0434782608695652
 40
0.0434782608695652
 40
0.0869565217391304
 40
0.0869565217391304
 40
0.0869565217391304
 40
0.0869565217391304
 40
0.1304347826086956
 40
0.1304347826086956
 40
0.1304347826086956
 40
0.1304347826086956
 40
0.1739130434782609
 40
0.1739130434782609
 40
0.1739130434782609
 40
0.1739130434782609
 40
0.2173913043478261
 40
0.2173913043478261
 40
0.2173913043478261
 40
0.2173913043478261
 40
0.2608695652173913
 40
0.2608695652173913
 40
0.2608695652173913
 40
0.2608695652173913
 40
0.3043478260869565
 40
0.3043478260869565
 40
0.3043478260869565
 40
0.3043478260869565
 40
0.3478260869565217
 40
0.3478260869565217
 40
0.3478260869565217
 40
0.3478260869565217
 40
0.391304347826087
 40
0.391304347826087
 40
0.391304347826087
 40
0.391304347826087
 40
0.4347826086956522
 40
0.4347826086956522
 40
0.4347826086956522
 40
0.4347826086956522
 40
0.4782608695652174
 40
0.4782608695652174
 40
0.4782608695652174
 40
0.4782608695652174
 40
0.5217391304347826
 40
0.5217391304347826
 40
0.5217391304347826
 40
0.5217391304347826
 40
0.5652173913043478
 40
0.5652173913043478
 40
0.5652173913043478
 40
0.5652173913043478
 40
0.6086956521739131
 40
0.6086956521739131
 40
0.6086956521739131
 40
0.6086956521739131
 40
0.6521739130434783
 40
0.6521739130434783
 40
0.6521739130434783
 40
0.6521739130434783
 40
0.6956521739130435
 40
0.6956521739130435
 40
0.6956521739130435
 40
0.6956521739130435
 40
0.7391304347826086
 40
0.7391304347826086
 40
0.7391304347826086
 40
0.7391304347826086
 40
0.782608695652174
 40
0.782608695652174
 40
0.782608695652174
 40
0.782608695652174
 40
0.8260869565217391
 40
0.8260869565217391
 40
0.8260869565217391
 40
0.8260869565217391
 40
0.8695652173913043
 40
0.8695652173913043
 40
0.8695652173913043
 40
0.8695652173913043
 40
0.9130434782608695
 40
0.9130434782608695
 40
0.9130434782608695
 40
0.9130434782608695
 40
1.0
 40
1.0
 40
1.0
 40
1.0
 10
-9.97622
 20
-0.66597
 30
0.0
 10
-9.97622
 20
-0.66597
 30
0.0
 10
-9.97823
 20
-0.64234
 30
0.0
 10
-9.97823
 20
-0.64234
 30
0.0
 10
-9.97823
 20
-0.64234
 30
0.0
 10
-9.96671
 20
-0.64059
 30
0.0
 10
-9.95809
 20
-0.63654
 30
0.0
 10
-9.95229
 20
-0.63019
 30
0.0
 10
-9.95229
 20
-0.63019
 30
0.0
 10
-9.94649
 20
-0.62379
 30
0.0
 10
-9.94359
 20
-0.61611
 30
0.0
 10
-9.94359
 20
-0.60711
 30
0.0
 10
-9.94359
 20
-0.60711
 30
0.0
 10
-9.94359
 20
-0.59628
 30
0.0
 10
-9.94769
 20
-0.58711
 30
0.0
 10
-9.95583
 20
-0.57964
 30
0.0
 10
-9.95583
 20
-0.57964
 30
0.0
 10
-9.96402
 20
-0.57213
 30
0.0
 10
-9.97486
 20
-0.56838
 30
0.0
 10
-9.98834
 20
-0.56838
 30
0.0
 10
-9.98834
 20
-0.56838
 30
0.0
 10
-10.00117
 20
-0.56838
 30
0.0
 10
-10.01128
 20
-0.57196
 30
0.0
 10
-10.01871
 20
-0.57917
 30
0.0
 10
-10.01871
 20
-0.57917
 30
0.0
 10
-10.02613
 20
-0.58638
 30
0.0
 10
-10.02984
 20
-0.59581
 30
0.0
 10
-10.02984
 20
-0.60749
 30
0.0
 10
-10.02984
 20
-0.60749
 30
0.0
 10
-10.02984
 20
-0.61475
 30
0.0
 10
-10.02817
 20
-0.62127
 30
0.0
 10
-10.02489
 20
-0.62711
 30
0.0
 10
-10.02489
 20
-0.62711
 30
0.0
 10
-10.02161
 20
-0.63296
 30
0.0
 10
-10.01734
 20
-0.63752
 30
0.0
 10
-10.01209
 20
-0.64085
 30
0.0
 10
-10.01209
 20
-0.64085
 30
0.0
 10
-10.01209
 20
-0.64085
 30
0.0
 10
-10.01482
 20
-0.66196
 30
0.0
 10
-10.01482
 20
-0.66196
 30
0.0
 10
-10.01482
 20
-0.66196
 30
0.0
 10
-10.01482
 20
-0.66196
 30
0.0
 10
-10.10892
 20
-0.64422
 30
0.0
 10
-10.10892
 20
-0.64422
 30
0.0
 10
-10.10892
 20
-0.64422
 30
0.0
 10
-10.10892
 20
-0.64422
 30
0.0
 10
-10.10892
 20
-0.55311
 30
0.0
 10
-10.10892
 20
-0.55311
 30
0.0
 10
-10.10892
 20
-0.55311
 30
0.0
 10
-10.10892
 20
-0.55311
 30
0.0
 10
-10.08742
 20
-0.55311
 30
0.0
 10
-10.08742
 20
-0.55311
 30
0.0
 10
-10.08742
 20
-0.55311
 30
0.0
 10
-10.08742
 20
-0.55311
 30
0.0
 10
-10.08742
 20
-0.62622
 30
0.0
 10
-10.08742
 20
-0.62622
 30
0.0
 10
-10.08742
 20
-0.62622
 30
0.0
 10
-10.08742
 20
-0.62622
 30
0.0
 10
-10.0382
 20
-0.63611
 30
0.0
 10
-10.0382
 20
-0.63611
 30
0.0
 10
-10.0382
 20
-0.63611
 30
0.0
 10
-10.04588
 20
-0.62511
 30
0.0
 10
-10.04971
 20
-0.61355
 30
0.0
 10
-10.04971
 20
-0.60148
 30
0.0
 10
-10.04971
 20
-0.60148
 30
0.0
 10
-10.04971
 20
-0.58548
 30
0.0
 10
-10.04417
 20
-0.57201
 30
0.0
 10
-10.03308
 20
-0.561
 30
0.0
 10
-10.03308
 20
-0.561
 30
0.0
 10
-10.02199
 20
-0.55
 30
0.0
 10
-10.00774
 20
-0.54449
 30
0.0
 10
-9.99034
 20
-0.54449
 30
0.0
 10
-9.99034
 20
-0.54449
 30
0.0
 10
-9.97375
 20
-0.54449
 30
0.0
 10
-9.95942
 20
-0.54936
 30
0.0
 10
-9.94735
 20
-0.559
 30
0.0
 10
-9.94735
 20
-0.559
 30
0.0
 10
-9.93254
 20
-0.57077
 30
0.0
 10
-9.92512
 20
-0.58681
 30
0.0
 10
-9.92512
 20
-0.60711
 30
0.0
 10
-9.92512
 20
-0.60711
 30
0.0
 10
-9.92512
 20
-0.62379
 30
0.0
 10
-9.92977
 20
-0.63739
 30
0.0
 10
-9.93911
 20
-0.64793
 30
0.0
 10
-9.93911
 20
-0.64793
 30
0.0
 10
-9.94845
 20
-0.65847
 30
0.0
 10
-9.96082
 20
-0.66448
 30
0.0
 10
-9.97622
 20
-0.66597
 30
0.0
  0
SPLINE
  5
88
330
1F
100
AcDbEntity
  8
layer 2
370
     9
100
AcDbSpline
210
0.0
220
0.0
230
1.0
 70
    11
 71
     3
 72
    52
 73
    48
 74
     0
 42
0.0000000001
 43
0.0000000001
 12
1.0
 22
0.0
 32
0.0
 13
1.0
 23
0.0
 33
0.0
 40
0.0
 40
0.0
 40
0.0
 40
0.0
 40
0.0769230769230769
 40
0.0769230769230769
 40
0.0769230769230769
 40
0.0769230769230769
 40
0.1538461538461539
 40
0.1538461538461539
 40
0.1538461538461539
 40
0.1538461538461539
 40
0.2307692307692308
 40
0.2307692307692308
 40
0.2307692307692308
 40
0.2307692307692308
 40
0.3076923076923077
 40
0.3076923076923077
 40
0.3076923076923077
 40
0.3076923076923077
 40
0.3846153846153846
 40
0.3846153846153846
 40
0.3846153846153846
 40
0.3846153846153846
 40
0.4615384615384616
 40
0.4615384615384616
 40
0.4615384615384616
 40
0.4615384615384616
 40
0.5384615384615384
 40
0.5384615384615384
 40
0.5384615384615384
 40
0.5384615384615384
 40
0.6153846153846154
 40
0.6153846153846154
 40
0.6153846153846154
 40
0.6153846153846154
 40
0.6923076923076923
 40
0.6923076923076923
 40
0.6923076923076923
 40
0.6923076923076923
 40
0.7692307692307693
 40
0.7692307692307693
 40
0.7692307692307693
 40
0.7692307692307693
 40
0.8461538461538461
 40
0.8461538461538461
 40
0.8461538461538461
 40
0.8461538461538461
 40
1.0
 40
1.0
 40
1.0
 40
1.0
 10
-10.01858
 20
-0.52364
 30
0.0
 10
-10.04025
 20
-0.52364
 30
0.0
 10
-10.05769
 20
-0.52142
 30
0.0
 10
-10.07087
 20
-0.51694
 30
0.0
 10
-10.07087
 20
-0.51694
 30
0.0
 10
-10.08409
 20
-0.5125
 30
0.0
 10
-10.09429
 20
-0.50585
 30
0.0
 10
-10.10145
 20
-0.49706
 30
0.0
 10
-10.10145
 20
-0.49706
 30
0.0
 10
-10.10862
 20
-0.48828
 30
0.0
 10
-10.1122
 20
-0.47723
 30
0.0
 10
-10.1122
 20
-0.46392
 30
0.0
 10
-10.1122
 20
-0.46392
 30
0.0
 10
-10.1122
 20
-0.45407
 30
0.0
 10
-10.1102
 20
-0.44545
 30
0.0
 10
-10.10623
 20
-0.43803
 30
0.0
 10
-10.10623
 20
-0.43803
 30
0.0
 10
-10.10231
 20
-0.43061
 30
0.0
 10
-10.09659
 20
-0.42451
 30
0.0
 10
-10.08913
 20
-0.41965
 30
0.0
 10
-10.08913
 20
-0.41965
 30
0.0
 10
-10.08166
 20
-0.41483
 30
0.0
 10
-10.07258
 20
-0.41103
 30
0.0
 10
-10.06187
 20
-0.4083
 30
0.0
 10
-10.06187
 20
-0.4083
 30
0.0
 10
-10.05116
 20
-0.40553
 30
0.0
 10
-10.03675
 20
-0.40416
 30
0.0
 10
-10.01858
 20
-0.40416
 30
0.0
 10
-10.01858
 20
-0.40416
 30
0.0
 10
-9.99708
 20
-0.40416
 30
0.0
 10
-9.97976
 20
-0.40638
 30
0.0
 10
-9.96654
 20
-0.41077
 30
0.0
 10
-9.96654
 20
-0.41077
 30
0.0
 10
-9.95332
 20
-0.41521
 30
0.0
 10
-9.94312
 20
-0.42182
 30
0.0
 10
-9.93591
 20
-0.43061
 30
0.0
 10
-9.93591
 20
-0.43061
 30
0.0
 10
-9.92871
 20
-0.4394
 30
0.0
 10
-9.92512
 20
-0.45049
 30
0.0
 10
-9.92512
 20
-0.46392
 30
0.0
 10
-9.92512
 20
-0.46392
 30
0.0
 10
-9.92512
 20
-0.48158
 30
0.0
 10
-9.93144
 20
-0.49544
 30
0.0
 10
-9.9441
 20
-0.50551
 30
0.0
 10
-9.9441
 20
-0.50551
 30
0.0
 10
-9.95933
 20
-0.51758
 30
0.0
 10
-9.9842
 20
-0.52364
 30
0.0
 10
-10.01858
 20
-0.52364
 30
0.0
  0
SPLINE
  5
89
330
1F
100
AcDbEntity
  8
layer 2
370
     9
100
AcDbSpline
210
0.0
220
0.0
230
1.0
 70
    11
 71
     3
 72
    36
 73
    32
 74
     0
 42
0.0000000001
 43
0.0000000001
 12
1.0
 22
0.0
 32
0.0
 13
1.0
 23
0.0
 33
0.0
 40
0.0
 40
0.0
 40
0.0
 40
0.0
 40
0.1111111111111111
 40
0.1111111111111111
 40
0.1111111111111111
 40
0.1111111111111111
 40
0.2222222222222222
 40
0.2222222222222222
 40
0.2222222222222222
 40
0.2222222222222222
 40
0.3333333333333333
 40
0.3333333333333333
 40
0.3333333333333333
 40
0.3333333333333333
 40
0.4444444444444444
 40
0.4444444444444444
 40
0.4444444444444444
 40
0.4444444444444444
 40
0.5555555555555556
 40
0.5555555555555556
 40
0.5555555555555556
 40
0.5555555555555556
 40
0.6666666666666666
 40
0.6666666666666666
 40
0.6666666666666666
 40
0.6666666666666666
 40
0.7777777777777778
 40
0.7777777777777778
 40
0.7777777777777778
 40
0.7777777777777778
 40
1.0
 40
1.0
 40
1.0
 40
1.0
 10
-10.01858
 20
-0.50052
 30
0.0
 10
-9.98851
 20
-0.50052
 30
0.0
 10
-9.9685
 20
-0.49698
 30
0.0
 10
-9.95852
 20
-0.48994
 30
0.0
 10
-9.95852
 20
-0.48994
 30
0.0
 10
-9.94858
 20
-0.4829
 30
0.0
 10
-9.94359
 20
-0.47424
 30
0.0
 10
-9.94359
 20
-0.46392
 30
0.0
 10
-9.94359
 20
-0.46392
 30
0.0
 10
-9.94359
 20
-0.45356
 30
0.0
 10
-9.94862
 20
-0.4449
 30
0.0
 10
-9.95861
 20
-0.43786
 30
0.0
 10
-9.95861
 20
-0.43786
 30
0.0
 10
-9.96859
 20
-0.43082
 30
0.0
 10
-9.98859
 20
-0.42728
 30
0.0
 10
-10.01858
 20
-0.42728
 30
0.0
 10
-10.01858
 20
-0.42728
 30
0.0
 10
-10.04873
 20
-0.42728
 30
0.0
 10
-10.06878
 20
-0.43082
 30
0.0
 10
-10.07868
 20
-0.43786
 30
0.0
 10
-10.07868
 20
-0.43786
 30
0.0
 10
-10.08861
 20
-0.4449
 30
0.0
 10
-10.09356
 20
-0.45364
 30
0.0
 10
-10.09356
 20
-0.46413
 30
0.0
 10
-10.09356
 20
-0.46413
 30
0.0
 10
-10.09356
 20
-0.4745
 30
0.0
 10
-10.08917
 20
-0.48273
 30
0.0
 10
-10.08043
 20
-0.48892
 30
0.0
 10
-10.08043
 20
-0.48892
 30
0.0
 10
-10.06929
 20
-0.49664
 30
0.0
 10
-10.04865
 20
-0.50052
 30
0.0
 10
-10.01858
 20
-0.50052
 30
0.0
  0
SPLINE
  5
8A
330
1F
100
AcDbEntity
  8
layer 2
370
     9
100
AcDbSpline
210
0.0
220
0.0
230
1.0
 70
    11
 71
     3
 72
    36
 73
    32
 74
     0
 42
0.0000000001
 43
0.0000000001
 12
1.0
 22
0.0
 32
0.0
 13
1.0
 23
0.0
 33
0.0
 40
0.0
 40
0.0
 40
0.0
 40
0.0
 40
0.1111111111111111
 40
0.1111111111111111
 40
0.1111111111111111
 40
0.1111111111111111
 40
0.2222222222222222
 40
0.2222222222222222
 40
0.2222222222222222
 40
0.2222222222222222
 40
0.3333333333333333
 40
0.3333333333333333
 40
0.3333333333333333
 40
0.3333333333333333
 40
0.4444444444444444
 40
0.4444444444444444
 40
0.4444444444444444
 40
0.4444444444444444
 40
0.5555555555555556
 40
0.5555555555555556
 40
0.5555555555555556
 40
0.5555555555555556
 40
0.6666666666666666
 40
0.6666666666666666
 40
0.6666666666666666
 40
0.6666666666666666
 40
0.7777777777777778
 40
0.7777777777777778
 40
0.7777777777777778
 40
0.7777777777777778
 40
1.0
 40
1.0
 40
1.0
 40
1.0
 10
-9.87739
 20
-0.30346
 30
0.0
 10
-9.87739
 20
-0.30346
 30
0.0
 10
-10.11143
 20
-0.30346
 30
0.0
 10
-10.11143
 20
-0.30346
 30
0.0
 10
-10.11143
 20
-0.30346
 30
0.0
 10
-10.11143
 20
-0.30346
 30
0.0
 10
-10.11143
 20
-0.25385
 30
0.0
 10
-10.11143
 20
-0.25385
 30
0.0
 10
-10.11143
 20
-0.25385
 30
0.0
 10
-10.11143
 20
-0.25385
 30
0.0
 10
-10.0928
 20
-0.25385
 30
0.0
 10
-10.0928
 20
-0.25385
 30
0.0
 10
-10.0928
 20
-0.25385
 30
0.0
 10
-10.0928
 20
-0.25385
 30
0.0
 10
-10.0928
 20
-0.28094
 30
0.0
 10
-10.0928
 20
-0.28094
 30
0.0
 10
-10.0928
 20
-0.28094
 30
0.0
 10
-10.0928
 20
-0.28094
 30
0.0
 10
-9.89599
 20
-0.28094
 30
0.0
 10
-9.89599
 20
-0.28094
 30
0.0
 10
-9.89599
 20
-0.28094
 30
0.0
 10
-9.89599
 20
-0.28094
 30
0.0
 10
-9.89599
 20
-0.25385
 30
0.0
 10
-9.89599
 20
-0.25385
 30
0.0
 10
-9.89599
 20
-0.25385
 30
0.0
 10
-9.89599
 20
-0.25385
 30
0.0
 10
-9.87739
 20
-0.25385
 30
0.0
 10
-9.87739
 20
-0.25385
 30
0.0
 10
-9.87739
 20
-0.25385
 30
0.0
 10
-9.87739
 20
-0.25385
 30
0.0
 10
-9.87739
 20
-0.30346
 30
0.0
 10
-9.87739
 20
-0.30346
 30
0.0
  0
SPLINE
  5
8B
330
1F
100
AcDbEntity
  8
layer 2
370
     9
100
AcDbSpline
210
0.0
220
0.0
230
1.0
 70
    11
 71
     3
 72
    40
 73
    36
 74
     0
 42
0.0000000001
 43
0.0000000001
 12
1.0
 22
0.0
 32
0.0
 13
1.0
 23
0.0
 33
0.0
 40
0.0
 40
0.0
 40
0.0
 40
0.0
 40
0.1
 40
0.1
 40
0.1
 40
0.1
 40
0.2
 40
0.2
 40
0.2
 40
0.2
 40
0.3
 40
0.3
 40
0.3
 40
0.3
 40
0.4
 40
0.4
 40
0.4
 40
0.4
 40
0.5
 40
0.5
 40
0.5
 40
0.5
 40
0.6
 40
0.6
 40
0.6
 40
0.6
 40
0.7
 40
0.7
 40
0.7
 40
0.7
 40
0.8
 40
0.8
 40
0.8
 40
0.8
 40
1.0
 40
1.0
 40
1.0
 40
1.0
 10
-9.92824
 20
-0.15438
 30
0.0
 10
-9.92824
 20
-0.15438
 30
0.0
 10
-9.92824
 20
-0.17686
 30
0.0
 10
-9.92824
 20
-0.17686
 30
0.0
 10
-9.92824
 20
-0.17686
 30
0.0
 10
-9.92824
 20
-0.17686
 30
0.0
 10
-10.07155
 20
-0.17686
 30
0.0
 10
-10.07155
 20
-0.17686
 30
0.0
 10
-10.07155
 20
-0.17686
 30
0.0
 10
-10.06639
 20
-0.18228
 30
0.0
 10
-10.06123
 20
-0.18936
 30
0.0
 10
-10.05607
 20
-0.19814
 30
0.0
 10
-10.05607
 20
-0.19814
 30
0.0
 10
-10.05091
 20
-0.20697
 30
0.0
 10
-10.04703
 20
-0.21486
 30
0.0
 10
-10.04447
 20
-0.22186
 30
0.0
 10
-10.04447
 20
-0.22186
 30
0.0
 10
-10.04447
 20
-0.22186
 30
0.0
 10
-10.06618
 20
-0.22186
 30
0.0
 10
-10.06618
 20
-0.22186
 30
0.0
 10
-10.06618
 20
-0.22186
 30
0.0
 10
-10.07211
 20
-0.20928
 30
0.0
 10
-10.07927
 20
-0.19827
 30
0.0
 10
-10.08768
 20
-0.18885
 30
0.0
 10
-10.08768
 20
-0.18885
 30
0.0
 10
-10.09612
 20
-0.17946
 30
0.0
 10
-10.10427
 20
-0.17277
 30
0.0
 10
-10.1122
 20
-0.16884
 30
0.0
 10
-10.1122
 20
-0.16884
 30
0.0
 10
-10.1122
 20
-0.16884
 30
0.0
 10
-10.1122
 20
-0.15438
 30
0.0
 10
-10.1122
 20
-0.15438
 30
0.0
 10
-10.1122
 20
-0.15438
 30
0.0
 10
-10.1122
 20
-0.15438
 30
0.0
 10
-9.92824
 20
-0.15438
 30
0.0
 10
-9.92824
 20
-0.15438
 30
0.0
  0
SPLINE
  5
8C
330
1F
100
AcDbEntity
  8
layer 2
370
     9
100
AcDbSpline
210
0.0
220
0.0
230
1.0
 70
    11
 71
     3
 72
    48
 73
    44
 74
     0
 42
0.0000000001
 43
0.0000000001
 12
1.0
 22
0.0
 32
0.0
 13
1.0
 23
0.0
 33
0.0
 40
0.0
 40
0.0
 40
0.0
 40
0.0
 40
0.0833333333333333
 40
0.0833333333333333
 40
0.0833333333333333
 40
0.0833333333333333
 40
0.1666666666666667
 40
0.1666666666666667
 40
0.1666666666666667
 40
0.1666666666666667
 40
0.25
 40
0.25
 40
0.25
 40
0.25
 40
0.3333333333333333
 40
0.3333333333333333
 40
0.3333333333333333
 40
0.3333333333333333
 40
0.4166666666666667
 40
0.4166666666666667
 40
0.4166666666666667
 40
0.4166666666666667
 40
0.5
 40
0.5
 40
0.5
 40
0.5
 40
0.5833333333333334
 40
0.5833333333333334
 40
0.5833333333333334
 40
0.5833333333333334
 40
0.6666666666666666
 40
0.6666666666666666
 40
0.6666666666666666
 40
0.6666666666666666
 40
0.75
 40
0.75
 40
0.75
 40
0.75
 40
0.8333333333333334
 40
0.8333333333333334
 40
0.8333333333333334
 40
0.8333333333333334
 40
1.0
 40
1.0
 40
1.0
 40
1.0
 10
-10.08742
 20
-0.09526
 30
0.0
 10
-10.08742
 20
-0.09526
 30
0.0
 10
-10.10905
 20
-0.09526
 30
0.0
 10
-10.10905
 20
-0.09526
 30
0.0
 10
-10.10905
 20
-0.09526
 30
0.0
 10
-10.10905
 20
-0.09526
 30
0.0
 10
-10.10905
 20
0.02331
 30
0.0
 10
-10.10905
 20
0.02331
 30
0.0
 10
-10.10905
 20
0.02331
 30
0.0
 10
-10.10905
 20
0.02331
 30
0.0
 10
-10.09156
 20
0.02331
 30
0.0
 10
-10.09156
 20
0.02331
 30
0.0
 10
-10.09156
 20
0.02331
 30
0.0
 10
-10.07915
 20
0.01167
 30
0.0
 10
-10.06264
 20
0.00011
 30
0.0
 10
-10.04208
 20
-0.01136
 30
0.0
 10
-10.04208
 20
-0.01136
 30
0.0
 10
-10.02152
 20
-0.02279
 30
0.0
 10
-10.00032
 20
-0.03167
 30
0.0
 10
-9.97861
 20
-0.03789
 30
0.0
 10
-9.97861
 20
-0.03789
 30
0.0
 10
-9.96326
 20
-0.04242
 30
0.0
 10
-9.94649
 20
-0.04527
 30
0.0
 10
-9.92824
 20
-0.04651
 30
0.0
 10
-9.92824
 20
-0.04651
 30
0.0
 10
-9.92824
 20
-0.04651
 30
0.0
 10
-9.92824
 20
-0.06963
 30
0.0
 10
-9.92824
 20
-0.06963
 30
0.0
 10
-9.92824
 20
-0.06963
 30
0.0
 10
-9.94265
 20
-0.06937
 30
0.0
 10
-9.96006
 20
-0.06656
 30
0.0
 10
-9.98049
 20
-0.06114
 30
0.0
 10
-9.98049
 20
-0.06114
 30
0.0
 10
-10.00088
 20
-0.05572
 30
0.0
 10
-10.02058
 20
-0.04796
 30
0.0
 10
-10.03952
 20
-0.03785
 30
0.0
 10
-10.03952
 20
-0.03785
 30
0.0
 10
-10.05846
 20
-0.0277
 30
0.0
 10
-10.07445
 20
-0.01695
 30
0.0
 10
-10.08742
 20
-0.00552
 30
0.0
 10
-10.08742
 20
-0.00552
 30
0.0
 10
-10.08742
 20
-0.00552
 30
0.0
 10
-10.08742
 20
-0.09526
 30
0.0
 10
-10.08742
 20
-0.09526
 30
0.0
  0
SPLINE
  5
8D
330
1F
100
AcDbEntity
  8
layer 2
370
     9
100
AcDbSpline
210
0.0
220
0.0
230
1.0
 70
    11
 71
     3
 72
    40
 73
    36
 74
     0
 42
0.0000000001
 43
0.0000000001
 12
1.0
 22
0.0
 32
0.0
 13
1.0
 23
0.0
 33
0.0
 40
0.0
 40
0.0
 40
0.0
 40
0.0
 40
0.1
 40
0.1
 40
0.1
 40
0.1
 40
0.2
 40
0.2
 40
0.2
 40
0.2
 40
0.3
 40
0.3
 40
0.3
 40
0.3
 40
0.4
 40
0.4
 40
0.4
 40
0.4
 40
0.5
 40
0.5
 40
0.5
 40
0.5
 40
0.6
 40
0.6
 40
0.6
 40
0.6
 40
0.7
 40
0.7
 40
0.7
 40
0.7
 40
0.8
 40
0.8
 40
0.8
 40
0.8
 40
1.0
 40
1.0
 40
1.0
 40
1.0
 10
-9.92824
 20
0.20139
 30
0.0
 10
-9.92824
 20
0.20139
 30
0.0
 10
-9.92824
 20
0.17892
 30
0.0
 10
-9.92824
 20
0.17892
 30
0.0
 10
-9.92824
 20
0.17892
 30
0.0
 10
-9.92824
 20
0.17892
 30
0.0
 10
-10.07155
 20
0.17892
 30
0.0
 10
-10.07155
 20
0.17892
 30
0.0
 10
-10.07155
 20
0.17892
 30
0.0
 10
-10.06639
 20
0.1735
 30
0.0
 10
-10.06123
 20
0.16642
 30
0.0
 10
-10.05607
 20
0.15763
 30
0.0
 10
-10.05607
 20
0.15763
 30
0.0
 10
-10.05091
 20
0.1488
 30
0.0
 10
-10.04703
 20
0.14091
 30
0.0
 10
-10.04447
 20
0.13392
 30
0.0
 10
-10.04447
 20
0.13392
 30
0.0
 10
-10.04447
 20
0.13392
 30
0.0
 10
-10.06618
 20
0.13392
 30
0.0
 10
-10.06618
 20
0.13392
 30
0.0
 10
-10.06618
 20
0.13392
 30
0.0
 10
-10.07211
 20
0.1465
 30
0.0
 10
-10.07927
 20
0.1575
 30
0.0
 10
-10.08768
 20
0.16693
 30
0.0
 10
-10.08768
 20
0.16693
 30
0.0
 10
-10.09612
 20
0.17631
 30
0.0
 10
-10.10427
 20
0.18301
 30
0.0
 10
-10.1122
 20
0.18694
 30
0.0
 10
-10.1122
 20
0.18694
 30
0.0
 10
-10.1122
 20
0.18694
 30
0.0
 10
-10.1122
 20
0.20139
 30
0.0
 10
-10.1122
 20
0.20139
 30
0.0
 10
-10.1122
 20
0.20139
 30
0.0
 10
-10.1122
 20
0.20139
 30
0.0
 10
-9.92824
 20
0.20139
 30
0.0
 10
-9.92824
 20
0.20139
 30
0.0
  0
SPLINE
  5
8E
330
1F
100
AcDbEntity
  8
layer 2
370
     9
100
AcDbSpline
210
0.0
220
0.0
230
1.0
 70
    11
 71
     3
 72
    40
 73
    36
 74
     0
 42
0.0000000001
 43
0.0000000001
 12
1.0
 22
0.0
 32
0.0
 13
1.0
 23
0.0
 33
0.0
 40
0.0
 40
0.0
 40
0.0
 40
0.0
 40
0.1
 40
0.1
 40
0.1
 40
0.1
 40
0.2
 40
0.2
 40
0.2
 40
0.2
 40
0.3
 40
0.3
 40
0.3
 40
0.3
 40
0.4
 40
0.4
 40
0.4
 40
0.4
 40
0.5
 40
0.5
 40
0.5
 40
0.5
 40
0.6
 40
0.6
 40
0.6
 40
0.6
 40
0.7
 40
0.7
 40
0.7
 40
0.7
 40
0.8
 40
0.8
 40
0.8
 40
0.8
 40
1.0
 40
1.0
 40
1.0
 40
1.0
 10
-9.92824
 20
0.32475
 30
0.0
 10
-9.92824
 20
0.32475
 30
0.0
 10
-9.92824
 20
0.30227
 30
0.0
 10
-9.92824
 20
0.30227
 30
0.0
 10
-9.92824
 20
0.30227
 30
0.0
 10
-9.92824
 20
0.30227
 30
0.0
 10
-10.07155
 20
0.30227
 30
0.0
 10
-10.07155
 20
0.30227
 30
0.0
 10
-10.07155
 20
0.30227
 30
0.0
 10
-10.06639
 20
0.29685
 30
0.0
 10
-10.06123
 20
0.28977
 30
0.0
 10
-10.05607
 20
0.28099
 30
0.0
 10
-10.05607
 20
0.28099
 30
0.0
 10
-10.05091
 20
0.27216
 30
0.0
 10
-10.04703
 20
0.26427
 30
0.0
 10
-10.04447
 20
0.25727
 30
0.0
 10
-10.04447
 20
0.25727
 30
0.0
 10
-10.04447
 20
0.25727
 30
0.0
 10
-10.06618
 20
0.25727
 30
0.0
 10
-10.06618
 20
0.25727
 30
0.0
 10
-10.06618
 20
0.25727
 30
0.0
 10
-10.07211
 20
0.26985
 30
0.0
 10
-10.07927
 20
0.28086
 30
0.0
 10
-10.08768
 20
0.29029
 30
0.0
 10
-10.08768
 20
0.29029
 30
0.0
 10
-10.09612
 20
0.29967
 30
0.0
 10
-10.10427
 20
0.30637
 30
0.0
 10
-10.1122
 20
0.31029
 30
0.0
 10
-10.1122
 20
0.31029
 30
0.0
 10
-10.1122
 20
0.31029
 30
0.0
 10
-10.1122
 20
0.32475
 30
0.0
 10
-10.1122
 20
0.32475
 30
0.0
 10
-10.1122
 20
0.32475
 30
0.0
 10
-10.1122
 20
0.32475
 30
0.0
 10
-9.92824
 20
0.32475
 30
0.0
 10
-9.92824
 20
0.32475
 30
0.0
  0
SPLINE
  5
8F
330
1F
100
AcDbEntity
  8
layer 2
370
     9
100
AcDbSpline
210
0.0
220
0.0
230
1.0
 70
    11
 71
     3
 72
    20
 73
    16
 74
     0
 42
0.0000000001
 43
0.0000000001
 12
1.0
 22
0.0
 32
0.0
 13
1.0
 23
0.0
 33
0.0
 40
0.0
 40
0.0
 40
0.0
 40
0.0
 40
0.2
 40
0.2
 40
0.2
 40
0.2
 40
0.4
 40
0.4
 40
0.4
 40
0.4
 40
0.6
 40
0.6
 40
0.6
 40
0.6
 40
1.0
 40
1.0
 40
1.0
 40
1.0
 10
-9.92512
 20
0.37175
 30
0.0
 10
-9.92512
 20
0.37175
 30
0.0
 10
-10.11455
 20
0.42486
 30
0.0
 10
-10.11455
 20
0.42486
 30
0.0
 10
-10.11455
 20
0.42486
 30
0.0
 10
-10.11455
 20
0.42486
 30
0.0
 10
-10.11455
 20
0.44286
 30
0.0
 10
-10.11455
 20
0.44286
 30
0.0
 10
-10.11455
 20
0.44286
 30
0.0
 10
-10.11455
 20
0.44286
 30
0.0
 10
-9.92512
 20
0.38988
 30
0.0
 10
-9.92512
 20
0.38988
 30
0.0
 10
-9.92512
 20
0.38988
 30
0.0
 10
-9.92512
 20
0.38988
 30
0.0
 10
-9.92512
 20
0.37175
 30
0.0
 10
-9.92512
 20
0.37175
 30
0.0
  0
SPLINE
  5
90
330
1F
100
AcDbEntity
  8
layer 2
370
     9
100
AcDbSpline
210
0.0
220
0.0
230
1.0
 70
    11
 71
     3
 72
    40
 73
    36
 74
     0
 42
0.0000000001
 43
0.0000000001
 12
1.0
 22
0.0
 32
0.0
 13
1.0
 23
0.0
 33
0.0
 40
0.0
 40
0.0
 40
0.0
 40
0.0
 40
0.1
 40
0.1
 40
0.1
 40
0.1
 40
0.2
 40
0.2
 40
0.2
 40
0.2
 40
0.3
 40
0.3
 40
0.3
 40
0.3
 40
0.4
 40
0.4
 40
0.4
 40
0.4
 40
0.5
 40
0.5
 40
0.5
 40
0.5
 40
0.6
 40
0.6
 40
0.6
 40
0.6
 40
0.7
 40
0.7
 40
0.7
 40
0.7
 40
0.8
 40
0.8
 40
0.8
 40
0.8
 40
1.0
 40
1.0
 40
1.0
 40
1.0
 10
-9.92824
 20
0.53819
 30
0.0
 10
-9.92824
 20
0.53819
 30
0.0
 10
-9.92824
 20
0.51571
 30
0.0
 10
-9.92824
 20
0.51571
 30
0.0
 10
-9.92824
 20
0.51571
 30
0.0
 10
-9.92824
 20
0.51571
 30
0.0
 10
-10.07155
 20
0.51571
 30
0.0
 10
-10.07155
 20
0.51571
 30
0.0
 10
-10.07155
 20
0.51571
 30
0.0
 10
-10.06639
 20
0.51029
 30
0.0
 10
-10.06123
 20
0.50321
 30
0.0
 10
-10.05607
 20
0.49443
 30
0.0
 10
-10.05607
 20
0.49443
 30
0.0
 10
-10.05091
 20
0.4856
 30
0.0
 10
-10.04703
 20
0.47771
 30
0.0
 10
-10.04447
 20
0.47071
 30
0.0
 10
-10.04447
 20
0.47071
 30
0.0
 10
-10.04447
 20
0.47071
 30
0.0
 10
-10.06618
 20
0.47071
 30
0.0
 10
-10.06618
 20
0.47071
 30
0.0
 10
-10.06618
 20
0.47071
 30
0.0
 10
-10.07211
 20
0.48329
 30
0.0
 10
-10.07927
 20
0.4943
 30
0.0
 10
-10.08768
 20
0.50373
 30
0.0
 10
-10.08768
 20
0.50373
 30
0.0
 10
-10.09612
 20
0.51311
 30
0.0
 10
-10.10427
 20
0.51981
 30
0.0
 10
-10.1122
 20
0.52373
 30
0.0
 10
-10.1122
 20
0.52373
 30
0.0
 10
-10.1122
 20
0.52373
 30
0.0
 10
-10.1122
 20
0.53819
 30
0.0
 10
-10.1122
 20
0.53819
 30
0.0
 10
-10.1122
 20
0.53819
 30
0.0
 10
-10.1122
 20
0.53819
 30
0.0
 10
-9.92824
 20
0.53819
 30
0.0
 10
-9.92824
 20
0.53819
 30
0.0
  0
SPLINE
  5
91
330
1F
100
AcDbEntity
  8
layer 2
370
     9
100
AcDbSpline
210
0.0
220
0.0
230
1.0
 70
    11
 71
     3
 72
    80
 73
    76
 74
     0
 42
0.0000000001
 43
0.0000000001
 12
1.0
 22
0.0
 32
0.0
 13
1.0
 23
0.0
 33
0.0
 40
0.0
 40
0.0
 40
0.0
 40
0.0
 40
0.05
 40
0.05
 40
0.05
 40
0.05
 40
0.1
 40
0.1
 40
0.1
 40
0.1
 40
0.15
 40
0.15
 40
0.15
 40
0.15
 40
0.2
 40
0.2
 40
0.2
 40
0.2
 40
0.25
 40
0.25
 40
0.25
 40
0.25
 40
0.3
 40
0.3
 40
0.3
 40
0.3
 40
0.35
 40
0.35
 40
0.35
 40
0.35
 40
0.4
 40
0.4
 40
0.4
 40
0.4
 40
0.45
 40
0.45
 40
0.45
 40
0.45
 40
0.5
 40
0.5
 40
0.5
 40
0.5
 40
0.55
 40
0.55
 40
0.55
 40
0.55
 40
0.6
 40
0.6
 40
0.6
 40
0.6
 40
0.65
 40
0.65
 40
0.65
 40
0.65
 40
0.7
 40
0.7
 40
0.7
 40
0.7
 40
0.75
 40
0.75
 40
0.75
 40
0.75
 40
0.8
 40
0.8
 40
0.8
 40
0.8
 40
0.85
 40
0.85
 40
0.85
 40
0.85
 40
0.9
 40
0.9
 40
0.9
 40
0.9
 40
1.0
 40
1.0
 40
1.0
 40
1.0
 10
-10.06656
 20
0.71252
 30
0.0
 10
-10.06656
 20
0.71252
 30
0.0
 10
-10.06481
 20
0.69017
 30
0.0
 10
-10.06481
 20
0.69017
 30
0.0
 10
-10.06481
 20
0.69017
 30
0.0
 10
-10.07364
 20
0.68816
 30
0.0
 10
-10.08008
 20
0.68535
 30
0.0
 10
-10.08405
 20
0.68168
 30
0.0
 10
-10.08405
 20
0.68168
 30
0.0
 10
-10.09049
 20
0.67558
 30
0.0
 10
-10.09369
 20
0.66807
 30
0.0
 10
-10.09369
 20
0.65916
 30
0.0
 10
-10.09369
 20
0.65916
 30
0.0
 10
-10.09369
 20
0.65199
 30
0.0
 10
-10.09169
 20
0.64572
 30
0.0
 10
-10.08768
 20
0.6403
 30
0.0
 10
-10.08768
 20
0.6403
 30
0.0
 10
-10.08252
 20
0.63322
 30
0.0
 10
-10.07497
 20
0.62764
 30
0.0
 10
-10.06507
 20
0.62354
 30
0.0
 10
-10.06507
 20
0.62354
 30
0.0
 10
-10.05517
 20
0.61949
 30
0.0
 10
-10.04106
 20
0.61736
 30
0.0
 10
-10.02271
 20
0.61719
 30
0.0
 10
-10.02271
 20
0.61719
 30
0.0
 10
-10.03095
 20
0.6226
 30
0.0
 10
-10.03709
 20
0.62921
 30
0.0
 10
-10.0411
 20
0.63706
 30
0.0
 10
-10.0411
 20
0.63706
 30
0.0
 10
-10.04507
 20
0.64487
 30
0.0
 10
-10.04707
 20
0.6531
 30
0.0
 10
-10.04707
 20
0.66167
 30
0.0
 10
-10.04707
 20
0.66167
 30
0.0
 10
-10.04707
 20
0.67669
 30
0.0
 10
-10.04157
 20
0.68944
 30
0.0
 10
-10.03052
 20
0.69998
 30
0.0
 10
-10.03052
 20
0.69998
 30
0.0
 10
-10.01947
 20
0.71051
 30
0.0
 10
-10.00523
 20
0.7158
 30
0.0
 10
-9.98774
 20
0.7158
 30
0.0
 10
-9.98774
 20
0.7158
 30
0.0
 10
-9.97622
 20
0.7158
 30
0.0
 10
-9.96556
 20
0.71328
 30
0.0
 10
-9.95566
 20
0.70834
 30
0.0
 10
-9.95566
 20
0.70834
 30
0.0
 10
-9.94581
 20
0.70339
 30
0.0
 10
-9.93822
 20
0.69656
 30
0.0
 10
-9.93297
 20
0.68791
 30
0.0
 10
-9.93297
 20
0.68791
 30
0.0
 10
-9.92772
 20
0.67925
 30
0.0
 10
-9.92512
 20
0.66944
 30
0.0
 10
-9.92512
 20
0.65843
 30
0.0
 10
-9.92512
 20
0.65843
 30
0.0
 10
-9.92512
 20
0.63966
 30
0.0
 10
-9.93199
 20
0.62439
 30
0.0
 10
-9.94581
 20
0.61258
 30
0.0
 10
-9.94581
 20
0.61258
 30
0.0
 10
-9.95959
 20
0.60072
 30
0.0
 10
-9.98232
 20
0.59483
 30
0.0
 10
-10.01397
 20
0.59483
 30
0.0
 10
-10.01397
 20
0.59483
 30
0.0
 10
-10.04937
 20
0.59483
 30
0.0
 10
-10.07509
 20
0.60136
 30
0.0
 10
-10.09117
 20
0.61446
 30
0.0
 10
-10.09117
 20
0.61446
 30
0.0
 10
-10.10516
 20
0.62584
 30
0.0
 10
-10.1122
 20
0.6412
 30
0.0
 10
-10.1122
 20
0.66056
 30
0.0
 10
-10.1122
 20
0.66056
 30
0.0
 10
-10.1122
 20
0.67494
 30
0.0
 10
-10.10815
 20
0.68675
 30
0.0
 10
-10.10005
 20
0.69597
 30
0.0
 10
-10.10005
 20
0.69597
 30
0.0
 10
-10.09198
 20
0.70518
 30
0.0
 10
-10.08081
 20
0.71068
 30
0.0
 10
-10.06656
 20
0.71252
 30
0.0
  0
SPLINE
  5
92
330
1F
100
AcDbEntity
  8
layer 2
370
     9
100
AcDbSpline
210
0.0
220
0.0
230
1.0
 70
    11
 71
     3
 72
    40
 73
    36
 74
     0
 42
0.0000000001
 43
0.0000000001
 12
1.0
 22
0.0
 32
0.0
 13
1.0
 23
0.0
 33
0.0
 40
0.0
 40
0.0
 40
0.0
 40
0.0
 40
0.1
 40
0.1
 40
0.1
 40
0.1
 40
0.2
 40
0.2
 40
0.2
 40
0.2
 40
0.3
 40
0.3
 40
0.3
 40
0.3
 40
0.4
 40
0.4
 40
0.4
 40
0.4
 40
0.5
 40
0.5
 40
0.5
 40
0.5
 40
0.6
 40
0.6
 40
0.6
 40
0.6
 40
0.7
 40
0.7
 40
0.7
 40
0.7
 40
0.8
 40
0.8
 40
0.8
 40
0.8
 40
1.0
 40
1.0
 40
1.0
 40
1.0
 10
-9.98761
 20
0.62068
 30
0.0
 10
-9.97985
 20
0.62068
 30
0.0
 10
-9.97243
 20
0.62235
 30
0.0
 10
-9.96535
 20
0.62563
 30
0.0
 10
-9.96535
 20
0.62563
 30
0.0
 10
-9.95826
 20
0.62891
 30
0.0
 10
-9.95289
 20
0.63352
 30
0.0
 10
-9.94918
 20
0.63941
 30
0.0
 10
-9.94918
 20
0.63941
 30
0.0
 10
-9.94547
 20
0.64534
 30
0.0
 10
-9.94359
 20
0.65156
 30
0.0
 10
-9.94359
 20
0.65805
 30
0.0
 10
-9.94359
 20
0.65805
 30
0.0
 10
-9.94359
 20
0.66756
 30
0.0
 10
-9.94743
 20
0.67571
 30
0.0
 10
-9.95511
 20
0.68253
 30
0.0
 10
-9.95511
 20
0.68253
 30
0.0
 10
-9.96279
 20
0.68936
 30
0.0
 10
-9.97319
 20
0.69277
 30
0.0
 10
-9.98633
 20
0.69277
 30
0.0
 10
-9.98633
 20
0.69277
 30
0.0
 10
-9.999
 20
0.69277
 30
0.0
 10
-10.00898
 20
0.6894
 30
0.0
 10
-10.01627
 20
0.68266
 30
0.0
 10
-10.01627
 20
0.68266
 30
0.0
 10
-10.02357
 20
0.67592
 30
0.0
 10
-10.02719
 20
0.66743
 30
0.0
 10
-10.02719
 20
0.65719
 30
0.0
 10
-10.02719
 20
0.65719
 30
0.0
 10
-10.02719
 20
0.647
 30
0.0
 10
-10.02357
 20
0.63838
 30
0.0
 10
-10.01627
 20
0.6313
 30
0.0
 10
-10.01627
 20
0.6313
 30
0.0
 10
-10.00898
 20
0.62422
 30
0.0
 10
-9.99943
 20
0.62068
 30
0.0
 10
-9.98761
 20
0.62068
 30
0.0
  0
SPLINE
  5
93
330
1F
100
AcDbEntity
  8
layer 2
370
     9
100
AcDbSpline
210
0.0
220
0.0
230
1.0
 70
    11
 71
     3
 72
    36
 73
    32
 74
     0
 42
0.0000000001
 43
0.0000000001
 12
1.0
 22
0.0
 32
0.0
 13
1.0
 23
0.0
 33
0.0
 40
0.0
 40
0.0
 40
0.0
 40
0.0
 40
0.1111111111111111
 40
0.1111111111111111
 40
0.1111111111111111
 40
0.1111111111111111
 40
0.2222222222222222
 40
0.2222222222222222
 40
0.2222222222222222
 40
0.2222222222222222
 40
0.3333333333333333
 40
0.3333333333333333
 40
0.3333333333333333
 40
0.3333333333333333
 40
0.4444444444444444
 40
0.4444444444444444
 40
0.4444444444444444
 40
0.4444444444444444
 40
0.5555555555555556
 40
0.5555555555555556
 40
0.5555555555555556
 40
0.5555555555555556
 40
0.6666666666666666
 40
0.6666666666666666
 40
0.6666666666666666
 40
0.6666666666666666
 40
0.7777777777777778
 40
0.7777777777777778
 40
0.7777777777777778
 40
0.7777777777777778
 40
1.0
 40
1.0
 40
1.0
 40
1.0
 10
-9.87739
 20
0.782
 30
0.0
 10
-9.87739
 20
0.782
 30
0.0
 10
-9.87739
 20
0.73239
 30
0.0
 10
-9.87739
 20
0.73239
 30
0.0
 10
-9.87739
 20
0.73239
 30
0.0
 10
-9.87739
 20
0.73239
 30
0.0
 10
-9.89599
 20
0.73239
 30
0.0
 10
-9.89599
 20
0.73239
 30
0.0
 10
-9.89599
 20
0.73239
 30
0.0
 10
-9.89599
 20
0.73239
 30
0.0
 10
-9.89599
 20
0.75952
 30
0.0
 10
-9.89599
 20
0.75952
 30
0.0
 10
-9.89599
 20
0.75952
 30
0.0
 10
-9.89599
 20
0.75952
 30
0.0
 10
-10.0928
 20
0.75952
 30
0.0
 10
-10.0928
 20
0.75952
 30
0.0
 10
-10.0928
 20
0.75952
 30
0.0
 10
-10.0928
 20
0.75952
 30
0.0
 10
-10.0928
 20
0.73239
 30
0.0
 10
-10.0928
 20
0.73239
 30
0.0
 10
-10.0928
 20
0.73239
 30
0.0
 10
-10.0928
 20
0.73239
 30
0.0
 10
-10.11143
 20
0.73239
 30
0.0
 10
-10.11143
 20
0.73239
 30
0.0
 10
-10.11143
 20
0.73239
 30
0.0
 10
-10.11143
 20
0.73239
 30
0.0
 10
-10.11143
 20
0.782
 30
0.0
 10
-10.11143
 20
0.782
 30
0.0
 10
-10.11143
 20
0.782
 30
0.0
 10
-10.11143
 20
0.782
 30
0.0
 10
-9.87739
 20
0.782
 30
0.0
 10
-9.87739
 20
0.782
 30
0.0
  0
SPLINE
  5
94
330
1F
100
AcDbEntity
  8
layer 2
370
     5
100
AcDbSpline
210
0.0
220
0.0
230
1.0
 70
    24
 71
     3
 72
     8
 73
     4
 74
     0
 42
0.0000000001
 43
0.0000000001
 12
1.0
 22
0.0
 32
0.0
 13
1.0
 23
0.0
 33
0.0
 40
0.0
 40
0.0
 40
0.0
 40
0.0
 40
1.0
 40
1.0
 40
1.0
 40
1.0
 10
4.97006
 20
-1.98932
 30
0.0
 10
4.97006
 20
-1.98932
 30
0.0
 10
7.50448
 20
-4.49166
 30
0.0
 10
7.50448
 20
-4.49166
 30
0.0
  0
SPLINE
  5
95
330
1F
100
AcDbEntity
  8
layer 2
370
     9
100
AcDbSpline
210
0.0
220
0.0
230
1.0
 70
    11
 71
     3
 72
    48
 73
    44
 74
     0
 42
0.0000000001
 43
0.0000000001
 12
1.0
 22
0.0
 32
0.0
 13
1.0
 23
0.0
 33
0.0
 40
0.0
 40
0.0
 40
0.0
 40
0.0
 40
0.0833333333333333
 40
0.0833333333333333
 40
0.0833333333333333
 40
0.0833333333333333
 40
0.1666666666666667
 40
0.1666666666666667
 40
0.1666666666666667
 40
0.1666666666666667
 40
0.25
 40
0.25
 40
0.25
 40
0.25
 40
0.3333333333333333
 40
0.3333333333333333
 40
0.3333333333333333
 40
0.3333333333333333
 40
0.4166666666666667
 40
0.4166666666666667
 40
0.4166666666666667
 40
0.4166666666666667
 40
0.5
 40
0.5
 40
0.5
 40
0.5
 40
0.5833333333333334
 40
0.5833333333333334
 40
0.5833333333333334
 40
0.5833333333333334
 40
0.6666666666666666
 40
0.6666666666666666
 40
0.6666666666666666
 40
0.6666666666666666
 40
0.75
 40
0.75
 40
0.75
 40
0.75
 40
0.8333333333333334
 40
0.8333333333333334
 40
0.8333333333333334
 40
0.8333333333333334
 40
1.0
 40
1.0
 40
1.0
 40
1.0
 10
5.68261
 20
-2.51786
 30
0.0
 10
5.68261
 20
-2.51786
 30
0.0
 10
5.71342
 20
-2.48666
 30
0.0
 10
5.71342
 20
-2.48666
 30
0.0
 10
5.71342
 20
-2.48666
 30
0.0
 10
5.71342
 20
-2.48666
 30
0.0
 10
5.65687
 20
-2.43083
 30
0.0
 10
5.65687
 20
-2.43083
 30
0.0
 10
5.65687
 20
-2.43083
 30
0.0
 10
5.65687
 20
-2.43083
 30
0.0
 10
5.67138
 20
-2.41613
 30
0.0
 10
5.67138
 20
-2.41613
 30
0.0
 10
5.67138
 20
-2.41613
 30
0.0
 10
5.67138
 20
-2.41613
 30
0.0
 10
5.81427
 20
-2.3904
 30
0.0
 10
5.81427
 20
-2.3904
 30
0.0
 10
5.81427
 20
-2.3904
 30
0.0
 10
5.81427
 20
-2.3904
 30
0.0
 10
5.82735
 20
-2.40332
 30
0.0
 10
5.82735
 20
-2.40332
 30
0.0
 10
5.82735
 20
-2.40332
 30
0.0
 10
5.82735
 20
-2.40332
 30
0.0
 10
5.74395
 20
-2.48779
 30
0.0
 10
5.74395
 20
-2.48779
 30
0.0
 10
5.74395
 20
-2.48779
 30
0.0
 10
5.74395
 20
-2.48779
 30
0.0
 10
5.76155
 20
-2.50517
 30
0.0
 10
5.76155
 20
-2.50517
 30
0.0
 10
5.76155
 20
-2.50517
 30
0.0
 10
5.76155
 20
-2.50517
 30
0.0
 10
5.74705
 20
-2.51986
 30
0.0
 10
5.74705
 20
-2.51986
 30
0.0
 10
5.74705
 20
-2.51986
 30
0.0
 10
5.74705
 20
-2.51986
 30
0.0
 10
5.72944
 20
-2.50248
 30
0.0
 10
5.72944
 20
-2.50248
 30
0.0
 10
5.72944
 20
-2.50248
 30
0.0
 10
5.72944
 20
-2.50248
 30
0.0
 10
5.69864
 20
-2.53368
 30
0.0
 10
5.69864
 20
-2.53368
 30
0.0
 10
5.69864
 20
-2.53368
 30
0.0
 10
5.69864
 20
-2.53368
 30
0.0
 10
5.68261
 20
-2.51786
 30
0.0
 10
5.68261
 20
-2.51786
 30
0.0
  0
SPLINE
  5
96
330
1F
100
AcDbEntity
  8
layer 2
370
     9
100
AcDbSpline
210
0.0
220
0.0
230
1.0
 70
    11
 71
     3
 72
    16
 73
    12
 74
     0
 42
0.0000000001
 43
0.0000000001
 12
1.0
 22
0.0
 32
0.0
 13
1.0
 23
0.0
 33
0.0
 40
0.0
 40
0.0
 40
0.0
 40
0.0
 40
0.25
 40
0.25
 40
0.25
 40
0.25
 40
0.5
 40
0.5
 40
0.5
 40
0.5
 40
1.0
 40
1.0
 40
1.0
 40
1.0
 10
5.72792
 20
-2.47197
 30
0.0
 10
5.72792
 20
-2.47197
 30
0.0
 10
5.78594
 20
-2.4132
 30
0.0
 10
5.78594
 20
-2.4132
 30
0.0
 10
5.78594
 20
-2.4132
 30
0.0
 10
5.78594
 20
-2.4132
 30
0.0
 10
5.68713
 20
-2.43169
 30
0.0
 10
5.68713
 20
-2.43169
 30
0.0
 10
5.68713
 20
-2.43169
 30
0.0
 10
5.68713
 20
-2.43169
 30
0.0
 10
5.72792
 20
-2.47197
 30
0.0
 10
5.72792
 20
-2.47197
 30
0.0
  0
SPLINE
  5
97
330
1F
100
AcDbEntity
  8
layer 2
370
     9
100
AcDbSpline
210
0.0
220
0.0
230
1.0
 70
    11
 71
     3
 72
    20
 73
    16
 74
     0
 42
0.0000000001
 43
0.0000000001
 12
1.0
 22
0.0
 32
0.0
 13
1.0
 23
0.0
 33
0.0
 40
0.0
 40
0.0
 40
0.0
 40
0.0
 40
0.2
 40
0.2
 40
0.2
 40
0.2
 40
0.4
 40
0.4
 40
0.4
 40
0.4
 40
0.6
 40
0.6
 40
0.6
 40
0.6
 40
1.0
 40
1.0
 40
1.0
 40
1.0
 10
5.76944
 20
-2.52632
 30
0.0
 10
5.76944
 20
-2.52632
 30
0.0
 10
5.78532
 20
-2.51024
 30
0.0
 10
5.78532
 20
-2.51024
 30
0.0
 10
5.78532
 20
-2.51024
 30
0.0
 10
5.78532
 20
-2.51024
 30
0.0
 10
5.83452
 20
-2.55881
 30
0.0
 10
5.83452
 20
-2.55881
 30
0.0
 10
5.83452
 20
-2.55881
 30
0.0
 10
5.83452
 20
-2.55881
 30
0.0
 10
5.81864
 20
-2.5749
 30
0.0
 10
5.81864
 20
-2.5749
 30
0.0
 10
5.81864
 20
-2.5749
 30
0.0
 10
5.81864
 20
-2.5749
 30
0.0
 10
5.76944
 20
-2.52632
 30
0.0
 10
5.76944
 20
-2.52632
 30
0.0
  0
SPLINE
  5
98
330
1F
100
AcDbEntity
  8
layer 2
370
     9
100
AcDbSpline
210
0.0
220
0.0
230
1.0
 70
    11
 71
     3
 72
    80
 73
    76
 74
     0
 42
0.0000000001
 43
0.0000000001
 12
1.0
 22
0.0
 32
0.0
 13
1.0
 23
0.0
 33
0.0
 40
0.0
 40
0.0
 40
0.0
 40
0.0
 40
0.05
 40
0.05
 40
0.05
 40
0.05
 40
0.1
 40
0.1
 40
0.1
 40
0.1
 40
0.15
 40
0.15
 40
0.15
 40
0.15
 40
0.2
 40
0.2
 40
0.2
 40
0.2
 40
0.25
 40
0.25
 40
0.25
 40
0.25
 40
0.3
 40
0.3
 40
0.3
 40
0.3
 40
0.35
 40
0.35
 40
0.35
 40
0.35
 40
0.4
 40
0.4
 40
0.4
 40
0.4
 40
0.45
 40
0.45
 40
0.45
 40
0.45
 40
0.5
 40
0.5
 40
0.5
 40
0.5
 40
0.55
 40
0.55
 40
0.55
 40
0.55
 40
0.6
 40
0.6
 40
0.6
 40
0.6
 40
0.65
 40
0.65
 40
0.65
 40
0.65
 40
0.7
 40
0.7
 40
0.7
 40
0.7
 40
0.75
 40
0.75
 40
0.75
 40
0.75
 40
0.8
 40
0.8
 40
0.8
 40
0.8
 40
0.85
 40
0.85
 40
0.85
 40
0.85
 40
0.9
 40
0.9
 40
0.9
 40
0.9
 40
1.0
 40
1.0
 40
1.0
 40
1.0
 10
5.80001
 20
-2.63377
 30
0.0
 10
5.80001
 20
-2.63377
 30
0.0
 10
5.92873
 20
-2.50341
 30
0.0
 10
5.92873
 20
-2.50341
 30
0.0
 10
5.92873
 20
-2.50341
 30
0.0
 10
5.92873
 20
-2.50341
 30
0.0
 10
5.98652
 20
-2.56047
 30
0.0
 10
5.98652
 20
-2.56047
 30
0.0
 10
5.98652
 20
-2.56047
 30
0.0
 10
5.99814
 20
-2.57195
 30
0.0
 10
6.00581
 20
-2.58185
 30
0.0
 10
6.00954
 20
-2.59015
 30
0.0
 10
6.00954
 20
-2.59015
 30
0.0
 10
6.01327
 20
-2.59845
 30
0.0
 10
6.01402
 20
-2.60735
 30
0.0
 10
6.01182
 20
-2.61686
 30
0.0
 10
6.01182
 20
-2.61686
 30
0.0
 10
6.00956
 20
-2.62638
 30
0.0
 10
6.00488
 20
-2.6347
 30
0.0
 10
5.9978
 20
-2.64186
 30
0.0
 10
5.9978
 20
-2.64186
 30
0.0
 10
5.98866
 20
-2.65112
 30
0.0
 10
5.97802
 20
-2.65595
 30
0.0
 10
5.96575
 20
-2.65636
 30
0.0
 10
5.96575
 20
-2.65636
 30
0.0
 10
5.9535
 20
-2.6568
 30
0.0
 10
5.94026
 20
-2.6517
 30
0.0
 10
5.92604
 20
-2.64108
 30
0.0
 10
5.92604
 20
-2.64108
 30
0.0
 10
5.92847
 20
-2.6478
 30
0.0
 10
5.9298
 20
-2.65337
 30
0.0
 10
5.93004
 20
-2.65786
 30
0.0
 10
5.93004
 20
-2.65786
 30
0.0
 10
5.93053
 20
-2.66745
 30
0.0
 10
5.92957
 20
-2.67795
 30
0.0
 10
5.92726
 20
-2.68934
 30
0.0
 10
5.92726
 20
-2.68934
 30
0.0
 10
5.92726
 20
-2.68934
 30
0.0
 10
5.9149
 20
-2.7472
 30
0.0
 10
5.9149
 20
-2.7472
 30
0.0
 10
5.9149
 20
-2.7472
 30
0.0
 10
5.9149
 20
-2.7472
 30
0.0
 10
5.8932
 20
-2.72577
 30
0.0
 10
5.8932
 20
-2.72577
 30
0.0
 10
5.8932
 20
-2.72577
 30
0.0
 10
5.8932
 20
-2.72577
 30
0.0
 10
5.90275
 20
-2.68162
 30
0.0
 10
5.90275
 20
-2.68162
 30
0.0
 10
5.90275
 20
-2.68162
 30
0.0
 10
5.90541
 20
-2.66884
 30
0.0
 10
5.90719
 20
-2.65873
 30
0.0
 10
5.90798
 20
-2.65136
 30
0.0
 10
5.90798
 20
-2.65136
 30
0.0
 10
5.90884
 20
-2.644
 30
0.0
 10
5.9088
 20
-2.63821
 30
0.0
 10
5.90784
 20
-2.63402
 30
0.0
 10
5.90784
 20
-2.63402
 30
0.0
 10
5.90691
 20
-2.62981
 30
0.0
 10
5.90544
 20
-2.62607
 30
0.0
 10
5.90343
 20
-2.62277
 30
0.0
 10
5.90343
 20
-2.62277
 30
0.0
 10
5.90185
 20
-2.62043
 30
0.0
 10
5.89887
 20
-2.61707
 30
0.0
 10
5.8944
 20
-2.61266
 30
0.0
 10
5.8944
 20
-2.61266
 30
0.0
 10
5.8944
 20
-2.61266
 30
0.0
 10
5.8744
 20
-2.59291
 30
0.0
 10
5.8744
 20
-2.59291
 30
0.0
 10
5.8744
 20
-2.59291
 30
0.0
 10
5.8744
 20
-2.59291
 30
0.0
 10
5.81725
 20
-2.6508
 30
0.0
 10
5.81725
 20
-2.6508
 30
0.0
 10
5.81725
 20
-2.6508
 30
0.0
 10
5.81725
 20
-2.6508
 30
0.0
 10
5.80001
 20
-2.63377
 30
0.0
 10
5.80001
 20
-2.63377
 30
0.0
  0
SPLINE
  5
99
330
1F
100
AcDbEntity
  8
layer 2
370
     9
100
AcDbSpline
210
0.0
220
0.0
230
1.0
 70
    11
 71
     3
 72
    36
 73
    32
 74
     0
 42
0.0000000001
 43
0.0000000001
 12
1.0
 22
0.0
 32
0.0
 13
1.0
 23
0.0
 33
0.0
 40
0.0
 40
0.0
 40
0.0
 40
0.0
 40
0.1111111111111111
 40
0.1111111111111111
 40
0.1111111111111111
 40
0.1111111111111111
 40
0.2222222222222222
 40
0.2222222222222222
 40
0.2222222222222222
 40
0.2222222222222222
 40
0.3333333333333333
 40
0.3333333333333333
 40
0.3333333333333333
 40
0.3333333333333333
 40
0.4444444444444444
 40
0.4444444444444444
 40
0.4444444444444444
 40
0.4444444444444444
 40
0.5555555555555556
 40
0.5555555555555556
 40
0.5555555555555556
 40
0.5555555555555556
 40
0.6666666666666666
 40
0.6666666666666666
 40
0.6666666666666666
 40
0.6666666666666666
 40
0.7777777777777778
 40
0.7777777777777778
 40
0.7777777777777778
 40
0.7777777777777778
 40
1.0
 40
1.0
 40
1.0
 40
1.0
 10
5.88915
 20
-2.57798
 30
0.0
 10
5.88915
 20
-2.57798
 30
0.0
 10
5.92624
 20
-2.6146
 30
0.0
 10
5.92624
 20
-2.6146
 30
0.0
 10
5.92624
 20
-2.6146
 30
0.0
 10
5.9341
 20
-2.62236
 30
0.0
 10
5.9411
 20
-2.62766
 30
0.0
 10
5.94715
 20
-2.63039
 30
0.0
 10
5.94715
 20
-2.63039
 30
0.0
 10
5.95323
 20
-2.63316
 30
0.0
 10
5.95918
 20
-2.63388
 30
0.0
 10
5.96502
 20
-2.63257
 30
0.0
 10
5.96502
 20
-2.63257
 30
0.0
 10
5.97086
 20
-2.63127
 30
0.0
 10
5.97585
 20
-2.62852
 30
0.0
 10
5.98002
 20
-2.6243
 30
0.0
 10
5.98002
 20
-2.6243
 30
0.0
 10
5.9861
 20
-2.61814
 30
0.0
 10
5.98889
 20
-2.61088
 30
0.0
 10
5.98832
 20
-2.60247
 30
0.0
 10
5.98832
 20
-2.60247
 30
0.0
 10
5.98779
 20
-2.59409
 30
0.0
 10
5.98266
 20
-2.58514
 30
0.0
 10
5.97298
 20
-2.57558
 30
0.0
 10
5.97298
 20
-2.57558
 30
0.0
 10
5.97298
 20
-2.57558
 30
0.0
 10
5.93173
 20
-2.53485
 30
0.0
 10
5.93173
 20
-2.53485
 30
0.0
 10
5.93173
 20
-2.53485
 30
0.0
 10
5.93173
 20
-2.53485
 30
0.0
 10
5.88915
 20
-2.57798
 30
0.0
 10
5.88915
 20
-2.57798
 30
0.0
  0
SPLINE
  5
9A
330
1F
100
AcDbEntity
  8
layer 2
370
     9
100
AcDbSpline
210
0.0
220
0.0
230
1.0
 70
    11
 71
     3
 72
    92
 73
    88
 74
     0
 42
0.0000000001
 43
0.0000000001
 12
1.0
 22
0.0
 32
0.0
 13
1.0
 23
0.0
 33
0.0
 40
0.0
 40
0.0
 40
0.0
 40
0.0
 40
0.0434782608695652
 40
0.0434782608695652
 40
0.0434782608695652
 40
0.0434782608695652
 40
0.0869565217391304
 40
0.0869565217391304
 40
0.0869565217391304
 40
0.0869565217391304
 40
0.1304347826086956
 40
0.1304347826086956
 40
0.1304347826086956
 40
0.1304347826086956
 40
0.1739130434782609
 40
0.1739130434782609
 40
0.1739130434782609
 40
0.1739130434782609
 40
0.2173913043478261
 40
0.2173913043478261
 40
0.2173913043478261
 40
0.2173913043478261
 40
0.2608695652173913
 40
0.2608695652173913
 40
0.2608695652173913
 40
0.2608695652173913
 40
0.3043478260869565
 40
0.3043478260869565
 40
0.3043478260869565
 40
0.3043478260869565
 40
0.3478260869565217
 40
0.3478260869565217
 40
0.3478260869565217
 40
0.3478260869565217
 40
0.391304347826087
 40
0.391304347826087
 40
0.391304347826087
 40
0.391304347826087
 40
0.4347826086956522
 40
0.4347826086956522
 40
0.4347826086956522
 40
0.4347826086956522
 40
0.4782608695652174
 40
0.4782608695652174
 40
0.4782608695652174
 40
0.4782608695652174
 40
0.5217391304347826
 40
0.5217391304347826
 40
0.5217391304347826
 40
0.5217391304347826
 40
0.5652173913043478
 40
0.5652173913043478
 40
0.5652173913043478
 40
0.5652173913043478
 40
0.6086956521739131
 40
0.6086956521739131
 40
0.6086956521739131
 40
0.6086956521739131
 40
0.6521739130434783
 40
0.6521739130434783
 40
0.6521739130434783
 40
0.6521739130434783
 40
0.6956521739130435
 40
0.6956521739130435
 40
0.6956521739130435
 40
0.6956521739130435
 40
0.7391304347826086
 40
0.7391304347826086
 40
0.7391304347826086
 40
0.7391304347826086
 40
0.782608695652174
 40
0.782608695652174
 40
0.782608695652174
 40
0.782608695652174
 40
0.8260869565217391
 40
0.8260869565217391
 40
0.8260869565217391
 40
0.8260869565217391
 40
0.8695652173913043
 40
0.8695652173913043
 40
0.8695652173913043
 40
0.8695652173913043
 40
0.9130434782608695
 40
0.9130434782608695
 40
0.9130434782608695
 40
0.9130434782608695
 40
1.0
 40
1.0
 40
1.0
 40
1.0
 10
6.02409
 20
-2.82463
 30
0.0
 10
6.02409
 20
-2.82463
 30
0.0
 10
6.0089
 20
-2.84001
 30
0.0
 10
6.0089
 20
-2.84001
 30
0.0
 10
6.0089
 20
-2.84001
 30
0.0
 10
6.0089
 20
-2.84001
 30
0.0
 10
5.92273
 20
-2.75494
 30
0.0
 10
5.92273
 20
-2.75494
 30
0.0
 10
5.92273
 20
-2.75494
 30
0.0
 10
5.92641
 20
-2.75096
 30
0.0
 10
5.93068
 20
-2.74786
 30
0.0
 10
5.93555
 20
-2.74565
 30
0.0
 10
5.93555
 20
-2.74565
 30
0.0
 10
5.94355
 20
-2.74192
 30
0.0
 10
5.95276
 20
-2.73963
 30
0.0
 10
5.96322
 20
-2.73869
 30
0.0
 10
5.96322
 20
-2.73869
 30
0.0
 10
5.97368
 20
-2.73781
 30
0.0
 10
5.98717
 20
-2.73812
 30
0.0
 10
6.00365
 20
-2.73964
 30
0.0
 10
6.00365
 20
-2.73964
 30
0.0
 10
6.0293
 20
-2.74201
 30
0.0
 10
6.04797
 20
-2.74228
 30
0.0
 10
6.05966
 20
-2.7404
 30
0.0
 10
6.05966
 20
-2.7404
 30
0.0
 10
6.07132
 20
-2.73855
 30
0.0
 10
6.08016
 20
-2.73457
 30
0.0
 10
6.08613
 20
-2.72853
 30
0.0
 10
6.08613
 20
-2.72853
 30
0.0
 10
6.09239
 20
-2.72218
 30
0.0
 10
6.09539
 20
-2.7146
 30
0.0
 10
6.09518
 20
-2.70576
 30
0.0
 10
6.09518
 20
-2.70576
 30
0.0
 10
6.09491
 20
-2.69692
 30
0.0
 10
6.09115
 20
-2.68889
 30
0.0
 10
6.08387
 20
-2.6817
 30
0.0
 10
6.08387
 20
-2.6817
 30
0.0
 10
6.07616
 20
-2.67409
 30
0.0
 10
6.06772
 20
-2.67031
 30
0.0
 10
6.05852
 20
-2.6704
 30
0.0
 10
6.05852
 20
-2.6704
 30
0.0
 10
6.04932
 20
-2.67043
 30
0.0
 10
6.04066
 20
-2.67453
 30
0.0
 10
6.03254
 20
-2.68263
 30
0.0
 10
6.03254
 20
-2.68263
 30
0.0
 10
6.03254
 20
-2.68263
 30
0.0
 10
6.01774
 20
-2.66472
 30
0.0
 10
6.01774
 20
-2.66472
 30
0.0
 10
6.01774
 20
-2.66472
 30
0.0
 10
6.03099
 20
-2.65354
 30
0.0
 10
6.04448
 20
-2.64838
 30
0.0
 10
6.05817
 20
-2.6492
 30
0.0
 10
6.05817
 20
-2.6492
 30
0.0
 10
6.07187
 20
-2.65002
 30
0.0
 10
6.08494
 20
-2.65657
 30
0.0
 10
6.09733
 20
-2.6688
 30
0.0
 10
6.09733
 20
-2.6688
 30
0.0
 10
6.10983
 20
-2.68114
 30
0.0
 10
6.11628
 20
-2.69441
 30
0.0
 10
6.11673
 20
-2.70852
 30
0.0
 10
6.11673
 20
-2.70852
 30
0.0
 10
6.11719
 20
-2.72269
 30
0.0
 10
6.11235
 20
-2.73488
 30
0.0
 10
6.10222
 20
-2.74514
 30
0.0
 10
6.10222
 20
-2.74514
 30
0.0
 10
6.09706
 20
-2.75036
 30
0.0
 10
6.09094
 20
-2.75444
 30
0.0
 10
6.08381
 20
-2.75735
 30
0.0
 10
6.08381
 20
-2.75735
 30
0.0
 10
6.07671
 20
-2.76029
 30
0.0
 10
6.06791
 20
-2.76209
 30
0.0
 10
6.05748
 20
-2.76276
 30
0.0
 10
6.05748
 20
-2.76276
 30
0.0
 10
6.04702
 20
-2.76346
 30
0.0
 10
6.03124
 20
-2.76299
 30
0.0
 10
6.01015
 20
-2.76135
 30
0.0
 10
6.01015
 20
-2.76135
 30
0.0
 10
5.99259
 20
-2.75995
 30
0.0
 10
5.98103
 20
-2.75933
 30
0.0
 10
5.97545
 20
-2.75952
 30
0.0
 10
5.97545
 20
-2.75952
 30
0.0
 10
5.9699
 20
-2.75967
 30
0.0
 10
5.96481
 20
-2.76034
 30
0.0
 10
5.96014
 20
-2.76148
 30
0.0
 10
5.96014
 20
-2.76148
 30
0.0
 10
5.96014
 20
-2.76148
 30
0.0
 10
6.02409
 20
-2.82463
 30
0.0
 10
6.02409
 20
-2.82463
 30
0.0
  0
SPLINE
  5
9B
330
1F
100
AcDbEntity
  8
layer 2
370
     9
100
AcDbSpline
210
0.0
220
0.0
230
1.0
 70
    11
 71
     3
 72
    48
 73
    44
 74
     0
 42
0.0000000001
 43
0.0000000001
 12
1.0
 22
0.0
 32
0.0
 13
1.0
 23
0.0
 33
0.0
 40
0.0
 40
0.0
 40
0.0
 40
0.0
 40
0.0833333333333333
 40
0.0833333333333333
 40
0.0833333333333333
 40
0.0833333333333333
 40
0.1666666666666667
 40
0.1666666666666667
 40
0.1666666666666667
 40
0.1666666666666667
 40
0.25
 40
0.25
 40
0.25
 40
0.25
 40
0.3333333333333333
 40
0.3333333333333333
 40
0.3333333333333333
 40
0.3333333333333333
 40
0.4166666666666667
 40
0.4166666666666667
 40
0.4166666666666667
 40
0.4166666666666667
 40
0.5
 40
0.5
 40
0.5
 40
0.5
 40
0.5833333333333334
 40
0.5833333333333334
 40
0.5833333333333334
 40
0.5833333333333334
 40
0.6666666666666666
 40
0.6666666666666666
 40
0.6666666666666666
 40
0.6666666666666666
 40
0.75
 40
0.75
 40
0.75
 40
0.75
 40
0.8333333333333334
 40
0.8333333333333334
 40
0.8333333333333334
 40
0.8333333333333334
 40
1.0
 40
1.0
 40
1.0
 40
1.0
 10
6.07734
 20
-2.90759
 30
0.0
 10
6.07734
 20
-2.90759
 30
0.0
 10
6.10815
 20
-2.87639
 30
0.0
 10
6.10815
 20
-2.87639
 30
0.0
 10
6.10815
 20
-2.87639
 30
0.0
 10
6.10815
 20
-2.87639
 30
0.0
 10
6.05161
 20
-2.82056
 30
0.0
 10
6.05161
 20
-2.82056
 30
0.0
 10
6.05161
 20
-2.82056
 30
0.0
 10
6.05161
 20
-2.82056
 30
0.0
 10
6.06611
 20
-2.80587
 30
0.0
 10
6.06611
 20
-2.80587
 30
0.0
 10
6.06611
 20
-2.80587
 30
0.0
 10
6.06611
 20
-2.80587
 30
0.0
 10
6.209
 20
-2.78014
 30
0.0
 10
6.209
 20
-2.78014
 30
0.0
 10
6.209
 20
-2.78014
 30
0.0
 10
6.209
 20
-2.78014
 30
0.0
 10
6.22208
 20
-2.79305
 30
0.0
 10
6.22208
 20
-2.79305
 30
0.0
 10
6.22208
 20
-2.79305
 30
0.0
 10
6.22208
 20
-2.79305
 30
0.0
 10
6.13868
 20
-2.87752
 30
0.0
 10
6.13868
 20
-2.87752
 30
0.0
 10
6.13868
 20
-2.87752
 30
0.0
 10
6.13868
 20
-2.87752
 30
0.0
 10
6.15629
 20
-2.8949
 30
0.0
 10
6.15629
 20
-2.8949
 30
0.0
 10
6.15629
 20
-2.8949
 30
0.0
 10
6.15629
 20
-2.8949
 30
0.0
 10
6.14178
 20
-2.90959
 30
0.0
 10
6.14178
 20
-2.90959
 30
0.0
 10
6.14178
 20
-2.90959
 30
0.0
 10
6.14178
 20
-2.90959
 30
0.0
 10
6.12418
 20
-2.89221
 30
0.0
 10
6.12418
 20
-2.89221
 30
0.0
 10
6.12418
 20
-2.89221
 30
0.0
 10
6.12418
 20
-2.89221
 30
0.0
 10
6.09337
 20
-2.92342
 30
0.0
 10
6.09337
 20
-2.92342
 30
0.0
 10
6.09337
 20
-2.92342
 30
0.0
 10
6.09337
 20
-2.92342
 30
0.0
 10
6.07734
 20
-2.90759
 30
0.0
 10
6.07734
 20
-2.90759
 30
0.0
  0
SPLINE
  5
9C
330
1F
100
AcDbEntity
  8
layer 2
370
     9
100
AcDbSpline
210
0.0
220
0.0
230
1.0
 70
    11
 71
     3
 72
    16
 73
    12
 74
     0
 42
0.0000000001
 43
0.0000000001
 12
1.0
 22
0.0
 32
0.0
 13
1.0
 23
0.0
 33
0.0
 40
0.0
 40
0.0
 40
0.0
 40
0.0
 40
0.25
 40
0.25
 40
0.25
 40
0.25
 40
0.5
 40
0.5
 40
0.5
 40
0.5
 40
1.0
 40
1.0
 40
1.0
 40
1.0
 10
6.12266
 20
-2.8617
 30
0.0
 10
6.12266
 20
-2.8617
 30
0.0
 10
6.18067
 20
-2.80294
 30
0.0
 10
6.18067
 20
-2.80294
 30
0.0
 10
6.18067
 20
-2.80294
 30
0.0
 10
6.18067
 20
-2.80294
 30
0.0
 10
6.08186
 20
-2.82142
 30
0.0
 10
6.08186
 20
-2.82142
 30
0.0
 10
6.08186
 20
-2.82142
 30
0.0
 10
6.08186
 20
-2.82142
 30
0.0
 10
6.12266
 20
-2.8617
 30
0.0
 10
6.12266
 20
-2.8617
 30
0.0
  0
SPLINE
  5
9D
330
1F
100
AcDbEntity
  8
layer 2
370
     9
100
AcDbSpline
210
0.0
220
0.0
230
1.0
 70
    11
 71
     3
 72
    36
 73
    32
 74
     0
 42
0.0000000001
 43
0.0000000001
 12
1.0
 22
0.0
 32
0.0
 13
1.0
 23
0.0
 33
0.0
 40
0.0
 40
0.0
 40
0.0
 40
0.0
 40
0.1111111111111111
 40
0.1111111111111111
 40
0.1111111111111111
 40
0.1111111111111111
 40
0.2222222222222222
 40
0.2222222222222222
 40
0.2222222222222222
 40
0.2222222222222222
 40
0.3333333333333333
 40
0.3333333333333333
 40
0.3333333333333333
 40
0.3333333333333333
 40
0.4444444444444444
 40
0.4444444444444444
 40
0.4444444444444444
 40
0.4444444444444444
 40
0.5555555555555556
 40
0.5555555555555556
 40
0.5555555555555556
 40
0.5555555555555556
 40
0.6666666666666666
 40
0.6666666666666666
 40
0.6666666666666666
 40
0.6666666666666666
 40
0.7777777777777778
 40
0.7777777777777778
 40
0.7777777777777778
 40
0.7777777777777778
 40
1.0
 40
1.0
 40
1.0
 40
1.0
 10
6.14701
 20
-3.04782
 30
0.0
 10
6.14701
 20
-3.04782
 30
0.0
 10
6.31144
 20
-2.88128
 30
0.0
 10
6.31144
 20
-2.88128
 30
0.0
 10
6.31144
 20
-2.88128
 30
0.0
 10
6.31144
 20
-2.88128
 30
0.0
 10
6.34674
 20
-2.91613
 30
0.0
 10
6.34674
 20
-2.91613
 30
0.0
 10
6.34674
 20
-2.91613
 30
0.0
 10
6.34674
 20
-2.91613
 30
0.0
 10
6.33364
 20
-2.92939
 30
0.0
 10
6.33364
 20
-2.92939
 30
0.0
 10
6.33364
 20
-2.92939
 30
0.0
 10
6.33364
 20
-2.92939
 30
0.0
 10
6.31437
 20
-2.91036
 30
0.0
 10
6.31437
 20
-2.91036
 30
0.0
 10
6.31437
 20
-2.91036
 30
0.0
 10
6.31437
 20
-2.91036
 30
0.0
 10
6.1761
 20
-3.05041
 30
0.0
 10
6.1761
 20
-3.05041
 30
0.0
 10
6.1761
 20
-3.05041
 30
0.0
 10
6.1761
 20
-3.05041
 30
0.0
 10
6.19537
 20
-3.06944
 30
0.0
 10
6.19537
 20
-3.06944
 30
0.0
 10
6.19537
 20
-3.06944
 30
0.0
 10
6.19537
 20
-3.06944
 30
0.0
 10
6.18231
 20
-3.08268
 30
0.0
 10
6.18231
 20
-3.08268
 30
0.0
 10
6.18231
 20
-3.08268
 30
0.0
 10
6.18231
 20
-3.08268
 30
0.0
 10
6.14701
 20
-3.04782
 30
0.0
 10
6.14701
 20
-3.04782
 30
0.0
  0
SPLINE
  5
9E
330
1F
100
AcDbEntity
  8
layer 2
370
     9
100
AcDbSpline
210
0.0
220
0.0
230
1.0
 70
    11
 71
     3
 72
    80
 73
    76
 74
     0
 42
0.0000000001
 43
0.0000000001
 12
1.0
 22
0.0
 32
0.0
 13
1.0
 23
0.0
 33
0.0
 40
0.0
 40
0.0
 40
0.0
 40
0.0
 40
0.05
 40
0.05
 40
0.05
 40
0.05
 40
0.1
 40
0.1
 40
0.1
 40
0.1
 40
0.15
 40
0.15
 40
0.15
 40
0.15
 40
0.2
 40
0.2
 40
0.2
 40
0.2
 40
0.25
 40
0.25
 40
0.25
 40
0.25
 40
0.3
 40
0.3
 40
0.3
 40
0.3
 40
0.35
 40
0.35
 40
0.35
 40
0.35
 40
0.4
 40
0.4
 40
0.4
 40
0.4
 40
0.45
 40
0.45
 40
0.45
 40
0.45
 40
0.5
 40
0.5
 40
0.5
 40
0.5
 40
0.55
 40
0.55
 40
0.55
 40
0.55
 40
0.6
 40
0.6
 40
0.6
 40
0.6
 40
0.65
 40
0.65
 40
0.65
 40
0.65
 40
0.7
 40
0.7
 40
0.7
 40
0.7
 40
0.75
 40
0.75
 40
0.75
 40
0.75
 40
0.8
 40
0.8
 40
0.8
 40
0.8
 40
0.85
 40
0.85
 40
0.85
 40
0.85
 40
0.9
 40
0.9
 40
0.9
 40
0.9
 40
1.0
 40
1.0
 40
1.0
 40
1.0
 10
6.2353
 20
-3.06355
 30
0.0
 10
6.2353
 20
-3.06355
 30
0.0
 10
6.36401
 20
-2.93318
 30
0.0
 10
6.36401
 20
-2.93318
 30
0.0
 10
6.36401
 20
-2.93318
 30
0.0
 10
6.36401
 20
-2.93318
 30
0.0
 10
6.4218
 20
-2.99024
 30
0.0
 10
6.4218
 20
-2.99024
 30
0.0
 10
6.4218
 20
-2.99024
 30
0.0
 10
6.43343
 20
-3.00172
 30
0.0
 10
6.44109
 20
-3.01162
 30
0.0
 10
6.44482
 20
-3.01992
 30
0.0
 10
6.44482
 20
-3.01992
 30
0.0
 10
6.44856
 20
-3.02823
 30
0.0
 10
6.44931
 20
-3.03712
 30
0.0
 10
6.44711
 20
-3.04663
 30
0.0
 10
6.44711
 20
-3.04663
 30
0.0
 10
6.44484
 20
-3.05615
 30
0.0
 10
6.44016
 20
-3.06447
 30
0.0
 10
6.43309
 20
-3.07164
 30
0.0
 10
6.43309
 20
-3.07164
 30
0.0
 10
6.42395
 20
-3.08089
 30
0.0
 10
6.4133
 20
-3.08573
 30
0.0
 10
6.40103
 20
-3.08614
 30
0.0
 10
6.40103
 20
-3.08614
 30
0.0
 10
6.38879
 20
-3.08658
 30
0.0
 10
6.37554
 20
-3.08147
 30
0.0
 10
6.36133
 20
-3.07086
 30
0.0
 10
6.36133
 20
-3.07086
 30
0.0
 10
6.36376
 20
-3.07757
 30
0.0
 10
6.36509
 20
-3.08314
 30
0.0
 10
6.36533
 20
-3.08763
 30
0.0
 10
6.36533
 20
-3.08763
 30
0.0
 10
6.36581
 20
-3.09722
 30
0.0
 10
6.36485
 20
-3.10772
 30
0.0
 10
6.36254
 20
-3.11911
 30
0.0
 10
6.36254
 20
-3.11911
 30
0.0
 10
6.36254
 20
-3.11911
 30
0.0
 10
6.35018
 20
-3.17697
 30
0.0
 10
6.35018
 20
-3.17697
 30
0.0
 10
6.35018
 20
-3.17697
 30
0.0
 10
6.35018
 20
-3.17697
 30
0.0
 10
6.32848
 20
-3.15555
 30
0.0
 10
6.32848
 20
-3.15555
 30
0.0
 10
6.32848
 20
-3.15555
 30
0.0
 10
6.32848
 20
-3.15555
 30
0.0
 10
6.33803
 20
-3.11139
 30
0.0
 10
6.33803
 20
-3.11139
 30
0.0
 10
6.33803
 20
-3.11139
 30
0.0
 10
6.34069
 20
-3.09862
 30
0.0
 10
6.34247
 20
-3.0885
 30
0.0
 10
6.34327
 20
-3.08114
 30
0.0
 10
6.34327
 20
-3.08114
 30
0.0
 10
6.34413
 20
-3.07377
 30
0.0
 10
6.34409
 20
-3.06798
 30
0.0
 10
6.34313
 20
-3.06379
 30
0.0
 10
6.34313
 20
-3.06379
 30
0.0
 10
6.3422
 20
-3.05958
 30
0.0
 10
6.34072
 20
-3.05585
 30
0.0
 10
6.33871
 20
-3.05254
 30
0.0
 10
6.33871
 20
-3.05254
 30
0.0
 10
6.33713
 20
-3.0502
 30
0.0
 10
6.33415
 20
-3.04684
 30
0.0
 10
6.32969
 20
-3.04244
 30
0.0
 10
6.32969
 20
-3.04244
 30
0.0
 10
6.32969
 20
-3.04244
 30
0.0
 10
6.30969
 20
-3.02269
 30
0.0
 10
6.30969
 20
-3.02269
 30
0.0
 10
6.30969
 20
-3.02269
 30
0.0
 10
6.30969
 20
-3.02269
 30
0.0
 10
6.25254
 20
-3.08057
 30
0.0
 10
6.25254
 20
-3.08057
 30
0.0
 10
6.25254
 20
-3.08057
 30
0.0
 10
6.25254
 20
-3.08057
 30
0.0
 10
6.2353
 20
-3.06355
 30
0.0
 10
6.2353
 20
-3.06355
 30
0.0
  0
SPLINE
  5
9F
330
1F
100
AcDbEntity
  8
layer 2
370
     9
100
AcDbSpline
210
0.0
220
0.0
230
1.0
 70
    11
 71
     3
 72
    36
 73
    32
 74
     0
 42
0.0000000001
 43
0.0000000001
 12
1.0
 22
0.0
 32
0.0
 13
1.0
 23
0.0
 33
0.0
 40
0.0
 40
0.0
 40
0.0
 40
0.0
 40
0.1111111111111111
 40
0.1111111111111111
 40
0.1111111111111111
 40
0.1111111111111111
 40
0.2222222222222222
 40
0.2222222222222222
 40
0.2222222222222222
 40
0.2222222222222222
 40
0.3333333333333333
 40
0.3333333333333333
 40
0.3333333333333333
 40
0.3333333333333333
 40
0.4444444444444444
 40
0.4444444444444444
 40
0.4444444444444444
 40
0.4444444444444444
 40
0.5555555555555556
 40
0.5555555555555556
 40
0.5555555555555556
 40
0.5555555555555556
 40
0.6666666666666666
 40
0.6666666666666666
 40
0.6666666666666666
 40
0.6666666666666666
 40
0.7777777777777778
 40
0.7777777777777778
 40
0.7777777777777778
 40
0.7777777777777778
 40
1.0
 40
1.0
 40
1.0
 40
1.0
 10
6.32443
 20
-3.00775
 30
0.0
 10
6.32443
 20
-3.00775
 30
0.0
 10
6.36152
 20
-3.04437
 30
0.0
 10
6.36152
 20
-3.04437
 30
0.0
 10
6.36152
 20
-3.04437
 30
0.0
 10
6.36938
 20
-3.05214
 30
0.0
 10
6.37638
 20
-3.05743
 30
0.0
 10
6.38243
 20
-3.06017
 30
0.0
 10
6.38243
 20
-3.06017
 30
0.0
 10
6.38851
 20
-3.06293
 30
0.0
 10
6.39446
 20
-3.06365
 30
0.0
 10
6.4003
 20
-3.06234
 30
0.0
 10
6.4003
 20
-3.06234
 30
0.0
 10
6.40615
 20
-3.06104
 30
0.0
 10
6.41114
 20
-3.05829
 30
0.0
 10
6.4153
 20
-3.05408
 30
0.0
 10
6.4153
 20
-3.05408
 30
0.0
 10
6.42138
 20
-3.04791
 30
0.0
 10
6.42417
 20
-3.04066
 30
0.0
 10
6.42361
 20
-3.03225
 30
0.0
 10
6.42361
 20
-3.03225
 30
0.0
 10
6.42307
 20
-3.02386
 30
0.0
 10
6.41795
 20
-3.01491
 30
0.0
 10
6.40826
 20
-3.00535
 30
0.0
 10
6.40826
 20
-3.00535
 30
0.0
 10
6.40826
 20
-3.00535
 30
0.0
 10
6.36702
 20
-2.96462
 30
0.0
 10
6.36702
 20
-2.96462
 30
0.0
 10
6.36702
 20
-2.96462
 30
0.0
 10
6.36702
 20
-2.96462
 30
0.0
 10
6.32443
 20
-3.00775
 30
0.0
 10
6.32443
 20
-3.00775
 30
0.0
  0
SPLINE
  5
A0
330
1F
100
AcDbEntity
  8
layer 2
370
     9
100
AcDbSpline
210
0.0
220
0.0
230
1.0
 70
    11
 71
     3
 72
    40
 73
    36
 74
     0
 42
0.0000000001
 43
0.0000000001
 12
1.0
 22
0.0
 32
0.0
 13
1.0
 23
0.0
 33
0.0
 40
0.0
 40
0.0
 40
0.0
 40
0.0
 40
0.1
 40
0.1
 40
0.1
 40
0.1
 40
0.2
 40
0.2
 40
0.2
 40
0.2
 40
0.3
 40
0.3
 40
0.3
 40
0.3
 40
0.4
 40
0.4
 40
0.4
 40
0.4
 40
0.5
 40
0.5
 40
0.5
 40
0.5
 40
0.6
 40
0.6
 40
0.6
 40
0.6
 40
0.7
 40
0.7
 40
0.7
 40
0.7
 40
0.8
 40
0.8
 40
0.8
 40
0.8
 40
1.0
 40
1.0
 40
1.0
 40
1.0
 10
6.42033
 20
-3.24623
 30
0.0
 10
6.42033
 20
-3.24623
 30
0.0
 10
6.40433
 20
-3.23044
 30
0.0
 10
6.40433
 20
-3.23044
 30
0.0
 10
6.40433
 20
-3.23044
 30
0.0
 10
6.40433
 20
-3.23044
 30
0.0
 10
6.50502
 20
-3.12845
 30
0.0
 10
6.50502
 20
-3.12845
 30
0.0
 10
6.50502
 20
-3.12845
 30
0.0
 10
6.49754
 20
-3.12832
 30
0.0
 10
6.48888
 20
-3.12702
 30
0.0
 10
6.479
 20
-3.12452
 30
0.0
 10
6.479
 20
-3.12452
 30
0.0
 10
6.46909
 20
-3.12199
 30
0.0
 10
6.46075
 20
-3.11921
 30
0.0
 10
6.45397
 20
-3.11611
 30
0.0
 10
6.45397
 20
-3.11611
 30
0.0
 10
6.45397
 20
-3.11611
 30
0.0
 10
6.46923
 20
-3.10066
 30
0.0
 10
6.46923
 20
-3.10066
 30
0.0
 10
6.46923
 20
-3.10066
 30
0.0
 10
6.48235
 20
-3.10528
 30
0.0
 10
6.49521
 20
-3.10792
 30
0.0
 10
6.50782
 20
-3.10856
 30
0.0
 10
6.50782
 20
-3.10856
 30
0.0
 10
6.52043
 20
-3.10914
 30
0.0
 10
6.53092
 20
-3.10805
 30
0.0
 10
6.53929
 20
-3.10516
 30
0.0
 10
6.53929
 20
-3.10516
 30
0.0
 10
6.53929
 20
-3.10516
 30
0.0
 10
6.54958
 20
-3.11532
 30
0.0
 10
6.54958
 20
-3.11532
 30
0.0
 10
6.54958
 20
-3.11532
 30
0.0
 10
6.54958
 20
-3.11532
 30
0.0
 10
6.42033
 20
-3.24623
 30
0.0
 10
6.42033
 20
-3.24623
 30
0.0
  0
SPLINE
  5
A1
330
1F
100
AcDbEntity
  8
layer 2
370
     9
100
AcDbSpline
210
0.0
220
0.0
230
1.0
 70
    11
 71
     3
 72
    92
 73
    88
 74
     0
 42
0.0000000001
 43
0.0000000001
 12
1.0
 22
0.0
 32
0.0
 13
1.0
 23
0.0
 33
0.0
 40
0.0
 40
0.0
 40
0.0
 40
0.0
 40
0.0434782608695652
 40
0.0434782608695652
 40
0.0434782608695652
 40
0.0434782608695652
 40
0.0869565217391304
 40
0.0869565217391304
 40
0.0869565217391304
 40
0.0869565217391304
 40
0.1304347826086956
 40
0.1304347826086956
 40
0.1304347826086956
 40
0.1304347826086956
 40
0.1739130434782609
 40
0.1739130434782609
 40
0.1739130434782609
 40
0.1739130434782609
 40
0.2173913043478261
 40
0.2173913043478261
 40
0.2173913043478261
 40
0.2173913043478261
 40
0.2608695652173913
 40
0.2608695652173913
 40
0.2608695652173913
 40
0.2608695652173913
 40
0.3043478260869565
 40
0.3043478260869565
 40
0.3043478260869565
 40
0.3043478260869565
 40
0.3478260869565217
 40
0.3478260869565217
 40
0.3478260869565217
 40
0.3478260869565217
 40
0.391304347826087
 40
0.391304347826087
 40
0.391304347826087
 40
0.391304347826087
 40
0.4347826086956522
 40
0.4347826086956522
 40
0.4347826086956522
 40
0.4347826086956522
 40
0.4782608695652174
 40
0.4782608695652174
 40
0.4782608695652174
 40
0.4782608695652174
 40
0.5217391304347826
 40
0.5217391304347826
 40
0.5217391304347826
 40
0.5217391304347826
 40
0.5652173913043478
 40
0.5652173913043478
 40
0.5652173913043478
 40
0.5652173913043478
 40
0.6086956521739131
 40
0.6086956521739131
 40
0.6086956521739131
 40
0.6086956521739131
 40
0.6521739130434783
 40
0.6521739130434783
 40
0.6521739130434783
 40
0.6521739130434783
 40
0.6956521739130435
 40
0.6956521739130435
 40
0.6956521739130435
 40
0.6956521739130435
 40
0.7391304347826086
 40
0.7391304347826086
 40
0.7391304347826086
 40
0.7391304347826086
 40
0.782608695652174
 40
0.782608695652174
 40
0.782608695652174
 40
0.782608695652174
 40
0.8260869565217391
 40
0.8260869565217391
 40
0.8260869565217391
 40
0.8260869565217391
 40
0.8695652173913043
 40
0.8695652173913043
 40
0.8695652173913043
 40
0.8695652173913043
 40
0.9130434782608695
 40
0.9130434782608695
 40
0.9130434782608695
 40
0.9130434782608695
 40
1.0
 40
1.0
 40
1.0
 40
1.0
 10
6.49505
 20
-3.25257
 30
0.0
 10
6.49505
 20
-3.25257
 30
0.0
 10
6.51327
 20
-3.26775
 30
0.0
 10
6.51327
 20
-3.26775
 30
0.0
 10
6.51327
 20
-3.26775
 30
0.0
 10
6.50642
 20
-3.27717
 30
0.0
 10
6.50325
 20
-3.28615
 30
0.0
 10
6.5037
 20
-3.29474
 30
0.0
 10
6.5037
 20
-3.29474
 30
0.0
 10
6.50418
 20
-3.30337
 30
0.0
 10
6.5076
 20
-3.31082
 30
0.0
 10
6.51401
 20
-3.31715
 30
0.0
 10
6.51401
 20
-3.31715
 30
0.0
 10
6.52172
 20
-3.32476
 30
0.0
 10
6.53112
 20
-3.32829
 30
0.0
 10
6.54216
 20
-3.32774
 30
0.0
 10
6.54216
 20
-3.32774
 30
0.0
 10
6.55325
 20
-3.32718
 30
0.0
 10
6.56353
 20
-3.32211
 30
0.0
 10
6.573
 20
-3.31252
 30
0.0
 10
6.573
 20
-3.31252
 30
0.0
 10
6.58202
 20
-3.30338
 30
0.0
 10
6.58658
 20
-3.29367
 30
0.0
 10
6.58666
 20
-3.28333
 30
0.0
 10
6.58666
 20
-3.28333
 30
0.0
 10
6.58675
 20
-3.27298
 30
0.0
 10
6.58265
 20
-3.26372
 30
0.0
 10
6.57433
 20
-3.2555
 30
0.0
 10
6.57433
 20
-3.2555
 30
0.0
 10
6.56917
 20
-3.25041
 30
0.0
 10
6.56336
 20
-3.24701
 30
0.0
 10
6.55689
 20
-3.24524
 30
0.0
 10
6.55689
 20
-3.24524
 30
0.0
 10
6.55043
 20
-3.24347
 30
0.0
 10
6.54418
 20
-3.2433
 30
0.0
 10
6.53813
 20
-3.2447
 30
0.0
 10
6.53813
 20
-3.2447
 30
0.0
 10
6.53813
 20
-3.2447
 30
0.0
 10
6.52502
 20
-3.22792
 30
0.0
 10
6.52502
 20
-3.22792
 30
0.0
 10
6.52502
 20
-3.22792
 30
0.0
 10
6.52502
 20
-3.22792
 30
0.0
 10
6.60376
 20
-3.17343
 30
0.0
 10
6.60376
 20
-3.17343
 30
0.0
 10
6.60376
 20
-3.17343
 30
0.0
 10
6.60376
 20
-3.17343
 30
0.0
 10
6.66859
 20
-3.23744
 30
0.0
 10
6.66859
 20
-3.23744
 30
0.0
 10
6.66859
 20
-3.23744
 30
0.0
 10
6.66859
 20
-3.23744
 30
0.0
 10
6.65349
 20
-3.25274
 30
0.0
 10
6.65349
 20
-3.25274
 30
0.0
 10
6.65349
 20
-3.25274
 30
0.0
 10
6.65349
 20
-3.25274
 30
0.0
 10
6.60146
 20
-3.20137
 30
0.0
 10
6.60146
 20
-3.20137
 30
0.0
 10
6.60146
 20
-3.20137
 30
0.0
 10
6.60146
 20
-3.20137
 30
0.0
 10
6.55984
 20
-3.22945
 30
0.0
 10
6.55984
 20
-3.22945
 30
0.0
 10
6.55984
 20
-3.22945
 30
0.0
 10
6.57306
 20
-3.23172
 30
0.0
 10
6.58398
 20
-3.23711
 30
0.0
 10
6.59257
 20
-3.24559
 30
0.0
 10
6.59257
 20
-3.24559
 30
0.0
 10
6.60396
 20
-3.25682
 30
0.0
 10
6.60965
 20
-3.27024
 30
0.0
 10
6.60969
 20
-3.28586
 30
0.0
 10
6.60969
 20
-3.28586
 30
0.0
 10
6.60973
 20
-3.30149
 30
0.0
 10
6.60364
 20
-3.31549
 30
0.0
 10
6.59141
 20
-3.32788
 30
0.0
 10
6.59141
 20
-3.32788
 30
0.0
 10
6.57975
 20
-3.33968
 30
0.0
 10
6.56622
 20
-3.34646
 30
0.0
 10
6.55088
 20
-3.34828
 30
0.0
 10
6.55088
 20
-3.34828
 30
0.0
 10
6.53211
 20
-3.35054
 30
0.0
 10
6.51548
 20
-3.34456
 30
0.0
 10
6.50103
 20
-3.33029
 30
0.0
 10
6.50103
 20
-3.33029
 30
0.0
 10
6.48916
 20
-3.31857
 30
0.0
 10
6.48275
 20
-3.3057
 30
0.0
 10
6.48181
 20
-3.29166
 30
0.0
 10
6.48181
 20
-3.29166
 30
0.0
 10
6.48088
 20
-3.27761
 30
0.0
 10
6.48529
 20
-3.26458
 30
0.0
 10
6.49505
 20
-3.25257
 30
0.0
  0
SPLINE
  5
A2
330
1F
100
AcDbEntity
  8
layer 2
370
     9
100
AcDbSpline
210
0.0
220
0.0
230
1.0
 70
    11
 71
     3
 72
    20
 73
    16
 74
     0
 42
0.0000000001
 43
0.0000000001
 12
1.0
 22
0.0
 32
0.0
 13
1.0
 23
0.0
 33
0.0
 40
0.0
 40
0.0
 40
0.0
 40
0.0
 40
0.2
 40
0.2
 40
0.2
 40
0.2
 40
0.4
 40
0.4
 40
0.4
 40
0.4
 40
0.6
 40
0.6
 40
0.6
 40
0.6
 40
1.0
 40
1.0
 40
1.0
 40
1.0
 10
6.55287
 20
-3.38148
 30
0.0
 10
6.55287
 20
-3.38148
 30
0.0
 10
6.72375
 20
-3.28399
 30
0.0
 10
6.72375
 20
-3.28399
 30
0.0
 10
6.72375
 20
-3.28399
 30
0.0
 10
6.72375
 20
-3.28399
 30
0.0
 10
6.73656
 20
-3.29664
 30
0.0
 10
6.73656
 20
-3.29664
 30
0.0
 10
6.73656
 20
-3.29664
 30
0.0
 10
6.73656
 20
-3.29664
 30
0.0
 10
6.56577
 20
-3.39421
 30
0.0
 10
6.56577
 20
-3.39421
 30
0.0
 10
6.56577
 20
-3.39421
 30
0.0
 10
6.56577
 20
-3.39421
 30
0.0
 10
6.55287
 20
-3.38148
 30
0.0
 10
6.55287
 20
-3.38148
 30
0.0
  0
SPLINE
  5
A3
330
1F
100
AcDbEntity
  8
layer 2
370
     9
100
AcDbSpline
210
0.0
220
0.0
230
1.0
 70
    11
 71
     3
 72
    40
 73
    36
 74
     0
 42
0.0000000001
 43
0.0000000001
 12
1.0
 22
0.0
 32
0.0
 13
1.0
 23
0.0
 33
0.0
 40
0.0
 40
0.0
 40
0.0
 40
0.0
 40
0.1
 40
0.1
 40
0.1
 40
0.1
 40
0.2
 40
0.2
 40
0.2
 40
0.2
 40
0.3
 40
0.3
 40
0.3
 40
0.3
 40
0.4
 40
0.4
 40
0.4
 40
0.4
 40
0.5
 40
0.5
 40
0.5
 40
0.5
 40
0.6
 40
0.6
 40
0.6
 40
0.6
 40
0.7
 40
0.7
 40
0.7
 40
0.7
 40
0.8
 40
0.8
 40
0.8
 40
0.8
 40
1.0
 40
1.0
 40
1.0
 40
1.0
 10
6.6735
 20
-3.4962
 30
0.0
 10
6.6735
 20
-3.4962
 30
0.0
 10
6.6575
 20
-3.4804
 30
0.0
 10
6.6575
 20
-3.4804
 30
0.0
 10
6.6575
 20
-3.4804
 30
0.0
 10
6.6575
 20
-3.4804
 30
0.0
 10
6.75819
 20
-3.37842
 30
0.0
 10
6.75819
 20
-3.37842
 30
0.0
 10
6.75819
 20
-3.37842
 30
0.0
 10
6.75071
 20
-3.37828
 30
0.0
 10
6.74205
 20
-3.37698
 30
0.0
 10
6.73217
 20
-3.37448
 30
0.0
 10
6.73217
 20
-3.37448
 30
0.0
 10
6.72226
 20
-3.37195
 30
0.0
 10
6.71392
 20
-3.36917
 30
0.0
 10
6.70714
 20
-3.36608
 30
0.0
 10
6.70714
 20
-3.36608
 30
0.0
 10
6.70714
 20
-3.36608
 30
0.0
 10
6.7224
 20
-3.35063
 30
0.0
 10
6.7224
 20
-3.35063
 30
0.0
 10
6.7224
 20
-3.35063
 30
0.0
 10
6.73551
 20
-3.35525
 30
0.0
 10
6.74838
 20
-3.35788
 30
0.0
 10
6.76099
 20
-3.35852
 30
0.0
 10
6.76099
 20
-3.35852
 30
0.0
 10
6.7736
 20
-3.35911
 30
0.0
 10
6.78409
 20
-3.35801
 30
0.0
 10
6.79246
 20
-3.35513
 30
0.0
 10
6.79246
 20
-3.35513
 30
0.0
 10
6.79246
 20
-3.35513
 30
0.0
 10
6.80275
 20
-3.36529
 30
0.0
 10
6.80275
 20
-3.36529
 30
0.0
 10
6.80275
 20
-3.36529
 30
0.0
 10
6.80275
 20
-3.36529
 30
0.0
 10
6.6735
 20
-3.4962
 30
0.0
 10
6.6735
 20
-3.4962
 30
0.0
  0
SPLINE
  5
A4
330
1F
100
AcDbEntity
  8
layer 2
370
     9
100
AcDbSpline
210
0.0
220
0.0
230
1.0
 70
    11
 71
     3
 72
    80
 73
    76
 74
     0
 42
0.0000000001
 43
0.0000000001
 12
1.0
 22
0.0
 32
0.0
 13
1.0
 23
0.0
 33
0.0
 40
0.0
 40
0.0
 40
0.0
 40
0.0
 40
0.05
 40
0.05
 40
0.05
 40
0.05
 40
0.1
 40
0.1
 40
0.1
 40
0.1
 40
0.15
 40
0.15
 40
0.15
 40
0.15
 40
0.2
 40
0.2
 40
0.2
 40
0.2
 40
0.25
 40
0.25
 40
0.25
 40
0.25
 40
0.3
 40
0.3
 40
0.3
 40
0.3
 40
0.35
 40
0.35
 40
0.35
 40
0.35
 40
0.4
 40
0.4
 40
0.4
 40
0.4
 40
0.45
 40
0.45
 40
0.45
 40
0.45
 40
0.5
 40
0.5
 40
0.5
 40
0.5
 40
0.55
 40
0.55
 40
0.55
 40
0.55
 40
0.6
 40
0.6
 40
0.6
 40
0.6
 40
0.65
 40
0.65
 40
0.65
 40
0.65
 40
0.7
 40
0.7
 40
0.7
 40
0.7
 40
0.75
 40
0.75
 40
0.75
 40
0.75
 40
0.8
 40
0.8
 40
0.8
 40
0.8
 40
0.85
 40
0.85
 40
0.85
 40
0.85
 40
0.9
 40
0.9
 40
0.9
 40
0.9
 40
1.0
 40
1.0
 40
1.0
 40
1.0
 10
6.89473
 20
-3.52024
 30
0.0
 10
6.89473
 20
-3.52024
 30
0.0
 10
6.8776
 20
-3.50578
 30
0.0
 10
6.8776
 20
-3.50578
 30
0.0
 10
6.8776
 20
-3.50578
 30
0.0
 10
6.88238
 20
-3.49809
 30
0.0
 10
6.8849
 20
-3.49153
 30
0.0
 10
6.88508
 20
-3.48613
 30
0.0
 10
6.88508
 20
-3.48613
 30
0.0
 10
6.88526
 20
-3.47726
 30
0.0
 10
6.88216
 20
-3.46971
 30
0.0
 10
6.87582
 20
-3.46345
 30
0.0
 10
6.87582
 20
-3.46345
 30
0.0
 10
6.87072
 20
-3.45841
 30
0.0
 10
6.86485
 20
-3.45543
 30
0.0
 10
6.85818
 20
-3.45448
 30
0.0
 10
6.85818
 20
-3.45448
 30
0.0
 10
6.84952
 20
-3.45318
 30
0.0
 10
6.84024
 20
-3.45463
 30
0.0
 10
6.83037
 20
-3.45879
 30
0.0
 10
6.83037
 20
-3.45879
 30
0.0
 10
6.82053
 20
-3.46299
 30
0.0
 10
6.8091
 20
-3.47153
 30
0.0
 10
6.79609
 20
-3.48447
 30
0.0
 10
6.79609
 20
-3.48447
 30
0.0
 10
6.80573
 20
-3.48241
 30
0.0
 10
6.81475
 20
-3.48269
 30
0.0
 10
6.82315
 20
-3.48535
 30
0.0
 10
6.82315
 20
-3.48535
 30
0.0
 10
6.83149
 20
-3.48801
 30
0.0
 10
6.83876
 20
-3.49237
 30
0.0
 10
6.84486
 20
-3.49839
 30
0.0
 10
6.84486
 20
-3.49839
 30
0.0
 10
6.85554
 20
-3.50894
 30
0.0
 10
6.86075
 20
-3.52182
 30
0.0
 10
6.86049
 20
-3.53708
 30
0.0
 10
6.86049
 20
-3.53708
 30
0.0
 10
6.86022
 20
-3.55234
 30
0.0
 10
6.85398
 20
-3.5662
 30
0.0
 10
6.84169
 20
-3.57864
 30
0.0
 10
6.84169
 20
-3.57864
 30
0.0
 10
6.8336
 20
-3.58684
 30
0.0
 10
6.82432
 20
-3.59266
 30
0.0
 10
6.81384
 20
-3.59622
 30
0.0
 10
6.81384
 20
-3.59622
 30
0.0
 10
6.8034
 20
-3.59976
 30
0.0
 10
6.79321
 20
-3.60036
 30
0.0
 10
6.78336
 20
-3.59801
 30
0.0
 10
6.78336
 20
-3.59801
 30
0.0
 10
6.77351
 20
-3.59566
 30
0.0
 10
6.7647
 20
-3.59062
 30
0.0
 10
6.75687
 20
-3.58289
 30
0.0
 10
6.75687
 20
-3.58289
 30
0.0
 10
6.74352
 20
-3.56971
 30
0.0
 10
6.73748
 20
-3.55409
 30
0.0
 10
6.73878
 20
-3.53595
 30
0.0
 10
6.73878
 20
-3.53595
 30
0.0
 10
6.74002
 20
-3.51782
 30
0.0
 10
6.7518
 20
-3.49751
 30
0.0
 10
6.77404
 20
-3.47498
 30
0.0
 10
6.77404
 20
-3.47498
 30
0.0
 10
6.79891
 20
-3.44979
 30
0.0
 10
6.82163
 20
-3.43608
 30
0.0
 10
6.84224
 20
-3.43383
 30
0.0
 10
6.84224
 20
-3.43383
 30
0.0
 10
6.86018
 20
-3.43188
 30
0.0
 10
6.87605
 20
-3.43766
 30
0.0
 10
6.88983
 20
-3.45126
 30
0.0
 10
6.88983
 20
-3.45126
 30
0.0
 10
6.90006
 20
-3.46136
 30
0.0
 10
6.90562
 20
-3.47255
 30
0.0
 10
6.90648
 20
-3.48479
 30
0.0
 10
6.90648
 20
-3.48479
 30
0.0
 10
6.90737
 20
-3.497
 30
0.0
 10
6.90344
 20
-3.50882
 30
0.0
 10
6.89473
 20
-3.52024
 30
0.0
  0
SPLINE
  5
A5
330
1F
100
AcDbEntity
  8
layer 2
370
     9
100
AcDbSpline
210
0.0
220
0.0
230
1.0
 70
    11
 71
     3
 72
    40
 73
    36
 74
     0
 42
0.0000000001
 43
0.0000000001
 12
1.0
 22
0.0
 32
0.0
 13
1.0
 23
0.0
 33
0.0
 40
0.0
 40
0.0
 40
0.0
 40
0.0
 40
0.1
 40
0.1
 40
0.1
 40
0.1
 40
0.2
 40
0.2
 40
0.2
 40
0.2
 40
0.3
 40
0.3
 40
0.3
 40
0.3
 40
0.4
 40
0.4
 40
0.4
 40
0.4
 40
0.5
 40
0.5
 40
0.5
 40
0.5
 40
0.6
 40
0.6
 40
0.6
 40
0.6
 40
0.7
 40
0.7
 40
0.7
 40
0.7
 40
0.8
 40
0.8
 40
0.8
 40
0.8
 40
1.0
 40
1.0
 40
1.0
 40
1.0
 10
6.77391
 20
-3.5119
 30
0.0
 10
6.76846
 20
-3.51743
 30
0.0
 10
6.76443
 20
-3.52388
 30
0.0
 10
6.76179
 20
-3.53122
 30
0.0
 10
6.76179
 20
-3.53122
 30
0.0
 10
6.75915
 20
-3.53857
 30
0.0
 10
6.75866
 20
-3.54563
 30
0.0
 10
6.76024
 20
-3.55241
 30
0.0
 10
6.76024
 20
-3.55241
 30
0.0
 10
6.76185
 20
-3.55921
 30
0.0
 10
6.76496
 20
-3.56492
 30
0.0
 10
6.76958
 20
-3.56948
 30
0.0
 10
6.76958
 20
-3.56948
 30
0.0
 10
6.77634
 20
-3.57616
 30
0.0
 10
6.78484
 20
-3.57915
 30
0.0
 10
6.79509
 20
-3.57849
 30
0.0
 10
6.79509
 20
-3.57849
 30
0.0
 10
6.80534
 20
-3.57782
 30
0.0
 10
6.81508
 20
-3.57281
 30
0.0
 10
6.82431
 20
-3.56346
 30
0.0
 10
6.82431
 20
-3.56346
 30
0.0
 10
6.83321
 20
-3.55444
 30
0.0
 10
6.83783
 20
-3.54498
 30
0.0
 10
6.83815
 20
-3.53505
 30
0.0
 10
6.83815
 20
-3.53505
 30
0.0
 10
6.83848
 20
-3.52512
 30
0.0
 10
6.83499
 20
-3.51658
 30
0.0
 10
6.82771
 20
-3.50939
 30
0.0
 10
6.82771
 20
-3.50939
 30
0.0
 10
6.82045
 20
-3.50223
 30
0.0
 10
6.81177
 20
-3.49875
 30
0.0
 10
6.80161
 20
-3.49897
 30
0.0
 10
6.80161
 20
-3.49897
 30
0.0
 10
6.79145
 20
-3.49918
 30
0.0
 10
6.78221
 20
-3.5035
 30
0.0
 10
6.77391
 20
-3.5119
 30
0.0
  0
SPLINE
  5
A6
330
1F
100
AcDbEntity
  8
layer 2
370
     9
100
AcDbSpline
210
0.0
220
0.0
230
1.0
 70
    11
 71
     3
 72
    36
 73
    32
 74
     0
 42
0.0000000001
 43
0.0000000001
 12
1.0
 22
0.0
 32
0.0
 13
1.0
 23
0.0
 33
0.0
 40
0.0
 40
0.0
 40
0.0
 40
0.0
 40
0.1111111111111111
 40
0.1111111111111111
 40
0.1111111111111111
 40
0.1111111111111111
 40
0.2222222222222222
 40
0.2222222222222222
 40
0.2222222222222222
 40
0.2222222222222222
 40
0.3333333333333333
 40
0.3333333333333333
 40
0.3333333333333333
 40
0.3333333333333333
 40
0.4444444444444444
 40
0.4444444444444444
 40
0.4444444444444444
 40
0.4444444444444444
 40
0.5555555555555556
 40
0.5555555555555556
 40
0.5555555555555556
 40
0.5555555555555556
 40
0.6666666666666666
 40
0.6666666666666666
 40
0.6666666666666666
 40
0.6666666666666666
 40
0.7777777777777778
 40
0.7777777777777778
 40
0.7777777777777778
 40
0.7777777777777778
 40
1.0
 40
1.0
 40
1.0
 40
1.0
 10
6.81127
 20
-3.70367
 30
0.0
 10
6.81127
 20
-3.70367
 30
0.0
 10
6.77597
 20
-3.66882
 30
0.0
 10
6.77597
 20
-3.66882
 30
0.0
 10
6.77597
 20
-3.66882
 30
0.0
 10
6.77597
 20
-3.66882
 30
0.0
 10
6.78903
 20
-3.65559
 30
0.0
 10
6.78903
 20
-3.65559
 30
0.0
 10
6.78903
 20
-3.65559
 30
0.0
 10
6.78903
 20
-3.65559
 30
0.0
 10
6.80834
 20
-3.67465
 30
0.0
 10
6.80834
 20
-3.67465
 30
0.0
 10
6.80834
 20
-3.67465
 30
0.0
 10
6.80834
 20
-3.67465
 30
0.0
 10
6.94661
 20
-3.5346
 30
0.0
 10
6.94661
 20
-3.5346
 30
0.0
 10
6.94661
 20
-3.5346
 30
0.0
 10
6.94661
 20
-3.5346
 30
0.0
 10
6.92731
 20
-3.51554
 30
0.0
 10
6.92731
 20
-3.51554
 30
0.0
 10
6.92731
 20
-3.51554
 30
0.0
 10
6.92731
 20
-3.51554
 30
0.0
 10
6.9404
 20
-3.50228
 30
0.0
 10
6.9404
 20
-3.50228
 30
0.0
 10
6.9404
 20
-3.50228
 30
0.0
 10
6.9404
 20
-3.50228
 30
0.0
 10
6.9757
 20
-3.53713
 30
0.0
 10
6.9757
 20
-3.53713
 30
0.0
 10
6.9757
 20
-3.53713
 30
0.0
 10
6.9757
 20
-3.53713
 30
0.0
 10
6.81127
 20
-3.70367
 30
0.0
 10
6.81127
 20
-3.70367
 30
0.0
  0
SPLINE
  5
A7
330
1F
100
AcDbEntity
  8
layer 2
370
     9
100
AcDbSpline
210
0.0
220
0.0
230
1.0
 70
    27
 71
     3
 72
    12
 73
     8
 74
     0
 42
0.0000000001
 43
0.0000000001
 12
1.0
 22
0.0
 32
0.0
 13
1.0
 23
0.0
 33
0.0
 40
0.0
 40
0.0
 40
0.0
 40
0.0
 40
0.3333333333333333
 40
0.3333333333333333
 40
0.3333333333333333
 40
0.3333333333333333
 40
1.0
 40
1.0
 40
1.0
 40
1.0
 10
7.53195
 20
-4.46384
 30
0.0
 10
7.53195
 20
-4.46384
 30
0.0
 10
7.67142
 20
-4.65648
 30
0.0
 10
7.67142
 20
-4.65648
 30
0.0
 10
7.67142
 20
-4.65648
 30
0.0
 10
7.67142
 20
-4.65648
 30
0.0
 10
7.53195
 20
-4.46384
 30
0.0
 10
7.53195
 20
-4.46384
 30
0.0
  0
SPLINE
  5
A8
330
1F
100
AcDbEntity
  8
layer 2
370
     9
100
AcDbSpline
210
0.0
220
0.0
230
1.0
 70
    11
 71
     3
 72
    16
 73
    12
 74
     0
 42
0.0000000001
 43
0.0000000001
 12
1.0
 22
0.0
 32
0.0
 13
1.0
 23
0.0
 33
0.0
 40
0.0
 40
0.0
 40
0.0
 40
0.0
 40
0.25
 40
0.25
 40
0.25
 40
0.25
 40
0.5
 40
0.5
 40
0.5
 40
0.5
 40
1.0
 40
1.0
 40
1.0
 40
1.0
 10
7.67142
 20
-4.65648
 30
0.0
 10
7.67142
 20
-4.65648
 30
0.0
 10
7.47701
 20
-4.51948
 30
0.0
 10
7.47701
 20
-4.51948
 30
0.0
 10
7.47701
 20
-4.51948
 30
0.0
 10
7.47701
 20
-4.51948
 30
0.0
 10
7.53195
 20
-4.46384
 30
0.0
 10
7.53195
 20
-4.46384
 30
0.0
 10
7.53195
 20
-4.46384
 30
0.0
 10
7.53195
 20
-4.46384
 30
0.0
 10
7.67142
 20
-4.65648
 30
0.0
 10
7.67142
 20
-4.65648
 30
0.0
  0
SPLINE
  5
A9
330
1F
100
AcDbEntity
  8
layer 2
370
    13
100
AcDbSpline
210
0.0
220
0.0
230
1.0
 70
    24
 71
     3
 72
     8
 73
     4
 74
     0
 42
0.0000000001
 43
0.0000000001
 12
1.0
 22
0.0
 32
0.0
 13
1.0
 23
0.0
 33
0.0
 40
0.0
 40
0.0
 40
0.0
 40
0.0
 40
1.0
 40
1.0
 40
1.0
 40
1.0
 10
7.53195
 20
-4.46384
 30
0.0
 10
7.53195
 20
-4.46384
 30
0.0
 10
7.67142
 20
-4.65648
 30
0.0
 10
7.67142
 20
-4.65648
 30
0.0
  0
SPLINE
  5
AA
330
1F
100
AcDbEntity
  8
layer 2
370
    13
100
AcDbSpline
210
0.0
220
0.0
230
1.0
 70
     8
 71
     3
 72
    12
 73
     8
 74
     0
 42
0.0000000001
 43
0.0000000001
 12
1.0
 22
0.0
 32
0.0
 13
1.0
 23
0.0
 33
0.0
 40
0.0
 40
0.0
 40
0.0
 40
0.0
 40
0.3333333333333333
 40
0.3333333333333333
 40
0.3333333333333333
 40
0.3333333333333333
 40
1.0
 40
1.0
 40
1.0
 40
1.0
 10
7.67142
 20
-4.65648
 30
0.0
 10
7.67142
 20
-4.65648
 30
0.0
 10
7.47701
 20
-4.51948
 30
0.0
 10
7.47701
 20
-4.51948
 30
0.0
 10
7.47701
 20
-4.51948
 30
0.0
 10
7.47701
 20
-4.51948
 30
0.0
 10
7.53195
 20
-4.46384
 30
0.0
 10
7.53195
 20
-4.46384
 30
0.0
  0
SPLINE
  5
AB
330
1F
100
AcDbEntity
  8
layer 2
370
     5
100
AcDbSpline
210
0.0
220
0.0
230
1.0
 70
    24
 71
     3
 72
     8
 73
     4
 74
     0
 42
0.0000000001
 43
0.0000000001
 12
1.0
 22
0.0
 32
0.0
 13
1.0
 23
0.0
 33
0.0
 40
0.0
 40
0.0
 40
0.0
 40
0.0
 40
1.0
 40
1.0
 40
1.0
 40
1.0
 10
-8.8693
 20
5.99339
 30
0.0
 10
-8.8693
 20
5.99339
 30
0.0
 10
-8.8693
 20
7.56992
 30
0.0
 10
-8.8693
 20
7.56992
 30
0.0
  0
SPLINE
  5
AC
330
1F
100
AcDbEntity
  8
layer 2
370
     5
100
AcDbSpline
210
0.0
220
0.0
230
1.0
 70
    27
 71
     3
 72
     8
 73
     4
 74
     0
 42
0.0000000001
 43
0.0000000001
 12
1.0
 22
0.0
 32
0.0
 13
1.0
 23
0.0
 33
0.0
 40
0.0
 40
0.0
 40
0.0
 40
0.0
 40
1.0
 40
1.0
 40
1.0
 40
1.0
 10
8.9387
 20
7.56992
 30
0.0
 10
8.9387
 20
7.56992
 30
0.0
 10
8.9387
 20
7.56992
 30
0.0
 10
8.9387
 20
7.56992
 30
0.0
  0
SPLINE
  5
AD
330
1F
100
AcDbEntity
  8
layer 2
370
     5
100
AcDbSpline
210
0.0
220
0.0
230
1.0
 70
    24
 71
     3
 72
     8
 73
     4
 74
     0
 42
0.0000000001
 43
0.0000000001
 12
1.0
 22
0.0
 32
0.0
 13
1.0
 23
0.0
 33
0.0
 40
0.0
 40
0.0
 40
0.0
 40
0.0
 40
1.0
 40
1.0
 40
1.0
 40
1.0
 10
8.9387
 20
5.99339
 30
0.0
 10
8.9387
 20
5.99339
 30
0.0
 10
8.9387
 20
7.56992
 30
0.0
 10
8.9387
 20
7.56992
 30
0.0
  0
SPLINE
  5
AE
330
1F
100
AcDbEntity
  8
layer 2
370
     5
100
AcDbSpline
210
0.0
220
0.0
230
1.0
 70
    24
 71
     3
 72
     8
 73
     4
 74
     0
 42
0.0000000001
 43
0.0000000001
 12
1.0
 22
0.0
 32
0.0
 13
1.0
 23
0.0
 33
0.0
 40
0.0
 40
0.0
 40
0.0
 40
0.0
 40
1.0
 40
1.0
 40
1.0
 40
1.0
 10
-8.63471
 20
7.54326
 30
0.0
 10
-8.63471
 20
7.54326
 30
0.0
 10
8.70411
 20
7.54326
 30
0.0
 10
8.70411
 20
7.54326
 30
0.0
  0
SPLINE
  5
AF
330
1F
100
AcDbEntity
  8
layer 2
370
     9
100
AcDbSpline
210
0.0
220
0.0
230
1.0
 70
    27
 71
     3
 72
    12
 73
     8
 74
     0
 42
0.0000000001
 43
0.0000000001
 12
1.0
 22
0.0
 32
0.0
 13
1.0
 23
0.0
 33
0.0
 40
0.0
 40
0.0
 40
0.0
 40
0.0
 40
0.3333333333333333
 40
0.3333333333333333
 40
0.3333333333333333
 40
0.3333333333333333
 40
1.0
 40
1.0
 40
1.0
 40
1.0
 10
-8.63471
 20
7.58236
 30
0.0
 10
-8.63471
 20
7.58236
 30
0.0
 10
-8.8693
 20
7.54326
 30
0.0
 10
-8.8693
 20
7.54326
 30
0.0
 10
-8.8693
 20
7.54326
 30
0.0
 10
-8.8693
 20
7.54326
 30
0.0
 10
-8.63471
 20
7.58236
 30
0.0
 10
-8.63471
 20
7.58236
 30
0.0
  0
SPLINE
  5
B0
330
1F
100
AcDbEntity
  8
layer 2
370
     9
100
AcDbSpline
210
0.0
220
0.0
230
1.0
 70
    11
 71
     3
 72
    16
 73
    12
 74
     0
 42
0.0000000001
 43
0.0000000001
 12
1.0
 22
0.0
 32
0.0
 13
1.0
 23
0.0
 33
0.0
 40
0.0
 40
0.0
 40
0.0
 40
0.0
 40
0.25
 40
0.25
 40
0.25
 40
0.25
 40
0.5
 40
0.5
 40
0.5
 40
0.5
 40
1.0
 40
1.0
 40
1.0
 40
1.0
 10
-8.8693
 20
7.54326
 30
0.0
 10
-8.8693
 20
7.54326
 30
0.0
 10
-8.63471
 20
7.50416
 30
0.0
 10
-8.63471
 20
7.50416
 30
0.0
 10
-8.63471
 20
7.50416
 30
0.0
 10
-8.63471
 20
7.50416
 30
0.0
 10
-8.63471
 20
7.58236
 30
0.0
 10
-8.63471
 20
7.58236
 30
0.0
 10
-8.63471
 20
7.58236
 30
0.0
 10
-8.63471
 20
7.58236
 30
0.0
 10
-8.8693
 20
7.54326
 30
0.0
 10
-8.8693
 20
7.54326
 30
0.0
  0
SPLINE
  5
B1
330
1F
100
AcDbEntity
  8
layer 2
370
    13
100
AcDbSpline
210
0.0
220
0.0
230
1.0
 70
    24
 71
     3
 72
     8
 73
     4
 74
     0
 42
0.0000000001
 43
0.0000000001
 12
1.0
 22
0.0
 32
0.0
 13
1.0
 23
0.0
 33
0.0
 40
0.0
 40
0.0
 40
0.0
 40
0.0
 40
1.0
 40
1.0
 40
1.0
 40
1.0
 10
-8.63471
 20
7.58236
 30
0.0
 10
-8.63471
 20
7.58236
 30
0.0
 10
-8.8693
 20
7.54326
 30
0.0
 10
-8.8693
 20
7.54326
 30
0.0
  0
SPLINE
  5
B2
330
1F
100
AcDbEntity
  8
layer 2
370
    13
100
AcDbSpline
210
0.0
220
0.0
230
1.0
 70
     8
 71
     3
 72
    12
 73
     8
 74
     0
 42
0.0000000001
 43
0.0000000001
 12
1.0
 22
0.0
 32
0.0
 13
1.0
 23
0.0
 33
0.0
 40
0.0
 40
0.0
 40
0.0
 40
0.0
 40
0.3333333333333333
 40
0.3333333333333333
 40
0.3333333333333333
 40
0.3333333333333333
 40
1.0
 40
1.0
 40
1.0
 40
1.0
 10
-8.8693
 20
7.54326
 30
0.0
 10
-8.8693
 20
7.54326
 30
0.0
 10
-8.63471
 20
7.50416
 30
0.0
 10
-8.63471
 20
7.50416
 30
0.0
 10
-8.63471
 20
7.50416
 30
0.0
 10
-8.63471
 20
7.50416
 30
0.0
 10
-8.63471
 20
7.58236
 30
0.0
 10
-8.63471
 20
7.58236
 30
0.0
  0
SPLINE
  5
B3
330
1F
100
AcDbEntity
  8
layer 2
370
     9
100
AcDbSpline
210
0.0
220
0.0
230
1.0
 70
    27
 71
     3
 72
    12
 73
     8
 74
     0
 42
0.0000000001
 43
0.0000000001
 12
1.0
 22
0.0
 32
0.0
 13
1.0
 23
0.0
 33
0.0
 40
0.0
 40
0.0
 40
0.0
 40
0.0
 40
0.3333333333333333
 40
0.3333333333333333
 40
0.3333333333333333
 40
0.3333333333333333
 40
1.0
 40
1.0
 40
1.0
 40
1.0
 10
8.70411
 20
7.58236
 30
0.0
 10
8.70411
 20
7.58236
 30
0.0
 10
8.9387
 20
7.54326
 30
0.0
 10
8.9387
 20
7.54326
 30
0.0
 10
8.9387
 20
7.54326
 30
0.0
 10
8.9387
 20
7.54326
 30
0.0
 10
8.70411
 20
7.58236
 30
0.0
 10
8.70411
 20
7.58236
 30
0.0
  0
SPLINE
  5
B4
330
1F
100
AcDbEntity
  8
layer 2
370
     9
100
AcDbSpline
210
0.0
220
0.0
230
1.0
 70
    11
 71
     3
 72
    16
 73
    12
 74
     0
 42
0.0000000001
 43
0.0000000001
 12
1.0
 22
0.0
 32
0.0
 13
1.0
 23
0.0
 33
0.0
 40
0.0
 40
0.0
 40
0.0
 40
0.0
 40
0.25
 40
0.25
 40
0.25
 40
0.25
 40
0.5
 40
0.5
 40
0.5
 40
0.5
 40
1.0
 40
1.0
 40
1.0
 40
1.0
 10
8.9387
 20
7.54326
 30
0.0
 10
8.9387
 20
7.54326
 30
0.0
 10
8.70411
 20
7.50416
 30
0.0
 10
8.70411
 20
7.50416
 30
0.0
 10
8.70411
 20
7.50416
 30
0.0
 10
8.70411
 20
7.50416
 30
0.0
 10
8.70411
 20
7.58236
 30
0.0
 10
8.70411
 20
7.58236
 30
0.0
 10
8.70411
 20
7.58236
 30
0.0
 10
8.70411
 20
7.58236
 30
0.0
 10
8.9387
 20
7.54326
 30
0.0
 10
8.9387
 20
7.54326
 30
0.0
  0
SPLINE
  5
B5
330
1F
100
AcDbEntity
  8
layer 2
370
    13
100
AcDbSpline
210
0.0
220
0.0
230
1.0
 70
    24
 71
     3
 72
     8
 73
     4
 74
     0
 42
0.0000000001
 43
0.0000000001
 12
1.0
 22
0.0
 32
0.0
 13
1.0
 23
0.0
 33
0.0
 40
0.0
 40
0.0
 40
0.0
 40
0.0
 40
1.0
 40
1.0
 40
1.0
 40
1.0
 10
8.70411
 20
7.58236
 30
0.0
 10
8.70411
 20
7.58236
 30
0.0
 10
8.9387
 20
7.54326
 30
0.0
 10
8.9387
 20
7.54326
 30
0.0
  0
SPLINE
  5
B6
330
1F
100
AcDbEntity
  8
layer 2
370
    13
100
AcDbSpline
210
0.0
220
0.0
230
1.0
 70
     8
 71
     3
 72
    12
 73
     8
 74
     0
 42
0.0000000001
 43
0.0000000001
 12
1.0
 22
0.0
 32
0.0
 13
1.0
 23
0.0
 33
0.0
 40
0.0
 40
0.0
 40
0.0
 40
0.0
 40
0.3333333333333333
 40
0.3333333333333333
 40
0.3333333333333333
 40
0.3333333333333333
 40
1.0
 40
1.0
 40
1.0
 40
1.0
 10
8.9387
 20
7.54326
 30
0.0
 10
8.9387
 20
7.54326
 30
0.0
 10
8.70411
 20
7.50416
 30
0.0
 10
8.70411
 20
7.50416
 30
0.0
 10
8.70411
 20
7.50416
 30
0.0
 10
8.70411
 20
7.50416
 30
0.0
 10
8.70411
 20
7.58236
 30
0.0
 10
8.70411
 20
7.58236
 30
0.0
  0
SPLINE
  5
B7
330
1F
100
AcDbEntity
  8
layer 2
370
     9
100
AcDbSpline
210
0.0
220
0.0
230
1.0
 70
    11
 71
     3
 72
    68
 73
    64
 74
     0
 42
0.0000000001
 43
0.0000000001
 12
1.0
 22
0.0
 32
0.0
 13
1.0
 23
0.0
 33
0.0
 40
0.0
 40
0.0
 40
0.0
 40
0.0
 40
0.0588235294117647
 40
0.0588235294117647
 40
0.0588235294117647
 40
0.0588235294117647
 40
0.1176470588235294
 40
0.1176470588235294
 40
0.1176470588235294
 40
0.1176470588235294
 40
0.1764705882352941
 40
0.1764705882352941
 40
0.1764705882352941
 40
0.1764705882352941
 40
0.2352941176470588
 40
0.2352941176470588
 40
0.2352941176470588
 40
0.2352941176470588
 40
0.2941176470588235
 40
0.2941176470588235
 40
0.2941176470588235
 40
0.2941176470588235
 40
0.3529411764705883
 40
0.3529411764705883
 40
0.3529411764705883
 40
0.3529411764705883
 40
0.4117647058823529
 40
0.4117647058823529
 40
0.4117647058823529
 40
0.4117647058823529
 40
0.4705882352941176
 40
0.4705882352941176
 40
0.4705882352941176
 40
0.4705882352941176
 40
0.5294117647058824
 40
0.5294117647058824
 40
0.5294117647058824
 40
0.5294117647058824
 40
0.5882352941176471
 40
0.5882352941176471
 40
0.5882352941176471
 40
0.5882352941176471
 40
0.6470588235294118
 40
0.6470588235294118
 40
0.6470588235294118
 40
0.6470588235294118
 40
0.7058823529411765
 40
0.7058823529411765
 40
0.7058823529411765
 40
0.7058823529411765
 40
0.7647058823529411
 40
0.7647058823529411
 40
0.7647058823529411
 40
0.7647058823529411
 40
0.8235294117647058
 40
0.8235294117647058
 40
0.8235294117647058
 40
0.8235294117647058
 40
0.8823529411764706
 40
0.8823529411764706
 40
0.8823529411764706
 40
0.8823529411764706
 40
1.0
 40
1.0
 40
1.0
 40
1.0
 10
-0.13355
 20
7.76713
 30
0.0
 10
-0.14289
 20
7.77054
 30
0.0
 10
-0.1498
 20
7.77541
 30
0.0
 10
-0.15432
 20
7.78176
 30
0.0
 10
-0.15432
 20
7.78176
 30
0.0
 10
-0.1588
 20
7.78807
 30
0.0
 10
-0.16106
 20
7.79567
 30
0.0
 10
-0.16106
 20
7.8045
 30
0.0
 10
-0.16106
 20
7.8045
 30
0.0
 10
-0.16106
 20
7.81785
 30
0.0
 10
-0.15628
 20
7.82902
 30
0.0
 10
-0.14669
 20
7.83811
 30
0.0
 10
-0.14669
 20
7.83811
 30
0.0
 10
-0.13709
 20
7.84719
 30
0.0
 10
-0.12438
 20
7.85176
 30
0.0
 10
-0.10847
 20
7.85176
 30
0.0
 10
-0.10847
 20
7.85176
 30
0.0
 10
-0.09247
 20
7.85176
 30
0.0
 10
-0.07959
 20
7.84711
 30
0.0
 10
-0.06982
 20
7.83781
 30
0.0
 10
-0.06982
 20
7.83781
 30
0.0
 10
-0.0601
 20
7.82851
 30
0.0
 10
-0.05524
 20
7.81721
 30
0.0
 10
-0.05524
 20
7.80386
 30
0.0
 10
-0.05524
 20
7.80386
 30
0.0
 10
-0.05524
 20
7.79537
 30
0.0
 10
-0.05745
 20
7.78799
 30
0.0
 10
-0.06189
 20
7.78168
 30
0.0
 10
-0.06189
 20
7.78168
 30
0.0
 10
-0.06637
 20
7.77541
 30
0.0
 10
-0.07311
 20
7.77054
 30
0.0
 10
-0.08219
 20
7.76713
 30
0.0
 10
-0.08219
 20
7.76713
 30
0.0
 10
-0.07098
 20
7.76346
 30
0.0
 10
-0.0624
 20
7.75758
 30
0.0
 10
-0.05652
 20
7.74939
 30
0.0
 10
-0.05652
 20
7.74939
 30
0.0
 10
-0.05067
 20
7.74124
 30
0.0
 10
-0.04773
 20
7.73147
 30
0.0
 10
-0.04773
 20
7.72017
 30
0.0
 10
-0.04773
 20
7.72017
 30
0.0
 10
-0.04773
 20
7.70447
 30
0.0
 10
-0.05327
 20
7.69133
 30
0.0
 10
-0.06432
 20
7.68067
 30
0.0
 10
-0.06432
 20
7.68067
 30
0.0
 10
-0.07541
 20
7.67001
 30
0.0
 10
-0.09
 20
7.66468
 30
0.0
 10
-0.10809
 20
7.66468
 30
0.0
 10
-0.10809
 20
7.66468
 30
0.0
 10
-0.12617
 20
7.66468
 30
0.0
 10
-0.14072
 20
7.67001
 30
0.0
 10
-0.15181
 20
7.68071
 30
0.0
 10
-0.15181
 20
7.68071
 30
0.0
 10
-0.1629
 20
7.69142
 30
0.0
 10
-0.16844
 20
7.70477
 30
0.0
 10
-0.16844
 20
7.72077
 30
0.0
 10
-0.16844
 20
7.72077
 30
0.0
 10
-0.16844
 20
7.73267
 30
0.0
 10
-0.16541
 20
7.74265
 30
0.0
 10
-0.15936
 20
7.75071
 30
0.0
 10
-0.15936
 20
7.75071
 30
0.0
 10
-0.15334
 20
7.75873
 30
0.0
 10
-0.14472
 20
7.76423
 30
0.0
 10
-0.13355
 20
7.76713
 30
0.0
  0
SPLINE
  5
B8
330
1F
100
AcDbEntity
  8
layer 2
370
     9
100
AcDbSpline
210
0.0
220
0.0
230
1.0
 70
    11
 71
     3
 72
    36
 73
    32
 74
     0
 42
0.0000000001
 43
0.0000000001
 12
1.0
 22
0.0
 32
0.0
 13
1.0
 23
0.0
 33
0.0
 40
0.0
 40
0.0
 40
0.0
 40
0.0
 40
0.1111111111111111
 40
0.1111111111111111
 40
0.1111111111111111
 40
0.1111111111111111
 40
0.2222222222222222
 40
0.2222222222222222
 40
0.2222222222222222
 40
0.2222222222222222
 40
0.3333333333333333
 40
0.3333333333333333
 40
0.3333333333333333
 40
0.3333333333333333
 40
0.4444444444444444
 40
0.4444444444444444
 40
0.4444444444444444
 40
0.4444444444444444
 40
0.5555555555555556
 40
0.5555555555555556
 40
0.5555555555555556
 40
0.5555555555555556
 40
0.6666666666666666
 40
0.6666666666666666
 40
0.6666666666666666
 40
0.6666666666666666
 40
0.7777777777777778
 40
0.7777777777777778
 40
0.7777777777777778
 40
0.7777777777777778
 40
1.0
 40
1.0
 40
1.0
 40
1.0
 10
-0.13807
 20
7.80526
 30
0.0
 10
-0.13807
 20
7.7966
 30
0.0
 10
-0.13526
 20
7.78952
 30
0.0
 10
-0.12971
 20
7.78402
 30
0.0
 10
-0.12971
 20
7.78402
 30
0.0
 10
-0.12412
 20
7.77852
 30
0.0
 10
-0.11687
 20
7.77575
 30
0.0
 10
-0.10796
 20
7.77575
 30
0.0
 10
-0.10796
 20
7.77575
 30
0.0
 10
-0.0993
 20
7.77575
 30
0.0
 10
-0.09218
 20
7.77848
 30
0.0
 10
-0.08663
 20
7.78394
 30
0.0
 10
-0.08663
 20
7.78394
 30
0.0
 10
-0.08109
 20
7.7894
 30
0.0
 10
-0.07836
 20
7.79609
 30
0.0
 10
-0.07836
 20
7.80398
 30
0.0
 10
-0.07836
 20
7.80398
 30
0.0
 10
-0.07836
 20
7.81226
 30
0.0
 10
-0.08117
 20
7.81917
 30
0.0
 10
-0.08689
 20
7.8248
 30
0.0
 10
-0.08689
 20
7.8248
 30
0.0
 10
-0.0926
 20
7.83043
 30
0.0
 10
-0.09968
 20
7.83324
 30
0.0
 10
-0.10821
 20
7.83324
 30
0.0
 10
-0.10821
 20
7.83324
 30
0.0
 10
-0.11679
 20
7.83324
 30
0.0
 10
-0.12391
 20
7.83047
 30
0.0
 10
-0.12958
 20
7.82501
 30
0.0
 10
-0.12958
 20
7.82501
 30
0.0
 10
-0.13526
 20
7.81951
 30
0.0
 10
-0.13807
 20
7.8129
 30
0.0
 10
-0.13807
 20
7.80526
 30
0.0
  0
SPLINE
  5
B9
330
1F
100
AcDbEntity
  8
layer 2
370
     9
100
AcDbSpline
210
0.0
220
0.0
230
1.0
 70
    11
 71
     3
 72
    40
 73
    36
 74
     0
 42
0.0000000001
 43
0.0000000001
 12
1.0
 22
0.0
 32
0.0
 13
1.0
 23
0.0
 33
0.0
 40
0.0
 40
0.0
 40
0.0
 40
0.0
 40
0.1
 40
0.1
 40
0.1
 40
0.1
 40
0.2
 40
0.2
 40
0.2
 40
0.2
 40
0.3
 40
0.3
 40
0.3
 40
0.3
 40
0.4
 40
0.4
 40
0.4
 40
0.4
 40
0.5
 40
0.5
 40
0.5
 40
0.5
 40
0.6
 40
0.6
 40
0.6
 40
0.6
 40
0.7
 40
0.7
 40
0.7
 40
0.7
 40
0.8
 40
0.8
 40
0.8
 40
0.8
 40
1.0
 40
1.0
 40
1.0
 40
1.0
 10
-0.14532
 20
7.72064
 30
0.0
 10
-0.14532
 20
7.71424
 30
0.0
 10
-0.14379
 20
7.70801
 30
0.0
 10
-0.14076
 20
7.70204
 30
0.0
 10
-0.14076
 20
7.70204
 30
0.0
 10
-0.13773
 20
7.69603
 30
0.0
 10
-0.13321
 20
7.69138
 30
0.0
 10
-0.12719
 20
7.68809
 30
0.0
 10
-0.12719
 20
7.68809
 30
0.0
 10
-0.12118
 20
7.68481
 30
0.0
 10
-0.11474
 20
7.68315
 30
0.0
 10
-0.10783
 20
7.68315
 30
0.0
 10
-0.10783
 20
7.68315
 30
0.0
 10
-0.09708
 20
7.68315
 30
0.0
 10
-0.08821
 20
7.6866
 30
0.0
 10
-0.08121
 20
7.69355
 30
0.0
 10
-0.08121
 20
7.69355
 30
0.0
 10
-0.07422
 20
7.70046
 30
0.0
 10
-0.07072
 20
7.70925
 30
0.0
 10
-0.07072
 20
7.71991
 30
0.0
 10
-0.07072
 20
7.71991
 30
0.0
 10
-0.07072
 20
7.73075
 30
0.0
 10
-0.0743
 20
7.7397
 30
0.0
 10
-0.08151
 20
7.74678
 30
0.0
 10
-0.08151
 20
7.74678
 30
0.0
 10
-0.08872
 20
7.75387
 30
0.0
 10
-0.09776
 20
7.75741
 30
0.0
 10
-0.1086
 20
7.75741
 30
0.0
 10
-0.1086
 20
7.75741
 30
0.0
 10
-0.11918
 20
7.75741
 30
0.0
 10
-0.12792
 20
7.75391
 30
0.0
 10
-0.13487
 20
7.74691
 30
0.0
 10
-0.13487
 20
7.74691
 30
0.0
 10
-0.14182
 20
7.73987
 30
0.0
 10
-0.14532
 20
7.73113
 30
0.0
 10
-0.14532
 20
7.72064
 30
0.0
  0
SPLINE
  5
BA
330
1F
100
AcDbEntity
  8
layer 2
370
     9
100
AcDbSpline
210
0.0
220
0.0
230
1.0
 70
    11
 71
     3
 72
   124
 73
   120
 74
     0
 42
0.0000000001
 43
0.0000000001
 12
1.0
 22
0.0
 32
0.0
 13
1.0
 23
0.0
 33
0.0
 40
0.0
 40
0.0
 40
0.0
 40
0.0
 40
0.032258064516129
 40
0.032258064516129
 40
0.032258064516129
 40
0.032258064516129
 40
0.0645161290322581
 40
0.0645161290322581
 40
0.0645161290322581
 40
0.0645161290322581
 40
0.0967741935483871
 40
0.0967741935483871
 40
0.0967741935483871
 40
0.0967741935483871
 40
0.1290322580645161
 40
0.1290322580645161
 40
0.1290322580645161
 40
0.1290322580645161
 40
0.1612903225806452
 40
0.1612903225806452
 40
0.1612903225806452
 40
0.1612903225806452
 40
0.1935483870967742
 40
0.1935483870967742
 40
0.1935483870967742
 40
0.1935483870967742
 40
0.2258064516129032
 40
0.2258064516129032
 40
0.2258064516129032
 40
0.2258064516129032
 40
0.2580645161290323
 40
0.2580645161290323
 40
0.2580645161290323
 40
0.2580645161290323
 40
0.2903225806451613
 40
0.2903225806451613
 40
0.2903225806451613
 40
0.2903225806451613
 40
0.3225806451612903
 40
0.3225806451612903
 40
0.3225806451612903
 40
0.3225806451612903
 40
0.3548387096774194
 40
0.3548387096774194
 40
0.3548387096774194
 40
0.3548387096774194
 40
0.3870967741935484
 40
0.3870967741935484
 40
0.3870967741935484
 40
0.3870967741935484
 40
0.4193548387096774
 40
0.4193548387096774
 40
0.4193548387096774
 40
0.4193548387096774
 40
0.4516129032258064
 40
0.4516129032258064
 40
0.4516129032258064
 40
0.4516129032258064
 40
0.4838709677419355
 40
0.4838709677419355
 40
0.4838709677419355
 40
0.4838709677419355
 40
0.5161290322580645
 40
0.5161290322580645
 40
0.5161290322580645
 40
0.5161290322580645
 40
0.5483870967741935
 40
0.5483870967741935
 40
0.5483870967741935
 40
0.5483870967741935
 40
0.5806451612903226
 40
0.5806451612903226
 40
0.5806451612903226
 40
0.5806451612903226
 40
0.6129032258064516
 40
0.6129032258064516
 40
0.6129032258064516
 40
0.6129032258064516
 40
0.6451612903225806
 40
0.6451612903225806
 40
0.6451612903225806
 40
0.6451612903225806
 40
0.6774193548387096
 40
0.6774193548387096
 40
0.6774193548387096
 40
0.6774193548387096
 40
0.7096774193548387
 40
0.7096774193548387
 40
0.7096774193548387
 40
0.7096774193548387
 40
0.7419354838709677
 40
0.7419354838709677
 40
0.7419354838709677
 40
0.7419354838709677
 40
0.7741935483870968
 40
0.7741935483870968
 40
0.7741935483870968
 40
0.7741935483870968
 40
0.8064516129032258
 40
0.8064516129032258
 40
0.8064516129032258
 40
0.8064516129032258
 40
0.8387096774193549
 40
0.8387096774193549
 40
0.8387096774193549
 40
0.8387096774193549
 40
0.8709677419354839
 40
0.8709677419354839
 40
0.8709677419354839
 40
0.8709677419354839
 40
0.9032258064516129
 40
0.9032258064516129
 40
0.9032258064516129
 40
0.9032258064516129
 40
0.9354838709677419
 40
0.9354838709677419
 40
0.9354838709677419
 40
0.9354838709677419
 40
1.0
 40
1.0
 40
1.0
 40
1.0
 10
-0.02572
 20
7.71616
 30
0.0
 10
-0.02572
 20
7.71616
 30
0.0
 10
-0.00324
 20
7.71915
 30
0.0
 10
-0.00324
 20
7.71915
 30
0.0
 10
-0.00324
 20
7.71915
 30
0.0
 10
-0.00064
 20
7.70639
 30
0.0
 10
0.00375
 20
7.69722
 30
0.0
 10
0.00994
 20
7.69159
 30
0.0
 10
0.00994
 20
7.69159
 30
0.0
 10
0.01617
 20
7.68596
 30
0.0
 10
0.02372
 20
7.68315
 30
0.0
 10
0.03263
 20
7.68315
 30
0.0
 10
0.03263
 20
7.68315
 30
0.0
 10
0.04321
 20
7.68315
 30
0.0
 10
0.05217
 20
7.68681
 30
0.0
 10
0.05946
 20
7.69415
 30
0.0
 10
0.05946
 20
7.69415
 30
0.0
 10
0.06671
 20
7.70149
 30
0.0
 10
0.07038
 20
7.71057
 30
0.0
 10
0.07038
 20
7.72141
 30
0.0
 10
0.07038
 20
7.72141
 30
0.0
 10
0.07038
 20
7.73173
 30
0.0
 10
0.06701
 20
7.74026
 30
0.0
 10
0.06027
 20
7.74696
 30
0.0
 10
0.06027
 20
7.74696
 30
0.0
 10
0.05349
 20
7.75365
 30
0.0
 10
0.04491
 20
7.75702
 30
0.0
 10
0.03451
 20
7.75702
 30
0.0
 10
0.03451
 20
7.75702
 30
0.0
 10
0.03024
 20
7.75702
 30
0.0
 10
0.02495
 20
7.75617
 30
0.0
 10
0.01864
 20
7.75451
 30
0.0
 10
0.01864
 20
7.75451
 30
0.0
 10
0.01864
 20
7.75451
 30
0.0
 10
0.02116
 20
7.77425
 30
0.0
 10
0.02116
 20
7.77425
 30
0.0
 10
0.02116
 20
7.77425
 30
0.0
 10
0.02265
 20
7.77408
 30
0.0
 10
0.02384
 20
7.774
 30
0.0
 10
0.02478
 20
7.774
 30
0.0
 10
0.02478
 20
7.774
 30
0.0
 10
0.03434
 20
7.774
 30
0.0
 10
0.04295
 20
7.77651
 30
0.0
 10
0.05063
 20
7.78151
 30
0.0
 10
0.05063
 20
7.78151
 30
0.0
 10
0.05831
 20
7.7865
 30
0.0
 10
0.06215
 20
7.79422
 30
0.0
 10
0.06215
 20
7.80462
 30
0.0
 10
0.06215
 20
7.80462
 30
0.0
 10
0.06215
 20
7.81286
 30
0.0
 10
0.05933
 20
7.81972
 30
0.0
 10
0.05374
 20
7.8251
 30
0.0
 10
0.05374
 20
7.8251
 30
0.0
 10
0.04816
 20
7.83051
 30
0.0
 10
0.04095
 20
7.83324
 30
0.0
 10
0.03212
 20
7.83324
 30
0.0
 10
0.03212
 20
7.83324
 30
0.0
 10
0.02337
 20
7.83324
 30
0.0
 10
0.01608
 20
7.83047
 30
0.0
 10
0.01028
 20
7.82501
 30
0.0
 10
0.01028
 20
7.82501
 30
0.0
 10
0.00444
 20
7.81951
 30
0.0
 10
0.00068
 20
7.81123
 30
0.0
 10
-0.00098
 20
7.80023
 30
0.0
 10
-0.00098
 20
7.80023
 30
0.0
 10
-0.00098
 20
7.80023
 30
0.0
 10
-0.02346
 20
7.80424
 30
0.0
 10
-0.02346
 20
7.80424
 30
0.0
 10
-0.02346
 20
7.80424
 30
0.0
 10
-0.02073
 20
7.81934
 30
0.0
 10
-0.01446
 20
7.83103
 30
0.0
 10
-0.00473
 20
7.8393
 30
0.0
 10
-0.00473
 20
7.8393
 30
0.0
 10
0.00503
 20
7.84758
 30
0.0
 10
0.01715
 20
7.85176
 30
0.0
 10
0.03165
 20
7.85176
 30
0.0
 10
0.03165
 20
7.85176
 30
0.0
 10
0.04163
 20
7.85176
 30
0.0
 10
0.05084
 20
7.84958
 30
0.0
 10
0.05925
 20
7.84532
 30
0.0
 10
0.05925
 20
7.84532
 30
0.0
 10
0.06765
 20
7.84101
 30
0.0
 10
0.07409
 20
7.83516
 30
0.0
 10
0.07857
 20
7.82774
 30
0.0
 10
0.07857
 20
7.82774
 30
0.0
 10
0.083
 20
7.82032
 30
0.0
 10
0.08527
 20
7.81247
 30
0.0
 10
0.08527
 20
7.80411
 30
0.0
 10
0.08527
 20
7.80411
 30
0.0
 10
0.08527
 20
7.79622
 30
0.0
 10
0.08313
 20
7.78901
 30
0.0
 10
0.07887
 20
7.78249
 30
0.0
 10
0.07887
 20
7.78249
 30
0.0
 10
0.0746
 20
7.776
 30
0.0
 10
0.06833
 20
7.77084
 30
0.0
 10
0.06001
 20
7.767
 30
0.0
 10
0.06001
 20
7.767
 30
0.0
 10
0.07085
 20
7.76453
 30
0.0
 10
0.07925
 20
7.75933
 30
0.0
 10
0.08527
 20
7.75143
 30
0.0
 10
0.08527
 20
7.75143
 30
0.0
 10
0.09124
 20
7.74359
 30
0.0
 10
0.09422
 20
7.73373
 30
0.0
 10
0.09422
 20
7.72192
 30
0.0
 10
0.09422
 20
7.72192
 30
0.0
 10
0.09422
 20
7.70592
 30
0.0
 10
0.08842
 20
7.69236
 30
0.0
 10
0.07673
 20
7.68123
 30
0.0
 10
0.07673
 20
7.68123
 30
0.0
 10
0.06509
 20
7.67009
 30
0.0
 10
0.05033
 20
7.66455
 30
0.0
 10
0.0325
 20
7.66455
 30
0.0
 10
0.0325
 20
7.66455
 30
0.0
 10
0.01642
 20
7.66455
 30
0.0
 10
0.00307
 20
7.66933
 30
0.0
 10
-0.00755
 20
7.67892
 30
0.0
 10
-0.00755
 20
7.67892
 30
0.0
 10
-0.01817
 20
7.68848
 30
0.0
 10
-0.02423
 20
7.70089
 30
0.0
 10
-0.02572
 20
7.71616
 30
0.0
  0
SPLINE
  5
BB
330
1F
100
AcDbEntity
  8
layer 2
370
     9
100
AcDbSpline
210
0.0
220
0.0
230
1.0
 70
    11
 71
     3
 72
    52
 73
    48
 74
     0
 42
0.0000000001
 43
0.0000000001
 12
1.0
 22
0.0
 32
0.0
 13
1.0
 23
0.0
 33
0.0
 40
0.0
 40
0.0
 40
0.0
 40
0.0
 40
0.0769230769230769
 40
0.0769230769230769
 40
0.0769230769230769
 40
0.0769230769230769
 40
0.1538461538461539
 40
0.1538461538461539
 40
0.1538461538461539
 40
0.1538461538461539
 40
0.2307692307692308
 40
0.2307692307692308
 40
0.2307692307692308
 40
0.2307692307692308
 40
0.3076923076923077
 40
0.3076923076923077
 40
0.3076923076923077
 40
0.3076923076923077
 40
0.3846153846153846
 40
0.3846153846153846
 40
0.3846153846153846
 40
0.3846153846153846
 40
0.4615384615384616
 40
0.4615384615384616
 40
0.4615384615384616
 40
0.4615384615384616
 40
0.5384615384615384
 40
0.5384615384615384
 40
0.5384615384615384
 40
0.5384615384615384
 40
0.6153846153846154
 40
0.6153846153846154
 40
0.6153846153846154
 40
0.6153846153846154
 40
0.6923076923076923
 40
0.6923076923076923
 40
0.6923076923076923
 40
0.6923076923076923
 40
0.7692307692307693
 40
0.7692307692307693
 40
0.7692307692307693
 40
0.7692307692307693
 40
0.8461538461538461
 40
0.8461538461538461
 40
0.8461538461538461
 40
0.8461538461538461
 40
1.0
 40
1.0
 40
1.0
 40
1.0
 10
0.11649
 20
7.75813
 30
0.0
 10
0.11649
 20
7.7798
 30
0.0
 10
0.11871
 20
7.79724
 30
0.0
 10
0.12318
 20
7.81042
 30
0.0
 10
0.12318
 20
7.81042
 30
0.0
 10
0.12762
 20
7.82365
 30
0.0
 10
0.13427
 20
7.83384
 30
0.0
 10
0.14306
 20
7.84101
 30
0.0
 10
0.14306
 20
7.84101
 30
0.0
 10
0.15185
 20
7.84817
 30
0.0
 10
0.1629
 20
7.85176
 30
0.0
 10
0.1762
 20
7.85176
 30
0.0
 10
0.1762
 20
7.85176
 30
0.0
 10
0.18606
 20
7.85176
 30
0.0
 10
0.19467
 20
7.84975
 30
0.0
 10
0.20209
 20
7.84578
 30
0.0
 10
0.20209
 20
7.84578
 30
0.0
 10
0.20952
 20
7.84186
 30
0.0
 10
0.21562
 20
7.83614
 30
0.0
 10
0.22048
 20
7.82868
 30
0.0
 10
0.22048
 20
7.82868
 30
0.0
 10
0.2253
 20
7.82122
 30
0.0
 10
0.22909
 20
7.81213
 30
0.0
 10
0.23182
 20
7.80142
 30
0.0
 10
0.23182
 20
7.80142
 30
0.0
 10
0.2346
 20
7.79072
 30
0.0
 10
0.23596
 20
7.7763
 30
0.0
 10
0.23596
 20
7.75813
 30
0.0
 10
0.23596
 20
7.75813
 30
0.0
 10
0.23596
 20
7.73663
 30
0.0
 10
0.23374
 20
7.71932
 30
0.0
 10
0.22935
 20
7.70609
 30
0.0
 10
0.22935
 20
7.70609
 30
0.0
 10
0.22491
 20
7.69287
 30
0.0
 10
0.2183
 20
7.68268
 30
0.0
 10
0.20952
 20
7.67547
 30
0.0
 10
0.20952
 20
7.67547
 30
0.0
 10
0.20073
 20
7.66826
 30
0.0
 10
0.18964
 20
7.66468
 30
0.0
 10
0.1762
 20
7.66468
 30
0.0
 10
0.1762
 20
7.66468
 30
0.0
 10
0.15854
 20
7.66468
 30
0.0
 10
0.14468
 20
7.67099
 30
0.0
 10
0.13462
 20
7.68366
 30
0.0
 10
0.13462
 20
7.68366
 30
0.0
 10
0.12254
 20
7.69888
 30
0.0
 10
0.11649
 20
7.72375
 30
0.0
 10
0.11649
 20
7.75813
 30
0.0
  0
SPLINE
  5
BC
330
1F
100
AcDbEntity
  8
layer 2
370
     9
100
AcDbSpline
210
0.0
220
0.0
230
1.0
 70
    11
 71
     3
 72
    36
 73
    32
 74
     0
 42
0.0000000001
 43
0.0000000001
 12
1.0
 22
0.0
 32
0.0
 13
1.0
 23
0.0
 33
0.0
 40
0.0
 40
0.0
 40
0.0
 40
0.0
 40
0.1111111111111111
 40
0.1111111111111111
 40
0.1111111111111111
 40
0.1111111111111111
 40
0.2222222222222222
 40
0.2222222222222222
 40
0.2222222222222222
 40
0.2222222222222222
 40
0.3333333333333333
 40
0.3333333333333333
 40
0.3333333333333333
 40
0.3333333333333333
 40
0.4444444444444444
 40
0.4444444444444444
 40
0.4444444444444444
 40
0.4444444444444444
 40
0.5555555555555556
 40
0.5555555555555556
 40
0.5555555555555556
 40
0.5555555555555556
 40
0.6666666666666666
 40
0.6666666666666666
 40
0.6666666666666666
 40
0.6666666666666666
 40
0.7777777777777778
 40
0.7777777777777778
 40
0.7777777777777778
 40
0.7777777777777778
 40
1.0
 40
1.0
 40
1.0
 40
1.0
 10
0.13961
 20
7.75813
 30
0.0
 10
0.13961
 20
7.72806
 30
0.0
 10
0.14315
 20
7.70806
 30
0.0
 10
0.15018
 20
7.69807
 30
0.0
 10
0.15018
 20
7.69807
 30
0.0
 10
0.15722
 20
7.68814
 30
0.0
 10
0.16588
 20
7.68315
 30
0.0
 10
0.1762
 20
7.68315
 30
0.0
 10
0.1762
 20
7.68315
 30
0.0
 10
0.18657
 20
7.68315
 30
0.0
 10
0.19523
 20
7.68818
 30
0.0
 10
0.20226
 20
7.69816
 30
0.0
 10
0.20226
 20
7.69816
 30
0.0
 10
0.2093
 20
7.70814
 30
0.0
 10
0.21284
 20
7.72815
 30
0.0
 10
0.21284
 20
7.75813
 30
0.0
 10
0.21284
 20
7.75813
 30
0.0
 10
0.21284
 20
7.78829
 30
0.0
 10
0.2093
 20
7.80833
 30
0.0
 10
0.20226
 20
7.81823
 30
0.0
 10
0.20226
 20
7.81823
 30
0.0
 10
0.19523
 20
7.82817
 30
0.0
 10
0.18648
 20
7.83312
 30
0.0
 10
0.17599
 20
7.83312
 30
0.0
 10
0.17599
 20
7.83312
 30
0.0
 10
0.16563
 20
7.83312
 30
0.0
 10
0.15739
 20
7.82872
 30
0.0
 10
0.15121
 20
7.81998
 30
0.0
 10
0.15121
 20
7.81998
 30
0.0
 10
0.14349
 20
7.80885
 30
0.0
 10
0.13961
 20
7.7882
 30
0.0
 10
0.13961
 20
7.75813
 30
0.0
  0
SPLINE
  5
BD
330
1F
100
AcDbEntity
  8
layer 2
370
     5
100
AcDbSpline
210
0.0
220
0.0
230
1.0
 70
    24
 71
     3
 72
     8
 73
     4
 74
     0
 42
0.0000000001
 43
0.0000000001
 12
1.0
 22
0.0
 32
0.0
 13
1.0
 23
0.0
 33
0.0
 40
0.0
 40
0.0
 40
0.0
 40
0.0
 40
1.0
 40
1.0
 40
1.0
 40
1.0
 10
-8.95461
 20
5.90808
 30
0.0
 10
-8.95461
 20
5.90808
 30
0.0
 10
-10.99675
 20
5.90808
 30
0.0
 10
-10.99675
 20
5.90808
 30
0.0
  0
SPLINE
  5
BE
330
1F
100
AcDbEntity
  8
layer 2
370
     5
100
AcDbSpline
210
0.0
220
0.0
230
1.0
 70
    27
 71
     3
 72
     8
 73
     4
 74
     0
 42
0.0000000001
 43
0.0000000001
 12
1.0
 22
0.0
 32
0.0
 13
1.0
 23
0.0
 33
0.0
 40
0.0
 40
0.0
 40
0.0
 40
0.0
 40
1.0
 40
1.0
 40
1.0
 40
1.0
 10
-8.95461
 20
-5.92838
 30
0.0
 10
-8.95461
 20
-5.92838
 30
0.0
 10
-8.95461
 20
-5.92838
 30
0.0
 10
-8.95461
 20
-5.92838
 30
0.0
  0
SPLINE
  5
BF
330
1F
100
AcDbEntity
  8
layer 2
370
     5
100
AcDbSpline
210
0.0
220
0.0
230
1.0
 70
    24
 71
     3
 72
     8
 73
     4
 74
     0
 42
0.0000000001
 43
0.0000000001
 12
1.0
 22
0.0
 32
0.0
 13
1.0
 23
0.0
 33
0.0
 40
0.0
 40
0.0
 40
0.0
 40
0.0
 40
1.0
 40
1.0
 40
1.0
 40
1.0
 10
-8.95461
 20
-5.92838
 30
0.0
 10
-8.95461
 20
-5.92838
 30
0.0
 10
-10.99675
 20
-5.92838
 30
0.0
 10
-10.99675
 20
-5.92838
 30
0.0
  0
SPLINE
  5
C0
330
1F
100
AcDbEntity
  8
layer 2
370
     5
100
AcDbSpline
210
0.0
220
0.0
230
1.0
 70
    24
 71
     3
 72
     8
 73
     4
 74
     0
 42
0.0000000001
 43
0.0000000001
 12
1.0
 22
0.0
 32
0.0
 13
1.0
 23
0.0
 33
0.0
 40
0.0
 40
0.0
 40
0.0
 40
0.0
 40
1.0
 40
1.0
 40
1.0
 40
1.0
 10
-10.97009
 20
5.67348
 30
0.0
 10
-10.97009
 20
5.67348
 30
0.0
 10
-10.97009
 20
-5.69378
 30
0.0
 10
-10.97009
 20
-5.69378
 30
0.0
  0
SPLINE
  5
C1
330
1F
100
AcDbEntity
  8
layer 2
370
     9
100
AcDbSpline
210
0.0
220
0.0
230
1.0
 70
    27
 71
     3
 72
    12
 73
     8
 74
     0
 42
0.0000000001
 43
0.0000000001
 12
1.0
 22
0.0
 32
0.0
 13
1.0
 23
0.0
 33
0.0
 40
0.0
 40
0.0
 40
0.0
 40
0.0
 40
0.3333333333333333
 40
0.3333333333333333
 40
0.3333333333333333
 40
0.3333333333333333
 40
1.0
 40
1.0
 40
1.0
 40
1.0
 10
-11.00919
 20
5.67348
 30
0.0
 10
-11.00919
 20
5.67348
 30
0.0
 10
-10.97009
 20
5.90808
 30
0.0
 10
-10.97009
 20
5.90808
 30
0.0
 10
-10.97009
 20
5.90808
 30
0.0
 10
-10.97009
 20
5.90808
 30
0.0
 10
-11.00919
 20
5.67348
 30
0.0
 10
-11.00919
 20
5.67348
 30
0.0
  0
SPLINE
  5
C2
330
1F
100
AcDbEntity
  8
layer 2
370
     9
100
AcDbSpline
210
0.0
220
0.0
230
1.0
 70
    11
 71
     3
 72
    16
 73
    12
 74
     0
 42
0.0000000001
 43
0.0000000001
 12
1.0
 22
0.0
 32
0.0
 13
1.0
 23
0.0
 33
0.0
 40
0.0
 40
0.0
 40
0.0
 40
0.0
 40
0.25
 40
0.25
 40
0.25
 40
0.25
 40
0.5
 40
0.5
 40
0.5
 40
0.5
 40
1.0
 40
1.0
 40
1.0
 40
1.0
 10
-10.97009
 20
5.90808
 30
0.0
 10
-10.97009
 20
5.90808
 30
0.0
 10
-10.93099
 20
5.67348
 30
0.0
 10
-10.93099
 20
5.67348
 30
0.0
 10
-10.93099
 20
5.67348
 30
0.0
 10
-10.93099
 20
5.67348
 30
0.0
 10
-11.00919
 20
5.67348
 30
0.0
 10
-11.00919
 20
5.67348
 30
0.0
 10
-11.00919
 20
5.67348
 30
0.0
 10
-11.00919
 20
5.67348
 30
0.0
 10
-10.97009
 20
5.90808
 30
0.0
 10
-10.97009
 20
5.90808
 30
0.0
  0
SPLINE
  5
C3
330
1F
100
AcDbEntity
  8
layer 2
370
    13
100
AcDbSpline
210
0.0
220
0.0
230
1.0
 70
    24
 71
     3
 72
     8
 73
     4
 74
     0
 42
0.0000000001
 43
0.0000000001
 12
1.0
 22
0.0
 32
0.0
 13
1.0
 23
0.0
 33
0.0
 40
0.0
 40
0.0
 40
0.0
 40
0.0
 40
1.0
 40
1.0
 40
1.0
 40
1.0
 10
-11.00919
 20
5.67348
 30
0.0
 10
-11.00919
 20
5.67348
 30
0.0
 10
-10.97009
 20
5.90808
 30
0.0
 10
-10.97009
 20
5.90808
 30
0.0
  0
SPLINE
  5
C4
330
1F
100
AcDbEntity
  8
layer 2
370
    13
100
AcDbSpline
210
0.0
220
0.0
230
1.0
 70
     8
 71
     3
 72
    12
 73
     8
 74
     0
 42
0.0000000001
 43
0.0000000001
 12
1.0
 22
0.0
 32
0.0
 13
1.0
 23
0.0
 33
0.0
 40
0.0
 40
0.0
 40
0.0
 40
0.0
 40
0.3333333333333333
 40
0.3333333333333333
 40
0.3333333333333333
 40
0.3333333333333333
 40
1.0
 40
1.0
 40
1.0
 40
1.0
 10
-10.97009
 20
5.90808
 30
0.0
 10
-10.97009
 20
5.90808
 30
0.0
 10
-10.93099
 20
5.67348
 30
0.0
 10
-10.93099
 20
5.67348
 30
0.0
 10
-10.93099
 20
5.67348
 30
0.0
 10
-10.93099
 20
5.67348
 30
0.0
 10
-11.00919
 20
5.67348
 30
0.0
 10
-11.00919
 20
5.67348
 30
0.0
  0
SPLINE
  5
C5
330
1F
100
AcDbEntity
  8
layer 2
370
     9
100
AcDbSpline
210
0.0
220
0.0
230
1.0
 70
    27
 71
     3
 72
    12
 73
     8
 74
     0
 42
0.0000000001
 43
0.0000000001
 12
1.0
 22
0.0
 32
0.0
 13
1.0
 23
0.0
 33
0.0
 40
0.0
 40
0.0
 40
0.0
 40
0.0
 40
0.3333333333333333
 40
0.3333333333333333
 40
0.3333333333333333
 40
0.3333333333333333
 40
1.0
 40
1.0
 40
1.0
 40
1.0
 10
-11.00919
 20
-5.69378
 30
0.0
 10
-11.00919
 20
-5.69378
 30
0.0
 10
-10.97009
 20
-5.92838
 30
0.0
 10
-10.97009
 20
-5.92838
 30
0.0
 10
-10.97009
 20
-5.92838
 30
0.0
 10
-10.97009
 20
-5.92838
 30
0.0
 10
-11.00919
 20
-5.69378
 30
0.0
 10
-11.00919
 20
-5.69378
 30
0.0
  0
SPLINE
  5
C6
330
1F
100
AcDbEntity
  8
layer 2
370
     9
100
AcDbSpline
210
0.0
220
0.0
230
1.0
 70
    11
 71
     3
 72
    16
 73
    12
 74
     0
 42
0.0000000001
 43
0.0000000001
 12
1.0
 22
0.0
 32
0.0
 13
1.0
 23
0.0
 33
0.0
 40
0.0
 40
0.0
 40
0.0
 40
0.0
 40
0.25
 40
0.25
 40
0.25
 40
0.25
 40
0.5
 40
0.5
 40
0.5
 40
0.5
 40
1.0
 40
1.0
 40
1.0
 40
1.0
 10
-10.97009
 20
-5.92838
 30
0.0
 10
-10.97009
 20
-5.92838
 30
0.0
 10
-10.93099
 20
-5.69378
 30
0.0
 10
-10.93099
 20
-5.69378
 30
0.0
 10
-10.93099
 20
-5.69378
 30
0.0
 10
-10.93099
 20
-5.69378
 30
0.0
 10
-11.00919
 20
-5.69378
 30
0.0
 10
-11.00919
 20
-5.69378
 30
0.0
 10
-11.00919
 20
-5.69378
 30
0.0
 10
-11.00919
 20
-5.69378
 30
0.0
 10
-10.97009
 20
-5.92838
 30
0.0
 10
-10.97009
 20
-5.92838
 30
0.0
  0
SPLINE
  5
C7
330
1F
100
AcDbEntity
  8
layer 2
370
    13
100
AcDbSpline
210
0.0
220
0.0
230
1.0
 70
    24
 71
     3
 72
     8
 73
     4
 74
     0
 42
0.0000000001
 43
0.0000000001
 12
1.0
 22
0.0
 32
0.0
 13
1.0
 23
0.0
 33
0.0
 40
0.0
 40
0.0
 40
0.0
 40
0.0
 40
1.0
 40
1.0
 40
1.0
 40
1.0
 10
-11.00919
 20
-5.69378
 30
0.0
 10
-11.00919
 20
-5.69378
 30
0.0
 10
-10.97009
 20
-5.92838
 30
0.0
 10
-10.97009
 20
-5.92838
 30
0.0
  0
SPLINE
  5
C8
330
1F
100
AcDbEntity
  8
layer 2
370
    13
100
AcDbSpline
210
0.0
220
0.0
230
1.0
 70
     8
 71
     3
 72
    12
 73
     8
 74
     0
 42
0.0000000001
 43
0.0000000001
 12
1.0
 22
0.0
 32
0.0
 13
1.0
 23
0.0
 33
0.0
 40
0.0
 40
0.0
 40
0.0
 40
0.0
 40
0.3333333333333333
 40
0.3333333333333333
 40
0.3333333333333333
 40
0.3333333333333333
 40
1.0
 40
1.0
 40
1.0
 40
1.0
 10
-10.97009
 20
-5.92838
 30
0.0
 10
-10.97009
 20
-5.92838
 30
0.0
 10
-10.93099
 20
-5.69378
 30
0.0
 10
-10.93099
 20
-5.69378
 30
0.0
 10
-10.93099
 20
-5.69378
 30
0.0
 10
-10.93099
 20
-5.69378
 30
0.0
 10
-11.00919
 20
-5.69378
 30
0.0
 10
-11.00919
 20
-5.69378
 30
0.0
  0
SPLINE
  5
C9
330
1F
100
AcDbEntity
  8
layer 2
370
     9
100
AcDbSpline
210
0.0
220
0.0
230
1.0
 70
    11
 71
     3
 72
    92
 73
    88
 74
     0
 42
0.0000000001
 43
0.0000000001
 12
1.0
 22
0.0
 32
0.0
 13
1.0
 23
0.0
 33
0.0
 40
0.0
 40
0.0
 40
0.0
 40
0.0
 40
0.0434782608695652
 40
0.0434782608695652
 40
0.0434782608695652
 40
0.0434782608695652
 40
0.0869565217391304
 40
0.0869565217391304
 40
0.0869565217391304
 40
0.0869565217391304
 40
0.1304347826086956
 40
0.1304347826086956
 40
0.1304347826086956
 40
0.1304347826086956
 40
0.1739130434782609
 40
0.1739130434782609
 40
0.1739130434782609
 40
0.1739130434782609
 40
0.2173913043478261
 40
0.2173913043478261
 40
0.2173913043478261
 40
0.2173913043478261
 40
0.2608695652173913
 40
0.2608695652173913
 40
0.2608695652173913
 40
0.2608695652173913
 40
0.3043478260869565
 40
0.3043478260869565
 40
0.3043478260869565
 40
0.3043478260869565
 40
0.3478260869565217
 40
0.3478260869565217
 40
0.3478260869565217
 40
0.3478260869565217
 40
0.391304347826087
 40
0.391304347826087
 40
0.391304347826087
 40
0.391304347826087
 40
0.4347826086956522
 40
0.4347826086956522
 40
0.4347826086956522
 40
0.4347826086956522
 40
0.4782608695652174
 40
0.4782608695652174
 40
0.4782608695652174
 40
0.4782608695652174
 40
0.5217391304347826
 40
0.5217391304347826
 40
0.5217391304347826
 40
0.5217391304347826
 40
0.5652173913043478
 40
0.5652173913043478
 40
0.5652173913043478
 40
0.5652173913043478
 40
0.6086956521739131
 40
0.6086956521739131
 40
0.6086956521739131
 40
0.6086956521739131
 40
0.6521739130434783
 40
0.6521739130434783
 40
0.6521739130434783
 40
0.6521739130434783
 40
0.6956521739130435
 40
0.6956521739130435
 40
0.6956521739130435
 40
0.6956521739130435
 40
0.7391304347826086
 40
0.7391304347826086
 40
0.7391304347826086
 40
0.7391304347826086
 40
0.782608695652174
 40
0.782608695652174
 40
0.782608695652174
 40
0.782608695652174
 40
0.8260869565217391
 40
0.8260869565217391
 40
0.8260869565217391
 40
0.8260869565217391
 40
0.8695652173913043
 40
0.8695652173913043
 40
0.8695652173913043
 40
0.8695652173913043
 40
0.9130434782608695
 40
0.9130434782608695
 40
0.9130434782608695
 40
0.9130434782608695
 40
1.0
 40
1.0
 40
1.0
 40
1.0
 10
-11.1426
 20
-0.21303
 30
0.0
 10
-11.1426
 20
-0.21303
 30
0.0
 10
-11.14461
 20
-0.1894
 30
0.0
 10
-11.14461
 20
-0.1894
 30
0.0
 10
-11.14461
 20
-0.1894
 30
0.0
 10
-11.13309
 20
-0.18765
 30
0.0
 10
-11.12447
 20
-0.1836
 30
0.0
 10
-11.11867
 20
-0.17724
 30
0.0
 10
-11.11867
 20
-0.17724
 30
0.0
 10
-11.11287
 20
-0.17085
 30
0.0
 10
-11.10997
 20
-0.16317
 30
0.0
 10
-11.10997
 20
-0.15417
 30
0.0
 10
-11.10997
 20
-0.15417
 30
0.0
 10
-11.10997
 20
-0.14333
 30
0.0
 10
-11.11407
 20
-0.13416
 30
0.0
 10
-11.12221
 20
-0.1267
 30
0.0
 10
-11.12221
 20
-0.1267
 30
0.0
 10
-11.1304
 20
-0.11919
 30
0.0
 10
-11.14124
 20
-0.11544
 30
0.0
 10
-11.15472
 20
-0.11544
 30
0.0
 10
-11.15472
 20
-0.11544
 30
0.0
 10
-11.16755
 20
-0.11544
 30
0.0
 10
-11.17766
 20
-0.11902
 30
0.0
 10
-11.18509
 20
-0.12623
 30
0.0
 10
-11.18509
 20
-0.12623
 30
0.0
 10
-11.19251
 20
-0.13344
 30
0.0
 10
-11.19622
 20
-0.14287
 30
0.0
 10
-11.19622
 20
-0.15455
 30
0.0
 10
-11.19622
 20
-0.15455
 30
0.0
 10
-11.19622
 20
-0.1618
 30
0.0
 10
-11.19455
 20
-0.16833
 30
0.0
 10
-11.19127
 20
-0.17417
 30
0.0
 10
-11.19127
 20
-0.17417
 30
0.0
 10
-11.18799
 20
-0.18002
 30
0.0
 10
-11.18372
 20
-0.18458
 30
0.0
 10
-11.17847
 20
-0.18791
 30
0.0
 10
-11.17847
 20
-0.18791
 30
0.0
 10
-11.17847
 20
-0.18791
 30
0.0
 10
-11.1812
 20
-0.20902
 30
0.0
 10
-11.1812
 20
-0.20902
 30
0.0
 10
-11.1812
 20
-0.20902
 30
0.0
 10
-11.1812
 20
-0.20902
 30
0.0
 10
-11.2753
 20
-0.19128
 30
0.0
 10
-11.2753
 20
-0.19128
 30
0.0
 10
-11.2753
 20
-0.19128
 30
0.0
 10
-11.2753
 20
-0.19128
 30
0.0
 10
-11.2753
 20
-0.10017
 30
0.0
 10
-11.2753
 20
-0.10017
 30
0.0
 10
-11.2753
 20
-0.10017
 30
0.0
 10
-11.2753
 20
-0.10017
 30
0.0
 10
-11.2538
 20
-0.10017
 30
0.0
 10
-11.2538
 20
-0.10017
 30
0.0
 10
-11.2538
 20
-0.10017
 30
0.0
 10
-11.2538
 20
-0.10017
 30
0.0
 10
-11.2538
 20
-0.17328
 30
0.0
 10
-11.2538
 20
-0.17328
 30
0.0
 10
-11.2538
 20
-0.17328
 30
0.0
 10
-11.2538
 20
-0.17328
 30
0.0
 10
-11.20458
 20
-0.18317
 30
0.0
 10
-11.20458
 20
-0.18317
 30
0.0
 10
-11.20458
 20
-0.18317
 30
0.0
 10
-11.21226
 20
-0.17217
 30
0.0
 10
-11.21609
 20
-0.16061
 30
0.0
 10
-11.21609
 20
-0.14854
 30
0.0
 10
-11.21609
 20
-0.14854
 30
0.0
 10
-11.21609
 20
-0.13254
 30
0.0
 10
-11.21055
 20
-0.11906
 30
0.0
 10
-11.19946
 20
-0.10806
 30
0.0
 10
-11.19946
 20
-0.10806
 30
0.0
 10
-11.18837
 20
-0.09705
 30
0.0
 10
-11.17412
 20
-0.09155
 30
0.0
 10
-11.15672
 20
-0.09155
 30
0.0
 10
-11.15672
 20
-0.09155
 30
0.0
 10
-11.14013
 20
-0.09155
 30
0.0
 10
-11.1258
 20
-0.09641
 30
0.0
 10
-11.11373
 20
-0.10605
 30
0.0
 10
-11.11373
 20
-0.10605
 30
0.0
 10
-11.09892
 20
-0.11783
 30
0.0
 10
-11.0915
 20
-0.13387
 30
0.0
 10
-11.0915
 20
-0.15417
 30
0.0
 10
-11.0915
 20
-0.15417
 30
0.0
 10
-11.0915
 20
-0.17085
 30
0.0
 10
-11.09615
 20
-0.18445
 30
0.0
 10
-11.10549
 20
-0.19499
 30
0.0
 10
-11.10549
 20
-0.19499
 30
0.0
 10
-11.11483
 20
-0.20552
 30
0.0
 10
-11.1272
 20
-0.21154
 30
0.0
 10
-11.1426
 20
-0.21303
 30
0.0
  0
SPLINE
  5
CA
330
1F
100
AcDbEntity
  8
layer 2
370
     9
100
AcDbSpline
210
0.0
220
0.0
230
1.0
 70
    11
 71
     3
 72
    92
 73
    88
 74
     0
 42
0.0000000001
 43
0.0000000001
 12
1.0
 22
0.0
 32
0.0
 13
1.0
 23
0.0
 33
0.0
 40
0.0
 40
0.0
 40
0.0
 40
0.0
 40
0.0434782608695652
 40
0.0434782608695652
 40
0.0434782608695652
 40
0.0434782608695652
 40
0.0869565217391304
 40
0.0869565217391304
 40
0.0869565217391304
 40
0.0869565217391304
 40
0.1304347826086956
 40
0.1304347826086956
 40
0.1304347826086956
 40
0.1304347826086956
 40
0.1739130434782609
 40
0.1739130434782609
 40
0.1739130434782609
 40
0.1739130434782609
 40
0.2173913043478261
 40
0.2173913043478261
 40
0.2173913043478261
 40
0.2173913043478261
 40
0.2608695652173913
 40
0.2608695652173913
 40
0.2608695652173913
 40
0.2608695652173913
 40
0.3043478260869565
 40
0.3043478260869565
 40
0.3043478260869565
 40
0.3043478260869565
 40
0.3478260869565217
 40
0.3478260869565217
 40
0.3478260869565217
 40
0.3478260869565217
 40
0.391304347826087
 40
0.391304347826087
 40
0.391304347826087
 40
0.391304347826087
 40
0.4347826086956522
 40
0.4347826086956522
 40
0.4347826086956522
 40
0.4347826086956522
 40
0.4782608695652174
 40
0.4782608695652174
 40
0.4782608695652174
 40
0.4782608695652174
 40
0.5217391304347826
 40
0.5217391304347826
 40
0.5217391304347826
 40
0.5217391304347826
 40
0.5652173913043478
 40
0.5652173913043478
 40
0.5652173913043478
 40
0.5652173913043478
 40
0.6086956521739131
 40
0.6086956521739131
 40
0.6086956521739131
 40
0.6086956521739131
 40
0.6521739130434783
 40
0.6521739130434783
 40
0.6521739130434783
 40
0.6521739130434783
 40
0.6956521739130435
 40
0.6956521739130435
 40
0.6956521739130435
 40
0.6956521739130435
 40
0.7391304347826086
 40
0.7391304347826086
 40
0.7391304347826086
 40
0.7391304347826086
 40
0.782608695652174
 40
0.782608695652174
 40
0.782608695652174
 40
0.782608695652174
 40
0.8260869565217391
 40
0.8260869565217391
 40
0.8260869565217391
 40
0.8260869565217391
 40
0.8695652173913043
 40
0.8695652173913043
 40
0.8695652173913043
 40
0.8695652173913043
 40
0.9130434782608695
 40
0.9130434782608695
 40
0.9130434782608695
 40
0.9130434782608695
 40
1.0
 40
1.0
 40
1.0
 40
1.0
 10
-11.1426
 20
-0.07069
 30
0.0
 10
-11.1426
 20
-0.07069
 30
0.0
 10
-11.14461
 20
-0.04706
 30
0.0
 10
-11.14461
 20
-0.04706
 30
0.0
 10
-11.14461
 20
-0.04706
 30
0.0
 10
-11.13309
 20
-0.04532
 30
0.0
 10
-11.12447
 20
-0.04126
 30
0.0
 10
-11.11867
 20
-0.03491
 30
0.0
 10
-11.11867
 20
-0.03491
 30
0.0
 10
-11.11287
 20
-0.02851
 30
0.0
 10
-11.10997
 20
-0.02083
 30
0.0
 10
-11.10997
 20
-0.01183
 30
0.0
 10
-11.10997
 20
-0.01183
 30
0.0
 10
-11.10997
 20
-0.001
 30
0.0
 10
-11.11407
 20
0.00817
 30
0.0
 10
-11.12221
 20
0.01564
 30
0.0
 10
-11.12221
 20
0.01564
 30
0.0
 10
-11.1304
 20
0.02314
 30
0.0
 10
-11.14124
 20
0.0269
 30
0.0
 10
-11.15472
 20
0.0269
 30
0.0
 10
-11.15472
 20
0.0269
 30
0.0
 10
-11.16755
 20
0.0269
 30
0.0
 10
-11.17766
 20
0.02331
 30
0.0
 10
-11.18509
 20
0.01611
 30
0.0
 10
-11.18509
 20
0.01611
 30
0.0
 10
-11.19251
 20
0.0089
 30
0.0
 10
-11.19622
 20
-0.00053
 30
0.0
 10
-11.19622
 20
-0.01222
 30
0.0
 10
-11.19622
 20
-0.01222
 30
0.0
 10
-11.19622
 20
-0.01947
 30
0.0
 10
-11.19455
 20
-0.02599
 30
0.0
 10
-11.19127
 20
-0.03184
 30
0.0
 10
-11.19127
 20
-0.03184
 30
0.0
 10
-11.18799
 20
-0.03768
 30
0.0
 10
-11.18372
 20
-0.04224
 30
0.0
 10
-11.17847
 20
-0.04557
 30
0.0
 10
-11.17847
 20
-0.04557
 30
0.0
 10
-11.17847
 20
-0.04557
 30
0.0
 10
-11.1812
 20
-0.06669
 30
0.0
 10
-11.1812
 20
-0.06669
 30
0.0
 10
-11.1812
 20
-0.06669
 30
0.0
 10
-11.1812
 20
-0.06669
 30
0.0
 10
-11.2753
 20
-0.04894
 30
0.0
 10
-11.2753
 20
-0.04894
 30
0.0
 10
-11.2753
 20
-0.04894
 30
0.0
 10
-11.2753
 20
-0.04894
 30
0.0
 10
-11.2753
 20
0.04217
 30
0.0
 10
-11.2753
 20
0.04217
 30
0.0
 10
-11.2753
 20
0.04217
 30
0.0
 10
-11.2753
 20
0.04217
 30
0.0
 10
-11.2538
 20
0.04217
 30
0.0
 10
-11.2538
 20
0.04217
 30
0.0
 10
-11.2538
 20
0.04217
 30
0.0
 10
-11.2538
 20
0.04217
 30
0.0
 10
-11.2538
 20
-0.03094
 30
0.0
 10
-11.2538
 20
-0.03094
 30
0.0
 10
-11.2538
 20
-0.03094
 30
0.0
 10
-11.2538
 20
-0.03094
 30
0.0
 10
-11.20458
 20
-0.04084
 30
0.0
 10
-11.20458
 20
-0.04084
 30
0.0
 10
-11.20458
 20
-0.04084
 30
0.0
 10
-11.21226
 20
-0.02983
 30
0.0
 10
-11.21609
 20
-0.01827
 30
0.0
 10
-11.21609
 20
-0.0062
 30
0.0
 10
-11.21609
 20
-0.0062
 30
0.0
 10
-11.21609
 20
0.00979
 30
0.0
 10
-11.21055
 20
0.02327
 30
0.0
 10
-11.19946
 20
0.03428
 30
0.0
 10
-11.19946
 20
0.03428
 30
0.0
 10
-11.18837
 20
0.04528
 30
0.0
 10
-11.17412
 20
0.05078
 30
0.0
 10
-11.15672
 20
0.05078
 30
0.0
 10
-11.15672
 20
0.05078
 30
0.0
 10
-11.14013
 20
0.05078
 30
0.0
 10
-11.1258
 20
0.04592
 30
0.0
 10
-11.11373
 20
0.03628
 30
0.0
 10
-11.11373
 20
0.03628
 30
0.0
 10
-11.09892
 20
0.02451
 30
0.0
 10
-11.0915
 20
0.00847
 30
0.0
 10
-11.0915
 20
-0.01183
 30
0.0
 10
-11.0915
 20
-0.01183
 30
0.0
 10
-11.0915
 20
-0.02851
 30
0.0
 10
-11.09615
 20
-0.04212
 30
0.0
 10
-11.10549
 20
-0.05265
 30
0.0
 10
-11.10549
 20
-0.05265
 30
0.0
 10
-11.11483
 20
-0.06319
 30
0.0
 10
-11.1272
 20
-0.0692
 30
0.0
 10
-11.1426
 20
-0.07069
 30
0.0
  0
SPLINE
  5
CB
330
1F
100
AcDbEntity
  8
layer 2
370
     9
100
AcDbSpline
210
0.0
220
0.0
230
1.0
 70
    11
 71
     3
 72
    52
 73
    48
 74
     0
 42
0.0000000001
 43
0.0000000001
 12
1.0
 22
0.0
 32
0.0
 13
1.0
 23
0.0
 33
0.0
 40
0.0
 40
0.0
 40
0.0
 40
0.0
 40
0.0769230769230769
 40
0.0769230769230769
 40
0.0769230769230769
 40
0.0769230769230769
 40
0.1538461538461539
 40
0.1538461538461539
 40
0.1538461538461539
 40
0.1538461538461539
 40
0.2307692307692308
 40
0.2307692307692308
 40
0.2307692307692308
 40
0.2307692307692308
 40
0.3076923076923077
 40
0.3076923076923077
 40
0.3076923076923077
 40
0.3076923076923077
 40
0.3846153846153846
 40
0.3846153846153846
 40
0.3846153846153846
 40
0.3846153846153846
 40
0.4615384615384616
 40
0.4615384615384616
 40
0.4615384615384616
 40
0.4615384615384616
 40
0.5384615384615384
 40
0.5384615384615384
 40
0.5384615384615384
 40
0.5384615384615384
 40
0.6153846153846154
 40
0.6153846153846154
 40
0.6153846153846154
 40
0.6153846153846154
 40
0.6923076923076923
 40
0.6923076923076923
 40
0.6923076923076923
 40
0.6923076923076923
 40
0.7692307692307693
 40
0.7692307692307693
 40
0.7692307692307693
 40
0.7692307692307693
 40
0.8461538461538461
 40
0.8461538461538461
 40
0.8461538461538461
 40
0.8461538461538461
 40
1.0
 40
1.0
 40
1.0
 40
1.0
 10
-11.18496
 20
0.07164
 30
0.0
 10
-11.20663
 20
0.07164
 30
0.0
 10
-11.22407
 20
0.07386
 30
0.0
 10
-11.23725
 20
0.07834
 30
0.0
 10
-11.23725
 20
0.07834
 30
0.0
 10
-11.25047
 20
0.08277
 30
0.0
 10
-11.26067
 20
0.08943
 30
0.0
 10
-11.26783
 20
0.09821
 30
0.0
 10
-11.26783
 20
0.09821
 30
0.0
 10
-11.275
 20
0.107
 30
0.0
 10
-11.27858
 20
0.11805
 30
0.0
 10
-11.27858
 20
0.13136
 30
0.0
 10
-11.27858
 20
0.13136
 30
0.0
 10
-11.27858
 20
0.14121
 30
0.0
 10
-11.27658
 20
0.14983
 30
0.0
 10
-11.27261
 20
0.15725
 30
0.0
 10
-11.27261
 20
0.15725
 30
0.0
 10
-11.26869
 20
0.16467
 30
0.0
 10
-11.26297
 20
0.17077
 30
0.0
 10
-11.25551
 20
0.17563
 30
0.0
 10
-11.25551
 20
0.17563
 30
0.0
 10
-11.24804
 20
0.18045
 30
0.0
 10
-11.23896
 20
0.18425
 30
0.0
 10
-11.22825
 20
0.18698
 30
0.0
 10
-11.22825
 20
0.18698
 30
0.0
 10
-11.21754
 20
0.18975
 30
0.0
 10
-11.20313
 20
0.19112
 30
0.0
 10
-11.18496
 20
0.19112
 30
0.0
 10
-11.18496
 20
0.19112
 30
0.0
 10
-11.16346
 20
0.19112
 30
0.0
 10
-11.14614
 20
0.1889
 30
0.0
 10
-11.13292
 20
0.1845
 30
0.0
 10
-11.13292
 20
0.1845
 30
0.0
 10
-11.1197
 20
0.18007
 30
0.0
 10
-11.1095
 20
0.17346
 30
0.0
 10
-11.10229
 20
0.16467
 30
0.0
 10
-11.10229
 20
0.16467
 30
0.0
 10
-11.09509
 20
0.15588
 30
0.0
 10
-11.0915
 20
0.14479
 30
0.0
 10
-11.0915
 20
0.13136
 30
0.0
 10
-11.0915
 20
0.13136
 30
0.0
 10
-11.0915
 20
0.1137
 30
0.0
 10
-11.09782
 20
0.09984
 30
0.0
 10
-11.11048
 20
0.08977
 30
0.0
 10
-11.11048
 20
0.08977
 30
0.0
 10
-11.12571
 20
0.0777
 30
0.0
 10
-11.15058
 20
0.07164
 30
0.0
 10
-11.18496
 20
0.07164
 30
0.0
  0
SPLINE
  5
CC
330
1F
100
AcDbEntity
  8
layer 2
370
     9
100
AcDbSpline
210
0.0
220
0.0
230
1.0
 70
    11
 71
     3
 72
    36
 73
    32
 74
     0
 42
0.0000000001
 43
0.0000000001
 12
1.0
 22
0.0
 32
0.0
 13
1.0
 23
0.0
 33
0.0
 40
0.0
 40
0.0
 40
0.0
 40
0.0
 40
0.1111111111111111
 40
0.1111111111111111
 40
0.1111111111111111
 40
0.1111111111111111
 40
0.2222222222222222
 40
0.2222222222222222
 40
0.2222222222222222
 40
0.2222222222222222
 40
0.3333333333333333
 40
0.3333333333333333
 40
0.3333333333333333
 40
0.3333333333333333
 40
0.4444444444444444
 40
0.4444444444444444
 40
0.4444444444444444
 40
0.4444444444444444
 40
0.5555555555555556
 40
0.5555555555555556
 40
0.5555555555555556
 40
0.5555555555555556
 40
0.6666666666666666
 40
0.6666666666666666
 40
0.6666666666666666
 40
0.6666666666666666
 40
0.7777777777777778
 40
0.7777777777777778
 40
0.7777777777777778
 40
0.7777777777777778
 40
1.0
 40
1.0
 40
1.0
 40
1.0
 10
-11.18496
 20
0.09476
 30
0.0
 10
-11.15489
 20
0.09476
 30
0.0
 10
-11.13488
 20
0.0983
 30
0.0
 10
-11.1249
 20
0.10534
 30
0.0
 10
-11.1249
 20
0.10534
 30
0.0
 10
-11.11496
 20
0.11238
 30
0.0
 10
-11.10997
 20
0.12103
 30
0.0
 10
-11.10997
 20
0.13136
 30
0.0
 10
-11.10997
 20
0.13136
 30
0.0
 10
-11.10997
 20
0.14172
 30
0.0
 10
-11.115
 20
0.15038
 30
0.0
 10
-11.12499
 20
0.15742
 30
0.0
 10
-11.12499
 20
0.15742
 30
0.0
 10
-11.13497
 20
0.16446
 30
0.0
 10
-11.15497
 20
0.168
 30
0.0
 10
-11.18496
 20
0.168
 30
0.0
 10
-11.18496
 20
0.168
 30
0.0
 10
-11.21511
 20
0.168
 30
0.0
 10
-11.23516
 20
0.16446
 30
0.0
 10
-11.24506
 20
0.15742
 30
0.0
 10
-11.24506
 20
0.15742
 30
0.0
 10
-11.25499
 20
0.15038
 30
0.0
 10
-11.25994
 20
0.14164
 30
0.0
 10
-11.25994
 20
0.13114
 30
0.0
 10
-11.25994
 20
0.13114
 30
0.0
 10
-11.25994
 20
0.12078
 30
0.0
 10
-11.25555
 20
0.11255
 30
0.0
 10
-11.24681
 20
0.10636
 30
0.0
 10
-11.24681
 20
0.10636
 30
0.0
 10
-11.23567
 20
0.09864
 30
0.0
 10
-11.21503
 20
0.09476
 30
0.0
 10
-11.18496
 20
0.09476
 30
0.0
  0
SPLINE
  5
CE
330
1F
100
AcDbEntity
  8
layer 3
  6
New Line1
370
     5
100
AcDbSpline
210
0.0
220
0.0
230
1.0
 70
     8
 71
     3
 72
    12
 73
     8
 74
     0
 42
0.0000000001
 43
0.0000000001
 12
1.0
 22
0.0
 32
0.0
 13
1.0
 23
0.0
 33
0.0
 40
0.0
 40
0.0
 40
0.0
 40
0.0
 40
0.3333333333333333
 40
0.3333333333333333
 40
0.3333333333333333
 40
0.3333333333333333
 40
1.0
 40
1.0
 40
1.0
 40
1.0
 10
7.81904
 20
4.27657
 30
0.0
 10
7.81904
 20
4.41232
 30
0.0
 10
7.76511
 20
4.54251
 30
0.0
 10
7.66912
 20
4.6385
 30
0.0
 10
7.66912
 20
4.6385
 30
0.0
 10
7.57313
 20
4.73449
 30
0.0
 10
7.44294
 20
4.78842
 30
0.0
 10
7.30719
 20
4.78842
 30
0.0
  0
SPLINE
  5
D0
330
1F
100
AcDbEntity
  8
layer 3
  6
New Line2
370
     5
100
AcDbSpline
210
0.0
220
0.0
230
1.0
 70
    27
 71
     3
 72
     8
 73
     4
 74
     0
 42
0.0000000001
 43
0.0000000001
 12
1.0
 22
0.0
 32
0.0
 13
1.0
 23
0.0
 33
0.0
 40
0.0
 40
0.0
 40
0.0
 40
0.0
 40
1.0
 40
1.0
 40
1.0
 40
1.0
 10
7.30719
 20
4.78842
 30
0.0
 10
7.30719
 20
4.78842
 30
0.0
 10
7.30719
 20
4.78842
 30
0.0
 10
7.30719
 20
4.78842
 30
0.0
  0
SPLINE
  5
D2
330
1F
100
AcDbEntity
  8
layer 3
  6
New Line3
370
     5
100
AcDbSpline
210
0.0
220
0.0
230
1.0
 70
    24
 71
     3
 72
     8
 73
     4
 74
     0
 42
0.0000000001
 43
0.0000000001
 12
1.0
 22
0.0
 32
0.0
 13
1.0
 23
0.0
 33
0.0
 40
0.0
 40
0.0
 40
0.0
 40
0.0
 40
1.0
 40
1.0
 40
1.0
 40
1.0
 10
7.30719
 20
4.78842
 30
0.0
 10
7.30719
 20
4.78842
 30
0.0
 10
-7.23779
 20
4.78842
 30
0.0
 10
-7.23779
 20
4.78842
 30
0.0
  0
SPLINE
  5
D4
330
1F
100
AcDbEntity
  8
layer 3
  6
New Line4
370
     5
100
AcDbSpline
210
0.0
220
0.0
230
1.0
 70
    27
 71
     3
 72
     8
 73
     4
 74
     0
 42
0.0000000001
 43
0.0000000001
 12
1.0
 22
0.0
 32
0.0
 13
1.0
 23
0.0
 33
0.0
 40
0.0
 40
0.0
 40
0.0
 40
0.0
 40
1.0
 40
1.0
 40
1.0
 40
1.0
 10
7.81904
 20
4.27657
 30
0.0
 10
7.81904
 20
4.27657
 30
0.0
 10
7.81904
 20
4.27657
 30
0.0
 10
7.81904
 20
4.27657
 30
0.0
  0
SPLINE
  5
D6
330
1F
100
AcDbEntity
  8
layer 3
  6
New Line5
370
     5
100
AcDbSpline
210
0.0
220
0.0
230
1.0
 70
    24
 71
     3
 72
     8
 73
     4
 74
     0
 42
0.0000000001
 43
0.0000000001
 12
1.0
 22
0.0
 32
0.0
 13
1.0
 23
0.0
 33
0.0
 40
0.0
 40
0.0
 40
0.0
 40
0.0
 40
1.0
 40
1.0
 40
1.0
 40
1.0
 10
7.81904
 20
4.27657
 30
0.0
 10
7.81904
 20
4.27657
 30
0.0
 10
7.81904
 20
-4.29687
 30
0.0
 10
7.81904
 20
-4.29687
 30
0.0
  0
SPLINE
  5
D8
330
1F
100
AcDbEntity
  8
layer 3
  6
New Line6
370
     5
100
AcDbSpline
210
0.0
220
0.0
230
1.0
 70
     8
 71
     3
 72
     8
 73
     4
 74
     0
 42
0.0000000001
 43
0.0000000001
 12
1.0
 22
0.0
 32
0.0
 13
1.0
 23
0.0
 33
0.0
 40
0.0
 40
0.0
 40
0.0
 40
0.0
 40
1.0
 40
1.0
 40
1.0
 40
1.0
 10
7.30719
 20
-4.80871
 30
0.0
 10
7.58988
 20
-4.80871
 30
0.0
 10
7.81904
 20
-4.57955
 30
0.0
 10
7.81904
 20
-4.29687
 30
0.0
  0
SPLINE
  5
DA
330
1F
100
AcDbEntity
  8
layer 3
  6
New Line7
370
     5
100
AcDbSpline
210
0.0
220
0.0
230
1.0
 70
    24
 71
     3
 72
     8
 73
     4
 74
     0
 42
0.0000000001
 43
0.0000000001
 12
1.0
 22
0.0
 32
0.0
 13
1.0
 23
0.0
 33
0.0
 40
0.0
 40
0.0
 40
0.0
 40
0.0
 40
1.0
 40
1.0
 40
1.0
 40
1.0
 10
7.30719
 20
-4.80871
 30
0.0
 10
7.30719
 20
-4.80871
 30
0.0
 10
-7.23779
 20
-4.80871
 30
0.0
 10
-7.23779
 20
-4.80871
 30
0.0
  0
SPLINE
  5
DC
330
1F
100
AcDbEntity
  8
layer 3
  6
New Line8
370
     5
100
AcDbSpline
210
0.0
220
0.0
230
1.0
 70
     8
 71
     3
 72
    12
 73
     8
 74
     0
 42
0.0000000001
 43
0.0000000001
 12
1.0
 22
0.0
 32
0.0
 13
1.0
 23
0.0
 33
0.0
 40
0.0
 40
0.0
 40
0.0
 40
0.0
 40
0.3333333333333333
 40
0.3333333333333333
 40
0.3333333333333333
 40
0.3333333333333333
 40
1.0
 40
1.0
 40
1.0
 40
1.0
 10
-7.74964
 20
-4.29687
 30
0.0
 10
-7.74964
 20
-4.43262
 30
0.0
 10
-7.69571
 20
-4.56281
 30
0.0
 10
-7.59972
 20
-4.6588
 30
0.0
 10
-7.59972
 20
-4.6588
 30
0.0
 10
-7.50373
 20
-4.75479
 30
0.0
 10
-7.37354
 20
-4.80871
 30
0.0
 10
-7.23779
 20
-4.80871
 30
0.0
  0
SPLINE
  5
DE
330
1F
100
AcDbEntity
  8
layer 3
  6
New Line9
370
     5
100
AcDbSpline
210
0.0
220
0.0
230
1.0
 70
    24
 71
     3
 72
     8
 73
     4
 74
     0
 42
0.0000000001
 43
0.0000000001
 12
1.0
 22
0.0
 32
0.0
 13
1.0
 23
0.0
 33
0.0
 40
0.0
 40
0.0
 40
0.0
 40
0.0
 40
1.0
 40
1.0
 40
1.0
 40
1.0
 10
-7.74964
 20
4.27657
 30
0.0
 10
-7.74964
 20
4.27657
 30
0.0
 10
-7.74964
 20
-4.29687
 30
0.0
 10
-7.74964
 20
-4.29687
 30
0.0
  0
SPLINE
  5
E0
330
1F
100
AcDbEntity
  8
layer 3
  6
New Line10
370
     5
100
AcDbSpline
210
0.0
220
0.0
230
1.0
 70
     8
 71
     3
 72
    12
 73
     8
 74
     0
 42
0.0000000001
 43
0.0000000001
 12
1.0
 22
0.0
 32
0.0
 13
1.0
 23
0.0
 33
0.0
 40
0.0
 40
0.0
 40
0.0
 40
0.0
 40
0.3333333333333333
 40
0.3333333333333333
 40
0.3333333333333333
 40
0.3333333333333333
 40
1.0
 40
1.0
 40
1.0
 40
1.0
 10
-7.23779
 20
4.78842
 30
0.0
 10
-7.37354
 20
4.78842
 30
0.0
 10
-7.50373
 20
4.73449
 30
0.0
 10
-7.59972
 20
4.6385
 30
0.0
 10
-7.59972
 20
4.6385
 30
0.0
 10
-7.69571
 20
4.54251
 30
0.0
 10
-7.74964
 20
4.41232
 30
0.0
 10
-7.74964
 20
4.27657
 30
0.0
  0
ENDSEC
  0
SECTION
  2
OBJECTS
  0
DICTIONARY
  5
C
330
0
100
AcDbDictionary
281
     1
  3
ACAD_GROUP
350
D
  3
ACAD_LAYOUT
350
1A
  3
ACAD_MATERIAL
350
3B
  3
ACAD_MLEADERSTYLE
350
103
  3
ACAD_MLINESTYLE
350
17
  3
ACAD_PLOTSETTINGS
350
19
  3
ACAD_PLOTSTYLENAME
350
E
  3
ACAD_TABLESTYLE
350
102
  3
ACAD_VISUALSTYLE
350
2A
  0
DICTIONARY
  5
D
102
{ACAD_REACTORS
330
C
102
}
330
C
100
AcDbDictionary
281
     1
  0
DICTIONARY
  5
1A
102
{ACAD_REACTORS
330
C
102
}
330
C
100
AcDbDictionary
281
     1
  3
Layout1
350
1E
  3
Layout2
350
26
  3
Model
350
22
  0
DICTIONARY
  5
3B
102
{ACAD_REACTORS
330
C
102
}
330
C
100
AcDbDictionary
281
     1
  3
ByBlock
350
3D
  3
ByLayer
350
3C
  3
Global
350
3E
  0
DICTIONARY
  5
103
102
{ACAD_REACTORS
330
C
102
}
330
C
100
AcDbDictionary
281
     1
  0
DICTIONARY
  5
17
102
{ACAD_REACTORS
330
C
102
}
330
C
100
AcDbDictionary
281
     1
  3
Standard
350
18
  0
DICTIONARY
  5
19
102
{ACAD_REACTORS
330
C
102
}
330
C
100
AcDbDictionary
281
     1
  0
ACDBDICTIONARYWDFLT
  5
E
102
{ACAD_REACTORS
330
C
102
}
330
C
100
AcDbDictionary
281
     1
  3
Normal
350
F
100
AcDbDictionaryWithDefault
340
F
  0
DICTIONARY
  5
102
102
{ACAD_REACTORS
330
C
102
}
330
C
100
AcDbDictionary
281
     1
  0
DICTIONARY
  5
2A
102
{ACAD_REACTORS
330
C
102
}
330
C
100
AcDbDictionary
281
     1
  3
2dWireframe
350
2F
  3
3D Hidden
350
31
  3
3dWireframe
350
30
  3
Basic
350
32
  3
Brighten
350
36
  3
ColorChange
350
3A
  3
Conceptual
350
34
  3
Dim
350
35
  3
Facepattern
350
39
  3
Flat
350
2B
  3
FlatWithEdges
350
2C
  3
Gouraud
350
2D
  3
GouraudWithEdges
350
2E
  3
Linepattern
350
38
  3
Realistic
350
33
  3
Thicken
350
37
  0
LAYOUT
  5
1E
102
{ACAD_REACTORS
330
1A
102
}
330
1A
100
AcDbPlotSettings
  1

  2
none_device
  4

  6

 40
0.0
 41
0.0
 42
0.0
 43
0.0
 44
0.0
 45
0.0
 46
0.0
 47
0.0
 48
0.0
 49
0.0
140
0.0
141
0.0
142
1.0
143
1.0
 70
   688
 72
     0
 73
     0
 74
     5
  7

 75
    16
 76
     0
 77
     2
 78
   300
147
1.0
148
0.0
149
0.0
100
AcDbLayout
  1
Layout1
 70
     1
 71
     1
 10
0.0
 20
0.0
 11
12.0
 21
9.0
 12
0.0
 22
0.0
 32
0.0
 14
1.000000000000000E+20
 24
1.000000000000000E+20
 34
1.000000000000000E+20
 15
-1.000000000000000E+20
 25
-1.000000000000000E+20
 35
-1.000000000000000E+20
146
0.0
 13
0.0
 23
0.0
 33
0.0
 16
1.0
 26
0.0
 36
0.0
 17
0.0
 27
1.0
 37
0.0
 76
     0
330
1B
  0
LAYOUT
  5
26
102
{ACAD_REACTORS
330
1A
102
}
330
1A
100
AcDbPlotSettings
  1

  2
none_device
  4

  6

 40
0.0
 41
0.0
 42
0.0
 43
0.0
 44
0.0
 45
0.0
 46
0.0
 47
0.0
 48
0.0
 49
0.0
140
0.0
141
0.0
142
1.0
143
1.0
 70
   688
 72
     0
 73
     0
 74
     5
  7

 75
    16
 76
     0
 77
     2
 78
   300
147
1.0
148
0.0
149
0.0
100
AcDbLayout
  1
Layout2
 70
     1
 71
     2
 10
0.0
 20
0.0
 11
0.0
 21
0.0
 12
0.0
 22
0.0
 32
0.0
 14
0.0
 24
0.0
 34
0.0
 15
0.0
 25
0.0
 35
0.0
146
0.0
 13
0.0
 23
0.0
 33
0.0
 16
1.0
 26
0.0
 36
0.0
 17
0.0
 27
1.0
 37
0.0
 76
     0
330
23
  0
LAYOUT
  5
22
102
{ACAD_REACTORS
330
1A
102
}
330
1A
100
AcDbPlotSettings
  1

  2
none_device
  4

  6

 40
0.0
 41
0.0
 42
0.0
 43
0.0
 44
0.0
 45
0.0
 46
0.0
 47
0.0
 48
0.0
 49
0.0
140
0.0
141
0.0
142
1.0
143
1.0
 70
  1712
 72
     0
 73
     0
 74
     0
  7

 75
     0
 76
     0
 77
     2
 78
   300
147
1.0
148
0.0
149
0.0
100
AcDbLayout
  1
Model
 70
     1
 71
     0
 10
0.0
 20
0.0
 11
12.0
 21
9.0
 12
0.0
 22
0.0
 32
0.0
 14
-11.28239
 24
-8.10898
 34
0.0
 15
8.9487
 25
7.85557
 35
0.0
146
0.0
 13
0.0
 23
0.0
 33
0.0
 16
1.0
 26
0.0
 36
0.0
 17
0.0
 27
1.0
 37
0.0
 76
     0
330
1F
331
29
  0
MATERIAL
  5
3D
102
{ACAD_REACTORS
330
3B
102
}
330
3B
100
AcDbMaterial
  1
ByBlock
 72
     1
 94
      127
  0
MATERIAL
  5
3C
102
{ACAD_REACTORS
330
3B
102
}
330
3B
100
AcDbMaterial
  1
ByLayer
 72
     1
 94
      127
  0
MATERIAL
  5
3E
102
{ACAD_REACTORS
330
3B
102
}
330
3B
100
AcDbMaterial
  1
Global
 72
     1
 94
      127
  0
MLINESTYLE
  5
18
102
{ACAD_REACTORS
330
17
102
}
330
17
100
AcDbMlineStyle
  2
Standard
 70
     0
  3

 62
   256
 51
90.0
 52
90.0
 71
     2
 49
0.5
 62
   256
  6
BYLAYER
 49
-0.5
 62
   256
  6
BYLAYER
  0
ACDBPLACEHOLDER
  5
F
102
{ACAD_REACTORS
330
E
102
}
330
E
  0
VISUALSTYLE
  5
2F
102
{ACAD_REACTORS
330
2A
102
}
102
{ACAD_XDICTIONARY
360
EA
102
}
330
2A
100
AcDbVisualStyle
  2
2dWireframe
 70
     4
 71
     0
 72
     2
 73
     0
 90
        0
 40
-0.6
 41
-30.0
 62
     5
 63
     7
421
 16777215
 74
     1
 91
        4
 64
     7
 65
   257
 75
     1
175
     1
 42
1.0
 92
        0
 66
   257
 43
1.0
 76
     1
 77
     6
 78
     2
 67
     7
 79
     5
170
     0
171
     0
290
     0
174
     0
 93
        1
 44
0.0
173
     0
291
     0
 45
0.0
  0
VISUALSTYLE
  5
31
102
{ACAD_REACTORS
330
2A
102
}
102
{ACAD_XDICTIONARY
360
EE
102
}
330
2A
100
AcDbVisualStyle
  2
3D Hidden
 70
     6
 71
     1
 72
     2
 73
     2
 90
        0
 40
-0.6
 41
-30.0
 62
     5
 63
     7
421
 16777215
 74
     2
 91
        2
 64
     7
 65
   257
 75
     2
175
     1
 42
40.0
 92
        0
 66
   257
 43
1.0
 76
     1
 77
     6
 78
     2
 67
     7
 79
     3
170
     0
171
     0
290
     0
174
     0
 93
        1
 44
0.0
173
     0
291
     0
 45
0.0
  0
VISUALSTYLE
  5
30
102
{ACAD_REACTORS
330
2A
102
}
102
{ACAD_XDICTIONARY
360
EC
102
}
330
2A
100
AcDbVisualStyle
  2
3dWireframe
 70
     5
 71
     0
 72
     2
 73
     0
 90
        0
 40
-0.6
 41
-30.0
 62
     5
 63
     7
421
 16777215
 74
     1
 91
        4
 64
     7
 65
   257
 75
     1
175
     1
 42
1.0
 92
        0
 66
   257
 43
1.0
 76
     1
 77
     6
 78
     2
 67
     7
 79
     5
170
     0
171
     0
290
     0
174
     0
 93
        1
 44
0.0
173
     0
291
     0
 45
0.0
  0
VISUALSTYLE
  5
32
102
{ACAD_REACTORS
330
2A
102
}
102
{ACAD_XDICTIONARY
360
F0
102
}
330
2A
100
AcDbVisualStyle
  2
Basic
 70
     7
 71
     1
 72
     0
 73
     1
 90
        0
 40
-0.6
 41
-30.0
 62
     5
 63
     7
421
 16777215
 74
     0
 91
        4
 64
     7
 65
   257
 75
     1
175
     1
 42
1.0
 92
        8
 66
     7
 43
1.0
 76
     1
 77
     6
 78
     2
 67
     7
 79
     5
170
     0
171
     0
290
     0
174
     0
 93
        1
 44
0.0
173
     0
291
     1
 45
0.0
  0
VISUALSTYLE
  5
36
102
{ACAD_REACTORS
330
2A
102
}
102
{ACAD_XDICTIONARY
360
F8
102
}
330
2A
100
AcDbVisualStyle
  2
Brighten
 70
    12
 71
     2
 72
     2
 73
     0
 90
        0
 40
-0.6
 41
-30.0
 62
     5
 63
     7
421
 16777215
 74
     1
 91
        4
 64
     7
 65
   257
 75
     1
175
     1
 42
1.0
 92
        8
 66
     7
 43
1.0
 76
     1
 77
     6
 78
     2
 67
     7
 79
     5
170
     0
171
     0
290
     0
174
     0
 93
        1
 44
50.0
173
     0
291
     1
 45
0.0
  0
VISUALSTYLE
  5
3A
102
{ACAD_REACTORS
330
2A
102
}
102
{ACAD_XDICTIONARY
360
100
102
}
330
2A
100
AcDbVisualStyle
  2
ColorChange
 70
    16
 71
     2
 72
     2
 73
     3
 90
        0
 40
-0.6
 41
-30.0
 62
     5
 63
     8
421
  8421504
 74
     1
 91
        4
 64
     7
 65
   257
 75
     1
175
     1
 42
1.0
 92
        8
 66
     8
424
  8421504
 43
1.0
 76
     1
 77
     6
 78
     2
 67
     7
 79
     5
170
     0
171
     0
290
     0
174
     0
 93
        1
 44
0.0
173
     0
291
     1
 45
0.0
  0
VISUALSTYLE
  5
34
102
{ACAD_REACTORS
330
2A
102
}
102
{ACAD_XDICTIONARY
360
F4
102
}
330
2A
100
AcDbVisualStyle
  2
Conceptual
 70
     9
 71
     3
 72
     2
 73
     0
 90
        0
 40
-0.6
 41
-30.0
 62
     5
 63
     7
421
 16777215
 74
     2
 91
        2
 64
     7
 65
   257
 75
     1
175
     1
 42
40.0
 92
        8
 66
     7
 43
1.0
 76
     1
 77
     6
 78
     2
 67
     7
 79
     3
170
     0
171
     0
290
     0
174
     0
 93
        1
 44
0.0
173
     0
291
     0
 45
0.0
  0
VISUALSTYLE
  5
35
102
{ACAD_REACTORS
330
2A
102
}
102
{ACAD_XDICTIONARY
360
F6
102
}
330
2A
100
AcDbVisualStyle
  2
Dim
 70
    11
 71
     2
 72
     2
 73
     0
 90
        0
 40
-0.6
 41
-30.0
 62
     5
 63
     7
421
 16777215
 74
     1
 91
        4
 64
     7
 65
   257
 75
     1
175
     1
 42
1.0
 92
        8
 66
     7
 43
1.0
 76
     1
 77
     6
 78
     2
 67
     7
 79
     5
170
     0
171
     0
290
     0
174
     0
 93
        1
 44
-50.0
173
     0
291
     1
 45
0.0
  0
VISUALSTYLE
  5
39
102
{ACAD_REACTORS
330
2A
102
}
102
{ACAD_XDICTIONARY
360
FE
102
}
330
2A
100
AcDbVisualStyle
  2
Facepattern
 70
    15
 71
     2
 72
     2
 73
     0
 90
        0
 40
-0.6
 41
-30.0
 62
     5
 63
     7
421
 16777215
 74
     1
 91
        4
 64
     7
 65
   257
 75
     1
175
     1
 42
1.0
 92
        8
 66
     7
 43
1.0
 76
     1
 77
     6
 78
     2
 67
     7
 79
     5
170
     0
171
     0
290
     0
174
     0
 93
        1
 44
0.0
173
     0
291
     1
 45
0.0
  0
VISUALSTYLE
  5
2B
102
{ACAD_REACTORS
330
2A
102
}
102
{ACAD_XDICTIONARY
360
E2
102
}
330
2A
100
AcDbVisualStyle
  2
Flat
 70
     0
 71
     2
 72
     1
 73
     1
 90
        2
 40
-0.6
 41
30.0
 62
     5
 63
     7
421
 16777215
 74
     0
 91
        4
 64
     7
 65
   257
 75
     1
175
     1
 42
1.0
 92
        8
 66
     7
 43
1.0
 76
     1
 77
     6
 78
     2
 67
     7
 79
     5
170
     0
171
     0
290
     0
174
     0
 93
       13
 44
0.0
173
     0
291
     1
 45
0.0
  0
VISUALSTYLE
  5
2C
102
{ACAD_REACTORS
330
2A
102
}
102
{ACAD_XDICTIONARY
360
E4
102
}
330
2A
100
AcDbVisualStyle
  2
FlatWithEdges
 70
     1
 71
     2
 72
     1
 73
     1
 90
        2
 40
-0.6
 41
30.0
 62
     5
 63
     7
421
 16777215
 74
     1
 91
        4
 64
     7
 65
   257
 75
     1
175
     1
 42
1.0
 92
        0
 66
   257
 43
1.0
 76
     1
 77
     6
 78
     2
 67
     7
 79
     5
170
     0
171
     0
290
     0
174
     0
 93
       13
 44
0.0
173
     0
291
     1
 45
0.0
  0
VISUALSTYLE
  5
2D
102
{ACAD_REACTORS
330
2A
102
}
102
{ACAD_XDICTIONARY
360
E6
102
}
330
2A
100
AcDbVisualStyle
  2
Gouraud
 70
     2
 71
     2
 72
     2
 73
     1
 90
        2
 40
-0.6
 41
30.0
 62
     5
 63
     7
421
 16777215
 74
     0
 91
        4
 64
     7
 65
   257
 75
     1
175
     1
 42
1.0
 92
        0
 66
     7
 43
1.0
 76
     1
 77
     6
 78
     2
 67
     7
 79
     5
170
     0
171
     0
290
     0
174
     0
 93
       13
 44
0.0
173
     0
291
     1
 45
0.0
  0
VISUALSTYLE
  5
2E
102
{ACAD_REACTORS
330
2A
102
}
102
{ACAD_XDICTIONARY
360
E8
102
}
330
2A
100
AcDbVisualStyle
  2
GouraudWithEdges
 70
     3
 71
     2
 72
     2
 73
     1
 90
        2
 40
-0.6
 41
30.0
 62
     5
 63
     7
421
 16777215
 74
     1
 91
        4
 64
     7
 65
   257
 75
     1
175
     1
 42
1.0
 92
        0
 66
   257
 43
1.0
 76
     1
 77
     6
 78
     2
 67
     7
 79
     5
170
     0
171
     0
290
     0
174
     0
 93
       13
 44
0.0
173
     0
291
     1
 45
0.0
  0
VISUALSTYLE
  5
38
102
{ACAD_REACTORS
330
2A
102
}
102
{ACAD_XDICTIONARY
360
FC
102
}
330
2A
100
AcDbVisualStyle
  2
Linepattern
 70
    14
 71
     2
 72
     2
 73
     0
 90
        0
 40
-0.6
 41
-30.0
 62
     5
 63
     7
421
 16777215
 74
     1
 91
        4
 64
     7
 65
   257
 75
     7
175
     7
 42
1.0
 92
        8
 66
     7
 43
1.0
 76
     1
 77
     6
 78
     2
 67
     7
 79
     5
170
     0
171
     0
290
     0
174
     0
 93
        1
 44
0.0
173
     0
291
     1
 45
0.0
  0
VISUALSTYLE
  5
33
102
{ACAD_REACTORS
330
2A
102
}
102
{ACAD_XDICTIONARY
360
F2
102
}
330
2A
100
AcDbVisualStyle
  2
Realistic
 70
     8
 71
     2
 72
     2
 73
     0
 90
        0
 40
-0.6
 41
-30.0
 62
     5
 63
     7
421
 16777215
 74
     1
 91
        0
 64
     7
 65
   257
 75
     1
175
     1
 42
1.0
 92
        8
 66
     8
424
  7895160
 43
1.0
 76
     1
 77
     6
 78
     2
 67
     7
 79
     5
170
     0
171
     0
290
     0
174
     0
 93
       13
 44
0.0
173
     0
291
     0
 45
0.0
  0
VISUALSTYLE
  5
37
102
{ACAD_REACTORS
330
2A
102
}
102
{ACAD_XDICTIONARY
360
FA
102
}
330
2A
100
AcDbVisualStyle
  2
Thicken
 70
    13
 71
     2
 72
     2
 73
     0
 90
        0
 40
-0.6
 41
-30.0
 62
     5
 63
     7
421
 16777215
 74
     1
 91
        4
 64
     7
 65
   257
 75
     1
175
     1
 42
1.0
 92
       12
 66
     7
 43
1.0
 76
     1
 77
     6
 78
     2
 67
     7
 79
     5
170
     0
171
     0
290
     0
174
     0
 93
        1
 44
0.0
173
     0
291
     1
 45
0.0
  0
DICTIONARY
  5
EA
330
2F
100
AcDbDictionary
280
     1
281
     1
  3
ACAD_XREC_ROUNDTRIP
360
EB
  0
DICTIONARY
  5
EE
330
31
100
AcDbDictionary
280
     1
281
     1
  3
ACAD_XREC_ROUNDTRIP
360
EF
  0
DICTIONARY
  5
EC
330
30
100
AcDbDictionary
280
     1
281
     1
  3
ACAD_XREC_ROUNDTRIP
360
ED
  0
DICTIONARY
  5
F0
330
32
100
AcDbDictionary
280
     1
281
     1
  3
ACAD_XREC_ROUNDTRIP
360
F1
  0
DICTIONARY
  5
F8
330
36
100
AcDbDictionary
280
     1
281
     1
  3
ACAD_XREC_ROUNDTRIP
360
F9
  0
DICTIONARY
  5
100
330
3A
100
AcDbDictionary
280
     1
281
     1
  3
ACAD_XREC_ROUNDTRIP
360
101
  0
DICTIONARY
  5
F4
330
34
100
AcDbDictionary
280
     1
281
     1
  3
ACAD_XREC_ROUNDTRIP
360
F5
  0
DICTIONARY
  5
F6
330
35
100
AcDbDictionary
280
     1
281
     1
  3
ACAD_XREC_ROUNDTRIP
360
F7
  0
DICTIONARY
  5
FE
330
39
100
AcDbDictionary
280
     1
281
     1
  3
ACAD_XREC_ROUNDTRIP
360
FF
  0
DICTIONARY
  5
E2
330
2B
100
AcDbDictionary
280
     1
281
     1
  3
ACAD_XREC_ROUNDTRIP
360
E3
  0
DICTIONARY
  5
E4
330
2C
100
AcDbDictionary
280
     1
281
     1
  3
ACAD_XREC_ROUNDTRIP
360
E5
  0
DICTIONARY
  5
E6
330
2D
100
AcDbDictionary
280
     1
281
     1
  3
ACAD_XREC_ROUNDTRIP
360
E7
  0
DICTIONARY
  5
E8
330
2E
100
AcDbDictionary
280
     1
281
     1
  3
ACAD_XREC_ROUNDTRIP
360
E9
  0
DICTIONARY
  5
FC
330
38
100
AcDbDictionary
280
     1
281
     1
  3
ACAD_XREC_ROUNDTRIP
360
FD
  0
DICTIONARY
  5
F2
330
33
100
AcDbDictionary
280
     1
281
     1
  3
ACAD_XREC_ROUNDTRIP
360
F3
  0
DICTIONARY
  5
FA
330
37
100
AcDbDictionary
280
     1
281
     1
  3
ACAD_XREC_ROUNDTRIP
360
FB
  0
XRECORD
  5
EB
102
{ACAD_REACTORS
330
EA
102
}
330
EA
100
AcDbXrecord
280
     1
102
RTVSPropertyOp0
 70
     1
102
RTVSPropertyOp1
 70
     1
102
RTVSPropertyOp2
 70
     1
102
RTVSPropertyOp3
 70
     1
102
RTVSPropertyOp4
 70
     1
102
RTVSPropertyOp5
 70
     1
102
RTVSPropertyOp6
 70
     1
102
RTVSPropertyOp7
 70
     1
102
RTVSPropertyOp8
 70
     1
102
RTVSPropertyOp9
 70
     1
102
RTVSPropertyOp10
 70
     1
102
RTVSPropertyOp11
 70
     1
102
RTVSPropertyOp12
 70
     1
102
RTVSPropertyOp13
 70
     1
102
RTVSPropertyOp14
 70
     1
102
RTVSPropertyOp15
 70
     1
102
RTVSPropertyOp16
 70
     1
102
RTVSPropertyOp17
 70
     1
102
RTVSPropertyOp18
 70
     1
102
RTVSPropertyOp19
 70
     1
102
RTVSPropertyOp20
 70
     1
102
RTVSPropertyOp21
 70
     1
102
RTVSPropertyOp22
 70
     1
102
RTVSPropertyOp23
 70
     1
102
RTVSPropertyOp24
 70
     1
102
RTVSPropertyOp25
 70
     1
102
RTVSPropertyOp26
 70
     1
102
RTVSPropertyOp27
 70
     1
102
RTVSPropertyOp28
 70
     1
102
RTVSPropertyOp29
 70
     1
102
RTVSPropertyOp30
 70
     1
102
RTVSPropertyOp31
 70
     1
102
RTVSPropertyOp32
 70
     1
  0
XRECORD
  5
EF
102
{ACAD_REACTORS
330
EE
102
}
330
EE
100
AcDbXrecord
280
     1
102
RTVSPropertyOp0
 70
     1
102
RTVSPropertyOp1
 70
     1
102
RTVSPropertyOp2
 70
     1
102
RTVSPropertyOp3
 70
     1
102
RTVSPropertyOp4
 70
     1
102
RTVSPropertyOp5
 70
     1
102
RTVSPropertyOp6
 70
     1
102
RTVSPropertyOp7
 70
     1
102
RTVSPropertyOp8
 70
     1
102
RTVSPropertyOp9
 70
     1
102
RTVSPropertyOp10
 70
     1
102
RTVSPropertyOp11
 70
     1
102
RTVSPropertyOp12
 70
     1
102
RTVSPropertyOp13
 70
     1
102
RTVSPropertyOp14
 70
     1
102
RTVSPropertyOp15
 70
     1
102
RTVSPropertyOp16
 70
     1
102
RTVSPropertyOp17
 70
     1
102
RTVSPropertyOp18
 70
     1
102
RTVSPropertyOp19
 70
     1
102
RTVSPropertyOp20
 70
     1
102
RTVSPropertyOp21
 70
     1
102
RTVSPropertyOp22
 70
     1
102
RTVSPropertyOp23
 70
     1
102
RTVSPropertyOp24
 70
     1
102
RTVSPropertyOp25
 70
     1
102
RTVSPropertyOp26
 70
     1
102
RTVSPropertyOp27
 70
     1
102
RTVSPropertyOp28
 70
     1
102
RTVSPropertyOp29
 70
     1
102
RTVSPropertyOp30
 70
     1
102
RTVSPropertyOp31
 70
     1
102
RTVSPropertyOp32
 70
     1
  0
XRECORD
  5
ED
102
{ACAD_REACTORS
330
EC
102
}
330
EC
100
AcDbXrecord
280
     1
102
RTVSPropertyOp0
 70
     1
102
RTVSPropertyOp1
 70
     1
102
RTVSPropertyOp2
 70
     1
102
RTVSPropertyOp3
 70
     1
102
RTVSPropertyOp4
 70
     1
102
RTVSPropertyOp5
 70
     1
102
RTVSPropertyOp6
 70
     1
102
RTVSPropertyOp7
 70
     1
102
RTVSPropertyOp8
 70
     1
102
RTVSPropertyOp9
 70
     1
102
RTVSPropertyOp10
 70
     1
102
RTVSPropertyOp11
 70
     1
102
RTVSPropertyOp12
 70
     1
102
RTVSPropertyOp13
 70
     1
102
RTVSPropertyOp14
 70
     1
102
RTVSPropertyOp15
 70
     1
102
RTVSPropertyOp16
 70
     1
102
RTVSPropertyOp17
 70
     1
102
RTVSPropertyOp18
 70
     1
102
RTVSPropertyOp19
 70
     1
102
RTVSPropertyOp20
 70
     1
102
RTVSPropertyOp21
 70
     1
102
RTVSPropertyOp22
 70
     1
102
RTVSPropertyOp23
 70
     1
102
RTVSPropertyOp24
 70
     1
102
RTVSPropertyOp25
 70
     1
102
RTVSPropertyOp26
 70
     1
102
RTVSPropertyOp27
 70
     1
102
RTVSPropertyOp28
 70
     1
102
RTVSPropertyOp29
 70
     1
102
RTVSPropertyOp30
 70
     1
102
RTVSPropertyOp31
 70
     1
102
RTVSPropertyOp32
 70
     1
  0
XRECORD
  5
F1
102
{ACAD_REACTORS
330
F0
102
}
330
F0
100
AcDbXrecord
280
     1
102
RTVSPropertyOp0
 70
     1
102
RTVSPropertyOp1
 70
     1
102
RTVSPropertyOp2
 70
     1
102
RTVSPropertyOp3
 70
     1
102
RTVSPropertyOp4
 70
     1
102
RTVSPropertyOp5
 70
     1
102
RTVSPropertyOp6
 70
     1
102
RTVSPropertyOp7
 70
     1
102
RTVSPropertyOp8
 70
     1
102
RTVSPropertyOp9
 70
     1
102
RTVSPropertyOp10
 70
     1
102
RTVSPropertyOp11
 70
     1
102
RTVSPropertyOp12
 70
     1
102
RTVSPropertyOp13
 70
     1
102
RTVSPropertyOp14
 70
     1
102
RTVSPropertyOp15
 70
     1
102
RTVSPropertyOp16
 70
     1
102
RTVSPropertyOp17
 70
     1
102
RTVSPropertyOp18
 70
     1
102
RTVSPropertyOp19
 70
     1
102
RTVSPropertyOp20
 70
     1
102
RTVSPropertyOp21
 70
     1
102
RTVSPropertyOp22
 70
     1
102
RTVSPropertyOp23
 70
     1
102
RTVSPropertyOp24
 70
     1
102
RTVSPropertyOp25
 70
     1
102
RTVSPropertyOp26
 70
     1
102
RTVSPropertyOp27
 70
     1
102
RTVSPropertyOp28
 70
     1
102
RTVSPropertyOp29
 70
     1
102
RTVSPropertyOp30
 70
     1
102
RTVSPropertyOp31
 70
     1
102
RTVSPropertyOp32
 70
     1
  0
XRECORD
  5
F9
102
{ACAD_REACTORS
330
F8
102
}
330
F8
100
AcDbXrecord
280
     1
102
RTVSPropertyOp0
 70
     1
102
RTVSPropertyOp1
 70
     1
102
RTVSPropertyOp2
 70
     1
102
RTVSPropertyOp3
 70
     1
102
RTVSPropertyOp4
 70
     1
102
RTVSPropertyOp5
 70
     1
102
RTVSPropertyOp6
 70
     1
102
RTVSPropertyOp7
 70
     1
102
RTVSPropertyOp8
 70
     1
102
RTVSPropertyOp9
 70
     1
102
RTVSPropertyOp10
 70
     1
102
RTVSPropertyOp11
 70
     1
102
RTVSPropertyOp12
 70
     1
102
RTVSPropertyOp13
 70
     1
102
RTVSPropertyOp14
 70
     1
102
RTVSPropertyOp15
 70
     1
102
RTVSPropertyOp16
 70
     1
102
RTVSPropertyOp17
 70
     1
102
RTVSPropertyOp18
 70
     1
102
RTVSPropertyOp19
 70
     1
102
RTVSPropertyOp20
 70
     1
102
RTVSPropertyOp21
 70
     1
102
RTVSPropertyOp22
 70
     1
102
RTVSPropertyOp23
 70
     1
102
RTVSPropertyOp24
 70
     1
102
RTVSPropertyOp25
 70
     1
102
RTVSPropertyOp26
 70
     1
102
RTVSPropertyOp27
 70
     1
102
RTVSPropertyOp28
 70
     1
102
RTVSPropertyOp29
 70
     1
102
RTVSPropertyOp30
 70
     1
102
RTVSPropertyOp31
 70
     1
102
RTVSPropertyOp32
 70
     1
  0
XRECORD
  5
101
102
{ACAD_REACTORS
330
100
102
}
330
100
100
AcDbXrecord
280
     1
102
RTVSPropertyOp0
 70
     1
102
RTVSPropertyOp1
 70
     1
102
RTVSPropertyOp2
 70
     1
102
RTVSPropertyOp3
 70
     1
102
RTVSPropertyOp4
 70
     1
102
RTVSPropertyOp5
 70
     1
102
RTVSPropertyOp6
 70
     1
102
RTVSPropertyOp7
 70
     1
102
RTVSPropertyOp8
 70
     1
102
RTVSPropertyOp9
 70
     1
102
RTVSPropertyOp10
 70
     1
102
RTVSPropertyOp11
 70
     1
102
RTVSPropertyOp12
 70
     1
102
RTVSPropertyOp13
 70
     1
102
RTVSPropertyOp14
 70
     1
102
RTVSPropertyOp15
 70
     1
102
RTVSPropertyOp16
 70
     1
102
RTVSPropertyOp17
 70
     1
102
RTVSPropertyOp18
 70
     1
102
RTVSPropertyOp19
 70
     1
102
RTVSPropertyOp20
 70
     1
102
RTVSPropertyOp21
 70
     1
102
RTVSPropertyOp22
 70
     1
102
RTVSPropertyOp23
 70
     1
102
RTVSPropertyOp24
 70
     1
102
RTVSPropertyOp25
 70
     1
102
RTVSPropertyOp26
 70
     1
102
RTVSPropertyOp27
 70
     1
102
RTVSPropertyOp28
 70
     1
102
RTVSPropertyOp29
 70
     1
102
RTVSPropertyOp30
 70
     1
102
RTVSPropertyOp31
 70
     1
102
RTVSPropertyOp32
 70
     1
  0
XRECORD
  5
F5
102
{ACAD_REACTORS
330
F4
102
}
330
F4
100
AcDbXrecord
280
     1
102
RTVSPropertyOp0
 70
     1
102
RTVSPropertyOp1
 70
     1
102
RTVSPropertyOp2
 70
     1
102
RTVSPropertyOp3
 70
     1
102
RTVSPropertyOp4
 70
     1
102
RTVSPropertyOp5
 70
     1
102
RTVSPropertyOp6
 70
     1
102
RTVSPropertyOp7
 70
     1
102
RTVSPropertyOp8
 70
     1
102
RTVSPropertyOp9
 70
     1
102
RTVSPropertyOp10
 70
     1
102
RTVSPropertyOp11
 70
     1
102
RTVSPropertyOp12
 70
     1
102
RTVSPropertyOp13
 70
     1
102
RTVSPropertyOp14
 70
     1
102
RTVSPropertyOp15
 70
     1
102
RTVSPropertyOp16
 70
     1
102
RTVSPropertyOp17
 70
     1
102
RTVSPropertyOp18
 70
     1
102
RTVSPropertyOp19
 70
     1
102
RTVSPropertyOp20
 70
     1
102
RTVSPropertyOp21
 70
     1
102
RTVSPropertyOp22
 70
     1
102
RTVSPropertyOp23
 70
     1
102
RTVSPropertyOp24
 70
     1
102
RTVSPropertyOp25
 70
     1
102
RTVSPropertyOp26
 70
     1
102
RTVSPropertyOp27
 70
     1
102
RTVSPropertyOp28
 70
     1
102
RTVSPropertyOp29
 70
     1
102
RTVSPropertyOp30
 70
     1
102
RTVSPropertyOp31
 70
     1
102
RTVSPropertyOp32
 70
     1
  0
XRECORD
  5
F7
102
{ACAD_REACTORS
330
F6
102
}
330
F6
100
AcDbXrecord
280
     1
102
RTVSPropertyOp0
 70
     1
102
RTVSPropertyOp1
 70
     1
102
RTVSPropertyOp2
 70
     1
102
RTVSPropertyOp3
 70
     1
102
RTVSPropertyOp4
 70
     1
102
RTVSPropertyOp5
 70
     1
102
RTVSPropertyOp6
 70
     1
102
RTVSPropertyOp7
 70
     1
102
RTVSPropertyOp8
 70
     1
102
RTVSPropertyOp9
 70
     1
102
RTVSPropertyOp10
 70
     1
102
RTVSPropertyOp11
 70
     1
102
RTVSPropertyOp12
 70
     1
102
RTVSPropertyOp13
 70
     1
102
RTVSPropertyOp14
 70
     1
102
RTVSPropertyOp15
 70
     1
102
RTVSPropertyOp16
 70
     1
102
RTVSPropertyOp17
 70
     1
102
RTVSPropertyOp18
 70
     1
102
RTVSPropertyOp19
 70
     1
102
RTVSPropertyOp20
 70
     1
102
RTVSPropertyOp21
 70
     1
102
RTVSPropertyOp22
 70
     1
102
RTVSPropertyOp23
 70
     1
102
RTVSPropertyOp24
 70
     1
102
RTVSPropertyOp25
 70
     1
102
RTVSPropertyOp26
 70
     1
102
RTVSPropertyOp27
 70
     1
102
RTVSPropertyOp28
 70
     1
102
RTVSPropertyOp29
 70
     1
102
RTVSPropertyOp30
 70
     1
102
RTVSPropertyOp31
 70
     1
102
RTVSPropertyOp32
 70
     1
  0
XRECORD
  5
FF
102
{ACAD_REACTORS
330
FE
102
}
330
FE
100
AcDbXrecord
280
     1
102
RTVSPropertyOp0
 70
     1
102
RTVSPropertyOp1
 70
     1
102
RTVSPropertyOp2
 70
     1
102
RTVSPropertyOp3
 70
     1
102
RTVSPropertyOp4
 70
     1
102
RTVSPropertyOp5
 70
     1
102
RTVSPropertyOp6
 70
     1
102
RTVSPropertyOp7
 70
     1
102
RTVSPropertyOp8
 70
     1
102
RTVSPropertyOp9
 70
     1
102
RTVSPropertyOp10
 70
     1
102
RTVSPropertyOp11
 70
     1
102
RTVSPropertyOp12
 70
     1
102
RTVSPropertyOp13
 70
     1
102
RTVSPropertyOp14
 70
     1
102
RTVSPropertyOp15
 70
     1
102
RTVSPropertyOp16
 70
     1
102
RTVSPropertyOp17
 70
     1
102
RTVSPropertyOp18
 70
     1
102
RTVSPropertyOp19
 70
     1
102
RTVSPropertyOp20
 70
     1
102
RTVSPropertyOp21
 70
     1
102
RTVSPropertyOp22
 70
     1
102
RTVSPropertyOp23
 70
     1
102
RTVSPropertyOp24
 70
     1
102
RTVSPropertyOp25
 70
     1
102
RTVSPropertyOp26
 70
     1
102
RTVSPropertyOp27
 70
     1
102
RTVSPropertyOp28
 70
     1
102
RTVSPropertyOp29
 70
     1
102
RTVSPropertyOp30
 70
     1
102
RTVSPropertyOp31
 70
     1
102
RTVSPropertyOp32
 70
     1
  0
XRECORD
  5
E3
102
{ACAD_REACTORS
330
E2
102
}
330
E2
100
AcDbXrecord
280
     1
102
RTVSPropertyOp0
 70
     1
102
RTVSPropertyOp1
 70
     1
102
RTVSPropertyOp2
 70
     1
102
RTVSPropertyOp3
 70
     1
102
RTVSPropertyOp4
 70
     1
102
RTVSPropertyOp5
 70
     1
102
RTVSPropertyOp6
 70
     1
102
RTVSPropertyOp7
 70
     1
102
RTVSPropertyOp8
 70
     1
102
RTVSPropertyOp9
 70
     1
102
RTVSPropertyOp10
 70
     1
102
RTVSPropertyOp11
 70
     1
102
RTVSPropertyOp12
 70
     1
102
RTVSPropertyOp13
 70
     1
102
RTVSPropertyOp14
 70
     1
102
RTVSPropertyOp15
 70
     1
102
RTVSPropertyOp16
 70
     1
102
RTVSPropertyOp17
 70
     1
102
RTVSPropertyOp18
 70
     1
102
RTVSPropertyOp19
 70
     1
102
RTVSPropertyOp20
 70
     1
102
RTVSPropertyOp21
 70
     1
102
RTVSPropertyOp22
 70
     1
102
RTVSPropertyOp23
 70
     1
102
RTVSPropertyOp24
 70
     1
102
RTVSPropertyOp25
 70
     1
102
RTVSPropertyOp26
 70
     1
102
RTVSPropertyOp27
 70
     1
102
RTVSPropertyOp28
 70
     1
102
RTVSPropertyOp29
 70
     1
102
RTVSPropertyOp30
 70
     1
102
RTVSPropertyOp31
 70
     1
102
RTVSPropertyOp32
 70
     1
  0
XRECORD
  5
E5
102
{ACAD_REACTORS
330
E4
102
}
330
E4
100
AcDbXrecord
280
     1
102
RTVSPropertyOp0
 70
     1
102
RTVSPropertyOp1
 70
     1
102
RTVSPropertyOp2
 70
     1
102
RTVSPropertyOp3
 70
     1
102
RTVSPropertyOp4
 70
     1
102
RTVSPropertyOp5
 70
     1
102
RTVSPropertyOp6
 70
     1
102
RTVSPropertyOp7
 70
     1
102
RTVSPropertyOp8
 70
     1
102
RTVSPropertyOp9
 70
     1
102
RTVSPropertyOp10
 70
     1
102
RTVSPropertyOp11
 70
     1
102
RTVSPropertyOp12
 70
     1
102
RTVSPropertyOp13
 70
     1
102
RTVSPropertyOp14
 70
     1
102
RTVSPropertyOp15
 70
     1
102
RTVSPropertyOp16
 70
     1
102
RTVSPropertyOp17
 70
     1
102
RTVSPropertyOp18
 70
     1
102
RTVSPropertyOp19
 70
     1
102
RTVSPropertyOp20
 70
     1
102
RTVSPropertyOp21
 70
     1
102
RTVSPropertyOp22
 70
     1
102
RTVSPropertyOp23
 70
     1
102
RTVSPropertyOp24
 70
     1
102
RTVSPropertyOp25
 70
     1
102
RTVSPropertyOp26
 70
     1
102
RTVSPropertyOp27
 70
     1
102
RTVSPropertyOp28
 70
     1
102
RTVSPropertyOp29
 70
     1
102
RTVSPropertyOp30
 70
     1
102
RTVSPropertyOp31
 70
     1
102
RTVSPropertyOp32
 70
     1
  0
XRECORD
  5
E7
102
{ACAD_REACTORS
330
E6
102
}
330
E6
100
AcDbXrecord
280
     1
102
RTVSPropertyOp0
 70
     1
102
RTVSPropertyOp1
 70
     1
102
RTVSPropertyOp2
 70
     1
102
RTVSPropertyOp3
 70
     1
102
RTVSPropertyOp4
 70
     1
102
RTVSPropertyOp5
 70
     1
102
RTVSPropertyOp6
 70
     1
102
RTVSPropertyOp7
 70
     1
102
RTVSPropertyOp8
 70
     1
102
RTVSPropertyOp9
 70
     1
102
RTVSPropertyOp10
 70
     1
102
RTVSPropertyOp11
 70
     1
102
RTVSPropertyOp12
 70
     1
102
RTVSPropertyOp13
 70
     1
102
RTVSPropertyOp14
 70
     1
102
RTVSPropertyOp15
 70
     1
102
RTVSPropertyOp16
 70
     1
102
RTVSPropertyOp17
 70
     1
102
RTVSPropertyOp18
 70
     1
102
RTVSPropertyOp19
 70
     1
102
RTVSPropertyOp20
 70
     1
102
RTVSPropertyOp21
 70
     1
102
RTVSPropertyOp22
 70
     1
102
RTVSPropertyOp23
 70
     1
102
RTVSPropertyOp24
 70
     1
102
RTVSPropertyOp25
 70
     1
102
RTVSPropertyOp26
 70
     1
102
RTVSPropertyOp27
 70
     1
102
RTVSPropertyOp28
 70
     1
102
RTVSPropertyOp29
 70
     1
102
RTVSPropertyOp30
 70
     1
102
RTVSPropertyOp31
 70
     1
102
RTVSPropertyOp32
 70
     1
  0
XRECORD
  5
E9
102
{ACAD_REACTORS
330
E8
102
}
330
E8
100
AcDbXrecord
280
     1
102
RTVSPropertyOp0
 70
     1
102
RTVSPropertyOp1
 70
     1
102
RTVSPropertyOp2
 70
     1
102
RTVSPropertyOp3
 70
     1
102
RTVSPropertyOp4
 70
     1
102
RTVSPropertyOp5
 70
     1
102
RTVSPropertyOp6
 70
     1
102
RTVSPropertyOp7
 70
     1
102
RTVSPropertyOp8
 70
     1
102
RTVSPropertyOp9
 70
     1
102
RTVSPropertyOp10
 70
     1
102
RTVSPropertyOp11
 70
     1
102
RTVSPropertyOp12
 70
     1
102
RTVSPropertyOp13
 70
     1
102
RTVSPropertyOp14
 70
     1
102
RTVSPropertyOp15
 70
     1
102
RTVSPropertyOp16
 70
     1
102
RTVSPropertyOp17
 70
     1
102
RTVSPropertyOp18
 70
     1
102
RTVSPropertyOp19
 70
     1
102
RTVSPropertyOp20
 70
     1
102
RTVSPropertyOp21
 70
     1
102
RTVSPropertyOp22
 70
     1
102
RTVSPropertyOp23
 70
     1
102
RTVSPropertyOp24
 70
     1
102
RTVSPropertyOp25
 70
     1
102
RTVSPropertyOp26
 70
     1
102
RTVSPropertyOp27
 70
     1
102
RTVSPropertyOp28
 70
     1
102
RTVSPropertyOp29
 70
     1
102
RTVSPropertyOp30
 70
     1
102
RTVSPropertyOp31
 70
     1
102
RTVSPropertyOp32
 70
     1
  0
XRECORD
  5
FD
102
{ACAD_REACTORS
330
FC
102
}
330
FC
100
AcDbXrecord
280
     1
102
RTVSPropertyOp0
 70
     1
102
RTVSPropertyOp1
 70
     1
102
RTVSPropertyOp2
 70
     1
102
RTVSPropertyOp3
 70
     1
102
RTVSPropertyOp4
 70
     1
102
RTVSPropertyOp5
 70
     1
102
RTVSPropertyOp6
 70
     1
102
RTVSPropertyOp7
 70
     1
102
RTVSPropertyOp8
 70
     1
102
RTVSPropertyOp9
 70
     1
102
RTVSPropertyOp10
 70
     1
102
RTVSPropertyOp11
 70
     1
102
RTVSPropertyOp12
 70
     1
102
RTVSPropertyOp13
 70
     1
102
RTVSPropertyOp14
 70
     1
102
RTVSPropertyOp15
 70
     1
102
RTVSPropertyOp16
 70
     1
102
RTVSPropertyOp17
 70
     1
102
RTVSPropertyOp18
 70
     1
102
RTVSPropertyOp19
 70
     1
102
RTVSPropertyOp20
 70
     1
102
RTVSPropertyOp21
 70
     1
102
RTVSPropertyOp22
 70
     1
102
RTVSPropertyOp23
 70
     1
102
RTVSPropertyOp24
 70
     1
102
RTVSPropertyOp25
 70
     1
102
RTVSPropertyOp26
 70
     1
102
RTVSPropertyOp27
 70
     1
102
RTVSPropertyOp28
 70
     1
102
RTVSPropertyOp29
 70
     1
102
RTVSPropertyOp30
 70
     1
102
RTVSPropertyOp31
 70
     1
102
RTVSPropertyOp32
 70
     1
  0
XRECORD
  5
F3
102
{ACAD_REACTORS
330
F2
102
}
330
F2
100
AcDbXrecord
280
     1
102
RTVSPropertyOp0
 70
     1
102
RTVSPropertyOp1
 70
     1
102
RTVSPropertyOp2
 70
     1
102
RTVSPropertyOp3
 70
     1
102
RTVSPropertyOp4
 70
     1
102
RTVSPropertyOp5
 70
     1
102
RTVSPropertyOp6
 70
     1
102
RTVSPropertyOp7
 70
     1
102
RTVSPropertyOp8
 70
     1
102
RTVSPropertyOp9
 70
     1
102
RTVSPropertyOp10
 70
     1
102
RTVSPropertyOp11
 70
     1
102
RTVSPropertyOp12
 70
     1
102
RTVSPropertyOp13
 70
     1
102
RTVSPropertyOp14
 70
     1
102
RTVSPropertyOp15
 70
     1
102
RTVSPropertyOp16
 70
     1
102
RTVSPropertyOp17
 70
     1
102
RTVSPropertyOp18
 70
     1
102
RTVSPropertyOp19
 70
     1
102
RTVSPropertyOp20
 70
     1
102
RTVSPropertyOp21
 70
     1
102
RTVSPropertyOp22
 70
     1
102
RTVSPropertyOp23
 70
     1
102
RTVSPropertyOp24
 70
     1
102
RTVSPropertyOp25
 70
     1
102
RTVSPropertyOp26
 70
     1
102
RTVSPropertyOp27
 70
     1
102
RTVSPropertyOp28
 70
     1
102
RTVSPropertyOp29
 70
     1
102
RTVSPropertyOp30
 70
     1
102
RTVSPropertyOp31
 70
     1
102
RTVSPropertyOp32
 70
     1
  0
XRECORD
  5
FB
102
{ACAD_REACTORS
330
FA
102
}
330
FA
100
AcDbXrecord
280
     1
102
RTVSPropertyOp0
 70
     1
102
RTVSPropertyOp1
 70
     1
102
RTVSPropertyOp2
 70
     1
102
RTVSPropertyOp3
 70
     1
102
RTVSPropertyOp4
 70
     1
102
RTVSPropertyOp5
 70
     1
102
RTVSPropertyOp6
 70
     1
102
RTVSPropertyOp7
 70
     1
102
RTVSPropertyOp8
 70
     1
102
RTVSPropertyOp9
 70
     1
102
RTVSPropertyOp10
 70
     1
102
RTVSPropertyOp11
 70
     1
102
RTVSPropertyOp12
 70
     1
102
RTVSPropertyOp13
 70
     1
102
RTVSPropertyOp14
 70
     1
102
RTVSPropertyOp15
 70
     1
102
RTVSPropertyOp16
 70
     1
102
RTVSPropertyOp17
 70
     1
102
RTVSPropertyOp18
 70
     1
102
RTVSPropertyOp19
 70
     1
102
RTVSPropertyOp20
 70
     1
102
RTVSPropertyOp21
 70
     1
102
RTVSPropertyOp22
 70
     1
102
RTVSPropertyOp23
 70
     1
102
RTVSPropertyOp24
 70
     1
102
RTVSPropertyOp25
 70
     1
102
RTVSPropertyOp26
 70
     1
102
RTVSPropertyOp27
 70
     1
102
RTVSPropertyOp28
 70
     1
102
RTVSPropertyOp29
 70
     1
102
RTVSPropertyOp30
 70
     1
102
RTVSPropertyOp31
 70
     1
102
RTVSPropertyOp32
 70
     1
  0
ENDSEC
  0
EOF
