  0
SECTION
  2
HEADER
  9
$ACADVER
  1
AC1021
  9
$ACADMAINTVER
 70
    25
  9
$DWGCODEPAGE
  3
ANSI_1252
  9
$INSBASE
 10
0.0
 20
0.0
 30
0.0
  9
$EXTMIN
 10
-10.76472
 20
-8.05418
 30
0.0
  9
$EXTMAX
 10
9.31989
 20
8.41722
 30
0.0
  9
$LIMMIN
 10
0.0
 20
0.0
  9
$LIMMAX
 10
12.0
 20
9.0
  9
$ORTHOMODE
 70
     0
  9
$REGENMODE
 70
     1
  9
$FILLMODE
 70
     1
  9
$QTEXTMODE
 70
     0
  9
$MIRRTEXT
 70
     1
  9
$LTSCALE
 40
1.0
  9
$ATTMODE
 70
     1
  9
$TEXTSIZE
 40
0.2
  9
$TRACEWID
 40
0.05
  9
$TEXTSTYLE
  7
Standard
  9
$CLAYER
  8
0
  9
$CELTYPE
  6
ByLayer
  9
$CECOLOR
 62
   256
  9
$CELTSCALE
 40
1.0
  9
$DISPSILH
 70
     0
  9
$DIMSCALE
 40
1.0
  9
$DIMASZ
 40
0.18
  9
$DIMEXO
 40
0.0625
  9
$DIMDLI
 40
0.38
  9
$DIMRND
 40
0.0
  9
$DIMDLE
 40
0.0
  9
$DIMEXE
 40
0.18
  9
$DIMTP
 40
0.0
  9
$DIMTM
 40
0.0
  9
$DIMTXT
 40
0.18
  9
$DIMCEN
 40
0.09
  9
$DIMTSZ
 40
0.0
  9
$DIMTOL
 70
     0
  9
$DIMLIM
 70
     0
  9
$DIMTIH
 70
     1
  9
$DIMTOH
 70
     1
  9
$DIMSE1
 70
     0
  9
$DIMSE2
 70
     0
  9
$DIMTAD
 70
     0
  9
$DIMZIN
 70
     0
  9
$DIMBLK
  1

  9
$DIMASO
 70
     1
  9
$DIMSHO
 70
     1
  9
$DIMPOST
  1

  9
$DIMAPOST
  1

  9
$DIMALT
 70
     0
  9
$DIMALTD
 70
     2
  9
$DIMALTF
 40
25.4
  9
$DIMLFAC
 40
1.0
  9
$DIMTOFL
 70
     0
  9
$DIMTVP
 40
0.0
  9
$DIMTIX
 70
     0
  9
$DIMSOXD
 70
     0
  9
$DIMSAH
 70
     0
  9
$DIMBLK1
  1

  9
$DIMBLK2
  1

  9
$DIMSTYLE
  2
Standard
  9
$DIMCLRD
 70
     0
  9
$DIMCLRE
 70
     0
  9
$DIMCLRT
 70
     0
  9
$DIMTFAC
 40
1.0
  9
$DIMGAP
 40
0.09
  9
$DIMJUST
 70
     0
  9
$DIMSD1
 70
     0
  9
$DIMSD2
 70
     0
  9
$DIMTOLJ
 70
     1
  9
$DIMTZIN
 70
     0
  9
$DIMALTZ
 70
     0
  9
$DIMALTTZ
 70
     0
  9
$DIMUPT
 70
     0
  9
$DIMDEC
 70
     4
  9
$DIMTDEC
 70
     4
  9
$DIMALTU
 70
     2
  9
$DIMALTTD
 70
     2
  9
$DIMTXSTY
  7
Standard
  9
$DIMAUNIT
 70
     0
  9
$DIMADEC
 70
     0
  9
$DIMALTRND
 40
0.0
  9
$DIMAZIN
 70
     0
  9
$DIMDSEP
 70
    46
  9
$DIMATFIT
 70
     3
  9
$DIMFRAC
 70
     0
  9
$DIMLDRBLK
  1

  9
$DIMLUNIT
 70
     2
  9
$DIMLWD
 70
    -2
  9
$DIMLWE
 70
    -2
  9
$DIMTMOVE
 70
     0
  9
$DIMFXL
 40
1.0
  9
$DIMFXLON
 70
     0
  9
$DIMJOGANG
 40
0.7853981633974483
  9
$DIMTFILL
 70
     0
  9
$DIMTFILLCLR
 70
     0
  9
$DIMARCSYM
 70
     0
  9
$DIMLTYPE
  6

  9
$DIMLTEX1
  6

  9
$DIMLTEX2
  6

  9
$LUNITS
 70
     2
  9
$LUPREC
 70
     4
  9
$SKETCHINC
 40
0.1
  9
$FILLETRAD
 40
0.5
  9
$AUNITS
 70
     0
  9
$AUPREC
 70
     0
  9
$MENU
  1
.
  9
$ELEVATION
 40
0.0
  9
$PELEVATION
 40
0.0
  9
$THICKNESS
 40
0.0
  9
$LIMCHECK
 70
     0
  9
$CHAMFERA
 40
0.5
  9
$CHAMFERB
 40
0.5
  9
$CHAMFERC
 40
1.0
  9
$CHAMFERD
 40
0.0
  9
$SKPOLY
 70
     0
  9
$TDCREATE
 40
2456231.939710544
  9
$TDUCREATE
 40
2456232.10637721
  9
$TDUPDATE
 40
2456231.939710648
  9
$TDUUPDATE
 40
2456232.106377315
  9
$TDINDWG
 40
0.0000000116
  9
$TDUSRTIMER
 40
0.0000000116
  9
$USRTIMER
 70
     1
  9
$ANGBASE
 50
0.0
  9
$ANGDIR
 70
     0
  9
$PDMODE
 70
     0
  9
$PDSIZE
 40
0.0
  9
$PLINEWID
 40
0.0
  9
$SPLFRAME
 70
     0
  9
$SPLINETYPE
 70
     6
  9
$SPLINESEGS
 70
     8
  9
$HANDSEED
  5
CE
  9
$SURFTAB1
 70
     6
  9
$SURFTAB2
 70
     6
  9
$SURFTYPE
 70
     6
  9
$SURFU
 70
     6
  9
$SURFV
 70
     6
  9
$UCSBASE
  2

  9
$UCSNAME
  2

  9
$UCSORG
 10
0.0
 20
0.0
 30
0.0
  9
$UCSXDIR
 10
1.0
 20
0.0
 30
0.0
  9
$UCSYDIR
 10
0.0
 20
1.0
 30
0.0
  9
$UCSORTHOREF
  2

  9
$UCSORTHOVIEW
 70
     0
  9
$UCSORGTOP
 10
0.0
 20
0.0
 30
0.0
  9
$UCSORGBOTTOM
 10
0.0
 20
0.0
 30
0.0
  9
$UCSORGLEFT
 10
0.0
 20
0.0
 30
0.0
  9
$UCSORGRIGHT
 10
0.0
 20
0.0
 30
0.0
  9
$UCSORGFRONT
 10
0.0
 20
0.0
 30
0.0
  9
$UCSORGBACK
 10
0.0
 20
0.0
 30
0.0
  9
$PUCSBASE
  2

  9
$PUCSNAME
  2

  9
$PUCSORG
 10
0.0
 20
0.0
 30
0.0
  9
$PUCSXDIR
 10
1.0
 20
0.0
 30
0.0
  9
$PUCSYDIR
 10
0.0
 20
1.0
 30
0.0
  9
$PUCSORTHOREF
  2

  9
$PUCSORTHOVIEW
 70
     0
  9
$PUCSORGTOP
 10
0.0
 20
0.0
 30
0.0
  9
$PUCSORGBOTTOM
 10
0.0
 20
0.0
 30
0.0
  9
$PUCSORGLEFT
 10
0.0
 20
0.0
 30
0.0
  9
$PUCSORGRIGHT
 10
0.0
 20
0.0
 30
0.0
  9
$PUCSORGFRONT
 10
0.0
 20
0.0
 30
0.0
  9
$PUCSORGBACK
 10
0.0
 20
0.0
 30
0.0
  9
$USERI1
 70
     0
  9
$USERI2
 70
     0
  9
$USERI3
 70
     0
  9
$USERI4
 70
     0
  9
$USERI5
 70
     0
  9
$USERR1
 40
0.0
  9
$USERR2
 40
0.0
  9
$USERR3
 40
0.0
  9
$USERR4
 40
0.0
  9
$USERR5
 40
0.0
  9
$WORLDVIEW
 70
     1
  9
$SHADEDGE
 70
     3
  9
$SHADEDIF
 70
    70
  9
$TILEMODE
 70
     1
  9
$MAXACTVP
 70
    64
  9
$PINSBASE
 10
0.0
 20
0.0
 30
0.0
  9
$PLIMCHECK
 70
     0
  9
$PEXTMIN
 10
1.000000000000000E+20
 20
1.000000000000000E+20
 30
1.000000000000000E+20
  9
$PEXTMAX
 10
-1.000000000000000E+20
 20
-1.000000000000000E+20
 30
-1.000000000000000E+20
  9
$PLIMMIN
 10
0.0
 20
0.0
  9
$PLIMMAX
 10
12.0
 20
9.0
  9
$UNITMODE
 70
     0
  9
$VISRETAIN
 70
     1
  9
$PLINEGEN
 70
     0
  9
$PSLTSCALE
 70
     1
  9
$TREEDEPTH
 70
  3020
  9
$CMLSTYLE
  2
Standard
  9
$CMLJUST
 70
     0
  9
$CMLSCALE
 40
1.0
  9
$PROXYGRAPHICS
 70
     1
  9
$MEASUREMENT
 70
     0
  9
$CELWEIGHT
370
    -1
  9
$ENDCAPS
280
     0
  9
$JOINSTYLE
280
     0
  9
$LWDISPLAY
290
     0
  9
$INSUNITS
 70
     5
  9
$HYPERLINKBASE
  1

  9
$STYLESHEET
  1

  9
$XEDIT
290
     1
  9
$CEPSNTYPE
380
     0
  9
$PSTYLEMODE
290
     1
  9
$FINGERPRINTGUID
  2
{1892CC50-B250-414C-8FE0-9D95E4EE4811}
  9
$VERSIONGUID
  2
{FAEB1C32-E019-11D5-929B-00C0DF256EC4}
  9
$EXTNAMES
290
     1
  9
$PSVPSCALE
 40
0.0
  9
$OLESTARTUP
290
     0
  9
$SORTENTS
280
   127
  9
$INDEXCTL
280
     0
  9
$HIDETEXT
280
     1
  9
$XCLIPFRAME
290
     0
  9
$HALOGAP
280
     0
  9
$OBSCOLOR
 70
   257
  9
$OBSLTYPE
280
     0
  9
$INTERSECTIONDISPLAY
280
     0
  9
$INTERSECTIONCOLOR
 70
   257
  9
$DIMASSOC
280
     2
  9
$PROJECTNAME
  1

  9
$CAMERADISPLAY
290
     0
  9
$LENSLENGTH
 40
50.0
  9
$CAMERAHEIGHT
 40
0.0
  9
$STEPSPERSEC
 40
2.0
  9
$STEPSIZE
 40
6.0
  9
$3DDWFPREC
 40
2.0
  9
$PSOLWIDTH
 40
0.25
  9
$PSOLHEIGHT
 40
4.0
  9
$LOFTANG1
 40
1.570796326794897
  9
$LOFTANG2
 40
1.570796326794897
  9
$LOFTMAG1
 40
0.0
  9
$LOFTMAG2
 40
0.0
  9
$LOFTPARAM
 70
     7
  9
$LOFTNORMALS
280
     1
  9
$LATITUDE
 40
37.795
  9
$LONGITUDE
 40
-122.394
  9
$NORTHDIRECTION
 40
0.0
  9
$TIMEZONE
 70
 -8000
  9
$LIGHTGLYPHDISPLAY
280
     1
  9
$TILEMODELIGHTSYNCH
280
     1
  9
$SOLIDHIST
280
     1
  9
$SHOWHIST
280
     1
  9
$DWFFRAME
280
     2
  9
$DGNFRAME
280
     2
  9
$REALWORLDSCALE
290
     1
  9
$INTERFERECOLOR
 62
   256
  9
$CSHADOW
280
     0
  9
$SHADOWPLANELOCATION
 40
0.0
  0
ENDSEC
  0
SECTION
  2
CLASSES
  0
CLASS
  1
ACDBDICTIONARYWDFLT
  2
AcDbDictionaryWithDefault
  3
ObjectDBX Classes
 90
        0
 91
        4
280
     0
281
     0
  0
CLASS
  1
VISUALSTYLE
  2
AcDbVisualStyle
  3
ObjectDBX Classes
 90
     4095
 91
        4
280
     0
281
     0
  0
CLASS
  1
MATERIAL
  2
AcDbMaterial
  3
ObjectDBX Classes
 90
     1153
 91
        4
280
     0
281
     0
  0
ENDSEC
  0
SECTION
  2
TABLES
  0
TABLE
  2
VPORT
  5
8
330
0
100
AcDbSymbolTable
 70
     1
  0
VPORT
  5
29
330
8
100
AcDbSymbolTableRecord
100
AcDbViewportTableRecord
  2
*Active
 70
     0
 10
0.0
 20
0.0
 11
1.0
 21
1.0
 12
10.42990654205607
 22
4.5
 13
0.0
 23
0.0
 14
0.5
 24
0.5
 15
0.5
 25
0.5
 16
0.0
 26
0.0
 36
1.0
 17
0.0
 27
0.0
 37
0.0
 40
9.0
 41
1.972972972850329
 42
50.0
 43
0.0
 44
0.0
 50
0.0
 51
0.0
 71
     0
 72
   100
 73
     1
 74
     3
 75
     0
 76
     0
 77
     0
 78
     0
281
     0
 65
     1
110
0.0
120
0.0
130
0.0
111
1.0
121
0.0
131
0.0
112
0.0
122
1.0
132
0.0
 79
     0
146
0.0
 60
     3
 61
     5
292
     1
282
     1
141
0.0
142
0.0
 63
   250
  0
ENDTAB
  0
TABLE
  2
LTYPE
  5
5
330
0
100
AcDbSymbolTable
 70
     1
  0
LTYPE
  5
14
330
5
100
AcDbSymbolTableRecord
100
AcDbLinetypeTableRecord
  2
ByBlock
 70
     0
  3

 72
    65
 73
     0
 40
0.0
  0
LTYPE
  5
15
330
5
100
AcDbSymbolTableRecord
100
AcDbLinetypeTableRecord
  2
ByLayer
 70
     0
  3

 72
    65
 73
     0
 40
0.0
  0
LTYPE
  5
16
330
5
100
AcDbSymbolTableRecord
100
AcDbLinetypeTableRecord
  2
Continuous
 70
     0
  3
Solid line
 72
    65
 73
     0
 40
0.0
  0
ENDTAB
  0
TABLE
  2
LAYER
  5
2
330
0
100
AcDbSymbolTable
 70
     3
  0
LAYER
  5
10
330
2
100
AcDbSymbolTableRecord
100
AcDbLayerTableRecord
  2
0
 70
     0
 62
     7
  6
Continuous
370
    -3
390
F
347
3E
  0
LAYER
  5
40
330
2
100
AcDbSymbolTableRecord
100
AcDbLayerTableRecord
  2
Layer 1
 70
     0
 62
     7
  6
Continuous
370
    -3
390
F
347
3E
  0
LAYER
  5
A1
330
2
100
AcDbSymbolTableRecord
100
AcDbLayerTableRecord
  2
layer 2
 70
     0
 62
     7
  6
Continuous
370
    -3
390
F
347
3E
  0
ENDTAB
  0
TABLE
  2
STYLE
  5
3
330
0
100
AcDbSymbolTable
 70
     1
  0
STYLE
  5
11
330
3
100
AcDbSymbolTableRecord
100
AcDbTextStyleTableRecord
  2
Standard
 70
     0
 40
0.0
 41
1.0
 50
0.0
 71
     0
 42
0.2
  3
txt
  4

  0
ENDTAB
  0
TABLE
  2
VIEW
  5
6
330
0
100
AcDbSymbolTable
 70
     0
  0
ENDTAB
  0
TABLE
  2
UCS
  5
7
330
0
100
AcDbSymbolTable
 70
     0
  0
ENDTAB
  0
TABLE
  2
APPID
  5
9
330
0
100
AcDbSymbolTable
 70
     2
  0
APPID
  5
12
330
9
100
AcDbSymbolTableRecord
100
AcDbRegAppTableRecord
  2
ACAD
 70
     0
  0
APPID
  5
3F
330
9
100
AcDbSymbolTableRecord
100
AcDbRegAppTableRecord
  2
ODA
 70
     0
  0
ENDTAB
  0
TABLE
  2
DIMSTYLE
  5
A
330
0
100
AcDbSymbolTable
 70
     1
100
AcDbDimStyleTable
  0
DIMSTYLE
105
27
330
A
100
AcDbSymbolTableRecord
100
AcDbDimStyleTableRecord
  2
Standard
 70
     0
178
     0
340
11
  0
ENDTAB
  0
TABLE
  2
BLOCK_RECORD
  5
1
330
0
100
AcDbSymbolTable
 70
     1
  0
BLOCK_RECORD
  5
1F
330
1
100
AcDbSymbolTableRecord
100
AcDbBlockTableRecord
  2
*Model_Space
340
22
 70
     0
280
     1
281
     0
  0
BLOCK_RECORD
  5
1B
330
1
100
AcDbSymbolTableRecord
100
AcDbBlockTableRecord
  2
*Paper_Space
340
1E
 70
     0
280
     1
281
     0
  0
BLOCK_RECORD
  5
23
330
1
100
AcDbSymbolTableRecord
100
AcDbBlockTableRecord
  2
*Paper_Space0
340
26
 70
     0
280
     1
281
     0
  0
ENDTAB
  0
ENDSEC
  0
SECTION
  2
BLOCKS
  0
BLOCK
  5
20
330
1F
100
AcDbEntity
  8
0
100
AcDbBlockBegin
  2
*Model_Space
 70
     0
 10
0.0
 20
0.0
 30
0.0
  3
*Model_Space
  1

  0
ENDBLK
  5
21
330
1F
100
AcDbEntity
  8
0
100
AcDbBlockEnd
  0
BLOCK
  5
1C
330
1B
100
AcDbEntity
 67
     1
  8
0
100
AcDbBlockBegin
  2
*Paper_Space
 70
     0
 10
0.0
 20
0.0
 30
0.0
  3
*Paper_Space
  1

  0
ENDBLK
  5
1D
330
1B
100
AcDbEntity
 67
     1
  8
0
100
AcDbBlockEnd
  0
BLOCK
  5
24
330
23
100
AcDbEntity
  8
0
100
AcDbBlockBegin
  2
*Paper_Space0
 70
     0
 10
0.0
 20
0.0
 30
0.0
  3
*Paper_Space0
  1

  0
ENDBLK
  5
25
330
23
100
AcDbEntity
  8
0
100
AcDbBlockEnd
  0
ENDSEC
  0
SECTION
  2
ENTITIES
  0
SPLINE
  5
41
330
1F
100
AcDbEntity
  8
Layer 1
 62
   250
100
AcDbSpline
210
0.0
220
0.0
230
1.0
 70
    11
 71
     3
 72
    36
 73
    32
 74
     0
 42
0.0000000001
 43
0.0000000001
 12
1.0
 22
0.0
 32
0.0
 13
1.0
 23
0.0
 33
0.0
 40
0.0
 40
0.0
 40
0.0
 40
0.0
 40
0.1111111111111111
 40
0.1111111111111111
 40
0.1111111111111111
 40
0.1111111111111111
 40
0.2222222222222222
 40
0.2222222222222222
 40
0.2222222222222222
 40
0.2222222222222222
 40
0.3333333333333333
 40
0.3333333333333333
 40
0.3333333333333333
 40
0.3333333333333333
 40
0.4444444444444444
 40
0.4444444444444444
 40
0.4444444444444444
 40
0.4444444444444444
 40
0.5555555555555556
 40
0.5555555555555556
 40
0.5555555555555556
 40
0.5555555555555556
 40
0.6666666666666666
 40
0.6666666666666666
 40
0.6666666666666666
 40
0.6666666666666666
 40
0.7777777777777778
 40
0.7777777777777778
 40
0.7777777777777778
 40
0.7777777777777778
 40
1.0
 40
1.0
 40
1.0
 40
1.0
 10
-3.69463
 20
-7.88569
 30
0.0
 10
-3.69463
 20
-7.88569
 30
0.0
 10
-3.69463
 20
-7.35059
 30
0.0
 10
-3.69463
 20
-7.35059
 30
0.0
 10
-3.69463
 20
-7.35059
 30
0.0
 10
-3.69463
 20
-7.35059
 30
0.0
 10
-3.89445
 20
-7.35059
 30
0.0
 10
-3.89445
 20
-7.35059
 30
0.0
 10
-3.89445
 20
-7.35059
 30
0.0
 10
-3.89445
 20
-7.35059
 30
0.0
 10
-3.89445
 20
-7.27947
 30
0.0
 10
-3.89445
 20
-7.27947
 30
0.0
 10
-3.89445
 20
-7.27947
 30
0.0
 10
-3.89445
 20
-7.27947
 30
0.0
 10
-3.41438
 20
-7.27947
 30
0.0
 10
-3.41438
 20
-7.27947
 30
0.0
 10
-3.41438
 20
-7.27947
 30
0.0
 10
-3.41438
 20
-7.27947
 30
0.0
 10
-3.41438
 20
-7.35059
 30
0.0
 10
-3.41438
 20
-7.35059
 30
0.0
 10
-3.41438
 20
-7.35059
 30
0.0
 10
-3.41438
 20
-7.35059
 30
0.0
 10
-3.6142
 20
-7.35059
 30
0.0
 10
-3.6142
 20
-7.35059
 30
0.0
 10
-3.6142
 20
-7.35059
 30
0.0
 10
-3.6142
 20
-7.35059
 30
0.0
 10
-3.6142
 20
-7.88569
 30
0.0
 10
-3.6142
 20
-7.88569
 30
0.0
 10
-3.6142
 20
-7.88569
 30
0.0
 10
-3.6142
 20
-7.88569
 30
0.0
 10
-3.69463
 20
-7.88569
 30
0.0
 10
-3.69463
 20
-7.88569
 30
0.0
  0
SPLINE
  5
42
330
1F
100
AcDbEntity
  8
Layer 1
 62
   250
100
AcDbSpline
210
0.0
220
0.0
230
1.0
 70
    11
 71
     3
 72
    92
 73
    88
 74
     0
 42
0.0000000001
 43
0.0000000001
 12
1.0
 22
0.0
 32
0.0
 13
1.0
 23
0.0
 33
0.0
 40
0.0
 40
0.0
 40
0.0
 40
0.0
 40
0.0434782608695652
 40
0.0434782608695652
 40
0.0434782608695652
 40
0.0434782608695652
 40
0.0869565217391304
 40
0.0869565217391304
 40
0.0869565217391304
 40
0.0869565217391304
 40
0.1304347826086956
 40
0.1304347826086956
 40
0.1304347826086956
 40
0.1304347826086956
 40
0.1739130434782609
 40
0.1739130434782609
 40
0.1739130434782609
 40
0.1739130434782609
 40
0.2173913043478261
 40
0.2173913043478261
 40
0.2173913043478261
 40
0.2173913043478261
 40
0.2608695652173913
 40
0.2608695652173913
 40
0.2608695652173913
 40
0.2608695652173913
 40
0.3043478260869565
 40
0.3043478260869565
 40
0.3043478260869565
 40
0.3043478260869565
 40
0.3478260869565217
 40
0.3478260869565217
 40
0.3478260869565217
 40
0.3478260869565217
 40
0.391304347826087
 40
0.391304347826087
 40
0.391304347826087
 40
0.391304347826087
 40
0.4347826086956522
 40
0.4347826086956522
 40
0.4347826086956522
 40
0.4347826086956522
 40
0.4782608695652174
 40
0.4782608695652174
 40
0.4782608695652174
 40
0.4782608695652174
 40
0.5217391304347826
 40
0.5217391304347826
 40
0.5217391304347826
 40
0.5217391304347826
 40
0.5652173913043478
 40
0.5652173913043478
 40
0.5652173913043478
 40
0.5652173913043478
 40
0.6086956521739131
 40
0.6086956521739131
 40
0.6086956521739131
 40
0.6086956521739131
 40
0.6521739130434783
 40
0.6521739130434783
 40
0.6521739130434783
 40
0.6521739130434783
 40
0.6956521739130435
 40
0.6956521739130435
 40
0.6956521739130435
 40
0.6956521739130435
 40
0.7391304347826086
 40
0.7391304347826086
 40
0.7391304347826086
 40
0.7391304347826086
 40
0.782608695652174
 40
0.782608695652174
 40
0.782608695652174
 40
0.782608695652174
 40
0.8260869565217391
 40
0.8260869565217391
 40
0.8260869565217391
 40
0.8260869565217391
 40
0.8695652173913043
 40
0.8695652173913043
 40
0.8695652173913043
 40
0.8695652173913043
 40
0.9130434782608695
 40
0.9130434782608695
 40
0.9130434782608695
 40
0.9130434782608695
 40
1.0
 40
1.0
 40
1.0
 40
1.0
 10
-2.97087
 20
-7.81457
 30
0.0
 10
-2.97087
 20
-7.81457
 30
0.0
 10
-2.97087
 20
-7.88569
 30
0.0
 10
-2.97087
 20
-7.88569
 30
0.0
 10
-2.97087
 20
-7.88569
 30
0.0
 10
-2.97087
 20
-7.88569
 30
0.0
 10
-3.3722
 20
-7.88569
 30
0.0
 10
-3.3722
 20
-7.88569
 30
0.0
 10
-3.3722
 20
-7.88569
 30
0.0
 10
-3.37276
 20
-7.86777
 30
0.0
 10
-3.3698
 20
-7.85055
 30
0.0
 10
-3.36345
 20
-7.8339
 30
0.0
 10
-3.36345
 20
-7.8339
 30
0.0
 10
-3.35315
 20
-7.80667
 30
0.0
 10
-3.33664
 20
-7.77972
 30
0.0
 10
-3.31392
 20
-7.75333
 30
0.0
 10
-3.31392
 20
-7.75333
 30
0.0
 10
-3.2912
 20
-7.72694
 30
0.0
 10
-3.25874
 20
-7.69646
 30
0.0
 10
-3.21655
 20
-7.66189
 30
0.0
 10
-3.21655
 20
-7.66189
 30
0.0
 10
-3.15093
 20
-7.60784
 30
0.0
 10
-3.10634
 20
-7.56508
 30
0.0
 10
-3.08306
 20
-7.53348
 30
0.0
 10
-3.08306
 20
-7.53348
 30
0.0
 10
-3.05963
 20
-7.50187
 30
0.0
 10
-3.04792
 20
-7.47195
 30
0.0
 10
-3.04792
 20
-7.44373
 30
0.0
 10
-3.04792
 20
-7.44373
 30
0.0
 10
-3.04792
 20
-7.41424
 30
0.0
 10
-3.05851
 20
-7.3894
 30
0.0
 10
-3.07967
 20
-7.36908
 30
0.0
 10
-3.07967
 20
-7.36908
 30
0.0
 10
-3.10084
 20
-7.3489
 30
0.0
 10
-3.1285
 20
-7.33874
 30
0.0
 10
-3.1625
 20
-7.33874
 30
0.0
 10
-3.1625
 20
-7.33874
 30
0.0
 10
-3.19849
 20
-7.33874
 30
0.0
 10
-3.22727
 20
-7.34947
 30
0.0
 10
-3.24886
 20
-7.37091
 30
0.0
 10
-3.24886
 20
-7.37091
 30
0.0
 10
-3.27046
 20
-7.39222
 30
0.0
 10
-3.28132
 20
-7.42186
 30
0.0
 10
-3.2816
 20
-7.45981
 30
0.0
 10
-3.2816
 20
-7.45981
 30
0.0
 10
-3.2816
 20
-7.45981
 30
0.0
 10
-3.3578
 20
-7.45219
 30
0.0
 10
-3.3578
 20
-7.45219
 30
0.0
 10
-3.3578
 20
-7.45219
 30
0.0
 10
-3.35258
 20
-7.39519
 30
0.0
 10
-3.33283
 20
-7.35172
 30
0.0
 10
-3.29868
 20
-7.32181
 30
0.0
 10
-3.29868
 20
-7.32181
 30
0.0
 10
-3.26439
 20
-7.29189
 30
0.0
 10
-3.21853
 20
-7.27693
 30
0.0
 10
-3.16081
 20
-7.27693
 30
0.0
 10
-3.16081
 20
-7.27693
 30
0.0
 10
-3.10267
 20
-7.27693
 30
0.0
 10
-3.05653
 20
-7.29302
 30
0.0
 10
-3.02266
 20
-7.32534
 30
0.0
 10
-3.02266
 20
-7.32534
 30
0.0
 10
-2.98866
 20
-7.35765
 30
0.0
 10
-2.97172
 20
-7.39773
 30
0.0
 10
-2.97172
 20
-7.44542
 30
0.0
 10
-2.97172
 20
-7.44542
 30
0.0
 10
-2.97172
 20
-7.46969
 30
0.0
 10
-2.97666
 20
-7.49354
 30
0.0
 10
-2.98668
 20
-7.51697
 30
0.0
 10
-2.98668
 20
-7.51697
 30
0.0
 10
-2.99656
 20
-7.54053
 30
0.0
 10
-3.01307
 20
-7.56523
 30
0.0
 10
-3.03607
 20
-7.59119
 30
0.0
 10
-3.03607
 20
-7.59119
 30
0.0
 10
-3.05921
 20
-7.61701
 30
0.0
 10
-3.09745
 20
-7.65271
 30
0.0
 10
-3.15079
 20
-7.69787
 30
0.0
 10
-3.15079
 20
-7.69787
 30
0.0
 10
-3.19552
 20
-7.73541
 30
0.0
 10
-3.22431
 20
-7.76081
 30
0.0
 10
-3.23701
 20
-7.77421
 30
0.0
 10
-3.23701
 20
-7.77421
 30
0.0
 10
-3.24971
 20
-7.78762
 30
0.0
 10
-3.26015
 20
-7.80102
 30
0.0
 10
-3.26848
 20
-7.81457
 30
0.0
 10
-3.26848
 20
-7.81457
 30
0.0
 10
-3.26848
 20
-7.81457
 30
0.0
 10
-2.97087
 20
-7.81457
 30
0.0
 10
-2.97087
 20
-7.81457
 30
0.0
  0
SPLINE
  5
43
330
1F
100
AcDbEntity
  8
Layer 1
 62
   250
100
AcDbSpline
210
0.0
220
0.0
230
1.0
 70
    11
 71
     3
 72
    52
 73
    48
 74
     0
 42
0.0000000001
 43
0.0000000001
 12
1.0
 22
0.0
 32
0.0
 13
1.0
 23
0.0
 33
0.0
 40
0.0
 40
0.0
 40
0.0
 40
0.0
 40
0.0769230769230769
 40
0.0769230769230769
 40
0.0769230769230769
 40
0.0769230769230769
 40
0.1538461538461539
 40
0.1538461538461539
 40
0.1538461538461539
 40
0.1538461538461539
 40
0.2307692307692308
 40
0.2307692307692308
 40
0.2307692307692308
 40
0.2307692307692308
 40
0.3076923076923077
 40
0.3076923076923077
 40
0.3076923076923077
 40
0.3076923076923077
 40
0.3846153846153846
 40
0.3846153846153846
 40
0.3846153846153846
 40
0.3846153846153846
 40
0.4615384615384616
 40
0.4615384615384616
 40
0.4615384615384616
 40
0.4615384615384616
 40
0.5384615384615384
 40
0.5384615384615384
 40
0.5384615384615384
 40
0.5384615384615384
 40
0.6153846153846154
 40
0.6153846153846154
 40
0.6153846153846154
 40
0.6153846153846154
 40
0.6923076923076923
 40
0.6923076923076923
 40
0.6923076923076923
 40
0.6923076923076923
 40
0.7692307692307693
 40
0.7692307692307693
 40
0.7692307692307693
 40
0.7692307692307693
 40
0.8461538461538461
 40
0.8461538461538461
 40
0.8461538461538461
 40
0.8461538461538461
 40
1.0
 40
1.0
 40
1.0
 40
1.0
 10
-2.8903
 20
-7.58653
 30
0.0
 10
-2.8903
 20
-7.51499
 30
0.0
 10
-2.88296
 20
-7.45713
 30
0.0
 10
-2.86829
 20
-7.41339
 30
0.0
 10
-2.86829
 20
-7.41339
 30
0.0
 10
-2.85347
 20
-7.3695
 30
0.0
 10
-2.8316
 20
-7.33578
 30
0.0
 10
-2.80253
 20
-7.31221
 30
0.0
 10
-2.80253
 20
-7.31221
 30
0.0
 10
-2.7736
 20
-7.28865
 30
0.0
 10
-2.73705
 20
-7.27693
 30
0.0
 10
-2.69303
 20
-7.27693
 30
0.0
 10
-2.69303
 20
-7.27693
 30
0.0
 10
-2.66057
 20
-7.27693
 30
0.0
 10
-2.63207
 20
-7.28343
 30
0.0
 10
-2.60737
 20
-7.29655
 30
0.0
 10
-2.60737
 20
-7.29655
 30
0.0
 10
-2.58282
 20
-7.30967
 30
0.0
 10
-2.5625
 20
-7.32858
 30
0.0
 10
-2.54669
 20
-7.35328
 30
0.0
 10
-2.54669
 20
-7.35328
 30
0.0
 10
-2.53089
 20
-7.37783
 30
0.0
 10
-2.51847
 20
-7.40789
 30
0.0
 10
-2.50944
 20
-7.4433
 30
0.0
 10
-2.50944
 20
-7.4433
 30
0.0
 10
-2.50027
 20
-7.47872
 30
0.0
 10
-2.49575
 20
-7.52656
 30
0.0
 10
-2.49575
 20
-7.58653
 30
0.0
 10
-2.49575
 20
-7.58653
 30
0.0
 10
-2.49575
 20
-7.65765
 30
0.0
 10
-2.50309
 20
-7.71523
 30
0.0
 10
-2.51762
 20
-7.75897
 30
0.0
 10
-2.51762
 20
-7.75897
 30
0.0
 10
-2.53216
 20
-7.80286
 30
0.0
 10
-2.55403
 20
-7.83658
 30
0.0
 10
-2.5831
 20
-7.86029
 30
0.0
 10
-2.5831
 20
-7.86029
 30
0.0
 10
-2.61203
 20
-7.884
 30
0.0
 10
-2.64872
 20
-7.89585
 30
0.0
 10
-2.69303
 20
-7.89585
 30
0.0
 10
-2.69303
 20
-7.89585
 30
0.0
 10
-2.7513
 20
-7.89585
 30
0.0
 10
-2.79717
 20
-7.87511
 30
0.0
 10
-2.83047
 20
-7.83348
 30
0.0
 10
-2.83047
 20
-7.83348
 30
0.0
 10
-2.8704
 20
-7.78268
 30
0.0
 10
-2.8903
 20
-7.70041
 30
0.0
 10
-2.8903
 20
-7.58653
 30
0.0
  0
SPLINE
  5
44
330
1F
100
AcDbEntity
  8
Layer 1
 62
   250
100
AcDbSpline
210
0.0
220
0.0
230
1.0
 70
    11
 71
     3
 72
    36
 73
    32
 74
     0
 42
0.0000000001
 43
0.0000000001
 12
1.0
 22
0.0
 32
0.0
 13
1.0
 23
0.0
 33
0.0
 40
0.0
 40
0.0
 40
0.0
 40
0.0
 40
0.1111111111111111
 40
0.1111111111111111
 40
0.1111111111111111
 40
0.1111111111111111
 40
0.2222222222222222
 40
0.2222222222222222
 40
0.2222222222222222
 40
0.2222222222222222
 40
0.3333333333333333
 40
0.3333333333333333
 40
0.3333333333333333
 40
0.3333333333333333
 40
0.4444444444444444
 40
0.4444444444444444
 40
0.4444444444444444
 40
0.4444444444444444
 40
0.5555555555555556
 40
0.5555555555555556
 40
0.5555555555555556
 40
0.5555555555555556
 40
0.6666666666666666
 40
0.6666666666666666
 40
0.6666666666666666
 40
0.6666666666666666
 40
0.7777777777777778
 40
0.7777777777777778
 40
0.7777777777777778
 40
0.7777777777777778
 40
1.0
 40
1.0
 40
1.0
 40
1.0
 10
-2.8141
 20
-7.58682
 30
0.0
 10
-2.8141
 20
-7.68658
 30
0.0
 10
-2.80253
 20
-7.7529
 30
0.0
 10
-2.77924
 20
-7.78564
 30
0.0
 10
-2.77924
 20
-7.78564
 30
0.0
 10
-2.75596
 20
-7.81852
 30
0.0
 10
-2.72717
 20
-7.83489
 30
0.0
 10
-2.69303
 20
-7.83489
 30
0.0
 10
-2.69303
 20
-7.83489
 30
0.0
 10
-2.65888
 20
-7.83489
 30
0.0
 10
-2.63009
 20
-7.81838
 30
0.0
 10
-2.60681
 20
-7.7855
 30
0.0
 10
-2.60681
 20
-7.7855
 30
0.0
 10
-2.58352
 20
-7.75248
 30
0.0
 10
-2.57195
 20
-7.6863
 30
0.0
 10
-2.57195
 20
-7.58682
 30
0.0
 10
-2.57195
 20
-7.58682
 30
0.0
 10
-2.57195
 20
-7.48705
 30
0.0
 10
-2.58352
 20
-7.42073
 30
0.0
 10
-2.60681
 20
-7.38799
 30
0.0
 10
-2.60681
 20
-7.38799
 30
0.0
 10
-2.62995
 20
-7.35511
 30
0.0
 10
-2.65902
 20
-7.33874
 30
0.0
 10
-2.69387
 20
-7.33874
 30
0.0
 10
-2.69387
 20
-7.33874
 30
0.0
 10
-2.72802
 20
-7.33874
 30
0.0
 10
-2.7554
 20
-7.35328
 30
0.0
 10
-2.77586
 20
-7.3822
 30
0.0
 10
-2.77586
 20
-7.3822
 30
0.0
 10
-2.8014
 20
-7.41903
 30
0.0
 10
-2.8141
 20
-7.48733
 30
0.0
 10
-2.8141
 20
-7.58682
 30
0.0
  0
SPLINE
  5
45
330
1F
100
AcDbEntity
  8
Layer 1
 62
   250
100
AcDbSpline
210
0.0
220
0.0
230
1.0
 70
    11
 71
     3
 72
    48
 73
    44
 74
     0
 42
0.0000000001
 43
0.0000000001
 12
1.0
 22
0.0
 32
0.0
 13
1.0
 23
0.0
 33
0.0
 40
0.0
 40
0.0
 40
0.0
 40
0.0
 40
0.0833333333333333
 40
0.0833333333333333
 40
0.0833333333333333
 40
0.0833333333333333
 40
0.1666666666666667
 40
0.1666666666666667
 40
0.1666666666666667
 40
0.1666666666666667
 40
0.25
 40
0.25
 40
0.25
 40
0.25
 40
0.3333333333333333
 40
0.3333333333333333
 40
0.3333333333333333
 40
0.3333333333333333
 40
0.4166666666666667
 40
0.4166666666666667
 40
0.4166666666666667
 40
0.4166666666666667
 40
0.5
 40
0.5
 40
0.5
 40
0.5
 40
0.5833333333333334
 40
0.5833333333333334
 40
0.5833333333333334
 40
0.5833333333333334
 40
0.6666666666666666
 40
0.6666666666666666
 40
0.6666666666666666
 40
0.6666666666666666
 40
0.75
 40
0.75
 40
0.75
 40
0.75
 40
0.8333333333333334
 40
0.8333333333333334
 40
0.8333333333333334
 40
0.8333333333333334
 40
1.0
 40
1.0
 40
1.0
 40
1.0
 10
-2.41518
 20
-7.35821
 30
0.0
 10
-2.41518
 20
-7.35821
 30
0.0
 10
-2.41518
 20
-7.28709
 30
0.0
 10
-2.41518
 20
-7.28709
 30
0.0
 10
-2.41518
 20
-7.28709
 30
0.0
 10
-2.41518
 20
-7.28709
 30
0.0
 10
-2.02317
 20
-7.28709
 30
0.0
 10
-2.02317
 20
-7.28709
 30
0.0
 10
-2.02317
 20
-7.28709
 30
0.0
 10
-2.02317
 20
-7.28709
 30
0.0
 10
-2.02317
 20
-7.34467
 30
0.0
 10
-2.02317
 20
-7.34467
 30
0.0
 10
-2.02317
 20
-7.34467
 30
0.0
 10
-2.06169
 20
-7.38573
 30
0.0
 10
-2.10007
 20
-7.44034
 30
0.0
 10
-2.13789
 20
-7.5085
 30
0.0
 10
-2.13789
 20
-7.5085
 30
0.0
 10
-2.17585
 20
-7.57666
 30
0.0
 10
-2.20506
 20
-7.64679
 30
0.0
 10
-2.2258
 20
-7.7189
 30
0.0
 10
-2.2258
 20
-7.7189
 30
0.0
 10
-2.24062
 20
-7.76956
 30
0.0
 10
-2.25022
 20
-7.82529
 30
0.0
 10
-2.25431
 20
-7.88569
 30
0.0
 10
-2.25431
 20
-7.88569
 30
0.0
 10
-2.25431
 20
-7.88569
 30
0.0
 10
-2.33051
 20
-7.88569
 30
0.0
 10
-2.33051
 20
-7.88569
 30
0.0
 10
-2.33051
 20
-7.88569
 30
0.0
 10
-2.32966
 20
-7.83799
 30
0.0
 10
-2.32035
 20
-7.78028
 30
0.0
 10
-2.30243
 20
-7.71269
 30
0.0
 10
-2.30243
 20
-7.71269
 30
0.0
 10
-2.28451
 20
-7.64495
 30
0.0
 10
-2.25897
 20
-7.57976
 30
0.0
 10
-2.22552
 20
-7.51697
 30
0.0
 10
-2.22552
 20
-7.51697
 30
0.0
 10
-2.19208
 20
-7.45417
 30
0.0
 10
-2.15652
 20
-7.40125
 30
0.0
 10
-2.11884
 20
-7.35821
 30
0.0
 10
-2.11884
 20
-7.35821
 30
0.0
 10
-2.11884
 20
-7.35821
 30
0.0
 10
-2.41518
 20
-7.35821
 30
0.0
 10
-2.41518
 20
-7.35821
 30
0.0
  0
SPLINE
  5
46
330
1F
100
AcDbEntity
  8
Layer 1
 62
   250
100
AcDbSpline
210
0.0
220
0.0
230
1.0
 70
    11
 71
     3
 72
    52
 73
    48
 74
     0
 42
0.0000000001
 43
0.0000000001
 12
1.0
 22
0.0
 32
0.0
 13
1.0
 23
0.0
 33
0.0
 40
0.0
 40
0.0
 40
0.0
 40
0.0
 40
0.0769230769230769
 40
0.0769230769230769
 40
0.0769230769230769
 40
0.0769230769230769
 40
0.1538461538461539
 40
0.1538461538461539
 40
0.1538461538461539
 40
0.1538461538461539
 40
0.2307692307692308
 40
0.2307692307692308
 40
0.2307692307692308
 40
0.2307692307692308
 40
0.3076923076923077
 40
0.3076923076923077
 40
0.3076923076923077
 40
0.3076923076923077
 40
0.3846153846153846
 40
0.3846153846153846
 40
0.3846153846153846
 40
0.3846153846153846
 40
0.4615384615384616
 40
0.4615384615384616
 40
0.4615384615384616
 40
0.4615384615384616
 40
0.5384615384615384
 40
0.5384615384615384
 40
0.5384615384615384
 40
0.5384615384615384
 40
0.6153846153846154
 40
0.6153846153846154
 40
0.6153846153846154
 40
0.6153846153846154
 40
0.6923076923076923
 40
0.6923076923076923
 40
0.6923076923076923
 40
0.6923076923076923
 40
0.7692307692307693
 40
0.7692307692307693
 40
0.7692307692307693
 40
0.7692307692307693
 40
0.8461538461538461
 40
0.8461538461538461
 40
0.8461538461538461
 40
0.8461538461538461
 40
1.0
 40
1.0
 40
1.0
 40
1.0
 10
-1.94852
 20
-7.58653
 30
0.0
 10
-1.94852
 20
-7.51499
 30
0.0
 10
-1.94118
 20
-7.45713
 30
0.0
 10
-1.92651
 20
-7.41339
 30
0.0
 10
-1.92651
 20
-7.41339
 30
0.0
 10
-1.91169
 20
-7.3695
 30
0.0
 10
-1.88982
 20
-7.33578
 30
0.0
 10
-1.86075
 20
-7.31221
 30
0.0
 10
-1.86075
 20
-7.31221
 30
0.0
 10
-1.83182
 20
-7.28865
 30
0.0
 10
-1.79527
 20
-7.27693
 30
0.0
 10
-1.75125
 20
-7.27693
 30
0.0
 10
-1.75125
 20
-7.27693
 30
0.0
 10
-1.71879
 20
-7.27693
 30
0.0
 10
-1.69029
 20
-7.28343
 30
0.0
 10
-1.66559
 20
-7.29655
 30
0.0
 10
-1.66559
 20
-7.29655
 30
0.0
 10
-1.64104
 20
-7.30967
 30
0.0
 10
-1.62072
 20
-7.32858
 30
0.0
 10
-1.60491
 20
-7.35328
 30
0.0
 10
-1.60491
 20
-7.35328
 30
0.0
 10
-1.58911
 20
-7.37783
 30
0.0
 10
-1.57669
 20
-7.40789
 30
0.0
 10
-1.56766
 20
-7.4433
 30
0.0
 10
-1.56766
 20
-7.4433
 30
0.0
 10
-1.55849
 20
-7.47872
 30
0.0
 10
-1.55397
 20
-7.52656
 30
0.0
 10
-1.55397
 20
-7.58653
 30
0.0
 10
-1.55397
 20
-7.58653
 30
0.0
 10
-1.55397
 20
-7.65765
 30
0.0
 10
-1.56131
 20
-7.71523
 30
0.0
 10
-1.57584
 20
-7.75897
 30
0.0
 10
-1.57584
 20
-7.75897
 30
0.0
 10
-1.59038
 20
-7.80286
 30
0.0
 10
-1.61225
 20
-7.83658
 30
0.0
 10
-1.64132
 20
-7.86029
 30
0.0
 10
-1.64132
 20
-7.86029
 30
0.0
 10
-1.67025
 20
-7.884
 30
0.0
 10
-1.70694
 20
-7.89585
 30
0.0
 10
-1.75125
 20
-7.89585
 30
0.0
 10
-1.75125
 20
-7.89585
 30
0.0
 10
-1.80952
 20
-7.89585
 30
0.0
 10
-1.85539
 20
-7.87511
 30
0.0
 10
-1.88869
 20
-7.83348
 30
0.0
 10
-1.88869
 20
-7.83348
 30
0.0
 10
-1.92862
 20
-7.78268
 30
0.0
 10
-1.94852
 20
-7.70041
 30
0.0
 10
-1.94852
 20
-7.58653
 30
0.0
  0
SPLINE
  5
47
330
1F
100
AcDbEntity
  8
Layer 1
 62
   250
100
AcDbSpline
210
0.0
220
0.0
230
1.0
 70
    11
 71
     3
 72
    36
 73
    32
 74
     0
 42
0.0000000001
 43
0.0000000001
 12
1.0
 22
0.0
 32
0.0
 13
1.0
 23
0.0
 33
0.0
 40
0.0
 40
0.0
 40
0.0
 40
0.0
 40
0.1111111111111111
 40
0.1111111111111111
 40
0.1111111111111111
 40
0.1111111111111111
 40
0.2222222222222222
 40
0.2222222222222222
 40
0.2222222222222222
 40
0.2222222222222222
 40
0.3333333333333333
 40
0.3333333333333333
 40
0.3333333333333333
 40
0.3333333333333333
 40
0.4444444444444444
 40
0.4444444444444444
 40
0.4444444444444444
 40
0.4444444444444444
 40
0.5555555555555556
 40
0.5555555555555556
 40
0.5555555555555556
 40
0.5555555555555556
 40
0.6666666666666666
 40
0.6666666666666666
 40
0.6666666666666666
 40
0.6666666666666666
 40
0.7777777777777778
 40
0.7777777777777778
 40
0.7777777777777778
 40
0.7777777777777778
 40
1.0
 40
1.0
 40
1.0
 40
1.0
 10
-1.87232
 20
-7.58682
 30
0.0
 10
-1.87232
 20
-7.68658
 30
0.0
 10
-1.86075
 20
-7.7529
 30
0.0
 10
-1.83746
 20
-7.78564
 30
0.0
 10
-1.83746
 20
-7.78564
 30
0.0
 10
-1.81418
 20
-7.81852
 30
0.0
 10
-1.78539
 20
-7.83489
 30
0.0
 10
-1.75125
 20
-7.83489
 30
0.0
 10
-1.75125
 20
-7.83489
 30
0.0
 10
-1.7171
 20
-7.83489
 30
0.0
 10
-1.68831
 20
-7.81838
 30
0.0
 10
-1.66503
 20
-7.7855
 30
0.0
 10
-1.66503
 20
-7.7855
 30
0.0
 10
-1.64174
 20
-7.75248
 30
0.0
 10
-1.63017
 20
-7.6863
 30
0.0
 10
-1.63017
 20
-7.58682
 30
0.0
 10
-1.63017
 20
-7.58682
 30
0.0
 10
-1.63017
 20
-7.48705
 30
0.0
 10
-1.64174
 20
-7.42073
 30
0.0
 10
-1.66503
 20
-7.38799
 30
0.0
 10
-1.66503
 20
-7.38799
 30
0.0
 10
-1.68817
 20
-7.35511
 30
0.0
 10
-1.71724
 20
-7.33874
 30
0.0
 10
-1.75209
 20
-7.33874
 30
0.0
 10
-1.75209
 20
-7.33874
 30
0.0
 10
-1.78624
 20
-7.33874
 30
0.0
 10
-1.81362
 20
-7.35328
 30
0.0
 10
-1.83408
 20
-7.3822
 30
0.0
 10
-1.83408
 20
-7.3822
 30
0.0
 10
-1.85962
 20
-7.41903
 30
0.0
 10
-1.87232
 20
-7.48733
 30
0.0
 10
-1.87232
 20
-7.58682
 30
0.0
  0
SPLINE
  5
48
330
1F
100
AcDbEntity
  8
Layer 1
 62
   250
100
AcDbSpline
210
0.0
220
0.0
230
1.0
 70
    11
 71
     3
 72
    52
 73
    48
 74
     0
 42
0.0000000001
 43
0.0000000001
 12
1.0
 22
0.0
 32
0.0
 13
1.0
 23
0.0
 33
0.0
 40
0.0
 40
0.0
 40
0.0
 40
0.0
 40
0.0769230769230769
 40
0.0769230769230769
 40
0.0769230769230769
 40
0.0769230769230769
 40
0.1538461538461539
 40
0.1538461538461539
 40
0.1538461538461539
 40
0.1538461538461539
 40
0.2307692307692308
 40
0.2307692307692308
 40
0.2307692307692308
 40
0.2307692307692308
 40
0.3076923076923077
 40
0.3076923076923077
 40
0.3076923076923077
 40
0.3076923076923077
 40
0.3846153846153846
 40
0.3846153846153846
 40
0.3846153846153846
 40
0.3846153846153846
 40
0.4615384615384616
 40
0.4615384615384616
 40
0.4615384615384616
 40
0.4615384615384616
 40
0.5384615384615384
 40
0.5384615384615384
 40
0.5384615384615384
 40
0.5384615384615384
 40
0.6153846153846154
 40
0.6153846153846154
 40
0.6153846153846154
 40
0.6153846153846154
 40
0.6923076923076923
 40
0.6923076923076923
 40
0.6923076923076923
 40
0.6923076923076923
 40
0.7692307692307693
 40
0.7692307692307693
 40
0.7692307692307693
 40
0.7692307692307693
 40
0.8461538461538461
 40
0.8461538461538461
 40
0.8461538461538461
 40
0.8461538461538461
 40
1.0
 40
1.0
 40
1.0
 40
1.0
 10
-1.47763
 20
-7.58653
 30
0.0
 10
-1.47763
 20
-7.51499
 30
0.0
 10
-1.47029
 20
-7.45713
 30
0.0
 10
-1.45562
 20
-7.41339
 30
0.0
 10
-1.45562
 20
-7.41339
 30
0.0
 10
-1.4408
 20
-7.3695
 30
0.0
 10
-1.41893
 20
-7.33578
 30
0.0
 10
-1.38986
 20
-7.31221
 30
0.0
 10
-1.38986
 20
-7.31221
 30
0.0
 10
-1.36093
 20
-7.28865
 30
0.0
 10
-1.32438
 20
-7.27693
 30
0.0
 10
-1.28036
 20
-7.27693
 30
0.0
 10
-1.28036
 20
-7.27693
 30
0.0
 10
-1.2479
 20
-7.27693
 30
0.0
 10
-1.2194
 20
-7.28343
 30
0.0
 10
-1.1947
 20
-7.29655
 30
0.0
 10
-1.1947
 20
-7.29655
 30
0.0
 10
-1.17015
 20
-7.30967
 30
0.0
 10
-1.14983
 20
-7.32858
 30
0.0
 10
-1.13402
 20
-7.35328
 30
0.0
 10
-1.13402
 20
-7.35328
 30
0.0
 10
-1.11822
 20
-7.37783
 30
0.0
 10
-1.1058
 20
-7.40789
 30
0.0
 10
-1.09677
 20
-7.4433
 30
0.0
 10
-1.09677
 20
-7.4433
 30
0.0
 10
-1.0876
 20
-7.47872
 30
0.0
 10
-1.08308
 20
-7.52656
 30
0.0
 10
-1.08308
 20
-7.58653
 30
0.0
 10
-1.08308
 20
-7.58653
 30
0.0
 10
-1.08308
 20
-7.65765
 30
0.0
 10
-1.09042
 20
-7.71523
 30
0.0
 10
-1.10495
 20
-7.75897
 30
0.0
 10
-1.10495
 20
-7.75897
 30
0.0
 10
-1.11949
 20
-7.80286
 30
0.0
 10
-1.14136
 20
-7.83658
 30
0.0
 10
-1.17043
 20
-7.86029
 30
0.0
 10
-1.17043
 20
-7.86029
 30
0.0
 10
-1.19936
 20
-7.884
 30
0.0
 10
-1.23605
 20
-7.89585
 30
0.0
 10
-1.28036
 20
-7.89585
 30
0.0
 10
-1.28036
 20
-7.89585
 30
0.0
 10
-1.33863
 20
-7.89585
 30
0.0
 10
-1.3845
 20
-7.87511
 30
0.0
 10
-1.4178
 20
-7.83348
 30
0.0
 10
-1.4178
 20
-7.83348
 30
0.0
 10
-1.45773
 20
-7.78268
 30
0.0
 10
-1.47763
 20
-7.70041
 30
0.0
 10
-1.47763
 20
-7.58653
 30
0.0
  0
SPLINE
  5
49
330
1F
100
AcDbEntity
  8
Layer 1
 62
   250
100
AcDbSpline
210
0.0
220
0.0
230
1.0
 70
    11
 71
     3
 72
    36
 73
    32
 74
     0
 42
0.0000000001
 43
0.0000000001
 12
1.0
 22
0.0
 32
0.0
 13
1.0
 23
0.0
 33
0.0
 40
0.0
 40
0.0
 40
0.0
 40
0.0
 40
0.1111111111111111
 40
0.1111111111111111
 40
0.1111111111111111
 40
0.1111111111111111
 40
0.2222222222222222
 40
0.2222222222222222
 40
0.2222222222222222
 40
0.2222222222222222
 40
0.3333333333333333
 40
0.3333333333333333
 40
0.3333333333333333
 40
0.3333333333333333
 40
0.4444444444444444
 40
0.4444444444444444
 40
0.4444444444444444
 40
0.4444444444444444
 40
0.5555555555555556
 40
0.5555555555555556
 40
0.5555555555555556
 40
0.5555555555555556
 40
0.6666666666666666
 40
0.6666666666666666
 40
0.6666666666666666
 40
0.6666666666666666
 40
0.7777777777777778
 40
0.7777777777777778
 40
0.7777777777777778
 40
0.7777777777777778
 40
1.0
 40
1.0
 40
1.0
 40
1.0
 10
-1.40143
 20
-7.58682
 30
0.0
 10
-1.40143
 20
-7.68658
 30
0.0
 10
-1.38986
 20
-7.7529
 30
0.0
 10
-1.36657
 20
-7.78564
 30
0.0
 10
-1.36657
 20
-7.78564
 30
0.0
 10
-1.34329
 20
-7.81852
 30
0.0
 10
-1.3145
 20
-7.83489
 30
0.0
 10
-1.28036
 20
-7.83489
 30
0.0
 10
-1.28036
 20
-7.83489
 30
0.0
 10
-1.24621
 20
-7.83489
 30
0.0
 10
-1.21742
 20
-7.81838
 30
0.0
 10
-1.19414
 20
-7.7855
 30
0.0
 10
-1.19414
 20
-7.7855
 30
0.0
 10
-1.17085
 20
-7.75248
 30
0.0
 10
-1.15928
 20
-7.6863
 30
0.0
 10
-1.15928
 20
-7.58682
 30
0.0
 10
-1.15928
 20
-7.58682
 30
0.0
 10
-1.15928
 20
-7.48705
 30
0.0
 10
-1.17085
 20
-7.42073
 30
0.0
 10
-1.19414
 20
-7.38799
 30
0.0
 10
-1.19414
 20
-7.38799
 30
0.0
 10
-1.21728
 20
-7.35511
 30
0.0
 10
-1.24635
 20
-7.33874
 30
0.0
 10
-1.2812
 20
-7.33874
 30
0.0
 10
-1.2812
 20
-7.33874
 30
0.0
 10
-1.31535
 20
-7.33874
 30
0.0
 10
-1.34273
 20
-7.35328
 30
0.0
 10
-1.36319
 20
-7.3822
 30
0.0
 10
-1.36319
 20
-7.3822
 30
0.0
 10
-1.38873
 20
-7.41903
 30
0.0
 10
-1.40143
 20
-7.48733
 30
0.0
 10
-1.40143
 20
-7.58682
 30
0.0
  0
SPLINE
  5
4A
330
1F
100
AcDbEntity
  8
Layer 1
 62
   250
100
AcDbSpline
210
0.0
220
0.0
230
1.0
 70
    11
 71
     3
 72
    40
 73
    36
 74
     0
 42
0.0000000001
 43
0.0000000001
 12
1.0
 22
0.0
 32
0.0
 13
1.0
 23
0.0
 33
0.0
 40
0.0
 40
0.0
 40
0.0
 40
0.0
 40
0.1
 40
0.1
 40
0.1
 40
0.1
 40
0.2
 40
0.2
 40
0.2
 40
0.2
 40
0.3
 40
0.3
 40
0.3
 40
0.3
 40
0.4
 40
0.4
 40
0.4
 40
0.4
 40
0.5
 40
0.5
 40
0.5
 40
0.5
 40
0.6
 40
0.6
 40
0.6
 40
0.6
 40
0.7
 40
0.7
 40
0.7
 40
0.7
 40
0.8
 40
0.8
 40
0.8
 40
0.8
 40
1.0
 40
1.0
 40
1.0
 40
1.0
 10
-0.72734
 20
-7.88569
 30
0.0
 10
-0.72734
 20
-7.88569
 30
0.0
 10
-0.80185
 20
-7.88569
 30
0.0
 10
-0.80185
 20
-7.88569
 30
0.0
 10
-0.80185
 20
-7.88569
 30
0.0
 10
-0.80185
 20
-7.88569
 30
0.0
 10
-0.80185
 20
-7.41127
 30
0.0
 10
-0.80185
 20
-7.41127
 30
0.0
 10
-0.80185
 20
-7.41127
 30
0.0
 10
-0.81977
 20
-7.42849
 30
0.0
 10
-0.84333
 20
-7.44556
 30
0.0
 10
-0.8724
 20
-7.46264
 30
0.0
 10
-0.8724
 20
-7.46264
 30
0.0
 10
-0.90147
 20
-7.47971
 30
0.0
 10
-0.92772
 20
-7.49255
 30
0.0
 10
-0.95086
 20
-7.50102
 30
0.0
 10
-0.95086
 20
-7.50102
 30
0.0
 10
-0.95086
 20
-7.50102
 30
0.0
 10
-0.95086
 20
-7.42905
 30
0.0
 10
-0.95086
 20
-7.42905
 30
0.0
 10
-0.95086
 20
-7.42905
 30
0.0
 10
-0.90923
 20
-7.40958
 30
0.0
 10
-0.87282
 20
-7.38587
 30
0.0
 10
-0.84164
 20
-7.35793
 30
0.0
 10
-0.84164
 20
-7.35793
 30
0.0
 10
-0.81045
 20
-7.33013
 30
0.0
 10
-0.7883
 20
-7.30318
 30
0.0
 10
-0.77532
 20
-7.27693
 30
0.0
 10
-0.77532
 20
-7.27693
 30
0.0
 10
-0.77532
 20
-7.27693
 30
0.0
 10
-0.72734
 20
-7.27693
 30
0.0
 10
-0.72734
 20
-7.27693
 30
0.0
 10
-0.72734
 20
-7.27693
 30
0.0
 10
-0.72734
 20
-7.27693
 30
0.0
 10
-0.72734
 20
-7.88569
 30
0.0
 10
-0.72734
 20
-7.88569
 30
0.0
  0
SPLINE
  5
4B
330
1F
100
AcDbEntity
  8
Layer 1
 62
   250
100
AcDbSpline
210
0.0
220
0.0
230
1.0
 70
    11
 71
     3
 72
    20
 73
    16
 74
     0
 42
0.0000000001
 43
0.0000000001
 12
1.0
 22
0.0
 32
0.0
 13
1.0
 23
0.0
 33
0.0
 40
0.0
 40
0.0
 40
0.0
 40
0.0
 40
0.2
 40
0.2
 40
0.2
 40
0.2
 40
0.4
 40
0.4
 40
0.4
 40
0.4
 40
0.6
 40
0.6
 40
0.6
 40
0.6
 40
1.0
 40
1.0
 40
1.0
 40
1.0
 10
-0.54516
 20
-7.70366
 30
0.0
 10
-0.54516
 20
-7.70366
 30
0.0
 10
-0.54516
 20
-7.62915
 30
0.0
 10
-0.54516
 20
-7.62915
 30
0.0
 10
-0.54516
 20
-7.62915
 30
0.0
 10
-0.54516
 20
-7.62915
 30
0.0
 10
-0.31487
 20
-7.62915
 30
0.0
 10
-0.31487
 20
-7.62915
 30
0.0
 10
-0.31487
 20
-7.62915
 30
0.0
 10
-0.31487
 20
-7.62915
 30
0.0
 10
-0.31487
 20
-7.70366
 30
0.0
 10
-0.31487
 20
-7.70366
 30
0.0
 10
-0.31487
 20
-7.70366
 30
0.0
 10
-0.31487
 20
-7.70366
 30
0.0
 10
-0.54516
 20
-7.70366
 30
0.0
 10
-0.54516
 20
-7.70366
 30
0.0
  0
SPLINE
  5
4C
330
1F
100
AcDbEntity
  8
Layer 1
 62
   250
100
AcDbSpline
210
0.0
220
0.0
230
1.0
 70
    11
 71
     3
 72
    84
 73
    80
 74
     0
 42
0.0000000001
 43
0.0000000001
 12
1.0
 22
0.0
 32
0.0
 13
1.0
 23
0.0
 33
0.0
 40
0.0
 40
0.0
 40
0.0
 40
0.0
 40
0.0476190476190476
 40
0.0476190476190476
 40
0.0476190476190476
 40
0.0476190476190476
 40
0.0952380952380952
 40
0.0952380952380952
 40
0.0952380952380952
 40
0.0952380952380952
 40
0.1428571428571428
 40
0.1428571428571428
 40
0.1428571428571428
 40
0.1428571428571428
 40
0.1904761904761905
 40
0.1904761904761905
 40
0.1904761904761905
 40
0.1904761904761905
 40
0.2380952380952381
 40
0.2380952380952381
 40
0.2380952380952381
 40
0.2380952380952381
 40
0.2857142857142857
 40
0.2857142857142857
 40
0.2857142857142857
 40
0.2857142857142857
 40
0.3333333333333333
 40
0.3333333333333333
 40
0.3333333333333333
 40
0.3333333333333333
 40
0.3809523809523809
 40
0.3809523809523809
 40
0.3809523809523809
 40
0.3809523809523809
 40
0.4285714285714285
 40
0.4285714285714285
 40
0.4285714285714285
 40
0.4285714285714285
 40
0.4761904761904762
 40
0.4761904761904762
 40
0.4761904761904762
 40
0.4761904761904762
 40
0.5238095238095238
 40
0.5238095238095238
 40
0.5238095238095238
 40
0.5238095238095238
 40
0.5714285714285714
 40
0.5714285714285714
 40
0.5714285714285714
 40
0.5714285714285714
 40
0.6190476190476191
 40
0.6190476190476191
 40
0.6190476190476191
 40
0.6190476190476191
 40
0.6666666666666666
 40
0.6666666666666666
 40
0.6666666666666666
 40
0.6666666666666666
 40
0.7142857142857143
 40
0.7142857142857143
 40
0.7142857142857143
 40
0.7142857142857143
 40
0.7619047619047619
 40
0.7619047619047619
 40
0.7619047619047619
 40
0.7619047619047619
 40
0.8095238095238095
 40
0.8095238095238095
 40
0.8095238095238095
 40
0.8095238095238095
 40
0.8571428571428571
 40
0.8571428571428571
 40
0.8571428571428571
 40
0.8571428571428571
 40
0.9047619047619048
 40
0.9047619047619048
 40
0.9047619047619048
 40
0.9047619047619048
 40
1.0
 40
1.0
 40
1.0
 40
1.0
 10
-0.07188
 20
-7.81923
 30
0.0
 10
-0.07188
 20
-7.81923
 30
0.0
 10
-0.06172
 20
-7.88498
 30
0.0
 10
-0.06172
 20
-7.88498
 30
0.0
 10
-0.06172
 20
-7.88498
 30
0.0
 10
-0.0826
 20
-7.88936
 30
0.0
 10
-0.10137
 20
-7.89162
 30
0.0
 10
-0.11774
 20
-7.89162
 30
0.0
 10
-0.11774
 20
-7.89162
 30
0.0
 10
-0.14469
 20
-7.89162
 30
0.0
 10
-0.16557
 20
-7.88738
 30
0.0
 10
-0.18053
 20
-7.87878
 30
0.0
 10
-0.18053
 20
-7.87878
 30
0.0
 10
-0.19535
 20
-7.87017
 30
0.0
 10
-0.20579
 20
-7.85902
 30
0.0
 10
-0.21186
 20
-7.84505
 30
0.0
 10
-0.21186
 20
-7.84505
 30
0.0
 10
-0.21793
 20
-7.83108
 30
0.0
 10
-0.22089
 20
-7.80173
 30
0.0
 10
-0.22089
 20
-7.757
 30
0.0
 10
-0.22089
 20
-7.757
 30
0.0
 10
-0.22089
 20
-7.757
 30
0.0
 10
-0.22089
 20
-7.50384
 30
0.0
 10
-0.22089
 20
-7.50384
 30
0.0
 10
-0.22089
 20
-7.50384
 30
0.0
 10
-0.22089
 20
-7.50384
 30
0.0
 10
-0.27592
 20
-7.50384
 30
0.0
 10
-0.27592
 20
-7.50384
 30
0.0
 10
-0.27592
 20
-7.50384
 30
0.0
 10
-0.27592
 20
-7.50384
 30
0.0
 10
-0.27592
 20
-7.44627
 30
0.0
 10
-0.27592
 20
-7.44627
 30
0.0
 10
-0.27592
 20
-7.44627
 30
0.0
 10
-0.27592
 20
-7.44627
 30
0.0
 10
-0.22089
 20
-7.44627
 30
0.0
 10
-0.22089
 20
-7.44627
 30
0.0
 10
-0.22089
 20
-7.44627
 30
0.0
 10
-0.22089
 20
-7.44627
 30
0.0
 10
-0.22089
 20
-7.33761
 30
0.0
 10
-0.22089
 20
-7.33761
 30
0.0
 10
-0.22089
 20
-7.33761
 30
0.0
 10
-0.22089
 20
-7.33761
 30
0.0
 10
-0.14638
 20
-7.29288
 30
0.0
 10
-0.14638
 20
-7.29288
 30
0.0
 10
-0.14638
 20
-7.29288
 30
0.0
 10
-0.14638
 20
-7.29288
 30
0.0
 10
-0.14638
 20
-7.44627
 30
0.0
 10
-0.14638
 20
-7.44627
 30
0.0
 10
-0.14638
 20
-7.44627
 30
0.0
 10
-0.14638
 20
-7.44627
 30
0.0
 10
-0.07188
 20
-7.44627
 30
0.0
 10
-0.07188
 20
-7.44627
 30
0.0
 10
-0.07188
 20
-7.44627
 30
0.0
 10
-0.07188
 20
-7.44627
 30
0.0
 10
-0.07188
 20
-7.50384
 30
0.0
 10
-0.07188
 20
-7.50384
 30
0.0
 10
-0.07188
 20
-7.50384
 30
0.0
 10
-0.07188
 20
-7.50384
 30
0.0
 10
-0.14638
 20
-7.50384
 30
0.0
 10
-0.14638
 20
-7.50384
 30
0.0
 10
-0.14638
 20
-7.50384
 30
0.0
 10
-0.14638
 20
-7.50384
 30
0.0
 10
-0.14638
 20
-7.76123
 30
0.0
 10
-0.14638
 20
-7.76123
 30
0.0
 10
-0.14638
 20
-7.76123
 30
0.0
 10
-0.14638
 20
-7.78254
 30
0.0
 10
-0.14511
 20
-7.79623
 30
0.0
 10
-0.14243
 20
-7.80229
 30
0.0
 10
-0.14243
 20
-7.80229
 30
0.0
 10
-0.13989
 20
-7.80836
 30
0.0
 10
-0.13566
 20
-7.81316
 30
0.0
 10
-0.12973
 20
-7.81683
 30
0.0
 10
-0.12973
 20
-7.81683
 30
0.0
 10
-0.1238
 20
-7.82036
 30
0.0
 10
-0.11534
 20
-7.82219
 30
0.0
 10
-0.10433
 20
-7.82219
 30
0.0
 10
-0.10433
 20
-7.82219
 30
0.0
 10
-0.09615
 20
-7.82219
 30
0.0
 10
-0.08528
 20
-7.8212
 30
0.0
 10
-0.07188
 20
-7.81923
 30
0.0
  0
SPLINE
  5
4D
330
1F
100
AcDbEntity
  8
Layer 1
 62
   250
100
AcDbSpline
210
0.0
220
0.0
230
1.0
 70
    11
 71
     3
 72
    64
 73
    60
 74
     0
 42
0.0000000001
 43
0.0000000001
 12
1.0
 22
0.0
 32
0.0
 13
1.0
 23
0.0
 33
0.0
 40
0.0
 40
0.0
 40
0.0
 40
0.0
 40
0.0625
 40
0.0625
 40
0.0625
 40
0.0625
 40
0.125
 40
0.125
 40
0.125
 40
0.125
 40
0.1875
 40
0.1875
 40
0.1875
 40
0.1875
 40
0.25
 40
0.25
 40
0.25
 40
0.25
 40
0.3125
 40
0.3125
 40
0.3125
 40
0.3125
 40
0.375
 40
0.375
 40
0.375
 40
0.375
 40
0.4375
 40
0.4375
 40
0.4375
 40
0.4375
 40
0.5
 40
0.5
 40
0.5
 40
0.5
 40
0.5625
 40
0.5625
 40
0.5625
 40
0.5625
 40
0.625
 40
0.625
 40
0.625
 40
0.625
 40
0.6875
 40
0.6875
 40
0.6875
 40
0.6875
 40
0.75
 40
0.75
 40
0.75
 40
0.75
 40
0.8125
 40
0.8125
 40
0.8125
 40
0.8125
 40
0.875
 40
0.875
 40
0.875
 40
0.875
 40
1.0
 40
1.0
 40
1.0
 40
1.0
 10
0.30136
 20
-7.74345
 30
0.0
 10
0.30136
 20
-7.74345
 30
0.0
 10
0.37841
 20
-7.75361
 30
0.0
 10
0.37841
 20
-7.75361
 30
0.0
 10
0.37841
 20
-7.75361
 30
0.0
 10
0.36641
 20
-7.79834
 30
0.0
 10
0.34398
 20
-7.8332
 30
0.0
 10
0.31124
 20
-7.85789
 30
0.0
 10
0.31124
 20
-7.85789
 30
0.0
 10
0.2785
 20
-7.88259
 30
0.0
 10
0.23673
 20
-7.895
 30
0.0
 10
0.18579
 20
-7.895
 30
0.0
 10
0.18579
 20
-7.895
 30
0.0
 10
0.12173
 20
-7.895
 30
0.0
 10
0.07093
 20
-7.87525
 30
0.0
 10
0.03339
 20
-7.83574
 30
0.0
 10
0.03339
 20
-7.83574
 30
0.0
 10
-0.00415
 20
-7.79637
 30
0.0
 10
-0.02291
 20
-7.74091
 30
0.0
 10
-0.02291
 20
-7.66965
 30
0.0
 10
-0.02291
 20
-7.66965
 30
0.0
 10
-0.02291
 20
-7.59599
 30
0.0
 10
-0.004
 20
-7.5387
 30
0.0
 10
0.03395
 20
-7.49806
 30
0.0
 10
0.03395
 20
-7.49806
 30
0.0
 10
0.07191
 20
-7.45727
 30
0.0
 10
0.12116
 20
-7.43695
 30
0.0
 10
0.1817
 20
-7.43695
 30
0.0
 10
0.1817
 20
-7.43695
 30
0.0
 10
0.24026
 20
-7.43695
 30
0.0
 10
0.2881
 20
-7.45685
 30
0.0
 10
0.32521
 20
-7.49679
 30
0.0
 10
0.32521
 20
-7.49679
 30
0.0
 10
0.36232
 20
-7.53672
 30
0.0
 10
0.38095
 20
-7.59288
 30
0.0
 10
0.38095
 20
-7.66527
 30
0.0
 10
0.38095
 20
-7.66527
 30
0.0
 10
0.38095
 20
-7.66965
 30
0.0
 10
0.38081
 20
-7.67628
 30
0.0
 10
0.38053
 20
-7.68503
 30
0.0
 10
0.38053
 20
-7.68503
 30
0.0
 10
0.38053
 20
-7.68503
 30
0.0
 10
0.05329
 20
-7.68503
 30
0.0
 10
0.05329
 20
-7.68503
 30
0.0
 10
0.05329
 20
-7.68503
 30
0.0
 10
0.05611
 20
-7.73315
 30
0.0
 10
0.06966
 20
-7.77012
 30
0.0
 10
0.09421
 20
-7.79566
 30
0.0
 10
0.09421
 20
-7.79566
 30
0.0
 10
0.11862
 20
-7.8212
 30
0.0
 10
0.14924
 20
-7.83404
 30
0.0
 10
0.18579
 20
-7.83404
 30
0.0
 10
0.18579
 20
-7.83404
 30
0.0
 10
0.21303
 20
-7.83404
 30
0.0
 10
0.23631
 20
-7.82685
 30
0.0
 10
0.2555
 20
-7.81245
 30
0.0
 10
0.2555
 20
-7.81245
 30
0.0
 10
0.27483
 20
-7.79806
 30
0.0
 10
0.29007
 20
-7.77506
 30
0.0
 10
0.30136
 20
-7.74345
 30
0.0
  0
SPLINE
  5
4E
330
1F
100
AcDbEntity
  8
Layer 1
 62
   250
100
AcDbSpline
210
0.0
220
0.0
230
1.0
 70
    11
 71
     3
 72
    24
 73
    20
 74
     0
 42
0.0000000001
 43
0.0000000001
 12
1.0
 22
0.0
 32
0.0
 13
1.0
 23
0.0
 33
0.0
 40
0.0
 40
0.0
 40
0.0
 40
0.0
 40
0.1666666666666667
 40
0.1666666666666667
 40
0.1666666666666667
 40
0.1666666666666667
 40
0.3333333333333333
 40
0.3333333333333333
 40
0.3333333333333333
 40
0.3333333333333333
 40
0.5
 40
0.5
 40
0.5
 40
0.5
 40
0.6666666666666666
 40
0.6666666666666666
 40
0.6666666666666666
 40
0.6666666666666666
 40
1.0
 40
1.0
 40
1.0
 40
1.0
 10
0.05752
 20
-7.62407
 30
0.0
 10
0.05752
 20
-7.62407
 30
0.0
 10
0.30221
 20
-7.62407
 30
0.0
 10
0.30221
 20
-7.62407
 30
0.0
 10
0.30221
 20
-7.62407
 30
0.0
 10
0.29896
 20
-7.5871
 30
0.0
 10
0.28951
 20
-7.55944
 30
0.0
 10
0.27413
 20
-7.54095
 30
0.0
 10
0.27413
 20
-7.54095
 30
0.0
 10
0.25056
 20
-7.51231
 30
0.0
 10
0.2198
 20
-7.49792
 30
0.0
 10
0.18212
 20
-7.49792
 30
0.0
 10
0.18212
 20
-7.49792
 30
0.0
 10
0.14797
 20
-7.49792
 30
0.0
 10
0.11933
 20
-7.50935
 30
0.0
 10
0.09604
 20
-7.53221
 30
0.0
 10
0.09604
 20
-7.53221
 30
0.0
 10
0.0729
 20
-7.55507
 30
0.0
 10
0.06006
 20
-7.58569
 30
0.0
 10
0.05752
 20
-7.62407
 30
0.0
  0
SPLINE
  5
4F
330
1F
100
AcDbEntity
  8
Layer 1
 62
   250
100
AcDbSpline
210
0.0
220
0.0
230
1.0
 70
    11
 71
     3
 72
   116
 73
   112
 74
     0
 42
0.0000000001
 43
0.0000000001
 12
1.0
 22
0.0
 32
0.0
 13
1.0
 23
0.0
 33
0.0
 40
0.0
 40
0.0
 40
0.0
 40
0.0
 40
0.0344827586206897
 40
0.0344827586206897
 40
0.0344827586206897
 40
0.0344827586206897
 40
0.0689655172413793
 40
0.0689655172413793
 40
0.0689655172413793
 40
0.0689655172413793
 40
0.103448275862069
 40
0.103448275862069
 40
0.103448275862069
 40
0.103448275862069
 40
0.1379310344827586
 40
0.1379310344827586
 40
0.1379310344827586
 40
0.1379310344827586
 40
0.1724137931034483
 40
0.1724137931034483
 40
0.1724137931034483
 40
0.1724137931034483
 40
0.2068965517241379
 40
0.2068965517241379
 40
0.2068965517241379
 40
0.2068965517241379
 40
0.2413793103448276
 40
0.2413793103448276
 40
0.2413793103448276
 40
0.2413793103448276
 40
0.2758620689655172
 40
0.2758620689655172
 40
0.2758620689655172
 40
0.2758620689655172
 40
0.3103448275862069
 40
0.3103448275862069
 40
0.3103448275862069
 40
0.3103448275862069
 40
0.3448275862068966
 40
0.3448275862068966
 40
0.3448275862068966
 40
0.3448275862068966
 40
0.3793103448275862
 40
0.3793103448275862
 40
0.3793103448275862
 40
0.3793103448275862
 40
0.4137931034482759
 40
0.4137931034482759
 40
0.4137931034482759
 40
0.4137931034482759
 40
0.4482758620689655
 40
0.4482758620689655
 40
0.4482758620689655
 40
0.4482758620689655
 40
0.4827586206896552
 40
0.4827586206896552
 40
0.4827586206896552
 40
0.4827586206896552
 40
0.5172413793103449
 40
0.5172413793103449
 40
0.5172413793103449
 40
0.5172413793103449
 40
0.5517241379310345
 40
0.5517241379310345
 40
0.5517241379310345
 40
0.5517241379310345
 40
0.5862068965517241
 40
0.5862068965517241
 40
0.5862068965517241
 40
0.5862068965517241
 40
0.6206896551724138
 40
0.6206896551724138
 40
0.6206896551724138
 40
0.6206896551724138
 40
0.6551724137931034
 40
0.6551724137931034
 40
0.6551724137931034
 40
0.6551724137931034
 40
0.6896551724137931
 40
0.6896551724137931
 40
0.6896551724137931
 40
0.6896551724137931
 40
0.7241379310344828
 40
0.7241379310344828
 40
0.7241379310344828
 40
0.7241379310344828
 40
0.7586206896551724
 40
0.7586206896551724
 40
0.7586206896551724
 40
0.7586206896551724
 40
0.7931034482758621
 40
0.7931034482758621
 40
0.7931034482758621
 40
0.7931034482758621
 40
0.8275862068965517
 40
0.8275862068965517
 40
0.8275862068965517
 40
0.8275862068965517
 40
0.8620689655172413
 40
0.8620689655172413
 40
0.8620689655172413
 40
0.8620689655172413
 40
0.896551724137931
 40
0.896551724137931
 40
0.896551724137931
 40
0.896551724137931
 40
0.9310344827586207
 40
0.9310344827586207
 40
0.9310344827586207
 40
0.9310344827586207
 40
1.0
 40
1.0
 40
1.0
 40
1.0
 10
0.47253
 20
-7.88569
 30
0.0
 10
0.47253
 20
-7.88569
 30
0.0
 10
0.47253
 20
-7.44627
 30
0.0
 10
0.47253
 20
-7.44627
 30
0.0
 10
0.47253
 20
-7.44627
 30
0.0
 10
0.47253
 20
-7.44627
 30
0.0
 10
0.53942
 20
-7.44627
 30
0.0
 10
0.53942
 20
-7.44627
 30
0.0
 10
0.53942
 20
-7.44627
 30
0.0
 10
0.53942
 20
-7.44627
 30
0.0
 10
0.53942
 20
-7.50836
 30
0.0
 10
0.53942
 20
-7.50836
 30
0.0
 10
0.53942
 20
-7.50836
 30
0.0
 10
0.5531
 20
-7.48691
 30
0.0
 10
0.57145
 20
-7.46955
 30
0.0
 10
0.59431
 20
-7.45657
 30
0.0
 10
0.59431
 20
-7.45657
 30
0.0
 10
0.61717
 20
-7.44345
 30
0.0
 10
0.64313
 20
-7.43695
 30
0.0
 10
0.67234
 20
-7.43695
 30
0.0
 10
0.67234
 20
-7.43695
 30
0.0
 10
0.7048
 20
-7.43695
 30
0.0
 10
0.73147
 20
-7.44373
 30
0.0
 10
0.75221
 20
-7.45713
 30
0.0
 10
0.75221
 20
-7.45713
 30
0.0
 10
0.77296
 20
-7.47068
 30
0.0
 10
0.78763
 20
-7.48945
 30
0.0
 10
0.7961
 20
-7.51372
 30
0.0
 10
0.7961
 20
-7.51372
 30
0.0
 10
0.83109
 20
-7.4625
 30
0.0
 10
0.87639
 20
-7.43695
 30
0.0
 10
0.93227
 20
-7.43695
 30
0.0
 10
0.93227
 20
-7.43695
 30
0.0
 10
0.97602
 20
-7.43695
 30
0.0
 10
1.00974
 20
-7.44895
 30
0.0
 10
1.03317
 20
-7.47308
 30
0.0
 10
1.03317
 20
-7.47308
 30
0.0
 10
1.05673
 20
-7.49721
 30
0.0
 10
1.06859
 20
-7.53432
 30
0.0
 10
1.06859
 20
-7.58442
 30
0.0
 10
1.06859
 20
-7.58442
 30
0.0
 10
1.06859
 20
-7.58442
 30
0.0
 10
1.06859
 20
-7.88569
 30
0.0
 10
1.06859
 20
-7.88569
 30
0.0
 10
1.06859
 20
-7.88569
 30
0.0
 10
1.06859
 20
-7.88569
 30
0.0
 10
0.99408
 20
-7.88569
 30
0.0
 10
0.99408
 20
-7.88569
 30
0.0
 10
0.99408
 20
-7.88569
 30
0.0
 10
0.99408
 20
-7.88569
 30
0.0
 10
0.99408
 20
-7.60911
 30
0.0
 10
0.99408
 20
-7.60911
 30
0.0
 10
0.99408
 20
-7.60911
 30
0.0
 10
0.99408
 20
-7.57948
 30
0.0
 10
0.99154
 20
-7.55803
 30
0.0
 10
0.98674
 20
-7.54491
 30
0.0
 10
0.98674
 20
-7.54491
 30
0.0
 10
0.98194
 20
-7.53178
 30
0.0
 10
0.97319
 20
-7.52134
 30
0.0
 10
0.96035
 20
-7.5133
 30
0.0
 10
0.96035
 20
-7.5133
 30
0.0
 10
0.94765
 20
-7.50525
 30
0.0
 10
0.9327
 20
-7.5013
 30
0.0
 10
0.91562
 20
-7.5013
 30
0.0
 10
0.91562
 20
-7.5013
 30
0.0
 10
0.88458
 20
-7.5013
 30
0.0
 10
0.85889
 20
-7.5116
 30
0.0
 10
0.83843
 20
-7.53206
 30
0.0
 10
0.83843
 20
-7.53206
 30
0.0
 10
0.81797
 20
-7.55267
 30
0.0
 10
0.80781
 20
-7.58555
 30
0.0
 10
0.80781
 20
-7.6307
 30
0.0
 10
0.80781
 20
-7.6307
 30
0.0
 10
0.80781
 20
-7.6307
 30
0.0
 10
0.80781
 20
-7.88569
 30
0.0
 10
0.80781
 20
-7.88569
 30
0.0
 10
0.80781
 20
-7.88569
 30
0.0
 10
0.80781
 20
-7.88569
 30
0.0
 10
0.7333
 20
-7.88569
 30
0.0
 10
0.7333
 20
-7.88569
 30
0.0
 10
0.7333
 20
-7.88569
 30
0.0
 10
0.7333
 20
-7.88569
 30
0.0
 10
0.7333
 20
-7.6005
 30
0.0
 10
0.7333
 20
-7.6005
 30
0.0
 10
0.7333
 20
-7.6005
 30
0.0
 10
0.7333
 20
-7.56748
 30
0.0
 10
0.72724
 20
-7.54265
 30
0.0
 10
0.7151
 20
-7.52614
 30
0.0
 10
0.7151
 20
-7.52614
 30
0.0
 10
0.70297
 20
-7.50963
 30
0.0
 10
0.68307
 20
-7.5013
 30
0.0
 10
0.65555
 20
-7.5013
 30
0.0
 10
0.65555
 20
-7.5013
 30
0.0
 10
0.63467
 20
-7.5013
 30
0.0
 10
0.61534
 20
-7.50681
 30
0.0
 10
0.59756
 20
-7.51781
 30
0.0
 10
0.59756
 20
-7.51781
 30
0.0
 10
0.57978
 20
-7.52882
 30
0.0
 10
0.56693
 20
-7.54491
 30
0.0
 10
0.55889
 20
-7.56621
 30
0.0
 10
0.55889
 20
-7.56621
 30
0.0
 10
0.55099
 20
-7.58738
 30
0.0
 10
0.54704
 20
-7.618
 30
0.0
 10
0.54704
 20
-7.65794
 30
0.0
 10
0.54704
 20
-7.65794
 30
0.0
 10
0.54704
 20
-7.65794
 30
0.0
 10
0.54704
 20
-7.88569
 30
0.0
 10
0.54704
 20
-7.88569
 30
0.0
 10
0.54704
 20
-7.88569
 30
0.0
 10
0.54704
 20
-7.88569
 30
0.0
 10
0.47253
 20
-7.88569
 30
0.0
 10
0.47253
 20
-7.88569
 30
0.0
  0
SPLINE
  5
50
330
1F
100
AcDbEntity
  8
Layer 1
 62
   250
100
AcDbSpline
210
0.0
220
0.0
230
1.0
 70
    11
 71
     3
 72
    64
 73
    60
 74
     0
 42
0.0000000001
 43
0.0000000001
 12
1.0
 22
0.0
 32
0.0
 13
1.0
 23
0.0
 33
0.0
 40
0.0
 40
0.0
 40
0.0
 40
0.0
 40
0.0625
 40
0.0625
 40
0.0625
 40
0.0625
 40
0.125
 40
0.125
 40
0.125
 40
0.125
 40
0.1875
 40
0.1875
 40
0.1875
 40
0.1875
 40
0.25
 40
0.25
 40
0.25
 40
0.25
 40
0.3125
 40
0.3125
 40
0.3125
 40
0.3125
 40
0.375
 40
0.375
 40
0.375
 40
0.375
 40
0.4375
 40
0.4375
 40
0.4375
 40
0.4375
 40
0.5
 40
0.5
 40
0.5
 40
0.5
 40
0.5625
 40
0.5625
 40
0.5625
 40
0.5625
 40
0.625
 40
0.625
 40
0.625
 40
0.625
 40
0.6875
 40
0.6875
 40
0.6875
 40
0.6875
 40
0.75
 40
0.75
 40
0.75
 40
0.75
 40
0.8125
 40
0.8125
 40
0.8125
 40
0.8125
 40
0.875
 40
0.875
 40
0.875
 40
0.875
 40
1.0
 40
1.0
 40
1.0
 40
1.0
 10
1.17781
 20
-8.05418
 30
0.0
 10
1.17781
 20
-8.05418
 30
0.0
 10
1.17781
 20
-7.44627
 30
0.0
 10
1.17781
 20
-7.44627
 30
0.0
 10
1.17781
 20
-7.44627
 30
0.0
 10
1.17781
 20
-7.44627
 30
0.0
 10
1.24554
 20
-7.44627
 30
0.0
 10
1.24554
 20
-7.44627
 30
0.0
 10
1.24554
 20
-7.44627
 30
0.0
 10
1.24554
 20
-7.44627
 30
0.0
 10
1.24554
 20
-7.50398
 30
0.0
 10
1.24554
 20
-7.50398
 30
0.0
 10
1.24554
 20
-7.50398
 30
0.0
 10
1.26149
 20
-7.48169
 30
0.0
 10
1.27955
 20
-7.4649
 30
0.0
 10
1.29973
 20
-7.45375
 30
0.0
 10
1.29973
 20
-7.45375
 30
0.0
 10
1.31977
 20
-7.4426
 30
0.0
 10
1.34418
 20
-7.43695
 30
0.0
 10
1.37283
 20
-7.43695
 30
0.0
 10
1.37283
 20
-7.43695
 30
0.0
 10
1.41036
 20
-7.43695
 30
0.0
 10
1.44338
 20
-7.44655
 30
0.0
 10
1.47203
 20
-7.46588
 30
0.0
 10
1.47203
 20
-7.46588
 30
0.0
 10
1.50067
 20
-7.48507
 30
0.0
 10
1.52226
 20
-7.51231
 30
0.0
 10
1.53694
 20
-7.5473
 30
0.0
 10
1.53694
 20
-7.5473
 30
0.0
 10
1.55147
 20
-7.58244
 30
0.0
 10
1.55881
 20
-7.62082
 30
0.0
 10
1.55881
 20
-7.66273
 30
0.0
 10
1.55881
 20
-7.66273
 30
0.0
 10
1.55881
 20
-7.70747
 30
0.0
 10
1.55077
 20
-7.74782
 30
0.0
 10
1.53468
 20
-7.78381
 30
0.0
 10
1.53468
 20
-7.78381
 30
0.0
 10
1.51859
 20
-7.81965
 30
0.0
 10
1.49517
 20
-7.84717
 30
0.0
 10
1.46441
 20
-7.86636
 30
0.0
 10
1.46441
 20
-7.86636
 30
0.0
 10
1.43379
 20
-7.88541
 30
0.0
 10
1.40147
 20
-7.895
 30
0.0
 10
1.36761
 20
-7.895
 30
0.0
 10
1.36761
 20
-7.895
 30
0.0
 10
1.34277
 20
-7.895
 30
0.0
 10
1.32047
 20
-7.88978
 30
0.0
 10
1.30086
 20
-7.87934
 30
0.0
 10
1.30086
 20
-7.87934
 30
0.0
 10
1.2811
 20
-7.8689
 30
0.0
 10
1.26502
 20
-7.85577
 30
0.0
 10
1.25232
 20
-7.83983
 30
0.0
 10
1.25232
 20
-7.83983
 30
0.0
 10
1.25232
 20
-7.83983
 30
0.0
 10
1.25232
 20
-8.05418
 30
0.0
 10
1.25232
 20
-8.05418
 30
0.0
 10
1.25232
 20
-8.05418
 30
0.0
 10
1.25232
 20
-8.05418
 30
0.0
 10
1.17781
 20
-8.05418
 30
0.0
 10
1.17781
 20
-8.05418
 30
0.0
  0
SPLINE
  5
51
330
1F
100
AcDbEntity
  8
Layer 1
 62
   250
100
AcDbSpline
210
0.0
220
0.0
230
1.0
 70
    11
 71
     3
 72
    36
 73
    32
 74
     0
 42
0.0000000001
 43
0.0000000001
 12
1.0
 22
0.0
 32
0.0
 13
1.0
 23
0.0
 33
0.0
 40
0.0
 40
0.0
 40
0.0
 40
0.0
 40
0.1111111111111111
 40
0.1111111111111111
 40
0.1111111111111111
 40
0.1111111111111111
 40
0.2222222222222222
 40
0.2222222222222222
 40
0.2222222222222222
 40
0.2222222222222222
 40
0.3333333333333333
 40
0.3333333333333333
 40
0.3333333333333333
 40
0.3333333333333333
 40
0.4444444444444444
 40
0.4444444444444444
 40
0.4444444444444444
 40
0.4444444444444444
 40
0.5555555555555556
 40
0.5555555555555556
 40
0.5555555555555556
 40
0.5555555555555556
 40
0.6666666666666666
 40
0.6666666666666666
 40
0.6666666666666666
 40
0.6666666666666666
 40
0.7777777777777778
 40
0.7777777777777778
 40
0.7777777777777778
 40
0.7777777777777778
 40
1.0
 40
1.0
 40
1.0
 40
1.0
 10
1.24554
 20
-7.66866
 30
0.0
 10
1.24554
 20
-7.72496
 30
0.0
 10
1.25697
 20
-7.76659
 30
0.0
 10
1.27969
 20
-7.79354
 30
0.0
 10
1.27969
 20
-7.79354
 30
0.0
 10
1.30255
 20
-7.8205
 30
0.0
 10
1.33021
 20
-7.83404
 30
0.0
 10
1.36267
 20
-7.83404
 30
0.0
 10
1.36267
 20
-7.83404
 30
0.0
 10
1.39569
 20
-7.83404
 30
0.0
 10
1.42391
 20
-7.82007
 30
0.0
 10
1.44733
 20
-7.79213
 30
0.0
 10
1.44733
 20
-7.79213
 30
0.0
 10
1.4709
 20
-7.76419
 30
0.0
 10
1.48261
 20
-7.72101
 30
0.0
 10
1.48261
 20
-7.66245
 30
0.0
 10
1.48261
 20
-7.66245
 30
0.0
 10
1.48261
 20
-7.60657
 30
0.0
 10
1.47118
 20
-7.5648
 30
0.0
 10
1.44818
 20
-7.537
 30
0.0
 10
1.44818
 20
-7.537
 30
0.0
 10
1.42518
 20
-7.5092
 30
0.0
 10
1.3978
 20
-7.49538
 30
0.0
 10
1.36591
 20
-7.49538
 30
0.0
 10
1.36591
 20
-7.49538
 30
0.0
 10
1.3343
 20
-7.49538
 30
0.0
 10
1.30636
 20
-7.51019
 30
0.0
 10
1.28209
 20
-7.53968
 30
0.0
 10
1.28209
 20
-7.53968
 30
0.0
 10
1.25768
 20
-7.56932
 30
0.0
 10
1.24554
 20
-7.61222
 30
0.0
 10
1.24554
 20
-7.66866
 30
0.0
  0
SPLINE
  5
52
330
1F
100
AcDbEntity
  8
Layer 1
 62
   250
100
AcDbSpline
210
0.0
220
0.0
230
1.0
 70
    11
 71
     3
 72
    20
 73
    16
 74
     0
 42
0.0000000001
 43
0.0000000001
 12
1.0
 22
0.0
 32
0.0
 13
1.0
 23
0.0
 33
0.0
 40
0.0
 40
0.0
 40
0.0
 40
0.0
 40
0.2
 40
0.2
 40
0.2
 40
0.2
 40
0.4
 40
0.4
 40
0.4
 40
0.4
 40
0.6
 40
0.6
 40
0.6
 40
0.6
 40
1.0
 40
1.0
 40
1.0
 40
1.0
 10
1.64701
 20
-7.88569
 30
0.0
 10
1.64701
 20
-7.88569
 30
0.0
 10
1.64701
 20
-7.27947
 30
0.0
 10
1.64701
 20
-7.27947
 30
0.0
 10
1.64701
 20
-7.27947
 30
0.0
 10
1.64701
 20
-7.27947
 30
0.0
 10
1.72151
 20
-7.27947
 30
0.0
 10
1.72151
 20
-7.27947
 30
0.0
 10
1.72151
 20
-7.27947
 30
0.0
 10
1.72151
 20
-7.27947
 30
0.0
 10
1.72151
 20
-7.88569
 30
0.0
 10
1.72151
 20
-7.88569
 30
0.0
 10
1.72151
 20
-7.88569
 30
0.0
 10
1.72151
 20
-7.88569
 30
0.0
 10
1.64701
 20
-7.88569
 30
0.0
 10
1.64701
 20
-7.88569
 30
0.0
  0
SPLINE
  5
53
330
1F
100
AcDbEntity
  8
Layer 1
 62
   250
100
AcDbSpline
210
0.0
220
0.0
230
1.0
 70
    11
 71
     3
 72
   112
 73
   108
 74
     0
 42
0.0000000001
 43
0.0000000001
 12
1.0
 22
0.0
 32
0.0
 13
1.0
 23
0.0
 33
0.0
 40
0.0
 40
0.0
 40
0.0
 40
0.0
 40
0.0357142857142857
 40
0.0357142857142857
 40
0.0357142857142857
 40
0.0357142857142857
 40
0.0714285714285714
 40
0.0714285714285714
 40
0.0714285714285714
 40
0.0714285714285714
 40
0.1071428571428571
 40
0.1071428571428571
 40
0.1071428571428571
 40
0.1071428571428571
 40
0.1428571428571428
 40
0.1428571428571428
 40
0.1428571428571428
 40
0.1428571428571428
 40
0.1785714285714286
 40
0.1785714285714286
 40
0.1785714285714286
 40
0.1785714285714286
 40
0.2142857142857143
 40
0.2142857142857143
 40
0.2142857142857143
 40
0.2142857142857143
 40
0.25
 40
0.25
 40
0.25
 40
0.25
 40
0.2857142857142857
 40
0.2857142857142857
 40
0.2857142857142857
 40
0.2857142857142857
 40
0.3214285714285715
 40
0.3214285714285715
 40
0.3214285714285715
 40
0.3214285714285715
 40
0.3571428571428572
 40
0.3571428571428572
 40
0.3571428571428572
 40
0.3571428571428572
 40
0.3928571428571428
 40
0.3928571428571428
 40
0.3928571428571428
 40
0.3928571428571428
 40
0.4285714285714285
 40
0.4285714285714285
 40
0.4285714285714285
 40
0.4285714285714285
 40
0.4642857142857143
 40
0.4642857142857143
 40
0.4642857142857143
 40
0.4642857142857143
 40
0.5
 40
0.5
 40
0.5
 40
0.5
 40
0.5357142857142857
 40
0.5357142857142857
 40
0.5357142857142857
 40
0.5357142857142857
 40
0.5714285714285714
 40
0.5714285714285714
 40
0.5714285714285714
 40
0.5714285714285714
 40
0.6071428571428571
 40
0.6071428571428571
 40
0.6071428571428571
 40
0.6071428571428571
 40
0.6428571428571429
 40
0.6428571428571429
 40
0.6428571428571429
 40
0.6428571428571429
 40
0.6785714285714286
 40
0.6785714285714286
 40
0.6785714285714286
 40
0.6785714285714286
 40
0.7142857142857143
 40
0.7142857142857143
 40
0.7142857142857143
 40
0.7142857142857143
 40
0.75
 40
0.75
 40
0.75
 40
0.75
 40
0.7857142857142857
 40
0.7857142857142857
 40
0.7857142857142857
 40
0.7857142857142857
 40
0.8214285714285714
 40
0.8214285714285714
 40
0.8214285714285714
 40
0.8214285714285714
 40
0.8571428571428571
 40
0.8571428571428571
 40
0.8571428571428571
 40
0.8571428571428571
 40
0.8928571428571429
 40
0.8928571428571429
 40
0.8928571428571429
 40
0.8928571428571429
 40
0.9285714285714286
 40
0.9285714285714286
 40
0.9285714285714286
 40
0.9285714285714286
 40
1.0
 40
1.0
 40
1.0
 40
1.0
 10
2.12382
 20
-7.83066
 30
0.0
 10
2.09616
 20
-7.85422
 30
0.0
 10
2.06949
 20
-7.87073
 30
0.0
 10
2.04395
 20
-7.88047
 30
0.0
 10
2.04395
 20
-7.88047
 30
0.0
 10
2.01841
 20
-7.89021
 30
0.0
 10
1.99104
 20
-7.895
 30
0.0
 10
1.96168
 20
-7.895
 30
0.0
 10
1.96168
 20
-7.895
 30
0.0
 10
1.91342
 20
-7.895
 30
0.0
 10
1.87631
 20
-7.88329
 30
0.0
 10
1.85035
 20
-7.85973
 30
0.0
 10
1.85035
 20
-7.85973
 30
0.0
 10
1.82438
 20
-7.8363
 30
0.0
 10
1.8114
 20
-7.80624
 30
0.0
 10
1.8114
 20
-7.7697
 30
0.0
 10
1.8114
 20
-7.7697
 30
0.0
 10
1.8114
 20
-7.74825
 30
0.0
 10
1.81634
 20
-7.72863
 30
0.0
 10
1.82608
 20
-7.71085
 30
0.0
 10
1.82608
 20
-7.71085
 30
0.0
 10
1.83595
 20
-7.69307
 30
0.0
 10
1.84879
 20
-7.67896
 30
0.0
 10
1.8646
 20
-7.66824
 30
0.0
 10
1.8646
 20
-7.66824
 30
0.0
 10
1.88054
 20
-7.65751
 30
0.0
 10
1.89832
 20
-7.64933
 30
0.0
 10
1.91822
 20
-7.64382
 30
0.0
 10
1.91822
 20
-7.64382
 30
0.0
 10
1.9329
 20
-7.64001
 30
0.0
 10
1.95505
 20
-7.63635
 30
0.0
 10
1.98454
 20
-7.63268
 30
0.0
 10
1.98454
 20
-7.63268
 30
0.0
 10
2.04466
 20
-7.62562
 30
0.0
 10
2.08911
 20
-7.61701
 30
0.0
 10
2.11747
 20
-7.60714
 30
0.0
 10
2.11747
 20
-7.60714
 30
0.0
 10
2.11775
 20
-7.59698
 30
0.0
 10
2.11789
 20
-7.59048
 30
0.0
 10
2.11789
 20
-7.5878
 30
0.0
 10
2.11789
 20
-7.5878
 30
0.0
 10
2.11789
 20
-7.55761
 30
0.0
 10
2.11084
 20
-7.5363
 30
0.0
 10
2.09673
 20
-7.52388
 30
0.0
 10
2.09673
 20
-7.52388
 30
0.0
 10
2.07768
 20
-7.50709
 30
0.0
 10
2.04931
 20
-7.49876
 30
0.0
 10
2.01178
 20
-7.49876
 30
0.0
 10
2.01178
 20
-7.49876
 30
0.0
 10
1.97664
 20
-7.49876
 30
0.0
 10
1.95068
 20
-7.50497
 30
0.0
 10
1.93403
 20
-7.51725
 30
0.0
 10
1.93403
 20
-7.51725
 30
0.0
 10
1.91723
 20
-7.52952
 30
0.0
 10
1.90496
 20
-7.55126
 30
0.0
 10
1.89691
 20
-7.58258
 30
0.0
 10
1.89691
 20
-7.58258
 30
0.0
 10
1.89691
 20
-7.58258
 30
0.0
 10
1.8241
 20
-7.57242
 30
0.0
 10
1.8241
 20
-7.57242
 30
0.0
 10
1.8241
 20
-7.57242
 30
0.0
 10
1.83073
 20
-7.54124
 30
0.0
 10
1.8416
 20
-7.51598
 30
0.0
 10
1.85684
 20
-7.49679
 30
0.0
 10
1.85684
 20
-7.49679
 30
0.0
 10
1.87208
 20
-7.4776
 30
0.0
 10
1.89409
 20
-7.46292
 30
0.0
 10
1.92288
 20
-7.45248
 30
0.0
 10
1.92288
 20
-7.45248
 30
0.0
 10
1.95152
 20
-7.44218
 30
0.0
 10
1.98497
 20
-7.43695
 30
0.0
 10
2.02279
 20
-7.43695
 30
0.0
 10
2.02279
 20
-7.43695
 30
0.0
 10
2.06032
 20
-7.43695
 30
0.0
 10
2.09094
 20
-7.44133
 30
0.0
 10
2.11451
 20
-7.45022
 30
0.0
 10
2.11451
 20
-7.45022
 30
0.0
 10
2.13793
 20
-7.45911
 30
0.0
 10
2.15529
 20
-7.47012
 30
0.0
 10
2.1663
 20
-7.48352
 30
0.0
 10
2.1663
 20
-7.48352
 30
0.0
 10
2.1773
 20
-7.49693
 30
0.0
 10
2.18506
 20
-7.51386
 30
0.0
 10
2.18958
 20
-7.53432
 30
0.0
 10
2.18958
 20
-7.53432
 30
0.0
 10
2.19198
 20
-7.54702
 30
0.0
 10
2.19325
 20
-7.56988
 30
0.0
 10
2.19325
 20
-7.60276
 30
0.0
 10
2.19325
 20
-7.60276
 30
0.0
 10
2.19325
 20
-7.60276
 30
0.0
 10
2.19325
 20
-7.70154
 30
0.0
 10
2.19325
 20
-7.70154
 30
0.0
 10
2.19325
 20
-7.70154
 30
0.0
 10
2.19325
 20
-7.77054
 30
0.0
 10
2.1948
 20
-7.81415
 30
0.0
 10
2.1979
 20
-7.83263
 30
0.0
 10
2.1979
 20
-7.83263
 30
0.0
 10
2.20087
 20
-7.85112
 30
0.0
 10
2.20708
 20
-7.86876
 30
0.0
 10
2.21611
 20
-7.88569
 30
0.0
 10
2.21611
 20
-7.88569
 30
0.0
 10
2.21611
 20
-7.88569
 30
0.0
 10
2.13821
 20
-7.88569
 30
0.0
 10
2.13821
 20
-7.88569
 30
0.0
 10
2.13821
 20
-7.88569
 30
0.0
 10
2.13074
 20
-7.87003
 30
0.0
 10
2.12594
 20
-7.85168
 30
0.0
 10
2.12382
 20
-7.83066
 30
0.0
  0
SPLINE
  5
54
330
1F
100
AcDbEntity
  8
Layer 1
 62
   250
100
AcDbSpline
210
0.0
220
0.0
230
1.0
 70
    11
 71
     3
 72
    44
 73
    40
 74
     0
 42
0.0000000001
 43
0.0000000001
 12
1.0
 22
0.0
 32
0.0
 13
1.0
 23
0.0
 33
0.0
 40
0.0
 40
0.0
 40
0.0
 40
0.0
 40
0.0909090909090909
 40
0.0909090909090909
 40
0.0909090909090909
 40
0.0909090909090909
 40
0.1818181818181818
 40
0.1818181818181818
 40
0.1818181818181818
 40
0.1818181818181818
 40
0.2727272727272727
 40
0.2727272727272727
 40
0.2727272727272727
 40
0.2727272727272727
 40
0.3636363636363636
 40
0.3636363636363636
 40
0.3636363636363636
 40
0.3636363636363636
 40
0.4545454545454545
 40
0.4545454545454545
 40
0.4545454545454545
 40
0.4545454545454545
 40
0.5454545454545454
 40
0.5454545454545454
 40
0.5454545454545454
 40
0.5454545454545454
 40
0.6363636363636364
 40
0.6363636363636364
 40
0.6363636363636364
 40
0.6363636363636364
 40
0.7272727272727273
 40
0.7272727272727273
 40
0.7272727272727273
 40
0.7272727272727273
 40
0.8181818181818182
 40
0.8181818181818182
 40
0.8181818181818182
 40
0.8181818181818182
 40
1.0
 40
1.0
 40
1.0
 40
1.0
 10
2.11789
 20
-7.66556
 30
0.0
 10
2.0908
 20
-7.67656
 30
0.0
 10
2.05016
 20
-7.68588
 30
0.0
 10
1.99597
 20
-7.6935
 30
0.0
 10
1.99597
 20
-7.6935
 30
0.0
 10
1.96521
 20
-7.69787
 30
0.0
 10
1.94348
 20
-7.70281
 30
0.0
 10
1.93078
 20
-7.70831
 30
0.0
 10
1.93078
 20
-7.70831
 30
0.0
 10
1.91808
 20
-7.71382
 30
0.0
 10
1.90834
 20
-7.72186
 30
0.0
 10
1.90143
 20
-7.7323
 30
0.0
 10
1.90143
 20
-7.7323
 30
0.0
 10
1.89451
 20
-7.74288
 30
0.0
 10
1.89099
 20
-7.7546
 30
0.0
 10
1.89099
 20
-7.76758
 30
0.0
 10
1.89099
 20
-7.76758
 30
0.0
 10
1.89099
 20
-7.78719
 30
0.0
 10
1.89847
 20
-7.8037
 30
0.0
 10
1.91356
 20
-7.81683
 30
0.0
 10
1.91356
 20
-7.81683
 30
0.0
 10
1.92866
 20
-7.82995
 30
0.0
 10
1.95068
 20
-7.83658
 30
0.0
 10
1.97961
 20
-7.83658
 30
0.0
 10
1.97961
 20
-7.83658
 30
0.0
 10
2.00825
 20
-7.83658
 30
0.0
 10
2.03379
 20
-7.83037
 30
0.0
 10
2.05623
 20
-7.81782
 30
0.0
 10
2.05623
 20
-7.81782
 30
0.0
 10
2.07852
 20
-7.8054
 30
0.0
 10
2.09503
 20
-7.78832
 30
0.0
 10
2.10548
 20
-7.76673
 30
0.0
 10
2.10548
 20
-7.76673
 30
0.0
 10
2.11352
 20
-7.74994
 30
0.0
 10
2.11747
 20
-7.72525
 30
0.0
 10
2.11747
 20
-7.69265
 30
0.0
 10
2.11747
 20
-7.69265
 30
0.0
 10
2.11747
 20
-7.69265
 30
0.0
 10
2.11789
 20
-7.66556
 30
0.0
 10
2.11789
 20
-7.66556
 30
0.0
  0
SPLINE
  5
55
330
1F
100
AcDbEntity
  8
Layer 1
 62
   250
100
AcDbSpline
210
0.0
220
0.0
230
1.0
 70
    11
 71
     3
 72
    84
 73
    80
 74
     0
 42
0.0000000001
 43
0.0000000001
 12
1.0
 22
0.0
 32
0.0
 13
1.0
 23
0.0
 33
0.0
 40
0.0
 40
0.0
 40
0.0
 40
0.0
 40
0.0476190476190476
 40
0.0476190476190476
 40
0.0476190476190476
 40
0.0476190476190476
 40
0.0952380952380952
 40
0.0952380952380952
 40
0.0952380952380952
 40
0.0952380952380952
 40
0.1428571428571428
 40
0.1428571428571428
 40
0.1428571428571428
 40
0.1428571428571428
 40
0.1904761904761905
 40
0.1904761904761905
 40
0.1904761904761905
 40
0.1904761904761905
 40
0.2380952380952381
 40
0.2380952380952381
 40
0.2380952380952381
 40
0.2380952380952381
 40
0.2857142857142857
 40
0.2857142857142857
 40
0.2857142857142857
 40
0.2857142857142857
 40
0.3333333333333333
 40
0.3333333333333333
 40
0.3333333333333333
 40
0.3333333333333333
 40
0.3809523809523809
 40
0.3809523809523809
 40
0.3809523809523809
 40
0.3809523809523809
 40
0.4285714285714285
 40
0.4285714285714285
 40
0.4285714285714285
 40
0.4285714285714285
 40
0.4761904761904762
 40
0.4761904761904762
 40
0.4761904761904762
 40
0.4761904761904762
 40
0.5238095238095238
 40
0.5238095238095238
 40
0.5238095238095238
 40
0.5238095238095238
 40
0.5714285714285714
 40
0.5714285714285714
 40
0.5714285714285714
 40
0.5714285714285714
 40
0.6190476190476191
 40
0.6190476190476191
 40
0.6190476190476191
 40
0.6190476190476191
 40
0.6666666666666666
 40
0.6666666666666666
 40
0.6666666666666666
 40
0.6666666666666666
 40
0.7142857142857143
 40
0.7142857142857143
 40
0.7142857142857143
 40
0.7142857142857143
 40
0.7619047619047619
 40
0.7619047619047619
 40
0.7619047619047619
 40
0.7619047619047619
 40
0.8095238095238095
 40
0.8095238095238095
 40
0.8095238095238095
 40
0.8095238095238095
 40
0.8571428571428571
 40
0.8571428571428571
 40
0.8571428571428571
 40
0.8571428571428571
 40
0.9047619047619048
 40
0.9047619047619048
 40
0.9047619047619048
 40
0.9047619047619048
 40
1.0
 40
1.0
 40
1.0
 40
1.0
 10
2.4694
 20
-7.81923
 30
0.0
 10
2.4694
 20
-7.81923
 30
0.0
 10
2.47956
 20
-7.88498
 30
0.0
 10
2.47956
 20
-7.88498
 30
0.0
 10
2.47956
 20
-7.88498
 30
0.0
 10
2.45868
 20
-7.88936
 30
0.0
 10
2.43991
 20
-7.89162
 30
0.0
 10
2.42354
 20
-7.89162
 30
0.0
 10
2.42354
 20
-7.89162
 30
0.0
 10
2.39659
 20
-7.89162
 30
0.0
 10
2.37571
 20
-7.88738
 30
0.0
 10
2.36075
 20
-7.87878
 30
0.0
 10
2.36075
 20
-7.87878
 30
0.0
 10
2.34593
 20
-7.87017
 30
0.0
 10
2.33549
 20
-7.85902
 30
0.0
 10
2.32942
 20
-7.84505
 30
0.0
 10
2.32942
 20
-7.84505
 30
0.0
 10
2.32335
 20
-7.83108
 30
0.0
 10
2.32039
 20
-7.80173
 30
0.0
 10
2.32039
 20
-7.757
 30
0.0
 10
2.32039
 20
-7.757
 30
0.0
 10
2.32039
 20
-7.757
 30
0.0
 10
2.32039
 20
-7.50384
 30
0.0
 10
2.32039
 20
-7.50384
 30
0.0
 10
2.32039
 20
-7.50384
 30
0.0
 10
2.32039
 20
-7.50384
 30
0.0
 10
2.26536
 20
-7.50384
 30
0.0
 10
2.26536
 20
-7.50384
 30
0.0
 10
2.26536
 20
-7.50384
 30
0.0
 10
2.26536
 20
-7.50384
 30
0.0
 10
2.26536
 20
-7.44627
 30
0.0
 10
2.26536
 20
-7.44627
 30
0.0
 10
2.26536
 20
-7.44627
 30
0.0
 10
2.26536
 20
-7.44627
 30
0.0
 10
2.32039
 20
-7.44627
 30
0.0
 10
2.32039
 20
-7.44627
 30
0.0
 10
2.32039
 20
-7.44627
 30
0.0
 10
2.32039
 20
-7.44627
 30
0.0
 10
2.32039
 20
-7.33761
 30
0.0
 10
2.32039
 20
-7.33761
 30
0.0
 10
2.32039
 20
-7.33761
 30
0.0
 10
2.32039
 20
-7.33761
 30
0.0
 10
2.3949
 20
-7.29288
 30
0.0
 10
2.3949
 20
-7.29288
 30
0.0
 10
2.3949
 20
-7.29288
 30
0.0
 10
2.3949
 20
-7.29288
 30
0.0
 10
2.3949
 20
-7.44627
 30
0.0
 10
2.3949
 20
-7.44627
 30
0.0
 10
2.3949
 20
-7.44627
 30
0.0
 10
2.3949
 20
-7.44627
 30
0.0
 10
2.4694
 20
-7.44627
 30
0.0
 10
2.4694
 20
-7.44627
 30
0.0
 10
2.4694
 20
-7.44627
 30
0.0
 10
2.4694
 20
-7.44627
 30
0.0
 10
2.4694
 20
-7.50384
 30
0.0
 10
2.4694
 20
-7.50384
 30
0.0
 10
2.4694
 20
-7.50384
 30
0.0
 10
2.4694
 20
-7.50384
 30
0.0
 10
2.3949
 20
-7.50384
 30
0.0
 10
2.3949
 20
-7.50384
 30
0.0
 10
2.3949
 20
-7.50384
 30
0.0
 10
2.3949
 20
-7.50384
 30
0.0
 10
2.3949
 20
-7.76123
 30
0.0
 10
2.3949
 20
-7.76123
 30
0.0
 10
2.3949
 20
-7.76123
 30
0.0
 10
2.3949
 20
-7.78254
 30
0.0
 10
2.39617
 20
-7.79623
 30
0.0
 10
2.39885
 20
-7.80229
 30
0.0
 10
2.39885
 20
-7.80229
 30
0.0
 10
2.40139
 20
-7.80836
 30
0.0
 10
2.40562
 20
-7.81316
 30
0.0
 10
2.41155
 20
-7.81683
 30
0.0
 10
2.41155
 20
-7.81683
 30
0.0
 10
2.41748
 20
-7.82036
 30
0.0
 10
2.42594
 20
-7.82219
 30
0.0
 10
2.43695
 20
-7.82219
 30
0.0
 10
2.43695
 20
-7.82219
 30
0.0
 10
2.44513
 20
-7.82219
 30
0.0
 10
2.456
 20
-7.8212
 30
0.0
 10
2.4694
 20
-7.81923
 30
0.0
  0
SPLINE
  5
56
330
1F
100
AcDbEntity
  8
Layer 1
 62
   250
100
AcDbSpline
210
0.0
220
0.0
230
1.0
 70
    11
 71
     3
 72
    64
 73
    60
 74
     0
 42
0.0000000001
 43
0.0000000001
 12
1.0
 22
0.0
 32
0.0
 13
1.0
 23
0.0
 33
0.0
 40
0.0
 40
0.0
 40
0.0
 40
0.0
 40
0.0625
 40
0.0625
 40
0.0625
 40
0.0625
 40
0.125
 40
0.125
 40
0.125
 40
0.125
 40
0.1875
 40
0.1875
 40
0.1875
 40
0.1875
 40
0.25
 40
0.25
 40
0.25
 40
0.25
 40
0.3125
 40
0.3125
 40
0.3125
 40
0.3125
 40
0.375
 40
0.375
 40
0.375
 40
0.375
 40
0.4375
 40
0.4375
 40
0.4375
 40
0.4375
 40
0.5
 40
0.5
 40
0.5
 40
0.5
 40
0.5625
 40
0.5625
 40
0.5625
 40
0.5625
 40
0.625
 40
0.625
 40
0.625
 40
0.625
 40
0.6875
 40
0.6875
 40
0.6875
 40
0.6875
 40
0.75
 40
0.75
 40
0.75
 40
0.75
 40
0.8125
 40
0.8125
 40
0.8125
 40
0.8125
 40
0.875
 40
0.875
 40
0.875
 40
0.875
 40
1.0
 40
1.0
 40
1.0
 40
1.0
 10
2.84264
 20
-7.74345
 30
0.0
 10
2.84264
 20
-7.74345
 30
0.0
 10
2.91969
 20
-7.75361
 30
0.0
 10
2.91969
 20
-7.75361
 30
0.0
 10
2.91969
 20
-7.75361
 30
0.0
 10
2.90769
 20
-7.79834
 30
0.0
 10
2.88526
 20
-7.8332
 30
0.0
 10
2.85252
 20
-7.85789
 30
0.0
 10
2.85252
 20
-7.85789
 30
0.0
 10
2.81978
 20
-7.88259
 30
0.0
 10
2.77801
 20
-7.895
 30
0.0
 10
2.72707
 20
-7.895
 30
0.0
 10
2.72707
 20
-7.895
 30
0.0
 10
2.66301
 20
-7.895
 30
0.0
 10
2.61221
 20
-7.87525
 30
0.0
 10
2.57467
 20
-7.83574
 30
0.0
 10
2.57467
 20
-7.83574
 30
0.0
 10
2.53713
 20
-7.79637
 30
0.0
 10
2.51837
 20
-7.74091
 30
0.0
 10
2.51837
 20
-7.66965
 30
0.0
 10
2.51837
 20
-7.66965
 30
0.0
 10
2.51837
 20
-7.59599
 30
0.0
 10
2.53728
 20
-7.5387
 30
0.0
 10
2.57523
 20
-7.49806
 30
0.0
 10
2.57523
 20
-7.49806
 30
0.0
 10
2.61319
 20
-7.45727
 30
0.0
 10
2.66244
 20
-7.43695
 30
0.0
 10
2.72298
 20
-7.43695
 30
0.0
 10
2.72298
 20
-7.43695
 30
0.0
 10
2.78154
 20
-7.43695
 30
0.0
 10
2.82938
 20
-7.45685
 30
0.0
 10
2.86649
 20
-7.49679
 30
0.0
 10
2.86649
 20
-7.49679
 30
0.0
 10
2.9036
 20
-7.53672
 30
0.0
 10
2.92223
 20
-7.59288
 30
0.0
 10
2.92223
 20
-7.66527
 30
0.0
 10
2.92223
 20
-7.66527
 30
0.0
 10
2.92223
 20
-7.66965
 30
0.0
 10
2.92209
 20
-7.67628
 30
0.0
 10
2.92181
 20
-7.68503
 30
0.0
 10
2.92181
 20
-7.68503
 30
0.0
 10
2.92181
 20
-7.68503
 30
0.0
 10
2.59457
 20
-7.68503
 30
0.0
 10
2.59457
 20
-7.68503
 30
0.0
 10
2.59457
 20
-7.68503
 30
0.0
 10
2.59739
 20
-7.73315
 30
0.0
 10
2.61094
 20
-7.77012
 30
0.0
 10
2.63549
 20
-7.79566
 30
0.0
 10
2.63549
 20
-7.79566
 30
0.0
 10
2.6599
 20
-7.8212
 30
0.0
 10
2.69052
 20
-7.83404
 30
0.0
 10
2.72707
 20
-7.83404
 30
0.0
 10
2.72707
 20
-7.83404
 30
0.0
 10
2.75431
 20
-7.83404
 30
0.0
 10
2.77759
 20
-7.82685
 30
0.0
 10
2.79678
 20
-7.81245
 30
0.0
 10
2.79678
 20
-7.81245
 30
0.0
 10
2.81611
 20
-7.79806
 30
0.0
 10
2.83135
 20
-7.77506
 30
0.0
 10
2.84264
 20
-7.74345
 30
0.0
  0
SPLINE
  5
57
330
1F
100
AcDbEntity
  8
Layer 1
 62
   250
100
AcDbSpline
210
0.0
220
0.0
230
1.0
 70
    11
 71
     3
 72
    24
 73
    20
 74
     0
 42
0.0000000001
 43
0.0000000001
 12
1.0
 22
0.0
 32
0.0
 13
1.0
 23
0.0
 33
0.0
 40
0.0
 40
0.0
 40
0.0
 40
0.0
 40
0.1666666666666667
 40
0.1666666666666667
 40
0.1666666666666667
 40
0.1666666666666667
 40
0.3333333333333333
 40
0.3333333333333333
 40
0.3333333333333333
 40
0.3333333333333333
 40
0.5
 40
0.5
 40
0.5
 40
0.5
 40
0.6666666666666666
 40
0.6666666666666666
 40
0.6666666666666666
 40
0.6666666666666666
 40
1.0
 40
1.0
 40
1.0
 40
1.0
 10
2.5988
 20
-7.62407
 30
0.0
 10
2.5988
 20
-7.62407
 30
0.0
 10
2.84349
 20
-7.62407
 30
0.0
 10
2.84349
 20
-7.62407
 30
0.0
 10
2.84349
 20
-7.62407
 30
0.0
 10
2.84024
 20
-7.5871
 30
0.0
 10
2.83079
 20
-7.55944
 30
0.0
 10
2.81541
 20
-7.54095
 30
0.0
 10
2.81541
 20
-7.54095
 30
0.0
 10
2.79184
 20
-7.51231
 30
0.0
 10
2.76108
 20
-7.49792
 30
0.0
 10
2.7234
 20
-7.49792
 30
0.0
 10
2.7234
 20
-7.49792
 30
0.0
 10
2.68925
 20
-7.49792
 30
0.0
 10
2.66061
 20
-7.50935
 30
0.0
 10
2.63732
 20
-7.53221
 30
0.0
 10
2.63732
 20
-7.53221
 30
0.0
 10
2.61418
 20
-7.55507
 30
0.0
 10
2.60134
 20
-7.58569
 30
0.0
 10
2.5988
 20
-7.62407
 30
0.0
  0
SPLINE
  5
58
330
1F
100
AcDbEntity
  8
Layer 1
 62
     3
370
     5
100
AcDbSpline
210
0.0
220
0.0
230
1.0
 70
    24
 71
     3
 72
     8
 73
     4
 74
     0
 42
0.0000000001
 43
0.0000000001
 12
1.0
 22
0.0
 32
0.0
 13
1.0
 23
0.0
 33
0.0
 40
0.0
 40
0.0
 40
0.0
 40
0.0
 40
1.0
 40
1.0
 40
1.0
 40
1.0
 10
-8.88397
 20
5.91658
 30
0.0
 10
-8.88397
 20
5.91658
 30
0.0
 10
-8.88397
 20
8.01973
 30
0.0
 10
-8.88397
 20
8.01973
 30
0.0
  0
SPLINE
  5
59
330
1F
100
AcDbEntity
  8
Layer 1
 62
     3
370
     5
100
AcDbSpline
210
0.0
220
0.0
230
1.0
 70
    27
 71
     3
 72
     8
 73
     4
 74
     0
 42
0.0000000001
 43
0.0000000001
 12
1.0
 22
0.0
 32
0.0
 13
1.0
 23
0.0
 33
0.0
 40
0.0
 40
0.0
 40
0.0
 40
0.0
 40
1.0
 40
1.0
 40
1.0
 40
1.0
 10
9.31089
 20
8.01973
 30
0.0
 10
9.31089
 20
8.01973
 30
0.0
 10
9.31089
 20
8.01973
 30
0.0
 10
9.31089
 20
8.01973
 30
0.0
  0
SPLINE
  5
5A
330
1F
100
AcDbEntity
  8
Layer 1
 62
     3
370
     5
100
AcDbSpline
210
0.0
220
0.0
230
1.0
 70
    24
 71
     3
 72
     8
 73
     4
 74
     0
 42
0.0000000001
 43
0.0000000001
 12
1.0
 22
0.0
 32
0.0
 13
1.0
 23
0.0
 33
0.0
 40
0.0
 40
0.0
 40
0.0
 40
0.0
 40
1.0
 40
1.0
 40
1.0
 40
1.0
 10
9.31089
 20
5.91658
 30
0.0
 10
9.31089
 20
5.91658
 30
0.0
 10
9.31089
 20
8.01973
 30
0.0
 10
9.31089
 20
8.01973
 30
0.0
  0
SPLINE
  5
5B
330
1F
100
AcDbEntity
  8
Layer 1
 62
     3
370
     5
100
AcDbSpline
210
0.0
220
0.0
230
1.0
 70
    24
 71
     3
 72
     8
 73
     4
 74
     0
 42
0.0000000001
 43
0.0000000001
 12
1.0
 22
0.0
 32
0.0
 13
1.0
 23
0.0
 33
0.0
 40
0.0
 40
0.0
 40
0.0
 40
0.0
 40
1.0
 40
1.0
 40
1.0
 40
1.0
 10
-8.56817
 20
7.98936
 30
0.0
 10
-8.56817
 20
7.98936
 30
0.0
 10
8.9951
 20
7.98936
 30
0.0
 10
8.9951
 20
7.98936
 30
0.0
  0
SPLINE
  5
5C
330
1F
100
AcDbEntity
  8
Layer 1
 62
     3
370
     9
100
AcDbSpline
210
0.0
220
0.0
230
1.0
 70
    27
 71
     3
 72
    12
 73
     8
 74
     0
 42
0.0000000001
 43
0.0000000001
 12
1.0
 22
0.0
 32
0.0
 13
1.0
 23
0.0
 33
0.0
 40
0.0
 40
0.0
 40
0.0
 40
0.0
 40
0.3333333333333333
 40
0.3333333333333333
 40
0.3333333333333333
 40
0.3333333333333333
 40
1.0
 40
1.0
 40
1.0
 40
1.0
 10
-8.56817
 20
8.04199
 30
0.0
 10
-8.56817
 20
8.04199
 30
0.0
 10
-8.88397
 20
7.98936
 30
0.0
 10
-8.88397
 20
7.98936
 30
0.0
 10
-8.88397
 20
7.98936
 30
0.0
 10
-8.88397
 20
7.98936
 30
0.0
 10
-8.56817
 20
8.04199
 30
0.0
 10
-8.56817
 20
8.04199
 30
0.0
  0
SPLINE
  5
5D
330
1F
100
AcDbEntity
  8
Layer 1
 62
     3
370
     9
100
AcDbSpline
210
0.0
220
0.0
230
1.0
 70
    11
 71
     3
 72
    16
 73
    12
 74
     0
 42
0.0000000001
 43
0.0000000001
 12
1.0
 22
0.0
 32
0.0
 13
1.0
 23
0.0
 33
0.0
 40
0.0
 40
0.0
 40
0.0
 40
0.0
 40
0.25
 40
0.25
 40
0.25
 40
0.25
 40
0.5
 40
0.5
 40
0.5
 40
0.5
 40
1.0
 40
1.0
 40
1.0
 40
1.0
 10
-8.88397
 20
7.98936
 30
0.0
 10
-8.88397
 20
7.98936
 30
0.0
 10
-8.56817
 20
7.93673
 30
0.0
 10
-8.56817
 20
7.93673
 30
0.0
 10
-8.56817
 20
7.93673
 30
0.0
 10
-8.56817
 20
7.93673
 30
0.0
 10
-8.56817
 20
8.04199
 30
0.0
 10
-8.56817
 20
8.04199
 30
0.0
 10
-8.56817
 20
8.04199
 30
0.0
 10
-8.56817
 20
8.04199
 30
0.0
 10
-8.88397
 20
7.98936
 30
0.0
 10
-8.88397
 20
7.98936
 30
0.0
  0
SPLINE
  5
5E
330
1F
100
AcDbEntity
  8
Layer 1
 62
     3
370
     9
100
AcDbSpline
210
0.0
220
0.0
230
1.0
 70
    24
 71
     3
 72
     8
 73
     4
 74
     0
 42
0.0000000001
 43
0.0000000001
 12
1.0
 22
0.0
 32
0.0
 13
1.0
 23
0.0
 33
0.0
 40
0.0
 40
0.0
 40
0.0
 40
0.0
 40
1.0
 40
1.0
 40
1.0
 40
1.0
 10
-8.56817
 20
8.04199
 30
0.0
 10
-8.56817
 20
8.04199
 30
0.0
 10
-8.88397
 20
7.98936
 30
0.0
 10
-8.88397
 20
7.98936
 30
0.0
  0
SPLINE
  5
5F
330
1F
100
AcDbEntity
  8
Layer 1
 62
     3
370
     9
100
AcDbSpline
210
0.0
220
0.0
230
1.0
 70
     8
 71
     3
 72
    12
 73
     8
 74
     0
 42
0.0000000001
 43
0.0000000001
 12
1.0
 22
0.0
 32
0.0
 13
1.0
 23
0.0
 33
0.0
 40
0.0
 40
0.0
 40
0.0
 40
0.0
 40
0.3333333333333333
 40
0.3333333333333333
 40
0.3333333333333333
 40
0.3333333333333333
 40
1.0
 40
1.0
 40
1.0
 40
1.0
 10
-8.88397
 20
7.98936
 30
0.0
 10
-8.88397
 20
7.98936
 30
0.0
 10
-8.56817
 20
7.93673
 30
0.0
 10
-8.56817
 20
7.93673
 30
0.0
 10
-8.56817
 20
7.93673
 30
0.0
 10
-8.56817
 20
7.93673
 30
0.0
 10
-8.56817
 20
8.04199
 30
0.0
 10
-8.56817
 20
8.04199
 30
0.0
  0
SPLINE
  5
60
330
1F
100
AcDbEntity
  8
Layer 1
 62
     3
370
     9
100
AcDbSpline
210
0.0
220
0.0
230
1.0
 70
    27
 71
     3
 72
    12
 73
     8
 74
     0
 42
0.0000000001
 43
0.0000000001
 12
1.0
 22
0.0
 32
0.0
 13
1.0
 23
0.0
 33
0.0
 40
0.0
 40
0.0
 40
0.0
 40
0.0
 40
0.3333333333333333
 40
0.3333333333333333
 40
0.3333333333333333
 40
0.3333333333333333
 40
1.0
 40
1.0
 40
1.0
 40
1.0
 10
8.9951
 20
8.04199
 30
0.0
 10
8.9951
 20
8.04199
 30
0.0
 10
9.31089
 20
7.98936
 30
0.0
 10
9.31089
 20
7.98936
 30
0.0
 10
9.31089
 20
7.98936
 30
0.0
 10
9.31089
 20
7.98936
 30
0.0
 10
8.9951
 20
8.04199
 30
0.0
 10
8.9951
 20
8.04199
 30
0.0
  0
SPLINE
  5
61
330
1F
100
AcDbEntity
  8
Layer 1
 62
     3
370
     9
100
AcDbSpline
210
0.0
220
0.0
230
1.0
 70
    11
 71
     3
 72
    16
 73
    12
 74
     0
 42
0.0000000001
 43
0.0000000001
 12
1.0
 22
0.0
 32
0.0
 13
1.0
 23
0.0
 33
0.0
 40
0.0
 40
0.0
 40
0.0
 40
0.0
 40
0.25
 40
0.25
 40
0.25
 40
0.25
 40
0.5
 40
0.5
 40
0.5
 40
0.5
 40
1.0
 40
1.0
 40
1.0
 40
1.0
 10
9.31089
 20
7.98936
 30
0.0
 10
9.31089
 20
7.98936
 30
0.0
 10
8.9951
 20
7.93673
 30
0.0
 10
8.9951
 20
7.93673
 30
0.0
 10
8.9951
 20
7.93673
 30
0.0
 10
8.9951
 20
7.93673
 30
0.0
 10
8.9951
 20
8.04199
 30
0.0
 10
8.9951
 20
8.04199
 30
0.0
 10
8.9951
 20
8.04199
 30
0.0
 10
8.9951
 20
8.04199
 30
0.0
 10
9.31089
 20
7.98936
 30
0.0
 10
9.31089
 20
7.98936
 30
0.0
  0
SPLINE
  5
62
330
1F
100
AcDbEntity
  8
Layer 1
 62
     3
370
     9
100
AcDbSpline
210
0.0
220
0.0
230
1.0
 70
    24
 71
     3
 72
     8
 73
     4
 74
     0
 42
0.0000000001
 43
0.0000000001
 12
1.0
 22
0.0
 32
0.0
 13
1.0
 23
0.0
 33
0.0
 40
0.0
 40
0.0
 40
0.0
 40
0.0
 40
1.0
 40
1.0
 40
1.0
 40
1.0
 10
8.9951
 20
8.04199
 30
0.0
 10
8.9951
 20
8.04199
 30
0.0
 10
9.31089
 20
7.98936
 30
0.0
 10
9.31089
 20
7.98936
 30
0.0
  0
SPLINE
  5
63
330
1F
100
AcDbEntity
  8
Layer 1
 62
     3
370
     9
100
AcDbSpline
210
0.0
220
0.0
230
1.0
 70
     8
 71
     3
 72
    12
 73
     8
 74
     0
 42
0.0000000001
 43
0.0000000001
 12
1.0
 22
0.0
 32
0.0
 13
1.0
 23
0.0
 33
0.0
 40
0.0
 40
0.0
 40
0.0
 40
0.0
 40
0.3333333333333333
 40
0.3333333333333333
 40
0.3333333333333333
 40
0.3333333333333333
 40
1.0
 40
1.0
 40
1.0
 40
1.0
 10
9.31089
 20
7.98936
 30
0.0
 10
9.31089
 20
7.98936
 30
0.0
 10
8.9951
 20
7.93673
 30
0.0
 10
8.9951
 20
7.93673
 30
0.0
 10
8.9951
 20
7.93673
 30
0.0
 10
8.9951
 20
7.93673
 30
0.0
 10
8.9951
 20
8.04199
 30
0.0
 10
8.9951
 20
8.04199
 30
0.0
  0
SPLINE
  5
64
330
1F
100
AcDbEntity
  8
Layer 1
 62
     3
370
     9
100
AcDbSpline
210
0.0
220
0.0
230
1.0
 70
    11
 71
     3
 72
    48
 73
    44
 74
     0
 42
0.0000000001
 43
0.0000000001
 12
1.0
 22
0.0
 32
0.0
 13
1.0
 23
0.0
 33
0.0
 40
0.0
 40
0.0
 40
0.0
 40
0.0
 40
0.0833333333333333
 40
0.0833333333333333
 40
0.0833333333333333
 40
0.0833333333333333
 40
0.1666666666666667
 40
0.1666666666666667
 40
0.1666666666666667
 40
0.1666666666666667
 40
0.25
 40
0.25
 40
0.25
 40
0.25
 40
0.3333333333333333
 40
0.3333333333333333
 40
0.3333333333333333
 40
0.3333333333333333
 40
0.4166666666666667
 40
0.4166666666666667
 40
0.4166666666666667
 40
0.4166666666666667
 40
0.5
 40
0.5
 40
0.5
 40
0.5
 40
0.5833333333333334
 40
0.5833333333333334
 40
0.5833333333333334
 40
0.5833333333333334
 40
0.6666666666666666
 40
0.6666666666666666
 40
0.6666666666666666
 40
0.6666666666666666
 40
0.75
 40
0.75
 40
0.75
 40
0.75
 40
0.8333333333333334
 40
0.8333333333333334
 40
0.8333333333333334
 40
0.8333333333333334
 40
1.0
 40
1.0
 40
1.0
 40
1.0
 10
-0.60566
 20
8.37994
 30
0.0
 10
-0.60566
 20
8.37994
 30
0.0
 10
-0.60566
 20
8.40663
 30
0.0
 10
-0.60566
 20
8.40663
 30
0.0
 10
-0.60566
 20
8.40663
 30
0.0
 10
-0.60566
 20
8.40663
 30
0.0
 10
-0.45934
 20
8.40663
 30
0.0
 10
-0.45934
 20
8.40663
 30
0.0
 10
-0.45934
 20
8.40663
 30
0.0
 10
-0.45934
 20
8.40663
 30
0.0
 10
-0.45934
 20
8.38505
 30
0.0
 10
-0.45934
 20
8.38505
 30
0.0
 10
-0.45934
 20
8.38505
 30
0.0
 10
-0.47371
 20
8.36972
 30
0.0
 10
-0.48798
 20
8.34936
 30
0.0
 10
-0.50212
 20
8.32399
 30
0.0
 10
-0.50212
 20
8.32399
 30
0.0
 10
-0.51625
 20
8.29862
 30
0.0
 10
-0.52718
 20
8.27245
 30
0.0
 10
-0.53487
 20
8.24566
 30
0.0
 10
-0.53487
 20
8.24566
 30
0.0
 10
-0.54047
 20
8.22672
 30
0.0
 10
-0.54398
 20
8.20604
 30
0.0
 10
-0.5455
 20
8.18351
 30
0.0
 10
-0.5455
 20
8.18351
 30
0.0
 10
-0.5455
 20
8.18351
 30
0.0
 10
-0.57402
 20
8.18351
 30
0.0
 10
-0.57402
 20
8.18351
 30
0.0
 10
-0.57402
 20
8.18351
 30
0.0
 10
-0.57371
 20
8.2013
 30
0.0
 10
-0.57025
 20
8.22277
 30
0.0
 10
-0.56355
 20
8.24799
 30
0.0
 10
-0.56355
 20
8.24799
 30
0.0
 10
-0.55689
 20
8.27314
 30
0.0
 10
-0.54729
 20
8.29745
 30
0.0
 10
-0.53482
 20
8.32082
 30
0.0
 10
-0.53482
 20
8.32082
 30
0.0
 10
-0.5223
 20
8.34419
 30
0.0
 10
-0.50903
 20
8.36393
 30
0.0
 10
-0.49491
 20
8.37994
 30
0.0
 10
-0.49491
 20
8.37994
 30
0.0
 10
-0.49491
 20
8.37994
 30
0.0
 10
-0.60566
 20
8.37994
 30
0.0
 10
-0.60566
 20
8.37994
 30
0.0
  0
SPLINE
  5
65
330
1F
100
AcDbEntity
  8
Layer 1
 62
     3
370
     9
100
AcDbSpline
210
0.0
220
0.0
230
1.0
 70
    11
 71
     3
 72
    48
 73
    44
 74
     0
 42
0.0000000001
 43
0.0000000001
 12
1.0
 22
0.0
 32
0.0
 13
1.0
 23
0.0
 33
0.0
 40
0.0
 40
0.0
 40
0.0
 40
0.0
 40
0.0833333333333333
 40
0.0833333333333333
 40
0.0833333333333333
 40
0.0833333333333333
 40
0.1666666666666667
 40
0.1666666666666667
 40
0.1666666666666667
 40
0.1666666666666667
 40
0.25
 40
0.25
 40
0.25
 40
0.25
 40
0.3333333333333333
 40
0.3333333333333333
 40
0.3333333333333333
 40
0.3333333333333333
 40
0.4166666666666667
 40
0.4166666666666667
 40
0.4166666666666667
 40
0.4166666666666667
 40
0.5
 40
0.5
 40
0.5
 40
0.5
 40
0.5833333333333334
 40
0.5833333333333334
 40
0.5833333333333334
 40
0.5833333333333334
 40
0.6666666666666666
 40
0.6666666666666666
 40
0.6666666666666666
 40
0.6666666666666666
 40
0.75
 40
0.75
 40
0.75
 40
0.75
 40
0.8333333333333334
 40
0.8333333333333334
 40
0.8333333333333334
 40
0.8333333333333334
 40
1.0
 40
1.0
 40
1.0
 40
1.0
 10
-0.34292
 20
8.18351
 30
0.0
 10
-0.34292
 20
8.18351
 30
0.0
 10
-0.34292
 20
8.23761
 30
0.0
 10
-0.34292
 20
8.23761
 30
0.0
 10
-0.34292
 20
8.23761
 30
0.0
 10
-0.34292
 20
8.23761
 30
0.0
 10
-0.44096
 20
8.23761
 30
0.0
 10
-0.44096
 20
8.23761
 30
0.0
 10
-0.44096
 20
8.23761
 30
0.0
 10
-0.44096
 20
8.23761
 30
0.0
 10
-0.44096
 20
8.2631
 30
0.0
 10
-0.44096
 20
8.2631
 30
0.0
 10
-0.44096
 20
8.2631
 30
0.0
 10
-0.44096
 20
8.2631
 30
0.0
 10
-0.33782
 20
8.40957
 30
0.0
 10
-0.33782
 20
8.40957
 30
0.0
 10
-0.33782
 20
8.40957
 30
0.0
 10
-0.33782
 20
8.40957
 30
0.0
 10
-0.31513
 20
8.40957
 30
0.0
 10
-0.31513
 20
8.40957
 30
0.0
 10
-0.31513
 20
8.40957
 30
0.0
 10
-0.31513
 20
8.40957
 30
0.0
 10
-0.31513
 20
8.2631
 30
0.0
 10
-0.31513
 20
8.2631
 30
0.0
 10
-0.31513
 20
8.2631
 30
0.0
 10
-0.31513
 20
8.2631
 30
0.0
 10
-0.28459
 20
8.2631
 30
0.0
 10
-0.28459
 20
8.2631
 30
0.0
 10
-0.28459
 20
8.2631
 30
0.0
 10
-0.28459
 20
8.2631
 30
0.0
 10
-0.28459
 20
8.23761
 30
0.0
 10
-0.28459
 20
8.23761
 30
0.0
 10
-0.28459
 20
8.23761
 30
0.0
 10
-0.28459
 20
8.23761
 30
0.0
 10
-0.31513
 20
8.23761
 30
0.0
 10
-0.31513
 20
8.23761
 30
0.0
 10
-0.31513
 20
8.23761
 30
0.0
 10
-0.31513
 20
8.23761
 30
0.0
 10
-0.31513
 20
8.18351
 30
0.0
 10
-0.31513
 20
8.18351
 30
0.0
 10
-0.31513
 20
8.18351
 30
0.0
 10
-0.31513
 20
8.18351
 30
0.0
 10
-0.34292
 20
8.18351
 30
0.0
 10
-0.34292
 20
8.18351
 30
0.0
  0
SPLINE
  5
66
330
1F
100
AcDbEntity
  8
Layer 1
 62
     3
370
     9
100
AcDbSpline
210
0.0
220
0.0
230
1.0
 70
    11
 71
     3
 72
    16
 73
    12
 74
     0
 42
0.0000000001
 43
0.0000000001
 12
1.0
 22
0.0
 32
0.0
 13
1.0
 23
0.0
 33
0.0
 40
0.0
 40
0.0
 40
0.0
 40
0.0
 40
0.25
 40
0.25
 40
0.25
 40
0.25
 40
0.5
 40
0.5
 40
0.5
 40
0.5
 40
1.0
 40
1.0
 40
1.0
 40
1.0
 10
-0.34292
 20
8.2631
 30
0.0
 10
-0.34292
 20
8.2631
 30
0.0
 10
-0.34292
 20
8.36498
 30
0.0
 10
-0.34292
 20
8.36498
 30
0.0
 10
-0.34292
 20
8.36498
 30
0.0
 10
-0.34292
 20
8.36498
 30
0.0
 10
-0.41365
 20
8.2631
 30
0.0
 10
-0.41365
 20
8.2631
 30
0.0
 10
-0.41365
 20
8.2631
 30
0.0
 10
-0.41365
 20
8.2631
 30
0.0
 10
-0.34292
 20
8.2631
 30
0.0
 10
-0.34292
 20
8.2631
 30
0.0
  0
SPLINE
  5
67
330
1F
100
AcDbEntity
  8
Layer 1
 62
     3
370
     9
100
AcDbSpline
210
0.0
220
0.0
230
1.0
 70
    11
 71
     3
 72
    92
 73
    88
 74
     0
 42
0.0000000001
 43
0.0000000001
 12
1.0
 22
0.0
 32
0.0
 13
1.0
 23
0.0
 33
0.0
 40
0.0
 40
0.0
 40
0.0
 40
0.0
 40
0.0434782608695652
 40
0.0434782608695652
 40
0.0434782608695652
 40
0.0434782608695652
 40
0.0869565217391304
 40
0.0869565217391304
 40
0.0869565217391304
 40
0.0869565217391304
 40
0.1304347826086956
 40
0.1304347826086956
 40
0.1304347826086956
 40
0.1304347826086956
 40
0.1739130434782609
 40
0.1739130434782609
 40
0.1739130434782609
 40
0.1739130434782609
 40
0.2173913043478261
 40
0.2173913043478261
 40
0.2173913043478261
 40
0.2173913043478261
 40
0.2608695652173913
 40
0.2608695652173913
 40
0.2608695652173913
 40
0.2608695652173913
 40
0.3043478260869565
 40
0.3043478260869565
 40
0.3043478260869565
 40
0.3043478260869565
 40
0.3478260869565217
 40
0.3478260869565217
 40
0.3478260869565217
 40
0.3478260869565217
 40
0.391304347826087
 40
0.391304347826087
 40
0.391304347826087
 40
0.391304347826087
 40
0.4347826086956522
 40
0.4347826086956522
 40
0.4347826086956522
 40
0.4347826086956522
 40
0.4782608695652174
 40
0.4782608695652174
 40
0.4782608695652174
 40
0.4782608695652174
 40
0.5217391304347826
 40
0.5217391304347826
 40
0.5217391304347826
 40
0.5217391304347826
 40
0.5652173913043478
 40
0.5652173913043478
 40
0.5652173913043478
 40
0.5652173913043478
 40
0.6086956521739131
 40
0.6086956521739131
 40
0.6086956521739131
 40
0.6086956521739131
 40
0.6521739130434783
 40
0.6521739130434783
 40
0.6521739130434783
 40
0.6521739130434783
 40
0.6956521739130435
 40
0.6956521739130435
 40
0.6956521739130435
 40
0.6956521739130435
 40
0.7391304347826086
 40
0.7391304347826086
 40
0.7391304347826086
 40
0.7391304347826086
 40
0.782608695652174
 40
0.782608695652174
 40
0.782608695652174
 40
0.782608695652174
 40
0.8260869565217391
 40
0.8260869565217391
 40
0.8260869565217391
 40
0.8260869565217391
 40
0.8695652173913043
 40
0.8695652173913043
 40
0.8695652173913043
 40
0.8695652173913043
 40
0.9130434782608695
 40
0.9130434782608695
 40
0.9130434782608695
 40
0.9130434782608695
 40
1.0
 40
1.0
 40
1.0
 40
1.0
 10
-0.25207
 20
8.23577
 30
0.0
 10
-0.25207
 20
8.23577
 30
0.0
 10
-0.22538
 20
8.23825
 30
0.0
 10
-0.22538
 20
8.23825
 30
0.0
 10
-0.22538
 20
8.23825
 30
0.0
 10
-0.22312
 20
8.22572
 30
0.0
 10
-0.21882
 20
8.21661
 30
0.0
 10
-0.21245
 20
8.21094
 30
0.0
 10
-0.21245
 20
8.21094
 30
0.0
 10
-0.20607
 20
8.20529
 30
0.0
 10
-0.19791
 20
8.20245
 30
0.0
 10
-0.18792
 20
8.20245
 30
0.0
 10
-0.18792
 20
8.20245
 30
0.0
 10
-0.17939
 20
8.20245
 30
0.0
 10
-0.17192
 20
8.20441
 30
0.0
 10
-0.16549
 20
8.20836
 30
0.0
 10
-0.16549
 20
8.20836
 30
0.0
 10
-0.15907
 20
8.21224
 30
0.0
 10
-0.15381
 20
8.21745
 30
0.0
 10
-0.14969
 20
8.22398
 30
0.0
 10
-0.14969
 20
8.22398
 30
0.0
 10
-0.14556
 20
8.23051
 30
0.0
 10
-0.14213
 20
8.23936
 30
0.0
 10
-0.13933
 20
8.2504
 30
0.0
 10
-0.13933
 20
8.2504
 30
0.0
 10
-0.1366
 20
8.26151
 30
0.0
 10
-0.13518
 20
8.27283
 30
0.0
 10
-0.13518
 20
8.28435
 30
0.0
 10
-0.13518
 20
8.28435
 30
0.0
 10
-0.13518
 20
8.28556
 30
0.0
 10
-0.13524
 20
8.28746
 30
0.0
 10
-0.13533
 20
8.28989
 30
0.0
 10
-0.13533
 20
8.28989
 30
0.0
 10
-0.14091
 20
8.28109
 30
0.0
 10
-0.14849
 20
8.27388
 30
0.0
 10
-0.15806
 20
8.26841
 30
0.0
 10
-0.15806
 20
8.26841
 30
0.0
 10
-0.1677
 20
8.26287
 30
0.0
 10
-0.17814
 20
8.26015
 30
0.0
 10
-0.18928
 20
8.26015
 30
0.0
 10
-0.18928
 20
8.26015
 30
0.0
 10
-0.20801
 20
8.26015
 30
0.0
 10
-0.22386
 20
8.26693
 30
0.0
 10
-0.2368
 20
8.28051
 30
0.0
 10
-0.2368
 20
8.28051
 30
0.0
 10
-0.24976
 20
8.29409
 30
0.0
 10
-0.25625
 20
8.31194
 30
0.0
 10
-0.25625
 20
8.33415
 30
0.0
 10
-0.25625
 20
8.33415
 30
0.0
 10
-0.25625
 20
8.35709
 30
0.0
 10
-0.24949
 20
8.37551
 30
0.0
 10
-0.23597
 20
8.38951
 30
0.0
 10
-0.23597
 20
8.38951
 30
0.0
 10
-0.22244
 20
8.40352
 30
0.0
 10
-0.20551
 20
8.41052
 30
0.0
 10
-0.18513
 20
8.41052
 30
0.0
 10
-0.18513
 20
8.41052
 30
0.0
 10
-0.17046
 20
8.41052
 30
0.0
 10
-0.15702
 20
8.40652
 30
0.0
 10
-0.14481
 20
8.39862
 30
0.0
 10
-0.14481
 20
8.39862
 30
0.0
 10
-0.13265
 20
8.39072
 30
0.0
 10
-0.12339
 20
8.37941
 30
0.0
 10
-0.11707
 20
8.36478
 30
0.0
 10
-0.11707
 20
8.36478
 30
0.0
 10
-0.11074
 20
8.35014
 30
0.0
 10
-0.10759
 20
8.32894
 30
0.0
 10
-0.10759
 20
8.30114
 30
0.0
 10
-0.10759
 20
8.30114
 30
0.0
 10
-0.10759
 20
8.27231
 30
0.0
 10
-0.1107
 20
8.24929
 30
0.0
 10
-0.11696
 20
8.23214
 30
0.0
 10
-0.11696
 20
8.23214
 30
0.0
 10
-0.12327
 20
8.21504
 30
0.0
 10
-0.13259
 20
8.20204
 30
0.0
 10
-0.14495
 20
8.19309
 30
0.0
 10
-0.14495
 20
8.19309
 30
0.0
 10
-0.15738
 20
8.18415
 30
0.0
 10
-0.17188
 20
8.17966
 30
0.0
 10
-0.18854
 20
8.17966
 30
0.0
 10
-0.18854
 20
8.17966
 30
0.0
 10
-0.20623
 20
8.17966
 30
0.0
 10
-0.22064
 20
8.18456
 30
0.0
 10
-0.23187
 20
8.19441
 30
0.0
 10
-0.23187
 20
8.19441
 30
0.0
 10
-0.24307
 20
8.2042
 30
0.0
 10
-0.24982
 20
8.21799
 30
0.0
 10
-0.25207
 20
8.23577
 30
0.0
  0
SPLINE
  5
68
330
1F
100
AcDbEntity
  8
Layer 1
 62
     3
370
     9
100
AcDbSpline
210
0.0
220
0.0
230
1.0
 70
    11
 71
     3
 72
    36
 73
    32
 74
     0
 42
0.0000000001
 43
0.0000000001
 12
1.0
 22
0.0
 32
0.0
 13
1.0
 23
0.0
 33
0.0
 40
0.0
 40
0.0
 40
0.0
 40
0.0
 40
0.1111111111111111
 40
0.1111111111111111
 40
0.1111111111111111
 40
0.1111111111111111
 40
0.2222222222222222
 40
0.2222222222222222
 40
0.2222222222222222
 40
0.2222222222222222
 40
0.3333333333333333
 40
0.3333333333333333
 40
0.3333333333333333
 40
0.3333333333333333
 40
0.4444444444444444
 40
0.4444444444444444
 40
0.4444444444444444
 40
0.4444444444444444
 40
0.5555555555555556
 40
0.5555555555555556
 40
0.5555555555555556
 40
0.5555555555555556
 40
0.6666666666666666
 40
0.6666666666666666
 40
0.6666666666666666
 40
0.6666666666666666
 40
0.7777777777777778
 40
0.7777777777777778
 40
0.7777777777777778
 40
0.7777777777777778
 40
1.0
 40
1.0
 40
1.0
 40
1.0
 10
-0.13845
 20
8.33557
 30
0.0
 10
-0.13845
 20
8.35146
 30
0.0
 10
-0.14264
 20
8.36414
 30
0.0
 10
-0.15111
 20
8.37347
 30
0.0
 10
-0.15111
 20
8.37347
 30
0.0
 10
-0.15964
 20
8.38283
 30
0.0
 10
-0.1698
 20
8.38751
 30
0.0
 10
-0.18176
 20
8.38751
 30
0.0
 10
-0.18176
 20
8.38751
 30
0.0
 10
-0.19406
 20
8.38751
 30
0.0
 10
-0.2048
 20
8.38246
 30
0.0
 10
-0.21398
 20
8.37242
 30
0.0
 10
-0.21398
 20
8.37242
 30
0.0
 10
-0.22312
 20
8.3623
 30
0.0
 10
-0.22769
 20
8.34926
 30
0.0
 10
-0.22769
 20
8.33325
 30
0.0
 10
-0.22769
 20
8.33325
 30
0.0
 10
-0.22769
 20
8.31882
 30
0.0
 10
-0.22334
 20
8.30714
 30
0.0
 10
-0.21465
 20
8.29815
 30
0.0
 10
-0.21465
 20
8.29815
 30
0.0
 10
-0.20597
 20
8.28914
 30
0.0
 10
-0.19529
 20
8.28467
 30
0.0
 10
-0.18254
 20
8.28467
 30
0.0
 10
-0.18254
 20
8.28467
 30
0.0
 10
-0.16964
 20
8.28467
 30
0.0
 10
-0.15911
 20
8.28914
 30
0.0
 10
-0.15085
 20
8.29815
 30
0.0
 10
-0.15085
 20
8.29815
 30
0.0
 10
-0.14254
 20
8.30714
 30
0.0
 10
-0.13845
 20
8.31962
 30
0.0
 10
-0.13845
 20
8.33557
 30
0.0
  0
SPLINE
  5
69
330
1F
100
AcDbEntity
  8
Layer 1
 62
     3
370
     9
100
AcDbSpline
210
0.0
220
0.0
230
1.0
 70
    11
 71
     3
 72
    36
 73
    32
 74
     0
 42
0.0000000001
 43
0.0000000001
 12
1.0
 22
0.0
 32
0.0
 13
1.0
 23
0.0
 33
0.0
 40
0.0
 40
0.0
 40
0.0
 40
0.0
 40
0.1111111111111111
 40
0.1111111111111111
 40
0.1111111111111111
 40
0.1111111111111111
 40
0.2222222222222222
 40
0.2222222222222222
 40
0.2222222222222222
 40
0.2222222222222222
 40
0.3333333333333333
 40
0.3333333333333333
 40
0.3333333333333333
 40
0.3333333333333333
 40
0.4444444444444444
 40
0.4444444444444444
 40
0.4444444444444444
 40
0.4444444444444444
 40
0.5555555555555556
 40
0.5555555555555556
 40
0.5555555555555556
 40
0.5555555555555556
 40
0.6666666666666666
 40
0.6666666666666666
 40
0.6666666666666666
 40
0.6666666666666666
 40
0.7777777777777778
 40
0.7777777777777778
 40
0.7777777777777778
 40
0.7777777777777778
 40
1.0
 40
1.0
 40
1.0
 40
1.0
 10
0.01546
 20
8.12076
 30
0.0
 10
0.01546
 20
8.12076
 30
0.0
 10
0.01546
 20
8.40957
 30
0.0
 10
0.01546
 20
8.40957
 30
0.0
 10
0.01546
 20
8.40957
 30
0.0
 10
0.01546
 20
8.40957
 30
0.0
 10
0.07668
 20
8.40957
 30
0.0
 10
0.07668
 20
8.40957
 30
0.0
 10
0.07668
 20
8.40957
 30
0.0
 10
0.07668
 20
8.40957
 30
0.0
 10
0.07668
 20
8.38658
 30
0.0
 10
0.07668
 20
8.38658
 30
0.0
 10
0.07668
 20
8.38658
 30
0.0
 10
0.07668
 20
8.38658
 30
0.0
 10
0.04326
 20
8.38658
 30
0.0
 10
0.04326
 20
8.38658
 30
0.0
 10
0.04326
 20
8.38658
 30
0.0
 10
0.04326
 20
8.38658
 30
0.0
 10
0.04326
 20
8.14372
 30
0.0
 10
0.04326
 20
8.14372
 30
0.0
 10
0.04326
 20
8.14372
 30
0.0
 10
0.04326
 20
8.14372
 30
0.0
 10
0.07668
 20
8.14372
 30
0.0
 10
0.07668
 20
8.14372
 30
0.0
 10
0.07668
 20
8.14372
 30
0.0
 10
0.07668
 20
8.14372
 30
0.0
 10
0.07668
 20
8.12076
 30
0.0
 10
0.07668
 20
8.12076
 30
0.0
 10
0.07668
 20
8.12076
 30
0.0
 10
0.07668
 20
8.12076
 30
0.0
 10
0.01546
 20
8.12076
 30
0.0
 10
0.01546
 20
8.12076
 30
0.0
  0
SPLINE
  5
6A
330
1F
100
AcDbEntity
  8
Layer 1
 62
     3
370
     9
100
AcDbSpline
210
0.0
220
0.0
230
1.0
 70
    11
 71
     3
 72
    92
 73
    88
 74
     0
 42
0.0000000001
 43
0.0000000001
 12
1.0
 22
0.0
 32
0.0
 13
1.0
 23
0.0
 33
0.0
 40
0.0
 40
0.0
 40
0.0
 40
0.0
 40
0.0434782608695652
 40
0.0434782608695652
 40
0.0434782608695652
 40
0.0434782608695652
 40
0.0869565217391304
 40
0.0869565217391304
 40
0.0869565217391304
 40
0.0869565217391304
 40
0.1304347826086956
 40
0.1304347826086956
 40
0.1304347826086956
 40
0.1304347826086956
 40
0.1739130434782609
 40
0.1739130434782609
 40
0.1739130434782609
 40
0.1739130434782609
 40
0.2173913043478261
 40
0.2173913043478261
 40
0.2173913043478261
 40
0.2173913043478261
 40
0.2608695652173913
 40
0.2608695652173913
 40
0.2608695652173913
 40
0.2608695652173913
 40
0.3043478260869565
 40
0.3043478260869565
 40
0.3043478260869565
 40
0.3043478260869565
 40
0.3478260869565217
 40
0.3478260869565217
 40
0.3478260869565217
 40
0.3478260869565217
 40
0.391304347826087
 40
0.391304347826087
 40
0.391304347826087
 40
0.391304347826087
 40
0.4347826086956522
 40
0.4347826086956522
 40
0.4347826086956522
 40
0.4347826086956522
 40
0.4782608695652174
 40
0.4782608695652174
 40
0.4782608695652174
 40
0.4782608695652174
 40
0.5217391304347826
 40
0.5217391304347826
 40
0.5217391304347826
 40
0.5217391304347826
 40
0.5652173913043478
 40
0.5652173913043478
 40
0.5652173913043478
 40
0.5652173913043478
 40
0.6086956521739131
 40
0.6086956521739131
 40
0.6086956521739131
 40
0.6086956521739131
 40
0.6521739130434783
 40
0.6521739130434783
 40
0.6521739130434783
 40
0.6521739130434783
 40
0.6956521739130435
 40
0.6956521739130435
 40
0.6956521739130435
 40
0.6956521739130435
 40
0.7391304347826086
 40
0.7391304347826086
 40
0.7391304347826086
 40
0.7391304347826086
 40
0.782608695652174
 40
0.782608695652174
 40
0.782608695652174
 40
0.782608695652174
 40
0.8260869565217391
 40
0.8260869565217391
 40
0.8260869565217391
 40
0.8260869565217391
 40
0.8695652173913043
 40
0.8695652173913043
 40
0.8695652173913043
 40
0.8695652173913043
 40
0.9130434782608695
 40
0.9130434782608695
 40
0.9130434782608695
 40
0.9130434782608695
 40
1.0
 40
1.0
 40
1.0
 40
1.0
 10
0.24078
 20
8.2102
 30
0.0
 10
0.24078
 20
8.2102
 30
0.0
 10
0.24078
 20
8.18351
 30
0.0
 10
0.24078
 20
8.18351
 30
0.0
 10
0.24078
 20
8.18351
 30
0.0
 10
0.24078
 20
8.18351
 30
0.0
 10
0.09136
 20
8.18351
 30
0.0
 10
0.09136
 20
8.18351
 30
0.0
 10
0.09136
 20
8.18351
 30
0.0
 10
0.09115
 20
8.19019
 30
0.0
 10
0.0922
 20
8.19662
 30
0.0
 10
0.09457
 20
8.20278
 30
0.0
 10
0.09457
 20
8.20278
 30
0.0
 10
0.09836
 20
8.21298
 30
0.0
 10
0.10446
 20
8.22299
 30
0.0
 10
0.11283
 20
8.23288
 30
0.0
 10
0.11283
 20
8.23288
 30
0.0
 10
0.12126
 20
8.24272
 30
0.0
 10
0.13336
 20
8.25415
 30
0.0
 10
0.14916
 20
8.26709
 30
0.0
 10
0.14916
 20
8.26709
 30
0.0
 10
0.17373
 20
8.28725
 30
0.0
 10
0.19036
 20
8.3032
 30
0.0
 10
0.19899
 20
8.31499
 30
0.0
 10
0.19899
 20
8.31499
 30
0.0
 10
0.20763
 20
8.32673
 30
0.0
 10
0.21195
 20
8.33788
 30
0.0
 10
0.21195
 20
8.34835
 30
0.0
 10
0.21195
 20
8.34835
 30
0.0
 10
0.21195
 20
8.35936
 30
0.0
 10
0.208
 20
8.36863
 30
0.0
 10
0.20015
 20
8.37619
 30
0.0
 10
0.20015
 20
8.37619
 30
0.0
 10
0.19225
 20
8.38373
 30
0.0
 10
0.18199
 20
8.38751
 30
0.0
 10
0.16936
 20
8.38751
 30
0.0
 10
0.16936
 20
8.38751
 30
0.0
 10
0.156
 20
8.38751
 30
0.0
 10
0.14531
 20
8.38351
 30
0.0
 10
0.13731
 20
8.37547
 30
0.0
 10
0.13731
 20
8.37547
 30
0.0
 10
0.12925
 20
8.36746
 30
0.0
 10
0.1252
 20
8.35635
 30
0.0
 10
0.12509
 20
8.34219
 30
0.0
 10
0.12509
 20
8.34219
 30
0.0
 10
0.12509
 20
8.34219
 30
0.0
 10
0.09657
 20
8.34509
 30
0.0
 10
0.09657
 20
8.34509
 30
0.0
 10
0.09657
 20
8.34509
 30
0.0
 10
0.09853
 20
8.36641
 30
0.0
 10
0.10587
 20
8.38262
 30
0.0
 10
0.11862
 20
8.39377
 30
0.0
 10
0.11862
 20
8.39377
 30
0.0
 10
0.13136
 20
8.40494
 30
0.0
 10
0.14852
 20
8.41052
 30
0.0
 10
0.17
 20
8.41052
 30
0.0
 10
0.17
 20
8.41052
 30
0.0
 10
0.19168
 20
8.41052
 30
0.0
 10
0.20884
 20
8.40447
 30
0.0
 10
0.22147
 20
8.39247
 30
0.0
 10
0.22147
 20
8.39247
 30
0.0
 10
0.23415
 20
8.38041
 30
0.0
 10
0.24047
 20
8.36552
 30
0.0
 10
0.24047
 20
8.34773
 30
0.0
 10
0.24047
 20
8.34773
 30
0.0
 10
0.24047
 20
8.33867
 30
0.0
 10
0.23864
 20
8.32978
 30
0.0
 10
0.23489
 20
8.32104
 30
0.0
 10
0.23489
 20
8.32104
 30
0.0
 10
0.2312
 20
8.31231
 30
0.0
 10
0.22506
 20
8.3031
 30
0.0
 10
0.21647
 20
8.29345
 30
0.0
 10
0.21647
 20
8.29345
 30
0.0
 10
0.20789
 20
8.28377
 30
0.0
 10
0.19363
 20
8.27051
 30
0.0
 10
0.17368
 20
8.25368
 30
0.0
 10
0.17368
 20
8.25368
 30
0.0
 10
0.15705
 20
8.23967
 30
0.0
 10
0.14636
 20
8.23019
 30
0.0
 10
0.14162
 20
8.2252
 30
0.0
 10
0.14162
 20
8.2252
 30
0.0
 10
0.13688
 20
8.22025
 30
0.0
 10
0.133
 20
8.21525
 30
0.0
 10
0.12989
 20
8.2102
 30
0.0
 10
0.12989
 20
8.2102
 30
0.0
 10
0.12989
 20
8.2102
 30
0.0
 10
0.24078
 20
8.2102
 30
0.0
 10
0.24078
 20
8.2102
 30
0.0
  0
SPLINE
  5
6B
330
1F
100
AcDbEntity
  8
Layer 1
 62
     3
370
     9
100
AcDbSpline
210
0.0
220
0.0
230
1.0
 70
    11
 71
     3
 72
    92
 73
    88
 74
     0
 42
0.0000000001
 43
0.0000000001
 12
1.0
 22
0.0
 32
0.0
 13
1.0
 23
0.0
 33
0.0
 40
0.0
 40
0.0
 40
0.0
 40
0.0
 40
0.0434782608695652
 40
0.0434782608695652
 40
0.0434782608695652
 40
0.0434782608695652
 40
0.0869565217391304
 40
0.0869565217391304
 40
0.0869565217391304
 40
0.0869565217391304
 40
0.1304347826086956
 40
0.1304347826086956
 40
0.1304347826086956
 40
0.1304347826086956
 40
0.1739130434782609
 40
0.1739130434782609
 40
0.1739130434782609
 40
0.1739130434782609
 40
0.2173913043478261
 40
0.2173913043478261
 40
0.2173913043478261
 40
0.2173913043478261
 40
0.2608695652173913
 40
0.2608695652173913
 40
0.2608695652173913
 40
0.2608695652173913
 40
0.3043478260869565
 40
0.3043478260869565
 40
0.3043478260869565
 40
0.3043478260869565
 40
0.3478260869565217
 40
0.3478260869565217
 40
0.3478260869565217
 40
0.3478260869565217
 40
0.391304347826087
 40
0.391304347826087
 40
0.391304347826087
 40
0.391304347826087
 40
0.4347826086956522
 40
0.4347826086956522
 40
0.4347826086956522
 40
0.4347826086956522
 40
0.4782608695652174
 40
0.4782608695652174
 40
0.4782608695652174
 40
0.4782608695652174
 40
0.5217391304347826
 40
0.5217391304347826
 40
0.5217391304347826
 40
0.5217391304347826
 40
0.5652173913043478
 40
0.5652173913043478
 40
0.5652173913043478
 40
0.5652173913043478
 40
0.6086956521739131
 40
0.6086956521739131
 40
0.6086956521739131
 40
0.6086956521739131
 40
0.6521739130434783
 40
0.6521739130434783
 40
0.6521739130434783
 40
0.6521739130434783
 40
0.6956521739130435
 40
0.6956521739130435
 40
0.6956521739130435
 40
0.6956521739130435
 40
0.7391304347826086
 40
0.7391304347826086
 40
0.7391304347826086
 40
0.7391304347826086
 40
0.782608695652174
 40
0.782608695652174
 40
0.782608695652174
 40
0.782608695652174
 40
0.8260869565217391
 40
0.8260869565217391
 40
0.8260869565217391
 40
0.8260869565217391
 40
0.8695652173913043
 40
0.8695652173913043
 40
0.8695652173913043
 40
0.8695652173913043
 40
0.9130434782608695
 40
0.9130434782608695
 40
0.9130434782608695
 40
0.9130434782608695
 40
1.0
 40
1.0
 40
1.0
 40
1.0
 10
0.27468
 20
8.23577
 30
0.0
 10
0.27468
 20
8.23577
 30
0.0
 10
0.30137
 20
8.23825
 30
0.0
 10
0.30137
 20
8.23825
 30
0.0
 10
0.30137
 20
8.23825
 30
0.0
 10
0.30363
 20
8.22572
 30
0.0
 10
0.30794
 20
8.21661
 30
0.0
 10
0.31431
 20
8.21094
 30
0.0
 10
0.31431
 20
8.21094
 30
0.0
 10
0.32068
 20
8.20529
 30
0.0
 10
0.32884
 20
8.20245
 30
0.0
 10
0.33884
 20
8.20245
 30
0.0
 10
0.33884
 20
8.20245
 30
0.0
 10
0.34737
 20
8.20245
 30
0.0
 10
0.35485
 20
8.20441
 30
0.0
 10
0.36126
 20
8.20836
 30
0.0
 10
0.36126
 20
8.20836
 30
0.0
 10
0.36768
 20
8.21224
 30
0.0
 10
0.37294
 20
8.21745
 30
0.0
 10
0.37706
 20
8.22398
 30
0.0
 10
0.37706
 20
8.22398
 30
0.0
 10
0.38121
 20
8.23051
 30
0.0
 10
0.38463
 20
8.23936
 30
0.0
 10
0.38743
 20
8.2504
 30
0.0
 10
0.38743
 20
8.2504
 30
0.0
 10
0.39017
 20
8.26151
 30
0.0
 10
0.39159
 20
8.27283
 30
0.0
 10
0.39159
 20
8.28435
 30
0.0
 10
0.39159
 20
8.28435
 30
0.0
 10
0.39159
 20
8.28556
 30
0.0
 10
0.39153
 20
8.28746
 30
0.0
 10
0.39142
 20
8.28989
 30
0.0
 10
0.39142
 20
8.28989
 30
0.0
 10
0.38584
 20
8.28109
 30
0.0
 10
0.37826
 20
8.27388
 30
0.0
 10
0.36869
 20
8.26841
 30
0.0
 10
0.36869
 20
8.26841
 30
0.0
 10
0.35905
 20
8.26287
 30
0.0
 10
0.34863
 20
8.26015
 30
0.0
 10
0.33747
 20
8.26015
 30
0.0
 10
0.33747
 20
8.26015
 30
0.0
 10
0.31874
 20
8.26015
 30
0.0
 10
0.30289
 20
8.26693
 30
0.0
 10
0.28995
 20
8.28051
 30
0.0
 10
0.28995
 20
8.28051
 30
0.0
 10
0.27699
 20
8.29409
 30
0.0
 10
0.27052
 20
8.31194
 30
0.0
 10
0.27052
 20
8.33415
 30
0.0
 10
0.27052
 20
8.33415
 30
0.0
 10
0.27052
 20
8.35709
 30
0.0
 10
0.27726
 20
8.37551
 30
0.0
 10
0.29079
 20
8.38951
 30
0.0
 10
0.29079
 20
8.38951
 30
0.0
 10
0.30432
 20
8.40352
 30
0.0
 10
0.32126
 20
8.41052
 30
0.0
 10
0.34164
 20
8.41052
 30
0.0
 10
0.34164
 20
8.41052
 30
0.0
 10
0.35631
 20
8.41052
 30
0.0
 10
0.36974
 20
8.40652
 30
0.0
 10
0.38195
 20
8.39862
 30
0.0
 10
0.38195
 20
8.39862
 30
0.0
 10
0.3941
 20
8.39072
 30
0.0
 10
0.40338
 20
8.37941
 30
0.0
 10
0.40968
 20
8.36478
 30
0.0
 10
0.40968
 20
8.36478
 30
0.0
 10
0.41601
 20
8.35014
 30
0.0
 10
0.41916
 20
8.32894
 30
0.0
 10
0.41916
 20
8.30114
 30
0.0
 10
0.41916
 20
8.30114
 30
0.0
 10
0.41916
 20
8.27231
 30
0.0
 10
0.41605
 20
8.24929
 30
0.0
 10
0.40979
 20
8.23214
 30
0.0
 10
0.40979
 20
8.23214
 30
0.0
 10
0.40348
 20
8.21504
 30
0.0
 10
0.39416
 20
8.20204
 30
0.0
 10
0.38178
 20
8.19309
 30
0.0
 10
0.38178
 20
8.19309
 30
0.0
 10
0.36937
 20
8.18415
 30
0.0
 10
0.35489
 20
8.17966
 30
0.0
 10
0.33821
 20
8.17966
 30
0.0
 10
0.33821
 20
8.17966
 30
0.0
 10
0.32053
 20
8.17966
 30
0.0
 10
0.30611
 20
8.18456
 30
0.0
 10
0.2949
 20
8.19441
 30
0.0
 10
0.2949
 20
8.19441
 30
0.0
 10
0.28369
 20
8.2042
 30
0.0
 10
0.27695
 20
8.21799
 30
0.0
 10
0.27468
 20
8.23577
 30
0.0
  0
SPLINE
  5
6C
330
1F
100
AcDbEntity
  8
Layer 1
 62
     3
370
     9
100
AcDbSpline
210
0.0
220
0.0
230
1.0
 70
    11
 71
     3
 72
    36
 73
    32
 74
     0
 42
0.0000000001
 43
0.0000000001
 12
1.0
 22
0.0
 32
0.0
 13
1.0
 23
0.0
 33
0.0
 40
0.0
 40
0.0
 40
0.0
 40
0.0
 40
0.1111111111111111
 40
0.1111111111111111
 40
0.1111111111111111
 40
0.1111111111111111
 40
0.2222222222222222
 40
0.2222222222222222
 40
0.2222222222222222
 40
0.2222222222222222
 40
0.3333333333333333
 40
0.3333333333333333
 40
0.3333333333333333
 40
0.3333333333333333
 40
0.4444444444444444
 40
0.4444444444444444
 40
0.4444444444444444
 40
0.4444444444444444
 40
0.5555555555555556
 40
0.5555555555555556
 40
0.5555555555555556
 40
0.5555555555555556
 40
0.6666666666666666
 40
0.6666666666666666
 40
0.6666666666666666
 40
0.6666666666666666
 40
0.7777777777777778
 40
0.7777777777777778
 40
0.7777777777777778
 40
0.7777777777777778
 40
1.0
 40
1.0
 40
1.0
 40
1.0
 10
0.38831
 20
8.33557
 30
0.0
 10
0.38831
 20
8.35146
 30
0.0
 10
0.38411
 20
8.36414
 30
0.0
 10
0.37564
 20
8.37347
 30
0.0
 10
0.37564
 20
8.37347
 30
0.0
 10
0.36711
 20
8.38283
 30
0.0
 10
0.35695
 20
8.38751
 30
0.0
 10
0.345
 20
8.38751
 30
0.0
 10
0.345
 20
8.38751
 30
0.0
 10
0.33269
 20
8.38751
 30
0.0
 10
0.32195
 20
8.38246
 30
0.0
 10
0.31279
 20
8.37242
 30
0.0
 10
0.31279
 20
8.37242
 30
0.0
 10
0.30363
 20
8.3623
 30
0.0
 10
0.29906
 20
8.34926
 30
0.0
 10
0.29906
 20
8.33325
 30
0.0
 10
0.29906
 20
8.33325
 30
0.0
 10
0.29906
 20
8.31882
 30
0.0
 10
0.30343
 20
8.30714
 30
0.0
 10
0.31211
 20
8.29815
 30
0.0
 10
0.31211
 20
8.29815
 30
0.0
 10
0.32078
 20
8.28914
 30
0.0
 10
0.33148
 20
8.28467
 30
0.0
 10
0.34421
 20
8.28467
 30
0.0
 10
0.34421
 20
8.28467
 30
0.0
 10
0.35711
 20
8.28467
 30
0.0
 10
0.36763
 20
8.28914
 30
0.0
 10
0.3759
 20
8.29815
 30
0.0
 10
0.3759
 20
8.29815
 30
0.0
 10
0.38421
 20
8.30714
 30
0.0
 10
0.38831
 20
8.31962
 30
0.0
 10
0.38831
 20
8.33557
 30
0.0
  0
SPLINE
  5
6D
330
1F
100
AcDbEntity
  8
Layer 1
 62
     3
370
     9
100
AcDbSpline
210
0.0
220
0.0
230
1.0
 70
    11
 71
     3
 72
    40
 73
    36
 74
     0
 42
0.0000000001
 43
0.0000000001
 12
1.0
 22
0.0
 32
0.0
 13
1.0
 23
0.0
 33
0.0
 40
0.0
 40
0.0
 40
0.0
 40
0.0
 40
0.1
 40
0.1
 40
0.1
 40
0.1
 40
0.2
 40
0.2
 40
0.2
 40
0.2
 40
0.3
 40
0.3
 40
0.3
 40
0.3
 40
0.4
 40
0.4
 40
0.4
 40
0.4
 40
0.5
 40
0.5
 40
0.5
 40
0.5
 40
0.6
 40
0.6
 40
0.6
 40
0.6
 40
0.7
 40
0.7
 40
0.7
 40
0.7
 40
0.8
 40
0.8
 40
0.8
 40
0.8
 40
1.0
 40
1.0
 40
1.0
 40
1.0
 10
0.63843
 20
8.18351
 30
0.0
 10
0.63843
 20
8.18351
 30
0.0
 10
0.61069
 20
8.18351
 30
0.0
 10
0.61069
 20
8.18351
 30
0.0
 10
0.61069
 20
8.18351
 30
0.0
 10
0.61069
 20
8.18351
 30
0.0
 10
0.61069
 20
8.36036
 30
0.0
 10
0.61069
 20
8.36036
 30
0.0
 10
0.61069
 20
8.36036
 30
0.0
 10
0.60401
 20
8.35398
 30
0.0
 10
0.59527
 20
8.34763
 30
0.0
 10
0.58443
 20
8.34124
 30
0.0
 10
0.58443
 20
8.34124
 30
0.0
 10
0.57353
 20
8.33488
 30
0.0
 10
0.5638
 20
8.33009
 30
0.0
 10
0.55517
 20
8.32694
 30
0.0
 10
0.55517
 20
8.32694
 30
0.0
 10
0.55517
 20
8.32694
 30
0.0
 10
0.55517
 20
8.35373
 30
0.0
 10
0.55517
 20
8.35373
 30
0.0
 10
0.55517
 20
8.35373
 30
0.0
 10
0.57069
 20
8.36104
 30
0.0
 10
0.58427
 20
8.36989
 30
0.0
 10
0.5959
 20
8.38025
 30
0.0
 10
0.5959
 20
8.38025
 30
0.0
 10
0.60748
 20
8.39068
 30
0.0
 10
0.61574
 20
8.40072
 30
0.0
 10
0.62058
 20
8.41052
 30
0.0
 10
0.62058
 20
8.41052
 30
0.0
 10
0.62058
 20
8.41052
 30
0.0
 10
0.63843
 20
8.41052
 30
0.0
 10
0.63843
 20
8.41052
 30
0.0
 10
0.63843
 20
8.41052
 30
0.0
 10
0.63843
 20
8.41052
 30
0.0
 10
0.63843
 20
8.18351
 30
0.0
 10
0.63843
 20
8.18351
 30
0.0
  0
SPLINE
  5
6E
330
1F
100
AcDbEntity
  8
Layer 1
 62
     3
370
     9
100
AcDbSpline
210
0.0
220
0.0
230
1.0
 70
    11
 71
     3
 72
    20
 73
    16
 74
     0
 42
0.0000000001
 43
0.0000000001
 12
1.0
 22
0.0
 32
0.0
 13
1.0
 23
0.0
 33
0.0
 40
0.0
 40
0.0
 40
0.0
 40
0.0
 40
0.2
 40
0.2
 40
0.2
 40
0.2
 40
0.4
 40
0.4
 40
0.4
 40
0.4
 40
0.6
 40
0.6
 40
0.6
 40
0.6
 40
1.0
 40
1.0
 40
1.0
 40
1.0
 10
0.69644
 20
8.17966
 30
0.0
 10
0.69644
 20
8.17966
 30
0.0
 10
0.76197
 20
8.41341
 30
0.0
 10
0.76197
 20
8.41341
 30
0.0
 10
0.76197
 20
8.41341
 30
0.0
 10
0.76197
 20
8.41341
 30
0.0
 10
0.78417
 20
8.41341
 30
0.0
 10
0.78417
 20
8.41341
 30
0.0
 10
0.78417
 20
8.41341
 30
0.0
 10
0.78417
 20
8.41341
 30
0.0
 10
0.7188
 20
8.17966
 30
0.0
 10
0.7188
 20
8.17966
 30
0.0
 10
0.7188
 20
8.17966
 30
0.0
 10
0.7188
 20
8.17966
 30
0.0
 10
0.69644
 20
8.17966
 30
0.0
 10
0.69644
 20
8.17966
 30
0.0
  0
SPLINE
  5
6F
330
1F
100
AcDbEntity
  8
Layer 1
 62
     3
370
     9
100
AcDbSpline
210
0.0
220
0.0
230
1.0
 70
    11
 71
     3
 72
    92
 73
    88
 74
     0
 42
0.0000000001
 43
0.0000000001
 12
1.0
 22
0.0
 32
0.0
 13
1.0
 23
0.0
 33
0.0
 40
0.0
 40
0.0
 40
0.0
 40
0.0
 40
0.0434782608695652
 40
0.0434782608695652
 40
0.0434782608695652
 40
0.0434782608695652
 40
0.0869565217391304
 40
0.0869565217391304
 40
0.0869565217391304
 40
0.0869565217391304
 40
0.1304347826086956
 40
0.1304347826086956
 40
0.1304347826086956
 40
0.1304347826086956
 40
0.1739130434782609
 40
0.1739130434782609
 40
0.1739130434782609
 40
0.1739130434782609
 40
0.2173913043478261
 40
0.2173913043478261
 40
0.2173913043478261
 40
0.2173913043478261
 40
0.2608695652173913
 40
0.2608695652173913
 40
0.2608695652173913
 40
0.2608695652173913
 40
0.3043478260869565
 40
0.3043478260869565
 40
0.3043478260869565
 40
0.3043478260869565
 40
0.3478260869565217
 40
0.3478260869565217
 40
0.3478260869565217
 40
0.3478260869565217
 40
0.391304347826087
 40
0.391304347826087
 40
0.391304347826087
 40
0.391304347826087
 40
0.4347826086956522
 40
0.4347826086956522
 40
0.4347826086956522
 40
0.4347826086956522
 40
0.4782608695652174
 40
0.4782608695652174
 40
0.4782608695652174
 40
0.4782608695652174
 40
0.5217391304347826
 40
0.5217391304347826
 40
0.5217391304347826
 40
0.5217391304347826
 40
0.5652173913043478
 40
0.5652173913043478
 40
0.5652173913043478
 40
0.5652173913043478
 40
0.6086956521739131
 40
0.6086956521739131
 40
0.6086956521739131
 40
0.6086956521739131
 40
0.6521739130434783
 40
0.6521739130434783
 40
0.6521739130434783
 40
0.6521739130434783
 40
0.6956521739130435
 40
0.6956521739130435
 40
0.6956521739130435
 40
0.6956521739130435
 40
0.7391304347826086
 40
0.7391304347826086
 40
0.7391304347826086
 40
0.7391304347826086
 40
0.782608695652174
 40
0.782608695652174
 40
0.782608695652174
 40
0.782608695652174
 40
0.8260869565217391
 40
0.8260869565217391
 40
0.8260869565217391
 40
0.8260869565217391
 40
0.8695652173913043
 40
0.8695652173913043
 40
0.8695652173913043
 40
0.8695652173913043
 40
0.9130434782608695
 40
0.9130434782608695
 40
0.9130434782608695
 40
0.9130434782608695
 40
1.0
 40
1.0
 40
1.0
 40
1.0
 10
0.94317
 20
8.2102
 30
0.0
 10
0.94317
 20
8.2102
 30
0.0
 10
0.94317
 20
8.18351
 30
0.0
 10
0.94317
 20
8.18351
 30
0.0
 10
0.94317
 20
8.18351
 30
0.0
 10
0.94317
 20
8.18351
 30
0.0
 10
0.79375
 20
8.18351
 30
0.0
 10
0.79375
 20
8.18351
 30
0.0
 10
0.79375
 20
8.18351
 30
0.0
 10
0.79354
 20
8.19019
 30
0.0
 10
0.79459
 20
8.19662
 30
0.0
 10
0.79696
 20
8.20278
 30
0.0
 10
0.79696
 20
8.20278
 30
0.0
 10
0.80075
 20
8.21298
 30
0.0
 10
0.80685
 20
8.22299
 30
0.0
 10
0.81522
 20
8.23288
 30
0.0
 10
0.81522
 20
8.23288
 30
0.0
 10
0.82365
 20
8.24272
 30
0.0
 10
0.83575
 20
8.25415
 30
0.0
 10
0.85153
 20
8.26709
 30
0.0
 10
0.85153
 20
8.26709
 30
0.0
 10
0.87612
 20
8.28725
 30
0.0
 10
0.89275
 20
8.3032
 30
0.0
 10
0.90138
 20
8.31499
 30
0.0
 10
0.90138
 20
8.31499
 30
0.0
 10
0.91002
 20
8.32673
 30
0.0
 10
0.91434
 20
8.33788
 30
0.0
 10
0.91434
 20
8.34835
 30
0.0
 10
0.91434
 20
8.34835
 30
0.0
 10
0.91434
 20
8.35936
 30
0.0
 10
0.91039
 20
8.36863
 30
0.0
 10
0.90254
 20
8.37619
 30
0.0
 10
0.90254
 20
8.37619
 30
0.0
 10
0.89464
 20
8.38373
 30
0.0
 10
0.88438
 20
8.38751
 30
0.0
 10
0.87175
 20
8.38751
 30
0.0
 10
0.87175
 20
8.38751
 30
0.0
 10
0.85839
 20
8.38751
 30
0.0
 10
0.8477
 20
8.38351
 30
0.0
 10
0.8397
 20
8.37547
 30
0.0
 10
0.8397
 20
8.37547
 30
0.0
 10
0.83165
 20
8.36746
 30
0.0
 10
0.82759
 20
8.35635
 30
0.0
 10
0.82748
 20
8.34219
 30
0.0
 10
0.82748
 20
8.34219
 30
0.0
 10
0.82748
 20
8.34219
 30
0.0
 10
0.79896
 20
8.34509
 30
0.0
 10
0.79896
 20
8.34509
 30
0.0
 10
0.79896
 20
8.34509
 30
0.0
 10
0.8009
 20
8.36641
 30
0.0
 10
0.80828
 20
8.38262
 30
0.0
 10
0.82101
 20
8.39377
 30
0.0
 10
0.82101
 20
8.39377
 30
0.0
 10
0.83375
 20
8.40494
 30
0.0
 10
0.85091
 20
8.41052
 30
0.0
 10
0.87239
 20
8.41052
 30
0.0
 10
0.87239
 20
8.41052
 30
0.0
 10
0.89407
 20
8.41052
 30
0.0
 10
0.91123
 20
8.40447
 30
0.0
 10
0.92386
 20
8.39247
 30
0.0
 10
0.92386
 20
8.39247
 30
0.0
 10
0.93654
 20
8.38041
 30
0.0
 10
0.94286
 20
8.36552
 30
0.0
 10
0.94286
 20
8.34773
 30
0.0
 10
0.94286
 20
8.34773
 30
0.0
 10
0.94286
 20
8.33867
 30
0.0
 10
0.94101
 20
8.32978
 30
0.0
 10
0.93728
 20
8.32104
 30
0.0
 10
0.93728
 20
8.32104
 30
0.0
 10
0.93359
 20
8.31231
 30
0.0
 10
0.92743
 20
8.3031
 30
0.0
 10
0.91886
 20
8.29345
 30
0.0
 10
0.91886
 20
8.29345
 30
0.0
 10
0.91028
 20
8.28377
 30
0.0
 10
0.89602
 20
8.27051
 30
0.0
 10
0.87607
 20
8.25368
 30
0.0
 10
0.87607
 20
8.25368
 30
0.0
 10
0.85944
 20
8.23967
 30
0.0
 10
0.84875
 20
8.23019
 30
0.0
 10
0.84401
 20
8.2252
 30
0.0
 10
0.84401
 20
8.2252
 30
0.0
 10
0.83927
 20
8.22025
 30
0.0
 10
0.83538
 20
8.21525
 30
0.0
 10
0.83228
 20
8.2102
 30
0.0
 10
0.83228
 20
8.2102
 30
0.0
 10
0.83228
 20
8.2102
 30
0.0
 10
0.94317
 20
8.2102
 30
0.0
 10
0.94317
 20
8.2102
 30
0.0
  0
SPLINE
  5
70
330
1F
100
AcDbEntity
  8
Layer 1
 62
     3
370
     9
100
AcDbSpline
210
0.0
220
0.0
230
1.0
 70
    11
 71
     3
 72
    36
 73
    32
 74
     0
 42
0.0000000001
 43
0.0000000001
 12
1.0
 22
0.0
 32
0.0
 13
1.0
 23
0.0
 33
0.0
 40
0.0
 40
0.0
 40
0.0
 40
0.0
 40
0.1111111111111111
 40
0.1111111111111111
 40
0.1111111111111111
 40
0.1111111111111111
 40
0.2222222222222222
 40
0.2222222222222222
 40
0.2222222222222222
 40
0.2222222222222222
 40
0.3333333333333333
 40
0.3333333333333333
 40
0.3333333333333333
 40
0.3333333333333333
 40
0.4444444444444444
 40
0.4444444444444444
 40
0.4444444444444444
 40
0.4444444444444444
 40
0.5555555555555556
 40
0.5555555555555556
 40
0.5555555555555556
 40
0.5555555555555556
 40
0.6666666666666666
 40
0.6666666666666666
 40
0.6666666666666666
 40
0.6666666666666666
 40
0.7777777777777778
 40
0.7777777777777778
 40
0.7777777777777778
 40
0.7777777777777778
 40
1.0
 40
1.0
 40
1.0
 40
1.0
 10
1.02702
 20
8.12076
 30
0.0
 10
1.02702
 20
8.12076
 30
0.0
 10
0.9658
 20
8.12076
 30
0.0
 10
0.9658
 20
8.12076
 30
0.0
 10
0.9658
 20
8.12076
 30
0.0
 10
0.9658
 20
8.12076
 30
0.0
 10
0.9658
 20
8.14372
 30
0.0
 10
0.9658
 20
8.14372
 30
0.0
 10
0.9658
 20
8.14372
 30
0.0
 10
0.9658
 20
8.14372
 30
0.0
 10
0.99929
 20
8.14372
 30
0.0
 10
0.99929
 20
8.14372
 30
0.0
 10
0.99929
 20
8.14372
 30
0.0
 10
0.99929
 20
8.14372
 30
0.0
 10
0.99929
 20
8.38658
 30
0.0
 10
0.99929
 20
8.38658
 30
0.0
 10
0.99929
 20
8.38658
 30
0.0
 10
0.99929
 20
8.38658
 30
0.0
 10
0.9658
 20
8.38658
 30
0.0
 10
0.9658
 20
8.38658
 30
0.0
 10
0.9658
 20
8.38658
 30
0.0
 10
0.9658
 20
8.38658
 30
0.0
 10
0.9658
 20
8.40957
 30
0.0
 10
0.9658
 20
8.40957
 30
0.0
 10
0.9658
 20
8.40957
 30
0.0
 10
0.9658
 20
8.40957
 30
0.0
 10
1.02702
 20
8.40957
 30
0.0
 10
1.02702
 20
8.40957
 30
0.0
 10
1.02702
 20
8.40957
 30
0.0
 10
1.02702
 20
8.40957
 30
0.0
 10
1.02702
 20
8.12076
 30
0.0
 10
1.02702
 20
8.12076
 30
0.0
  0
SPLINE
  5
71
330
1F
100
AcDbEntity
  8
Layer 1
 62
     3
370
     5
100
AcDbSpline
210
0.0
220
0.0
230
1.0
 70
    24
 71
     3
 72
     8
 73
     4
 74
     0
 42
0.0000000001
 43
0.0000000001
 12
1.0
 22
0.0
 32
0.0
 13
1.0
 23
0.0
 33
0.0
 40
0.0
 40
0.0
 40
0.0
 40
0.0
 40
1.0
 40
1.0
 40
1.0
 40
1.0
 10
-8.44671
 20
6.35384
 30
0.0
 10
-8.44671
 20
6.35384
 30
0.0
 10
-10.36722
 20
6.35384
 30
0.0
 10
-10.36722
 20
6.35384
 30
0.0
  0
SPLINE
  5
72
330
1F
100
AcDbEntity
  8
Layer 1
 62
     3
370
     5
100
AcDbSpline
210
0.0
220
0.0
230
1.0
 70
    24
 71
     3
 72
     8
 73
     4
 74
     0
 42
0.0000000001
 43
0.0000000001
 12
1.0
 22
0.0
 32
0.0
 13
1.0
 23
0.0
 33
0.0
 40
0.0
 40
0.0
 40
0.0
 40
0.0
 40
1.0
 40
1.0
 40
1.0
 40
1.0
 10
-8.44671
 20
-5.6465
 30
0.0
 10
-8.44671
 20
-5.6465
 30
0.0
 10
-10.36722
 20
-5.6465
 30
0.0
 10
-10.36722
 20
-5.6465
 30
0.0
  0
SPLINE
  5
73
330
1F
100
AcDbEntity
  8
Layer 1
 62
     3
370
     5
100
AcDbSpline
210
0.0
220
0.0
230
1.0
 70
    24
 71
     3
 72
     8
 73
     4
 74
     0
 42
0.0000000001
 43
0.0000000001
 12
1.0
 22
0.0
 32
0.0
 13
1.0
 23
0.0
 33
0.0
 40
0.0
 40
0.0
 40
0.0
 40
0.0
 40
1.0
 40
1.0
 40
1.0
 40
1.0
 10
-10.33686
 20
6.03804
 30
0.0
 10
-10.33686
 20
6.03804
 30
0.0
 10
-10.33686
 20
-5.3307
 30
0.0
 10
-10.33686
 20
-5.3307
 30
0.0
  0
SPLINE
  5
74
330
1F
100
AcDbEntity
  8
Layer 1
 62
     3
370
     9
100
AcDbSpline
210
0.0
220
0.0
230
1.0
 70
    27
 71
     3
 72
    12
 73
     8
 74
     0
 42
0.0000000001
 43
0.0000000001
 12
1.0
 22
0.0
 32
0.0
 13
1.0
 23
0.0
 33
0.0
 40
0.0
 40
0.0
 40
0.0
 40
0.0
 40
0.3333333333333333
 40
0.3333333333333333
 40
0.3333333333333333
 40
0.3333333333333333
 40
1.0
 40
1.0
 40
1.0
 40
1.0
 10
-10.3895
 20
6.03804
 30
0.0
 10
-10.3895
 20
6.03804
 30
0.0
 10
-10.33686
 20
6.35384
 30
0.0
 10
-10.33686
 20
6.35384
 30
0.0
 10
-10.33686
 20
6.35384
 30
0.0
 10
-10.33686
 20
6.35384
 30
0.0
 10
-10.3895
 20
6.03804
 30
0.0
 10
-10.3895
 20
6.03804
 30
0.0
  0
SPLINE
  5
75
330
1F
100
AcDbEntity
  8
Layer 1
 62
     3
370
     9
100
AcDbSpline
210
0.0
220
0.0
230
1.0
 70
    11
 71
     3
 72
    16
 73
    12
 74
     0
 42
0.0000000001
 43
0.0000000001
 12
1.0
 22
0.0
 32
0.0
 13
1.0
 23
0.0
 33
0.0
 40
0.0
 40
0.0
 40
0.0
 40
0.0
 40
0.25
 40
0.25
 40
0.25
 40
0.25
 40
0.5
 40
0.5
 40
0.5
 40
0.5
 40
1.0
 40
1.0
 40
1.0
 40
1.0
 10
-10.33686
 20
6.35384
 30
0.0
 10
-10.33686
 20
6.35384
 30
0.0
 10
-10.28423
 20
6.03804
 30
0.0
 10
-10.28423
 20
6.03804
 30
0.0
 10
-10.28423
 20
6.03804
 30
0.0
 10
-10.28423
 20
6.03804
 30
0.0
 10
-10.3895
 20
6.03804
 30
0.0
 10
-10.3895
 20
6.03804
 30
0.0
 10
-10.3895
 20
6.03804
 30
0.0
 10
-10.3895
 20
6.03804
 30
0.0
 10
-10.33686
 20
6.35384
 30
0.0
 10
-10.33686
 20
6.35384
 30
0.0
  0
SPLINE
  5
76
330
1F
100
AcDbEntity
  8
Layer 1
 62
     3
370
     9
100
AcDbSpline
210
0.0
220
0.0
230
1.0
 70
    24
 71
     3
 72
     8
 73
     4
 74
     0
 42
0.0000000001
 43
0.0000000001
 12
1.0
 22
0.0
 32
0.0
 13
1.0
 23
0.0
 33
0.0
 40
0.0
 40
0.0
 40
0.0
 40
0.0
 40
1.0
 40
1.0
 40
1.0
 40
1.0
 10
-10.3895
 20
6.03804
 30
0.0
 10
-10.3895
 20
6.03804
 30
0.0
 10
-10.33686
 20
6.35384
 30
0.0
 10
-10.33686
 20
6.35384
 30
0.0
  0
SPLINE
  5
77
330
1F
100
AcDbEntity
  8
Layer 1
 62
     3
370
     9
100
AcDbSpline
210
0.0
220
0.0
230
1.0
 70
     8
 71
     3
 72
    12
 73
     8
 74
     0
 42
0.0000000001
 43
0.0000000001
 12
1.0
 22
0.0
 32
0.0
 13
1.0
 23
0.0
 33
0.0
 40
0.0
 40
0.0
 40
0.0
 40
0.0
 40
0.3333333333333333
 40
0.3333333333333333
 40
0.3333333333333333
 40
0.3333333333333333
 40
1.0
 40
1.0
 40
1.0
 40
1.0
 10
-10.33686
 20
6.35384
 30
0.0
 10
-10.33686
 20
6.35384
 30
0.0
 10
-10.28423
 20
6.03804
 30
0.0
 10
-10.28423
 20
6.03804
 30
0.0
 10
-10.28423
 20
6.03804
 30
0.0
 10
-10.28423
 20
6.03804
 30
0.0
 10
-10.3895
 20
6.03804
 30
0.0
 10
-10.3895
 20
6.03804
 30
0.0
  0
SPLINE
  5
78
330
1F
100
AcDbEntity
  8
Layer 1
 62
     3
370
     9
100
AcDbSpline
210
0.0
220
0.0
230
1.0
 70
    27
 71
     3
 72
    12
 73
     8
 74
     0
 42
0.0000000001
 43
0.0000000001
 12
1.0
 22
0.0
 32
0.0
 13
1.0
 23
0.0
 33
0.0
 40
0.0
 40
0.0
 40
0.0
 40
0.0
 40
0.3333333333333333
 40
0.3333333333333333
 40
0.3333333333333333
 40
0.3333333333333333
 40
1.0
 40
1.0
 40
1.0
 40
1.0
 10
-10.3895
 20
-5.3307
 30
0.0
 10
-10.3895
 20
-5.3307
 30
0.0
 10
-10.33686
 20
-5.6465
 30
0.0
 10
-10.33686
 20
-5.6465
 30
0.0
 10
-10.33686
 20
-5.6465
 30
0.0
 10
-10.33686
 20
-5.6465
 30
0.0
 10
-10.3895
 20
-5.3307
 30
0.0
 10
-10.3895
 20
-5.3307
 30
0.0
  0
SPLINE
  5
79
330
1F
100
AcDbEntity
  8
Layer 1
 62
     3
370
     9
100
AcDbSpline
210
0.0
220
0.0
230
1.0
 70
    11
 71
     3
 72
    16
 73
    12
 74
     0
 42
0.0000000001
 43
0.0000000001
 12
1.0
 22
0.0
 32
0.0
 13
1.0
 23
0.0
 33
0.0
 40
0.0
 40
0.0
 40
0.0
 40
0.0
 40
0.25
 40
0.25
 40
0.25
 40
0.25
 40
0.5
 40
0.5
 40
0.5
 40
0.5
 40
1.0
 40
1.0
 40
1.0
 40
1.0
 10
-10.33686
 20
-5.6465
 30
0.0
 10
-10.33686
 20
-5.6465
 30
0.0
 10
-10.28423
 20
-5.3307
 30
0.0
 10
-10.28423
 20
-5.3307
 30
0.0
 10
-10.28423
 20
-5.3307
 30
0.0
 10
-10.28423
 20
-5.3307
 30
0.0
 10
-10.3895
 20
-5.3307
 30
0.0
 10
-10.3895
 20
-5.3307
 30
0.0
 10
-10.3895
 20
-5.3307
 30
0.0
 10
-10.3895
 20
-5.3307
 30
0.0
 10
-10.33686
 20
-5.6465
 30
0.0
 10
-10.33686
 20
-5.6465
 30
0.0
  0
SPLINE
  5
7A
330
1F
100
AcDbEntity
  8
Layer 1
 62
     3
370
     9
100
AcDbSpline
210
0.0
220
0.0
230
1.0
 70
    24
 71
     3
 72
     8
 73
     4
 74
     0
 42
0.0000000001
 43
0.0000000001
 12
1.0
 22
0.0
 32
0.0
 13
1.0
 23
0.0
 33
0.0
 40
0.0
 40
0.0
 40
0.0
 40
0.0
 40
1.0
 40
1.0
 40
1.0
 40
1.0
 10
-10.3895
 20
-5.3307
 30
0.0
 10
-10.3895
 20
-5.3307
 30
0.0
 10
-10.33686
 20
-5.6465
 30
0.0
 10
-10.33686
 20
-5.6465
 30
0.0
  0
SPLINE
  5
7B
330
1F
100
AcDbEntity
  8
Layer 1
 62
     3
370
     9
100
AcDbSpline
210
0.0
220
0.0
230
1.0
 70
     8
 71
     3
 72
    12
 73
     8
 74
     0
 42
0.0000000001
 43
0.0000000001
 12
1.0
 22
0.0
 32
0.0
 13
1.0
 23
0.0
 33
0.0
 40
0.0
 40
0.0
 40
0.0
 40
0.0
 40
0.3333333333333333
 40
0.3333333333333333
 40
0.3333333333333333
 40
0.3333333333333333
 40
1.0
 40
1.0
 40
1.0
 40
1.0
 10
-10.33686
 20
-5.6465
 30
0.0
 10
-10.33686
 20
-5.6465
 30
0.0
 10
-10.28423
 20
-5.3307
 30
0.0
 10
-10.28423
 20
-5.3307
 30
0.0
 10
-10.28423
 20
-5.3307
 30
0.0
 10
-10.28423
 20
-5.3307
 30
0.0
 10
-10.3895
 20
-5.3307
 30
0.0
 10
-10.3895
 20
-5.3307
 30
0.0
  0
SPLINE
  5
7C
330
1F
100
AcDbEntity
  8
Layer 1
 62
     3
370
     9
100
AcDbSpline
210
0.0
220
0.0
230
1.0
 70
    11
 71
     3
 72
    48
 73
    44
 74
     0
 42
0.0000000001
 43
0.0000000001
 12
1.0
 22
0.0
 32
0.0
 13
1.0
 23
0.0
 33
0.0
 40
0.0
 40
0.0
 40
0.0
 40
0.0
 40
0.0833333333333333
 40
0.0833333333333333
 40
0.0833333333333333
 40
0.0833333333333333
 40
0.1666666666666667
 40
0.1666666666666667
 40
0.1666666666666667
 40
0.1666666666666667
 40
0.25
 40
0.25
 40
0.25
 40
0.25
 40
0.3333333333333333
 40
0.3333333333333333
 40
0.3333333333333333
 40
0.3333333333333333
 40
0.4166666666666667
 40
0.4166666666666667
 40
0.4166666666666667
 40
0.4166666666666667
 40
0.5
 40
0.5
 40
0.5
 40
0.5
 40
0.5833333333333334
 40
0.5833333333333334
 40
0.5833333333333334
 40
0.5833333333333334
 40
0.6666666666666666
 40
0.6666666666666666
 40
0.6666666666666666
 40
0.6666666666666666
 40
0.75
 40
0.75
 40
0.75
 40
0.75
 40
0.8333333333333334
 40
0.8333333333333334
 40
0.8333333333333334
 40
0.8333333333333334
 40
1.0
 40
1.0
 40
1.0
 40
1.0
 10
-10.53101
 20
-0.37835
 30
0.0
 10
-10.53101
 20
-0.37835
 30
0.0
 10
-10.58511
 20
-0.37835
 30
0.0
 10
-10.58511
 20
-0.37835
 30
0.0
 10
-10.58511
 20
-0.37835
 30
0.0
 10
-10.58511
 20
-0.37835
 30
0.0
 10
-10.58511
 20
-0.47641
 30
0.0
 10
-10.58511
 20
-0.47641
 30
0.0
 10
-10.58511
 20
-0.47641
 30
0.0
 10
-10.58511
 20
-0.47641
 30
0.0
 10
-10.61058
 20
-0.47641
 30
0.0
 10
-10.61058
 20
-0.47641
 30
0.0
 10
-10.61058
 20
-0.47641
 30
0.0
 10
-10.61058
 20
-0.47641
 30
0.0
 10
-10.75706
 20
-0.37325
 30
0.0
 10
-10.75706
 20
-0.37325
 30
0.0
 10
-10.75706
 20
-0.37325
 30
0.0
 10
-10.75706
 20
-0.37325
 30
0.0
 10
-10.75706
 20
-0.35056
 30
0.0
 10
-10.75706
 20
-0.35056
 30
0.0
 10
-10.75706
 20
-0.35056
 30
0.0
 10
-10.75706
 20
-0.35056
 30
0.0
 10
-10.61058
 20
-0.35056
 30
0.0
 10
-10.61058
 20
-0.35056
 30
0.0
 10
-10.61058
 20
-0.35056
 30
0.0
 10
-10.61058
 20
-0.35056
 30
0.0
 10
-10.61058
 20
-0.32004
 30
0.0
 10
-10.61058
 20
-0.32004
 30
0.0
 10
-10.61058
 20
-0.32004
 30
0.0
 10
-10.61058
 20
-0.32004
 30
0.0
 10
-10.58511
 20
-0.32004
 30
0.0
 10
-10.58511
 20
-0.32004
 30
0.0
 10
-10.58511
 20
-0.32004
 30
0.0
 10
-10.58511
 20
-0.32004
 30
0.0
 10
-10.58511
 20
-0.35056
 30
0.0
 10
-10.58511
 20
-0.35056
 30
0.0
 10
-10.58511
 20
-0.35056
 30
0.0
 10
-10.58511
 20
-0.35056
 30
0.0
 10
-10.53101
 20
-0.35056
 30
0.0
 10
-10.53101
 20
-0.35056
 30
0.0
 10
-10.53101
 20
-0.35056
 30
0.0
 10
-10.53101
 20
-0.35056
 30
0.0
 10
-10.53101
 20
-0.37835
 30
0.0
 10
-10.53101
 20
-0.37835
 30
0.0
  0
SPLINE
  5
7D
330
1F
100
AcDbEntity
  8
Layer 1
 62
     3
370
     9
100
AcDbSpline
210
0.0
220
0.0
230
1.0
 70
    11
 71
     3
 72
    16
 73
    12
 74
     0
 42
0.0000000001
 43
0.0000000001
 12
1.0
 22
0.0
 32
0.0
 13
1.0
 23
0.0
 33
0.0
 40
0.0
 40
0.0
 40
0.0
 40
0.0
 40
0.25
 40
0.25
 40
0.25
 40
0.25
 40
0.5
 40
0.5
 40
0.5
 40
0.5
 40
1.0
 40
1.0
 40
1.0
 40
1.0
 10
-10.61058
 20
-0.37835
 30
0.0
 10
-10.61058
 20
-0.37835
 30
0.0
 10
-10.71249
 20
-0.37835
 30
0.0
 10
-10.71249
 20
-0.37835
 30
0.0
 10
-10.71249
 20
-0.37835
 30
0.0
 10
-10.71249
 20
-0.37835
 30
0.0
 10
-10.61058
 20
-0.44908
 30
0.0
 10
-10.61058
 20
-0.44908
 30
0.0
 10
-10.61058
 20
-0.44908
 30
0.0
 10
-10.61058
 20
-0.44908
 30
0.0
 10
-10.61058
 20
-0.37835
 30
0.0
 10
-10.61058
 20
-0.37835
 30
0.0
  0
SPLINE
  5
7E
330
1F
100
AcDbEntity
  8
Layer 1
 62
     3
370
     9
100
AcDbSpline
210
0.0
220
0.0
230
1.0
 70
    11
 71
     3
 72
    92
 73
    88
 74
     0
 42
0.0000000001
 43
0.0000000001
 12
1.0
 22
0.0
 32
0.0
 13
1.0
 23
0.0
 33
0.0
 40
0.0
 40
0.0
 40
0.0
 40
0.0
 40
0.0434782608695652
 40
0.0434782608695652
 40
0.0434782608695652
 40
0.0434782608695652
 40
0.0869565217391304
 40
0.0869565217391304
 40
0.0869565217391304
 40
0.0869565217391304
 40
0.1304347826086956
 40
0.1304347826086956
 40
0.1304347826086956
 40
0.1304347826086956
 40
0.1739130434782609
 40
0.1739130434782609
 40
0.1739130434782609
 40
0.1739130434782609
 40
0.2173913043478261
 40
0.2173913043478261
 40
0.2173913043478261
 40
0.2173913043478261
 40
0.2608695652173913
 40
0.2608695652173913
 40
0.2608695652173913
 40
0.2608695652173913
 40
0.3043478260869565
 40
0.3043478260869565
 40
0.3043478260869565
 40
0.3043478260869565
 40
0.3478260869565217
 40
0.3478260869565217
 40
0.3478260869565217
 40
0.3478260869565217
 40
0.391304347826087
 40
0.391304347826087
 40
0.391304347826087
 40
0.391304347826087
 40
0.4347826086956522
 40
0.4347826086956522
 40
0.4347826086956522
 40
0.4347826086956522
 40
0.4782608695652174
 40
0.4782608695652174
 40
0.4782608695652174
 40
0.4782608695652174
 40
0.5217391304347826
 40
0.5217391304347826
 40
0.5217391304347826
 40
0.5217391304347826
 40
0.5652173913043478
 40
0.5652173913043478
 40
0.5652173913043478
 40
0.5652173913043478
 40
0.6086956521739131
 40
0.6086956521739131
 40
0.6086956521739131
 40
0.6086956521739131
 40
0.6521739130434783
 40
0.6521739130434783
 40
0.6521739130434783
 40
0.6521739130434783
 40
0.6956521739130435
 40
0.6956521739130435
 40
0.6956521739130435
 40
0.6956521739130435
 40
0.7391304347826086
 40
0.7391304347826086
 40
0.7391304347826086
 40
0.7391304347826086
 40
0.782608695652174
 40
0.782608695652174
 40
0.782608695652174
 40
0.782608695652174
 40
0.8260869565217391
 40
0.8260869565217391
 40
0.8260869565217391
 40
0.8260869565217391
 40
0.8695652173913043
 40
0.8695652173913043
 40
0.8695652173913043
 40
0.8695652173913043
 40
0.9130434782608695
 40
0.9130434782608695
 40
0.9130434782608695
 40
0.9130434782608695
 40
1.0
 40
1.0
 40
1.0
 40
1.0
 10
-10.58328
 20
-0.2875
 30
0.0
 10
-10.58328
 20
-0.2875
 30
0.0
 10
-10.58575
 20
-0.26081
 30
0.0
 10
-10.58575
 20
-0.26081
 30
0.0
 10
-10.58575
 20
-0.26081
 30
0.0
 10
-10.57322
 20
-0.25856
 30
0.0
 10
-10.56411
 20
-0.25424
 30
0.0
 10
-10.55843
 20
-0.24787
 30
0.0
 10
-10.55843
 20
-0.24787
 30
0.0
 10
-10.5528
 20
-0.2415
 30
0.0
 10
-10.54995
 20
-0.23334
 30
0.0
 10
-10.54995
 20
-0.22335
 30
0.0
 10
-10.54995
 20
-0.22335
 30
0.0
 10
-10.54995
 20
-0.21482
 30
0.0
 10
-10.55191
 20
-0.20735
 30
0.0
 10
-10.55585
 20
-0.20092
 30
0.0
 10
-10.55585
 20
-0.20092
 30
0.0
 10
-10.55974
 20
-0.1945
 30
0.0
 10
-10.56496
 20
-0.18924
 30
0.0
 10
-10.57149
 20
-0.18514
 30
0.0
 10
-10.57149
 20
-0.18514
 30
0.0
 10
-10.578
 20
-0.18098
 30
0.0
 10
-10.58684
 20
-0.17756
 30
0.0
 10
-10.59791
 20
-0.17477
 30
0.0
 10
-10.59791
 20
-0.17477
 30
0.0
 10
-10.60901
 20
-0.17203
 30
0.0
 10
-10.62033
 20
-0.17061
 30
0.0
 10
-10.63185
 20
-0.17061
 30
0.0
 10
-10.63185
 20
-0.17061
 30
0.0
 10
-10.63306
 20
-0.17061
 30
0.0
 10
-10.63496
 20
-0.17065
 30
0.0
 10
-10.63737
 20
-0.17077
 30
0.0
 10
-10.63737
 20
-0.17077
 30
0.0
 10
-10.62859
 20
-0.17634
 30
0.0
 10
-10.62138
 20
-0.18392
 30
0.0
 10
-10.6159
 20
-0.1935
 30
0.0
 10
-10.6159
 20
-0.1935
 30
0.0
 10
-10.61038
 20
-0.20313
 30
0.0
 10
-10.60764
 20
-0.21356
 30
0.0
 10
-10.60764
 20
-0.22471
 30
0.0
 10
-10.60764
 20
-0.22471
 30
0.0
 10
-10.60764
 20
-0.24346
 30
0.0
 10
-10.61443
 20
-0.25929
 30
0.0
 10
-10.62801
 20
-0.27225
 30
0.0
 10
-10.62801
 20
-0.27225
 30
0.0
 10
-10.64159
 20
-0.28519
 30
0.0
 10
-10.65943
 20
-0.29166
 30
0.0
 10
-10.68164
 20
-0.29166
 30
0.0
 10
-10.68164
 20
-0.29166
 30
0.0
 10
-10.70459
 20
-0.29166
 30
0.0
 10
-10.72302
 20
-0.28492
 30
0.0
 10
-10.73701
 20
-0.2714
 30
0.0
 10
-10.73701
 20
-0.2714
 30
0.0
 10
-10.75102
 20
-0.25787
 30
0.0
 10
-10.75801
 20
-0.24092
 30
0.0
 10
-10.75801
 20
-0.22056
 30
0.0
 10
-10.75801
 20
-0.22056
 30
0.0
 10
-10.75801
 20
-0.20587
 30
0.0
 10
-10.75401
 20
-0.19245
 30
0.0
 10
-10.74612
 20
-0.18024
 30
0.0
 10
-10.74612
 20
-0.18024
 30
0.0
 10
-10.73823
 20
-0.16808
 30
0.0
 10
-10.72691
 20
-0.15882
 30
0.0
 10
-10.71228
 20
-0.1525
 30
0.0
 10
-10.71228
 20
-0.1525
 30
0.0
 10
-10.69765
 20
-0.14619
 30
0.0
 10
-10.67643
 20
-0.14302
 30
0.0
 10
-10.64864
 20
-0.14302
 30
0.0
 10
-10.64864
 20
-0.14302
 30
0.0
 10
-10.6198
 20
-0.14302
 30
0.0
 10
-10.5968
 20
-0.14613
 30
0.0
 10
-10.57963
 20
-0.15239
 30
0.0
 10
-10.57963
 20
-0.15239
 30
0.0
 10
-10.56253
 20
-0.15872
 30
0.0
 10
-10.54954
 20
-0.16803
 30
0.0
 10
-10.54058
 20
-0.1804
 30
0.0
 10
-10.54058
 20
-0.1804
 30
0.0
 10
-10.53164
 20
-0.19282
 30
0.0
 10
-10.52716
 20
-0.20729
 30
0.0
 10
-10.52716
 20
-0.22398
 30
0.0
 10
-10.52716
 20
-0.22398
 30
0.0
 10
-10.52716
 20
-0.24166
 30
0.0
 10
-10.53207
 20
-0.25609
 30
0.0
 10
-10.5419
 20
-0.2673
 30
0.0
 10
-10.5419
 20
-0.2673
 30
0.0
 10
-10.55169
 20
-0.27851
 30
0.0
 10
-10.56548
 20
-0.28525
 30
0.0
 10
-10.58328
 20
-0.2875
 30
0.0
  0
SPLINE
  5
7F
330
1F
100
AcDbEntity
  8
Layer 1
 62
     3
370
     9
100
AcDbSpline
210
0.0
220
0.0
230
1.0
 70
    11
 71
     3
 72
    36
 73
    32
 74
     0
 42
0.0000000001
 43
0.0000000001
 12
1.0
 22
0.0
 32
0.0
 13
1.0
 23
0.0
 33
0.0
 40
0.0
 40
0.0
 40
0.0
 40
0.0
 40
0.1111111111111111
 40
0.1111111111111111
 40
0.1111111111111111
 40
0.1111111111111111
 40
0.2222222222222222
 40
0.2222222222222222
 40
0.2222222222222222
 40
0.2222222222222222
 40
0.3333333333333333
 40
0.3333333333333333
 40
0.3333333333333333
 40
0.3333333333333333
 40
0.4444444444444444
 40
0.4444444444444444
 40
0.4444444444444444
 40
0.4444444444444444
 40
0.5555555555555556
 40
0.5555555555555556
 40
0.5555555555555556
 40
0.5555555555555556
 40
0.6666666666666666
 40
0.6666666666666666
 40
0.6666666666666666
 40
0.6666666666666666
 40
0.7777777777777778
 40
0.7777777777777778
 40
0.7777777777777778
 40
0.7777777777777778
 40
1.0
 40
1.0
 40
1.0
 40
1.0
 10
-10.68306
 20
-0.17387
 30
0.0
 10
-10.69895
 20
-0.17387
 30
0.0
 10
-10.71164
 20
-0.17807
 30
0.0
 10
-10.72096
 20
-0.18656
 30
0.0
 10
-10.72096
 20
-0.18656
 30
0.0
 10
-10.73033
 20
-0.19509
 30
0.0
 10
-10.73501
 20
-0.20523
 30
0.0
 10
-10.73501
 20
-0.21718
 30
0.0
 10
-10.73501
 20
-0.21718
 30
0.0
 10
-10.73501
 20
-0.22951
 30
0.0
 10
-10.72996
 20
-0.24024
 30
0.0
 10
-10.71991
 20
-0.2494
 30
0.0
 10
-10.71991
 20
-0.2494
 30
0.0
 10
-10.70981
 20
-0.25856
 30
0.0
 10
-10.69674
 20
-0.26314
 30
0.0
 10
-10.68075
 20
-0.26314
 30
0.0
 10
-10.68075
 20
-0.26314
 30
0.0
 10
-10.66633
 20
-0.26314
 30
0.0
 10
-10.65464
 20
-0.25877
 30
0.0
 10
-10.64564
 20
-0.25008
 30
0.0
 10
-10.64564
 20
-0.25008
 30
0.0
 10
-10.63665
 20
-0.2414
 30
0.0
 10
-10.63216
 20
-0.23072
 30
0.0
 10
-10.63216
 20
-0.21798
 30
0.0
 10
-10.63216
 20
-0.21798
 30
0.0
 10
-10.63216
 20
-0.20509
 30
0.0
 10
-10.63665
 20
-0.19456
 30
0.0
 10
-10.64564
 20
-0.18629
 30
0.0
 10
-10.64564
 20
-0.18629
 30
0.0
 10
-10.65464
 20
-0.17797
 30
0.0
 10
-10.66711
 20
-0.17387
 30
0.0
 10
-10.68306
 20
-0.17387
 30
0.0
  0
SPLINE
  5
80
330
1F
100
AcDbEntity
  8
Layer 1
 62
     3
370
     9
100
AcDbSpline
210
0.0
220
0.0
230
1.0
 70
    11
 71
     3
 72
    48
 73
    44
 74
     0
 42
0.0000000001
 43
0.0000000001
 12
1.0
 22
0.0
 32
0.0
 13
1.0
 23
0.0
 33
0.0
 40
0.0
 40
0.0
 40
0.0
 40
0.0
 40
0.0833333333333333
 40
0.0833333333333333
 40
0.0833333333333333
 40
0.0833333333333333
 40
0.1666666666666667
 40
0.1666666666666667
 40
0.1666666666666667
 40
0.1666666666666667
 40
0.25
 40
0.25
 40
0.25
 40
0.25
 40
0.3333333333333333
 40
0.3333333333333333
 40
0.3333333333333333
 40
0.3333333333333333
 40
0.4166666666666667
 40
0.4166666666666667
 40
0.4166666666666667
 40
0.4166666666666667
 40
0.5
 40
0.5
 40
0.5
 40
0.5
 40
0.5833333333333334
 40
0.5833333333333334
 40
0.5833333333333334
 40
0.5833333333333334
 40
0.6666666666666666
 40
0.6666666666666666
 40
0.6666666666666666
 40
0.6666666666666666
 40
0.75
 40
0.75
 40
0.75
 40
0.75
 40
0.8333333333333334
 40
0.8333333333333334
 40
0.8333333333333334
 40
0.8333333333333334
 40
1.0
 40
1.0
 40
1.0
 40
1.0
 10
-10.53101
 20
-0.02708
 30
0.0
 10
-10.53101
 20
-0.02708
 30
0.0
 10
-10.58511
 20
-0.02708
 30
0.0
 10
-10.58511
 20
-0.02708
 30
0.0
 10
-10.58511
 20
-0.02708
 30
0.0
 10
-10.58511
 20
-0.02708
 30
0.0
 10
-10.58511
 20
-0.12513
 30
0.0
 10
-10.58511
 20
-0.12513
 30
0.0
 10
-10.58511
 20
-0.12513
 30
0.0
 10
-10.58511
 20
-0.12513
 30
0.0
 10
-10.61058
 20
-0.12513
 30
0.0
 10
-10.61058
 20
-0.12513
 30
0.0
 10
-10.61058
 20
-0.12513
 30
0.0
 10
-10.61058
 20
-0.12513
 30
0.0
 10
-10.75706
 20
-0.02197
 30
0.0
 10
-10.75706
 20
-0.02197
 30
0.0
 10
-10.75706
 20
-0.02197
 30
0.0
 10
-10.75706
 20
-0.02197
 30
0.0
 10
-10.75706
 20
0.00072
 30
0.0
 10
-10.75706
 20
0.00072
 30
0.0
 10
-10.75706
 20
0.00072
 30
0.0
 10
-10.75706
 20
0.00072
 30
0.0
 10
-10.61058
 20
0.00072
 30
0.0
 10
-10.61058
 20
0.00072
 30
0.0
 10
-10.61058
 20
0.00072
 30
0.0
 10
-10.61058
 20
0.00072
 30
0.0
 10
-10.61058
 20
0.03124
 30
0.0
 10
-10.61058
 20
0.03124
 30
0.0
 10
-10.61058
 20
0.03124
 30
0.0
 10
-10.61058
 20
0.03124
 30
0.0
 10
-10.58511
 20
0.03124
 30
0.0
 10
-10.58511
 20
0.03124
 30
0.0
 10
-10.58511
 20
0.03124
 30
0.0
 10
-10.58511
 20
0.03124
 30
0.0
 10
-10.58511
 20
0.00072
 30
0.0
 10
-10.58511
 20
0.00072
 30
0.0
 10
-10.58511
 20
0.00072
 30
0.0
 10
-10.58511
 20
0.00072
 30
0.0
 10
-10.53101
 20
0.00072
 30
0.0
 10
-10.53101
 20
0.00072
 30
0.0
 10
-10.53101
 20
0.00072
 30
0.0
 10
-10.53101
 20
0.00072
 30
0.0
 10
-10.53101
 20
-0.02708
 30
0.0
 10
-10.53101
 20
-0.02708
 30
0.0
  0
SPLINE
  5
81
330
1F
100
AcDbEntity
  8
Layer 1
 62
     3
370
     9
100
AcDbSpline
210
0.0
220
0.0
230
1.0
 70
    11
 71
     3
 72
    16
 73
    12
 74
     0
 42
0.0000000001
 43
0.0000000001
 12
1.0
 22
0.0
 32
0.0
 13
1.0
 23
0.0
 33
0.0
 40
0.0
 40
0.0
 40
0.0
 40
0.0
 40
0.25
 40
0.25
 40
0.25
 40
0.25
 40
0.5
 40
0.5
 40
0.5
 40
0.5
 40
1.0
 40
1.0
 40
1.0
 40
1.0
 10
-10.61058
 20
-0.02708
 30
0.0
 10
-10.61058
 20
-0.02708
 30
0.0
 10
-10.71249
 20
-0.02708
 30
0.0
 10
-10.71249
 20
-0.02708
 30
0.0
 10
-10.71249
 20
-0.02708
 30
0.0
 10
-10.71249
 20
-0.02708
 30
0.0
 10
-10.61058
 20
-0.09782
 30
0.0
 10
-10.61058
 20
-0.09782
 30
0.0
 10
-10.61058
 20
-0.09782
 30
0.0
 10
-10.61058
 20
-0.09782
 30
0.0
 10
-10.61058
 20
-0.02708
 30
0.0
 10
-10.61058
 20
-0.02708
 30
0.0
  0
SPLINE
  5
82
330
1F
100
AcDbEntity
  8
Layer 1
 62
     3
370
     9
100
AcDbSpline
210
0.0
220
0.0
230
1.0
 70
    11
 71
     3
 72
    36
 73
    32
 74
     0
 42
0.0000000001
 43
0.0000000001
 12
1.0
 22
0.0
 32
0.0
 13
1.0
 23
0.0
 33
0.0
 40
0.0
 40
0.0
 40
0.0
 40
0.0
 40
0.1111111111111111
 40
0.1111111111111111
 40
0.1111111111111111
 40
0.1111111111111111
 40
0.2222222222222222
 40
0.2222222222222222
 40
0.2222222222222222
 40
0.2222222222222222
 40
0.3333333333333333
 40
0.3333333333333333
 40
0.3333333333333333
 40
0.3333333333333333
 40
0.4444444444444444
 40
0.4444444444444444
 40
0.4444444444444444
 40
0.4444444444444444
 40
0.5555555555555556
 40
0.5555555555555556
 40
0.5555555555555556
 40
0.5555555555555556
 40
0.6666666666666666
 40
0.6666666666666666
 40
0.6666666666666666
 40
0.6666666666666666
 40
0.7777777777777778
 40
0.7777777777777778
 40
0.7777777777777778
 40
0.7777777777777778
 40
1.0
 40
1.0
 40
1.0
 40
1.0
 10
-10.46827
 20
0.15567
 30
0.0
 10
-10.46827
 20
0.15567
 30
0.0
 10
-10.75706
 20
0.15567
 30
0.0
 10
-10.75706
 20
0.15567
 30
0.0
 10
-10.75706
 20
0.15567
 30
0.0
 10
-10.75706
 20
0.15567
 30
0.0
 10
-10.75706
 20
0.21688
 30
0.0
 10
-10.75706
 20
0.21688
 30
0.0
 10
-10.75706
 20
0.21688
 30
0.0
 10
-10.75706
 20
0.21688
 30
0.0
 10
-10.73406
 20
0.21688
 30
0.0
 10
-10.73406
 20
0.21688
 30
0.0
 10
-10.73406
 20
0.21688
 30
0.0
 10
-10.73406
 20
0.21688
 30
0.0
 10
-10.73406
 20
0.18345
 30
0.0
 10
-10.73406
 20
0.18345
 30
0.0
 10
-10.73406
 20
0.18345
 30
0.0
 10
-10.73406
 20
0.18345
 30
0.0
 10
-10.49122
 20
0.18345
 30
0.0
 10
-10.49122
 20
0.18345
 30
0.0
 10
-10.49122
 20
0.18345
 30
0.0
 10
-10.49122
 20
0.18345
 30
0.0
 10
-10.49122
 20
0.21688
 30
0.0
 10
-10.49122
 20
0.21688
 30
0.0
 10
-10.49122
 20
0.21688
 30
0.0
 10
-10.49122
 20
0.21688
 30
0.0
 10
-10.46827
 20
0.21688
 30
0.0
 10
-10.46827
 20
0.21688
 30
0.0
 10
-10.46827
 20
0.21688
 30
0.0
 10
-10.46827
 20
0.21688
 30
0.0
 10
-10.46827
 20
0.15567
 30
0.0
 10
-10.46827
 20
0.15567
 30
0.0
  0
SPLINE
  5
83
330
1F
100
AcDbEntity
  8
Layer 1
 62
     3
370
     9
100
AcDbSpline
210
0.0
220
0.0
230
1.0
 70
    11
 71
     3
 72
    40
 73
    36
 74
     0
 42
0.0000000001
 43
0.0000000001
 12
1.0
 22
0.0
 32
0.0
 13
1.0
 23
0.0
 33
0.0
 40
0.0
 40
0.0
 40
0.0
 40
0.0
 40
0.1
 40
0.1
 40
0.1
 40
0.1
 40
0.2
 40
0.2
 40
0.2
 40
0.2
 40
0.3
 40
0.3
 40
0.3
 40
0.3
 40
0.4
 40
0.4
 40
0.4
 40
0.4
 40
0.5
 40
0.5
 40
0.5
 40
0.5
 40
0.6
 40
0.6
 40
0.6
 40
0.6
 40
0.7
 40
0.7
 40
0.7
 40
0.7
 40
0.8
 40
0.8
 40
0.8
 40
0.8
 40
1.0
 40
1.0
 40
1.0
 40
1.0
 10
-10.53101
 20
0.33962
 30
0.0
 10
-10.53101
 20
0.33962
 30
0.0
 10
-10.53101
 20
0.31188
 30
0.0
 10
-10.53101
 20
0.31188
 30
0.0
 10
-10.53101
 20
0.31188
 30
0.0
 10
-10.53101
 20
0.31188
 30
0.0
 10
-10.70785
 20
0.31188
 30
0.0
 10
-10.70785
 20
0.31188
 30
0.0
 10
-10.70785
 20
0.31188
 30
0.0
 10
-10.70148
 20
0.3052
 30
0.0
 10
-10.69512
 20
0.29646
 30
0.0
 10
-10.68875
 20
0.28562
 30
0.0
 10
-10.68875
 20
0.28562
 30
0.0
 10
-10.68238
 20
0.27472
 30
0.0
 10
-10.6776
 20
0.26499
 30
0.0
 10
-10.67443
 20
0.25636
 30
0.0
 10
-10.67443
 20
0.25636
 30
0.0
 10
-10.67443
 20
0.25636
 30
0.0
 10
-10.70122
 20
0.25636
 30
0.0
 10
-10.70122
 20
0.25636
 30
0.0
 10
-10.70122
 20
0.25636
 30
0.0
 10
-10.70853
 20
0.27188
 30
0.0
 10
-10.71737
 20
0.28546
 30
0.0
 10
-10.72776
 20
0.29708
 30
0.0
 10
-10.72776
 20
0.29708
 30
0.0
 10
-10.73817
 20
0.30866
 30
0.0
 10
-10.74822
 20
0.31693
 30
0.0
 10
-10.75801
 20
0.32177
 30
0.0
 10
-10.75801
 20
0.32177
 30
0.0
 10
-10.75801
 20
0.32177
 30
0.0
 10
-10.75801
 20
0.33962
 30
0.0
 10
-10.75801
 20
0.33962
 30
0.0
 10
-10.75801
 20
0.33962
 30
0.0
 10
-10.75801
 20
0.33962
 30
0.0
 10
-10.53101
 20
0.33962
 30
0.0
 10
-10.53101
 20
0.33962
 30
0.0
  0
SPLINE
  5
84
330
1F
100
AcDbEntity
  8
Layer 1
 62
     3
370
     9
100
AcDbSpline
210
0.0
220
0.0
230
1.0
 70
    11
 71
     3
 72
    92
 73
    88
 74
     0
 42
0.0000000001
 43
0.0000000001
 12
1.0
 22
0.0
 32
0.0
 13
1.0
 23
0.0
 33
0.0
 40
0.0
 40
0.0
 40
0.0
 40
0.0
 40
0.0434782608695652
 40
0.0434782608695652
 40
0.0434782608695652
 40
0.0434782608695652
 40
0.0869565217391304
 40
0.0869565217391304
 40
0.0869565217391304
 40
0.0869565217391304
 40
0.1304347826086956
 40
0.1304347826086956
 40
0.1304347826086956
 40
0.1304347826086956
 40
0.1739130434782609
 40
0.1739130434782609
 40
0.1739130434782609
 40
0.1739130434782609
 40
0.2173913043478261
 40
0.2173913043478261
 40
0.2173913043478261
 40
0.2173913043478261
 40
0.2608695652173913
 40
0.2608695652173913
 40
0.2608695652173913
 40
0.2608695652173913
 40
0.3043478260869565
 40
0.3043478260869565
 40
0.3043478260869565
 40
0.3043478260869565
 40
0.3478260869565217
 40
0.3478260869565217
 40
0.3478260869565217
 40
0.3478260869565217
 40
0.391304347826087
 40
0.391304347826087
 40
0.391304347826087
 40
0.391304347826087
 40
0.4347826086956522
 40
0.4347826086956522
 40
0.4347826086956522
 40
0.4347826086956522
 40
0.4782608695652174
 40
0.4782608695652174
 40
0.4782608695652174
 40
0.4782608695652174
 40
0.5217391304347826
 40
0.5217391304347826
 40
0.5217391304347826
 40
0.5217391304347826
 40
0.5652173913043478
 40
0.5652173913043478
 40
0.5652173913043478
 40
0.5652173913043478
 40
0.6086956521739131
 40
0.6086956521739131
 40
0.6086956521739131
 40
0.6086956521739131
 40
0.6521739130434783
 40
0.6521739130434783
 40
0.6521739130434783
 40
0.6521739130434783
 40
0.6956521739130435
 40
0.6956521739130435
 40
0.6956521739130435
 40
0.6956521739130435
 40
0.7391304347826086
 40
0.7391304347826086
 40
0.7391304347826086
 40
0.7391304347826086
 40
0.782608695652174
 40
0.782608695652174
 40
0.782608695652174
 40
0.782608695652174
 40
0.8260869565217391
 40
0.8260869565217391
 40
0.8260869565217391
 40
0.8260869565217391
 40
0.8695652173913043
 40
0.8695652173913043
 40
0.8695652173913043
 40
0.8695652173913043
 40
0.9130434782608695
 40
0.9130434782608695
 40
0.9130434782608695
 40
0.9130434782608695
 40
1.0
 40
1.0
 40
1.0
 40
1.0
 10
-10.58328
 20
0.41489
 30
0.0
 10
-10.58328
 20
0.41489
 30
0.0
 10
-10.58575
 20
0.44156
 30
0.0
 10
-10.58575
 20
0.44156
 30
0.0
 10
-10.58575
 20
0.44156
 30
0.0
 10
-10.57322
 20
0.44383
 30
0.0
 10
-10.56411
 20
0.44815
 30
0.0
 10
-10.55843
 20
0.45452
 30
0.0
 10
-10.55843
 20
0.45452
 30
0.0
 10
-10.5528
 20
0.46089
 30
0.0
 10
-10.54995
 20
0.46905
 30
0.0
 10
-10.54995
 20
0.47904
 30
0.0
 10
-10.54995
 20
0.47904
 30
0.0
 10
-10.54995
 20
0.48758
 30
0.0
 10
-10.55191
 20
0.49504
 30
0.0
 10
-10.55585
 20
0.50147
 30
0.0
 10
-10.55585
 20
0.50147
 30
0.0
 10
-10.55974
 20
0.50789
 30
0.0
 10
-10.56496
 20
0.51315
 30
0.0
 10
-10.57149
 20
0.51725
 30
0.0
 10
-10.57149
 20
0.51725
 30
0.0
 10
-10.578
 20
0.52141
 30
0.0
 10
-10.58684
 20
0.52484
 30
0.0
 10
-10.59791
 20
0.52762
 30
0.0
 10
-10.59791
 20
0.52762
 30
0.0
 10
-10.60901
 20
0.53036
 30
0.0
 10
-10.62033
 20
0.53178
 30
0.0
 10
-10.63185
 20
0.53178
 30
0.0
 10
-10.63185
 20
0.53178
 30
0.0
 10
-10.63306
 20
0.53178
 30
0.0
 10
-10.63496
 20
0.53174
 30
0.0
 10
-10.63737
 20
0.53162
 30
0.0
 10
-10.63737
 20
0.53162
 30
0.0
 10
-10.62859
 20
0.52605
 30
0.0
 10
-10.62138
 20
0.51847
 30
0.0
 10
-10.6159
 20
0.50889
 30
0.0
 10
-10.6159
 20
0.50889
 30
0.0
 10
-10.61038
 20
0.49926
 30
0.0
 10
-10.60764
 20
0.48883
 30
0.0
 10
-10.60764
 20
0.47767
 30
0.0
 10
-10.60764
 20
0.47767
 30
0.0
 10
-10.60764
 20
0.45893
 30
0.0
 10
-10.61443
 20
0.44309
 30
0.0
 10
-10.62801
 20
0.43014
 30
0.0
 10
-10.62801
 20
0.43014
 30
0.0
 10
-10.64159
 20
0.4172
 30
0.0
 10
-10.65943
 20
0.41073
 30
0.0
 10
-10.68164
 20
0.41073
 30
0.0
 10
-10.68164
 20
0.41073
 30
0.0
 10
-10.70459
 20
0.41073
 30
0.0
 10
-10.72302
 20
0.41747
 30
0.0
 10
-10.73701
 20
0.43099
 30
0.0
 10
-10.73701
 20
0.43099
 30
0.0
 10
-10.75102
 20
0.44451
 30
0.0
 10
-10.75801
 20
0.46147
 30
0.0
 10
-10.75801
 20
0.48183
 30
0.0
 10
-10.75801
 20
0.48183
 30
0.0
 10
-10.75801
 20
0.49652
 30
0.0
 10
-10.75401
 20
0.50994
 30
0.0
 10
-10.74612
 20
0.52215
 30
0.0
 10
-10.74612
 20
0.52215
 30
0.0
 10
-10.73823
 20
0.53431
 30
0.0
 10
-10.72691
 20
0.54357
 30
0.0
 10
-10.71228
 20
0.54989
 30
0.0
 10
-10.71228
 20
0.54989
 30
0.0
 10
-10.69765
 20
0.5562
 30
0.0
 10
-10.67643
 20
0.55936
 30
0.0
 10
-10.64864
 20
0.55936
 30
0.0
 10
-10.64864
 20
0.55936
 30
0.0
 10
-10.6198
 20
0.55936
 30
0.0
 10
-10.5968
 20
0.55626
 30
0.0
 10
-10.57963
 20
0.55
 30
0.0
 10
-10.57963
 20
0.55
 30
0.0
 10
-10.56253
 20
0.54367
 30
0.0
 10
-10.54954
 20
0.53436
 30
0.0
 10
-10.54058
 20
0.52199
 30
0.0
 10
-10.54058
 20
0.52199
 30
0.0
 10
-10.53164
 20
0.50957
 30
0.0
 10
-10.52716
 20
0.4951
 30
0.0
 10
-10.52716
 20
0.47841
 30
0.0
 10
-10.52716
 20
0.47841
 30
0.0
 10
-10.52716
 20
0.46073
 30
0.0
 10
-10.53207
 20
0.4463
 30
0.0
 10
-10.5419
 20
0.43509
 30
0.0
 10
-10.5419
 20
0.43509
 30
0.0
 10
-10.55169
 20
0.42388
 30
0.0
 10
-10.56548
 20
0.41714
 30
0.0
 10
-10.58328
 20
0.41489
 30
0.0
  0
SPLINE
  5
85
330
1F
100
AcDbEntity
  8
Layer 1
 62
     3
370
     9
100
AcDbSpline
210
0.0
220
0.0
230
1.0
 70
    11
 71
     3
 72
    36
 73
    32
 74
     0
 42
0.0000000001
 43
0.0000000001
 12
1.0
 22
0.0
 32
0.0
 13
1.0
 23
0.0
 33
0.0
 40
0.0
 40
0.0
 40
0.0
 40
0.0
 40
0.1111111111111111
 40
0.1111111111111111
 40
0.1111111111111111
 40
0.1111111111111111
 40
0.2222222222222222
 40
0.2222222222222222
 40
0.2222222222222222
 40
0.2222222222222222
 40
0.3333333333333333
 40
0.3333333333333333
 40
0.3333333333333333
 40
0.3333333333333333
 40
0.4444444444444444
 40
0.4444444444444444
 40
0.4444444444444444
 40
0.4444444444444444
 40
0.5555555555555556
 40
0.5555555555555556
 40
0.5555555555555556
 40
0.5555555555555556
 40
0.6666666666666666
 40
0.6666666666666666
 40
0.6666666666666666
 40
0.6666666666666666
 40
0.7777777777777778
 40
0.7777777777777778
 40
0.7777777777777778
 40
0.7777777777777778
 40
1.0
 40
1.0
 40
1.0
 40
1.0
 10
-10.68306
 20
0.52852
 30
0.0
 10
-10.69895
 20
0.52852
 30
0.0
 10
-10.71164
 20
0.5243
 30
0.0
 10
-10.72096
 20
0.51583
 30
0.0
 10
-10.72096
 20
0.51583
 30
0.0
 10
-10.73033
 20
0.5073
 30
0.0
 10
-10.73501
 20
0.49716
 30
0.0
 10
-10.73501
 20
0.48521
 30
0.0
 10
-10.73501
 20
0.48521
 30
0.0
 10
-10.73501
 20
0.47288
 30
0.0
 10
-10.72996
 20
0.46215
 30
0.0
 10
-10.71991
 20
0.453
 30
0.0
 10
-10.71991
 20
0.453
 30
0.0
 10
-10.70981
 20
0.44383
 30
0.0
 10
-10.69674
 20
0.43925
 30
0.0
 10
-10.68075
 20
0.43925
 30
0.0
 10
-10.68075
 20
0.43925
 30
0.0
 10
-10.66633
 20
0.43925
 30
0.0
 10
-10.65464
 20
0.44362
 30
0.0
 10
-10.64564
 20
0.4523
 30
0.0
 10
-10.64564
 20
0.4523
 30
0.0
 10
-10.63665
 20
0.46099
 30
0.0
 10
-10.63216
 20
0.47167
 30
0.0
 10
-10.63216
 20
0.48441
 30
0.0
 10
-10.63216
 20
0.48441
 30
0.0
 10
-10.63216
 20
0.4973
 30
0.0
 10
-10.63665
 20
0.50783
 30
0.0
 10
-10.64564
 20
0.5161
 30
0.0
 10
-10.64564
 20
0.5161
 30
0.0
 10
-10.65464
 20
0.52441
 30
0.0
 10
-10.66711
 20
0.52852
 30
0.0
 10
-10.68306
 20
0.52852
 30
0.0
  0
SPLINE
  5
86
330
1F
100
AcDbEntity
  8
Layer 1
 62
     3
370
     9
100
AcDbSpline
210
0.0
220
0.0
230
1.0
 70
    11
 71
     3
 72
    40
 73
    36
 74
     0
 42
0.0000000001
 43
0.0000000001
 12
1.0
 22
0.0
 32
0.0
 13
1.0
 23
0.0
 33
0.0
 40
0.0
 40
0.0
 40
0.0
 40
0.0
 40
0.1
 40
0.1
 40
0.1
 40
0.1
 40
0.2
 40
0.2
 40
0.2
 40
0.2
 40
0.3
 40
0.3
 40
0.3
 40
0.3
 40
0.4
 40
0.4
 40
0.4
 40
0.4
 40
0.5
 40
0.5
 40
0.5
 40
0.5
 40
0.6
 40
0.6
 40
0.6
 40
0.6
 40
0.7
 40
0.7
 40
0.7
 40
0.7
 40
0.8
 40
0.8
 40
0.8
 40
0.8
 40
1.0
 40
1.0
 40
1.0
 40
1.0
 10
-10.53101
 20
0.77864
 30
0.0
 10
-10.53101
 20
0.77864
 30
0.0
 10
-10.53101
 20
0.7509
 30
0.0
 10
-10.53101
 20
0.7509
 30
0.0
 10
-10.53101
 20
0.7509
 30
0.0
 10
-10.53101
 20
0.7509
 30
0.0
 10
-10.70785
 20
0.7509
 30
0.0
 10
-10.70785
 20
0.7509
 30
0.0
 10
-10.70785
 20
0.7509
 30
0.0
 10
-10.70148
 20
0.74421
 30
0.0
 10
-10.69512
 20
0.73547
 30
0.0
 10
-10.68875
 20
0.72463
 30
0.0
 10
-10.68875
 20
0.72463
 30
0.0
 10
-10.68238
 20
0.71373
 30
0.0
 10
-10.6776
 20
0.704
 30
0.0
 10
-10.67443
 20
0.69536
 30
0.0
 10
-10.67443
 20
0.69536
 30
0.0
 10
-10.67443
 20
0.69536
 30
0.0
 10
-10.70122
 20
0.69536
 30
0.0
 10
-10.70122
 20
0.69536
 30
0.0
 10
-10.70122
 20
0.69536
 30
0.0
 10
-10.70853
 20
0.71088
 30
0.0
 10
-10.71737
 20
0.72446
 30
0.0
 10
-10.72776
 20
0.7361
 30
0.0
 10
-10.72776
 20
0.7361
 30
0.0
 10
-10.73817
 20
0.74769
 30
0.0
 10
-10.74822
 20
0.75595
 30
0.0
 10
-10.75801
 20
0.76079
 30
0.0
 10
-10.75801
 20
0.76079
 30
0.0
 10
-10.75801
 20
0.76079
 30
0.0
 10
-10.75801
 20
0.77864
 30
0.0
 10
-10.75801
 20
0.77864
 30
0.0
 10
-10.75801
 20
0.77864
 30
0.0
 10
-10.75801
 20
0.77864
 30
0.0
 10
-10.53101
 20
0.77864
 30
0.0
 10
-10.53101
 20
0.77864
 30
0.0
  0
SPLINE
  5
87
330
1F
100
AcDbEntity
  8
Layer 1
 62
     3
370
     9
100
AcDbSpline
210
0.0
220
0.0
230
1.0
 70
    11
 71
     3
 72
    20
 73
    16
 74
     0
 42
0.0000000001
 43
0.0000000001
 12
1.0
 22
0.0
 32
0.0
 13
1.0
 23
0.0
 33
0.0
 40
0.0
 40
0.0
 40
0.0
 40
0.0
 40
0.2
 40
0.2
 40
0.2
 40
0.2
 40
0.4
 40
0.4
 40
0.4
 40
0.4
 40
0.6
 40
0.6
 40
0.6
 40
0.6
 40
1.0
 40
1.0
 40
1.0
 40
1.0
 10
-10.52716
 20
0.83663
 30
0.0
 10
-10.52716
 20
0.83663
 30
0.0
 10
-10.76091
 20
0.90216
 30
0.0
 10
-10.76091
 20
0.90216
 30
0.0
 10
-10.76091
 20
0.90216
 30
0.0
 10
-10.76091
 20
0.90216
 30
0.0
 10
-10.76091
 20
0.92438
 30
0.0
 10
-10.76091
 20
0.92438
 30
0.0
 10
-10.76091
 20
0.92438
 30
0.0
 10
-10.76091
 20
0.92438
 30
0.0
 10
-10.52716
 20
0.85901
 30
0.0
 10
-10.52716
 20
0.85901
 30
0.0
 10
-10.52716
 20
0.85901
 30
0.0
 10
-10.52716
 20
0.85901
 30
0.0
 10
-10.52716
 20
0.83663
 30
0.0
 10
-10.52716
 20
0.83663
 30
0.0
  0
SPLINE
  5
88
330
1F
100
AcDbEntity
  8
Layer 1
 62
     3
370
     9
100
AcDbSpline
210
0.0
220
0.0
230
1.0
 70
    11
 71
     3
 72
    92
 73
    88
 74
     0
 42
0.0000000001
 43
0.0000000001
 12
1.0
 22
0.0
 32
0.0
 13
1.0
 23
0.0
 33
0.0
 40
0.0
 40
0.0
 40
0.0
 40
0.0
 40
0.0434782608695652
 40
0.0434782608695652
 40
0.0434782608695652
 40
0.0434782608695652
 40
0.0869565217391304
 40
0.0869565217391304
 40
0.0869565217391304
 40
0.0869565217391304
 40
0.1304347826086956
 40
0.1304347826086956
 40
0.1304347826086956
 40
0.1304347826086956
 40
0.1739130434782609
 40
0.1739130434782609
 40
0.1739130434782609
 40
0.1739130434782609
 40
0.2173913043478261
 40
0.2173913043478261
 40
0.2173913043478261
 40
0.2173913043478261
 40
0.2608695652173913
 40
0.2608695652173913
 40
0.2608695652173913
 40
0.2608695652173913
 40
0.3043478260869565
 40
0.3043478260869565
 40
0.3043478260869565
 40
0.3043478260869565
 40
0.3478260869565217
 40
0.3478260869565217
 40
0.3478260869565217
 40
0.3478260869565217
 40
0.391304347826087
 40
0.391304347826087
 40
0.391304347826087
 40
0.391304347826087
 40
0.4347826086956522
 40
0.4347826086956522
 40
0.4347826086956522
 40
0.4347826086956522
 40
0.4782608695652174
 40
0.4782608695652174
 40
0.4782608695652174
 40
0.4782608695652174
 40
0.5217391304347826
 40
0.5217391304347826
 40
0.5217391304347826
 40
0.5217391304347826
 40
0.5652173913043478
 40
0.5652173913043478
 40
0.5652173913043478
 40
0.5652173913043478
 40
0.6086956521739131
 40
0.6086956521739131
 40
0.6086956521739131
 40
0.6086956521739131
 40
0.6521739130434783
 40
0.6521739130434783
 40
0.6521739130434783
 40
0.6521739130434783
 40
0.6956521739130435
 40
0.6956521739130435
 40
0.6956521739130435
 40
0.6956521739130435
 40
0.7391304347826086
 40
0.7391304347826086
 40
0.7391304347826086
 40
0.7391304347826086
 40
0.782608695652174
 40
0.782608695652174
 40
0.782608695652174
 40
0.782608695652174
 40
0.8260869565217391
 40
0.8260869565217391
 40
0.8260869565217391
 40
0.8260869565217391
 40
0.8695652173913043
 40
0.8695652173913043
 40
0.8695652173913043
 40
0.8695652173913043
 40
0.9130434782608695
 40
0.9130434782608695
 40
0.9130434782608695
 40
0.9130434782608695
 40
1.0
 40
1.0
 40
1.0
 40
1.0
 10
-10.55769
 20
1.08338
 30
0.0
 10
-10.55769
 20
1.08338
 30
0.0
 10
-10.53101
 20
1.08338
 30
0.0
 10
-10.53101
 20
1.08338
 30
0.0
 10
-10.53101
 20
1.08338
 30
0.0
 10
-10.53101
 20
1.08338
 30
0.0
 10
-10.53101
 20
0.93396
 30
0.0
 10
-10.53101
 20
0.93396
 30
0.0
 10
-10.53101
 20
0.93396
 30
0.0
 10
-10.53769
 20
0.93373
 30
0.0
 10
-10.54411
 20
0.93479
 30
0.0
 10
-10.55027
 20
0.93716
 30
0.0
 10
-10.55027
 20
0.93716
 30
0.0
 10
-10.56048
 20
0.94095
 30
0.0
 10
-10.57048
 20
0.94705
 30
0.0
 10
-10.58037
 20
0.95543
 30
0.0
 10
-10.58037
 20
0.95543
 30
0.0
 10
-10.59022
 20
0.96384
 30
0.0
 10
-10.60164
 20
0.97596
 30
0.0
 10
-10.61458
 20
0.99174
 30
0.0
 10
-10.61458
 20
0.99174
 30
0.0
 10
-10.63475
 20
1.01633
 30
0.0
 10
-10.65069
 20
1.03296
 30
0.0
 10
-10.66249
 20
1.04159
 30
0.0
 10
-10.66249
 20
1.04159
 30
0.0
 10
-10.67422
 20
1.05021
 30
0.0
 10
-10.68539
 20
1.05453
 30
0.0
 10
-10.69586
 20
1.05453
 30
0.0
 10
-10.69586
 20
1.05453
 30
0.0
 10
-10.70686
 20
1.05453
 30
0.0
 10
-10.71612
 20
1.05058
 30
0.0
 10
-10.7237
 20
1.04275
 30
0.0
 10
-10.7237
 20
1.04275
 30
0.0
 10
-10.73122
 20
1.03485
 30
0.0
 10
-10.73501
 20
1.02459
 30
0.0
 10
-10.73501
 20
1.01196
 30
0.0
 10
-10.73501
 20
1.01196
 30
0.0
 10
-10.73501
 20
0.99858
 30
0.0
 10
-10.73101
 20
0.98791
 30
0.0
 10
-10.72296
 20
0.9799
 30
0.0
 10
-10.72296
 20
0.9799
 30
0.0
 10
-10.71496
 20
0.97184
 30
0.0
 10
-10.70385
 20
0.9678
 30
0.0
 10
-10.6897
 20
0.96769
 30
0.0
 10
-10.6897
 20
0.96769
 30
0.0
 10
-10.6897
 20
0.96769
 30
0.0
 10
-10.6926
 20
0.93916
 30
0.0
 10
-10.6926
 20
0.93916
 30
0.0
 10
-10.6926
 20
0.93916
 30
0.0
 10
-10.71391
 20
0.94111
 30
0.0
 10
-10.73012
 20
0.94847
 30
0.0
 10
-10.74128
 20
0.96122
 30
0.0
 10
-10.74128
 20
0.96122
 30
0.0
 10
-10.75243
 20
0.97396
 30
0.0
 10
-10.75801
 20
0.99111
 30
0.0
 10
-10.75801
 20
1.01258
 30
0.0
 10
-10.75801
 20
1.01258
 30
0.0
 10
-10.75801
 20
1.03428
 30
0.0
 10
-10.75197
 20
1.05142
 30
0.0
 10
-10.73996
 20
1.06406
 30
0.0
 10
-10.73996
 20
1.06406
 30
0.0
 10
-10.7279
 20
1.07675
 30
0.0
 10
-10.71301
 20
1.08306
 30
0.0
 10
-10.69522
 20
1.08306
 30
0.0
 10
-10.69522
 20
1.08306
 30
0.0
 10
-10.68617
 20
1.08306
 30
0.0
 10
-10.67727
 20
1.08122
 30
0.0
 10
-10.66853
 20
1.07747
 30
0.0
 10
-10.66853
 20
1.07747
 30
0.0
 10
-10.6598
 20
1.0738
 30
0.0
 10
-10.65058
 20
1.06764
 30
0.0
 10
-10.64096
 20
1.05907
 30
0.0
 10
-10.64096
 20
1.05907
 30
0.0
 10
-10.63127
 20
1.05048
 30
0.0
 10
-10.618
 20
1.03622
 30
0.0
 10
-10.60117
 20
1.01627
 30
0.0
 10
-10.60117
 20
1.01627
 30
0.0
 10
-10.58717
 20
0.99964
 30
0.0
 10
-10.57769
 20
0.98896
 30
0.0
 10
-10.57269
 20
0.98422
 30
0.0
 10
-10.57269
 20
0.98422
 30
0.0
 10
-10.56774
 20
0.97948
 30
0.0
 10
-10.56275
 20
0.97559
 30
0.0
 10
-10.55769
 20
0.97248
 30
0.0
 10
-10.55769
 20
0.97248
 30
0.0
 10
-10.55769
 20
0.97248
 30
0.0
 10
-10.55769
 20
1.08338
 30
0.0
 10
-10.55769
 20
1.08338
 30
0.0
  0
SPLINE
  5
89
330
1F
100
AcDbEntity
  8
Layer 1
 62
     3
370
     9
100
AcDbSpline
210
0.0
220
0.0
230
1.0
 70
    11
 71
     3
 72
    36
 73
    32
 74
     0
 42
0.0000000001
 43
0.0000000001
 12
1.0
 22
0.0
 32
0.0
 13
1.0
 23
0.0
 33
0.0
 40
0.0
 40
0.0
 40
0.0
 40
0.0
 40
0.1111111111111111
 40
0.1111111111111111
 40
0.1111111111111111
 40
0.1111111111111111
 40
0.2222222222222222
 40
0.2222222222222222
 40
0.2222222222222222
 40
0.2222222222222222
 40
0.3333333333333333
 40
0.3333333333333333
 40
0.3333333333333333
 40
0.3333333333333333
 40
0.4444444444444444
 40
0.4444444444444444
 40
0.4444444444444444
 40
0.4444444444444444
 40
0.5555555555555556
 40
0.5555555555555556
 40
0.5555555555555556
 40
0.5555555555555556
 40
0.6666666666666666
 40
0.6666666666666666
 40
0.6666666666666666
 40
0.6666666666666666
 40
0.7777777777777778
 40
0.7777777777777778
 40
0.7777777777777778
 40
0.7777777777777778
 40
1.0
 40
1.0
 40
1.0
 40
1.0
 10
-10.46827
 20
1.16722
 30
0.0
 10
-10.46827
 20
1.16722
 30
0.0
 10
-10.46827
 20
1.10601
 30
0.0
 10
-10.46827
 20
1.10601
 30
0.0
 10
-10.46827
 20
1.10601
 30
0.0
 10
-10.46827
 20
1.10601
 30
0.0
 10
-10.49122
 20
1.10601
 30
0.0
 10
-10.49122
 20
1.10601
 30
0.0
 10
-10.49122
 20
1.10601
 30
0.0
 10
-10.49122
 20
1.10601
 30
0.0
 10
-10.49122
 20
1.13948
 30
0.0
 10
-10.49122
 20
1.13948
 30
0.0
 10
-10.49122
 20
1.13948
 30
0.0
 10
-10.49122
 20
1.13948
 30
0.0
 10
-10.73406
 20
1.13948
 30
0.0
 10
-10.73406
 20
1.13948
 30
0.0
 10
-10.73406
 20
1.13948
 30
0.0
 10
-10.73406
 20
1.13948
 30
0.0
 10
-10.73406
 20
1.10601
 30
0.0
 10
-10.73406
 20
1.10601
 30
0.0
 10
-10.73406
 20
1.10601
 30
0.0
 10
-10.73406
 20
1.10601
 30
0.0
 10
-10.75706
 20
1.10601
 30
0.0
 10
-10.75706
 20
1.10601
 30
0.0
 10
-10.75706
 20
1.10601
 30
0.0
 10
-10.75706
 20
1.10601
 30
0.0
 10
-10.75706
 20
1.16722
 30
0.0
 10
-10.75706
 20
1.16722
 30
0.0
 10
-10.75706
 20
1.16722
 30
0.0
 10
-10.75706
 20
1.16722
 30
0.0
 10
-10.46827
 20
1.16722
 30
0.0
 10
-10.46827
 20
1.16722
 30
0.0
  0
SPLINE
  5
8A
330
1F
100
AcDbEntity
  8
Layer 1
 62
     3
370
     5
100
AcDbSpline
210
0.0
220
0.0
230
1.0
 70
    27
 71
     3
 72
     8
 73
     4
 74
     0
 42
0.0000000001
 43
0.0000000001
 12
1.0
 22
0.0
 32
0.0
 13
1.0
 23
0.0
 33
0.0
 40
0.0
 40
0.0
 40
0.0
 40
0.0
 40
1.0
 40
1.0
 40
1.0
 40
1.0
 10
8.24185
 20
-4.44182
 30
0.0
 10
8.24185
 20
-4.44182
 30
0.0
 10
8.24185
 20
-4.44182
 30
0.0
 10
8.24185
 20
-4.44182
 30
0.0
  0
SPLINE
  5
8B
330
1F
100
AcDbEntity
  8
Layer 1
 62
     3
370
     5
100
AcDbSpline
210
0.0
220
0.0
230
1.0
 70
    24
 71
     3
 72
     8
 73
     4
 74
     0
 42
0.0000000001
 43
0.0000000001
 12
1.0
 22
0.0
 32
0.0
 13
1.0
 23
0.0
 33
0.0
 40
0.0
 40
0.0
 40
0.0
 40
0.0
 40
1.0
 40
1.0
 40
1.0
 40
1.0
 10
4.62231
 20
-4.44182
 30
0.0
 10
4.62231
 20
-4.44182
 30
0.0
 10
8.24185
 20
-4.44182
 30
0.0
 10
8.24185
 20
-4.44182
 30
0.0
  0
SPLINE
  5
8C
330
1F
100
AcDbEntity
  8
Layer 1
 62
     3
370
     5
100
AcDbSpline
210
0.0
220
0.0
230
1.0
 70
    24
 71
     3
 72
     8
 73
     4
 74
     0
 42
0.0000000001
 43
0.0000000001
 12
1.0
 22
0.0
 32
0.0
 13
1.0
 23
0.0
 33
0.0
 40
0.0
 40
0.0
 40
0.0
 40
0.0
 40
1.0
 40
1.0
 40
1.0
 40
1.0
 10
8.24185
 20
-4.44182
 30
0.0
 10
8.24185
 20
-4.44182
 30
0.0
 10
8.91279
 20
-5.28299
 30
0.0
 10
8.91279
 20
-5.28299
 30
0.0
  0
SPLINE
  5
8D
330
1F
100
AcDbEntity
  8
Layer 1
 62
     3
370
     9
100
AcDbSpline
210
0.0
220
0.0
230
1.0
 70
    11
 71
     3
 72
    48
 73
    44
 74
     0
 42
0.0000000001
 43
0.0000000001
 12
1.0
 22
0.0
 32
0.0
 13
1.0
 23
0.0
 33
0.0
 40
0.0
 40
0.0
 40
0.0
 40
0.0
 40
0.0833333333333333
 40
0.0833333333333333
 40
0.0833333333333333
 40
0.0833333333333333
 40
0.1666666666666667
 40
0.1666666666666667
 40
0.1666666666666667
 40
0.1666666666666667
 40
0.25
 40
0.25
 40
0.25
 40
0.25
 40
0.3333333333333333
 40
0.3333333333333333
 40
0.3333333333333333
 40
0.3333333333333333
 40
0.4166666666666667
 40
0.4166666666666667
 40
0.4166666666666667
 40
0.4166666666666667
 40
0.5
 40
0.5
 40
0.5
 40
0.5
 40
0.5833333333333334
 40
0.5833333333333334
 40
0.5833333333333334
 40
0.5833333333333334
 40
0.6666666666666666
 40
0.6666666666666666
 40
0.6666666666666666
 40
0.6666666666666666
 40
0.75
 40
0.75
 40
0.75
 40
0.75
 40
0.8333333333333334
 40
0.8333333333333334
 40
0.8333333333333334
 40
0.8333333333333334
 40
1.0
 40
1.0
 40
1.0
 40
1.0
 10
5.56605
 20
-4.24767
 30
0.0
 10
5.56605
 20
-4.24767
 30
0.0
 10
5.56605
 20
-4.19357
 30
0.0
 10
5.56605
 20
-4.19357
 30
0.0
 10
5.56605
 20
-4.19357
 30
0.0
 10
5.56605
 20
-4.19357
 30
0.0
 10
5.46799
 20
-4.19357
 30
0.0
 10
5.46799
 20
-4.19357
 30
0.0
 10
5.46799
 20
-4.19357
 30
0.0
 10
5.46799
 20
-4.19357
 30
0.0
 10
5.46799
 20
-4.16808
 30
0.0
 10
5.46799
 20
-4.16808
 30
0.0
 10
5.46799
 20
-4.16808
 30
0.0
 10
5.46799
 20
-4.16808
 30
0.0
 10
5.57116
 20
-4.02161
 30
0.0
 10
5.57116
 20
-4.02161
 30
0.0
 10
5.57116
 20
-4.02161
 30
0.0
 10
5.57116
 20
-4.02161
 30
0.0
 10
5.59384
 20
-4.02161
 30
0.0
 10
5.59384
 20
-4.02161
 30
0.0
 10
5.59384
 20
-4.02161
 30
0.0
 10
5.59384
 20
-4.02161
 30
0.0
 10
5.59384
 20
-4.16808
 30
0.0
 10
5.59384
 20
-4.16808
 30
0.0
 10
5.59384
 20
-4.16808
 30
0.0
 10
5.59384
 20
-4.16808
 30
0.0
 10
5.62436
 20
-4.16808
 30
0.0
 10
5.62436
 20
-4.16808
 30
0.0
 10
5.62436
 20
-4.16808
 30
0.0
 10
5.62436
 20
-4.16808
 30
0.0
 10
5.62436
 20
-4.19357
 30
0.0
 10
5.62436
 20
-4.19357
 30
0.0
 10
5.62436
 20
-4.19357
 30
0.0
 10
5.62436
 20
-4.19357
 30
0.0
 10
5.59384
 20
-4.19357
 30
0.0
 10
5.59384
 20
-4.19357
 30
0.0
 10
5.59384
 20
-4.19357
 30
0.0
 10
5.59384
 20
-4.19357
 30
0.0
 10
5.59384
 20
-4.24767
 30
0.0
 10
5.59384
 20
-4.24767
 30
0.0
 10
5.59384
 20
-4.24767
 30
0.0
 10
5.59384
 20
-4.24767
 30
0.0
 10
5.56605
 20
-4.24767
 30
0.0
 10
5.56605
 20
-4.24767
 30
0.0
  0
SPLINE
  5
8E
330
1F
100
AcDbEntity
  8
Layer 1
 62
     3
370
     9
100
AcDbSpline
210
0.0
220
0.0
230
1.0
 70
    11
 71
     3
 72
    16
 73
    12
 74
     0
 42
0.0000000001
 43
0.0000000001
 12
1.0
 22
0.0
 32
0.0
 13
1.0
 23
0.0
 33
0.0
 40
0.0
 40
0.0
 40
0.0
 40
0.0
 40
0.25
 40
0.25
 40
0.25
 40
0.25
 40
0.5
 40
0.5
 40
0.5
 40
0.5
 40
1.0
 40
1.0
 40
1.0
 40
1.0
 10
5.56605
 20
-4.16808
 30
0.0
 10
5.56605
 20
-4.16808
 30
0.0
 10
5.56605
 20
-4.0662
 30
0.0
 10
5.56605
 20
-4.0662
 30
0.0
 10
5.56605
 20
-4.0662
 30
0.0
 10
5.56605
 20
-4.0662
 30
0.0
 10
5.49532
 20
-4.16808
 30
0.0
 10
5.49532
 20
-4.16808
 30
0.0
 10
5.49532
 20
-4.16808
 30
0.0
 10
5.49532
 20
-4.16808
 30
0.0
 10
5.56605
 20
-4.16808
 30
0.0
 10
5.56605
 20
-4.16808
 30
0.0
  0
SPLINE
  5
8F
330
1F
100
AcDbEntity
  8
Layer 1
 62
     3
370
     9
100
AcDbSpline
210
0.0
220
0.0
230
1.0
 70
    11
 71
     3
 72
    20
 73
    16
 74
     0
 42
0.0000000001
 43
0.0000000001
 12
1.0
 22
0.0
 32
0.0
 13
1.0
 23
0.0
 33
0.0
 40
0.0
 40
0.0
 40
0.0
 40
0.0
 40
0.2
 40
0.2
 40
0.2
 40
0.2
 40
0.4
 40
0.4
 40
0.4
 40
0.4
 40
0.6
 40
0.6
 40
0.6
 40
0.6
 40
1.0
 40
1.0
 40
1.0
 40
1.0
 10
5.64963
 20
-4.17983
 30
0.0
 10
5.64963
 20
-4.17983
 30
0.0
 10
5.64963
 20
-4.15193
 30
0.0
 10
5.64963
 20
-4.15193
 30
0.0
 10
5.64963
 20
-4.15193
 30
0.0
 10
5.64963
 20
-4.15193
 30
0.0
 10
5.73493
 20
-4.15193
 30
0.0
 10
5.73493
 20
-4.15193
 30
0.0
 10
5.73493
 20
-4.15193
 30
0.0
 10
5.73493
 20
-4.15193
 30
0.0
 10
5.73493
 20
-4.17983
 30
0.0
 10
5.73493
 20
-4.17983
 30
0.0
 10
5.73493
 20
-4.17983
 30
0.0
 10
5.73493
 20
-4.17983
 30
0.0
 10
5.64963
 20
-4.17983
 30
0.0
 10
5.64963
 20
-4.17983
 30
0.0
  0
SPLINE
  5
90
330
1F
100
AcDbEntity
  8
Layer 1
 62
     3
370
     9
100
AcDbSpline
210
0.0
220
0.0
230
1.0
 70
    11
 71
     3
 72
    80
 73
    76
 74
     0
 42
0.0000000001
 43
0.0000000001
 12
1.0
 22
0.0
 32
0.0
 13
1.0
 23
0.0
 33
0.0
 40
0.0
 40
0.0
 40
0.0
 40
0.0
 40
0.05
 40
0.05
 40
0.05
 40
0.05
 40
0.1
 40
0.1
 40
0.1
 40
0.1
 40
0.15
 40
0.15
 40
0.15
 40
0.15
 40
0.2
 40
0.2
 40
0.2
 40
0.2
 40
0.25
 40
0.25
 40
0.25
 40
0.25
 40
0.3
 40
0.3
 40
0.3
 40
0.3
 40
0.35
 40
0.35
 40
0.35
 40
0.35
 40
0.4
 40
0.4
 40
0.4
 40
0.4
 40
0.45
 40
0.45
 40
0.45
 40
0.45
 40
0.5
 40
0.5
 40
0.5
 40
0.5
 40
0.55
 40
0.55
 40
0.55
 40
0.55
 40
0.6
 40
0.6
 40
0.6
 40
0.6
 40
0.65
 40
0.65
 40
0.65
 40
0.65
 40
0.7
 40
0.7
 40
0.7
 40
0.7
 40
0.75
 40
0.75
 40
0.75
 40
0.75
 40
0.8
 40
0.8
 40
0.8
 40
0.8
 40
0.85
 40
0.85
 40
0.85
 40
0.85
 40
0.9
 40
0.9
 40
0.9
 40
0.9
 40
1.0
 40
1.0
 40
1.0
 40
1.0
 10
5.76963
 20
-4.24767
 30
0.0
 10
5.76963
 20
-4.24767
 30
0.0
 10
5.76963
 20
-4.02161
 30
0.0
 10
5.76963
 20
-4.02161
 30
0.0
 10
5.76963
 20
-4.02161
 30
0.0
 10
5.76963
 20
-4.02161
 30
0.0
 10
5.86984
 20
-4.02161
 30
0.0
 10
5.86984
 20
-4.02161
 30
0.0
 10
5.86984
 20
-4.02161
 30
0.0
 10
5.89
 20
-4.02161
 30
0.0
 10
5.90533
 20
-4.02366
 30
0.0
 10
5.9158
 20
-4.02772
 30
0.0
 10
5.9158
 20
-4.02772
 30
0.0
 10
5.92627
 20
-4.03176
 30
0.0
 10
5.93463
 20
-4.03893
 30
0.0
 10
5.94096
 20
-4.0492
 30
0.0
 10
5.94096
 20
-4.0492
 30
0.0
 10
5.94722
 20
-4.0595
 30
0.0
 10
5.95032
 20
-4.07088
 30
0.0
 10
5.95032
 20
-4.0833
 30
0.0
 10
5.95032
 20
-4.0833
 30
0.0
 10
5.95032
 20
-4.09935
 30
0.0
 10
5.94516
 20
-4.11283
 30
0.0
 10
5.93472
 20
-4.12382
 30
0.0
 10
5.93472
 20
-4.12382
 30
0.0
 10
5.92437
 20
-4.13482
 30
0.0
 10
5.90832
 20
-4.14183
 30
0.0
 10
5.88664
 20
-4.14482
 30
0.0
 10
5.88664
 20
-4.14482
 30
0.0
 10
5.89459
 20
-4.14861
 30
0.0
 10
5.90059
 20
-4.15236
 30
0.0
 10
5.90468
 20
-4.15609
 30
0.0
 10
5.90468
 20
-4.15609
 30
0.0
 10
5.91343
 20
-4.16409
 30
0.0
 10
5.92169
 20
-4.17414
 30
0.0
 10
5.92953
 20
-4.18614
 30
0.0
 10
5.92953
 20
-4.18614
 30
0.0
 10
5.92953
 20
-4.18614
 30
0.0
 10
5.96886
 20
-4.24767
 30
0.0
 10
5.96886
 20
-4.24767
 30
0.0
 10
5.96886
 20
-4.24767
 30
0.0
 10
5.96886
 20
-4.24767
 30
0.0
 10
5.93121
 20
-4.24767
 30
0.0
 10
5.93121
 20
-4.24767
 30
0.0
 10
5.93121
 20
-4.24767
 30
0.0
 10
5.93121
 20
-4.24767
 30
0.0
 10
5.90131
 20
-4.20062
 30
0.0
 10
5.90131
 20
-4.20062
 30
0.0
 10
5.90131
 20
-4.20062
 30
0.0
 10
5.89259
 20
-4.18708
 30
0.0
 10
5.88538
 20
-4.17667
 30
0.0
 10
5.87969
 20
-4.16951
 30
0.0
 10
5.87969
 20
-4.16951
 30
0.0
 10
5.87406
 20
-4.16229
 30
0.0
 10
5.869
 20
-4.15724
 30
0.0
 10
5.86451
 20
-4.1544
 30
0.0
 10
5.86451
 20
-4.1544
 30
0.0
 10
5.86006
 20
-4.15151
 30
0.0
 10
5.85554
 20
-4.14951
 30
0.0
 10
5.8509
 20
-4.14836
 30
0.0
 10
5.8509
 20
-4.14836
 30
0.0
 10
5.84748
 20
-4.14766
 30
0.0
 10
5.84194
 20
-4.14731
 30
0.0
 10
5.83421
 20
-4.14731
 30
0.0
 10
5.83421
 20
-4.14731
 30
0.0
 10
5.83421
 20
-4.14731
 30
0.0
 10
5.79953
 20
-4.14731
 30
0.0
 10
5.79953
 20
-4.14731
 30
0.0
 10
5.79953
 20
-4.14731
 30
0.0
 10
5.79953
 20
-4.14731
 30
0.0
 10
5.79953
 20
-4.24767
 30
0.0
 10
5.79953
 20
-4.24767
 30
0.0
 10
5.79953
 20
-4.24767
 30
0.0
 10
5.79953
 20
-4.24767
 30
0.0
 10
5.76963
 20
-4.24767
 30
0.0
 10
5.76963
 20
-4.24767
 30
0.0
  0
SPLINE
  5
91
330
1F
100
AcDbEntity
  8
Layer 1
 62
     3
370
     9
100
AcDbSpline
210
0.0
220
0.0
230
1.0
 70
    11
 71
     3
 72
    36
 73
    32
 74
     0
 42
0.0000000001
 43
0.0000000001
 12
1.0
 22
0.0
 32
0.0
 13
1.0
 23
0.0
 33
0.0
 40
0.0
 40
0.0
 40
0.0
 40
0.0
 40
0.1111111111111111
 40
0.1111111111111111
 40
0.1111111111111111
 40
0.1111111111111111
 40
0.2222222222222222
 40
0.2222222222222222
 40
0.2222222222222222
 40
0.2222222222222222
 40
0.3333333333333333
 40
0.3333333333333333
 40
0.3333333333333333
 40
0.3333333333333333
 40
0.4444444444444444
 40
0.4444444444444444
 40
0.4444444444444444
 40
0.4444444444444444
 40
0.5555555555555556
 40
0.5555555555555556
 40
0.5555555555555556
 40
0.5555555555555556
 40
0.6666666666666666
 40
0.6666666666666666
 40
0.6666666666666666
 40
0.6666666666666666
 40
0.7777777777777778
 40
0.7777777777777778
 40
0.7777777777777778
 40
0.7777777777777778
 40
1.0
 40
1.0
 40
1.0
 40
1.0
 10
5.79953
 20
-4.12141
 30
0.0
 10
5.79953
 20
-4.12141
 30
0.0
 10
5.86385
 20
-4.12141
 30
0.0
 10
5.86385
 20
-4.12141
 30
0.0
 10
5.86385
 20
-4.12141
 30
0.0
 10
5.87749
 20
-4.12141
 30
0.0
 10
5.88822
 20
-4.11998
 30
0.0
 10
5.89589
 20
-4.11714
 30
0.0
 10
5.89589
 20
-4.11714
 30
0.0
 10
5.90364
 20
-4.1143
 30
0.0
 10
5.90949
 20
-4.10977
 30
0.0
 10
5.91349
 20
-4.10356
 30
0.0
 10
5.91349
 20
-4.10356
 30
0.0
 10
5.91749
 20
-4.09736
 30
0.0
 10
5.91948
 20
-4.09062
 30
0.0
 10
5.91948
 20
-4.0833
 30
0.0
 10
5.91948
 20
-4.0833
 30
0.0
 10
5.91948
 20
-4.07261
 30
0.0
 10
5.91563
 20
-4.06383
 30
0.0
 10
5.90784
 20
-4.05693
 30
0.0
 10
5.90784
 20
-4.05693
 30
0.0
 10
5.90011
 20
-4.05004
 30
0.0
 10
5.88785
 20
-4.0466
 30
0.0
 10
5.87104
 20
-4.0466
 30
0.0
 10
5.87104
 20
-4.0466
 30
0.0
 10
5.87104
 20
-4.0466
 30
0.0
 10
5.79953
 20
-4.0466
 30
0.0
 10
5.79953
 20
-4.0466
 30
0.0
 10
5.79953
 20
-4.0466
 30
0.0
 10
5.79953
 20
-4.0466
 30
0.0
 10
5.79953
 20
-4.12141
 30
0.0
 10
5.79953
 20
-4.12141
 30
0.0
  0
SPLINE
  5
92
330
1F
100
AcDbEntity
  8
Layer 1
 62
     3
370
     9
100
AcDbSpline
210
0.0
220
0.0
230
1.0
 70
    11
 71
     3
 72
    92
 73
    88
 74
     0
 42
0.0000000001
 43
0.0000000001
 12
1.0
 22
0.0
 32
0.0
 13
1.0
 23
0.0
 33
0.0
 40
0.0
 40
0.0
 40
0.0
 40
0.0
 40
0.0434782608695652
 40
0.0434782608695652
 40
0.0434782608695652
 40
0.0434782608695652
 40
0.0869565217391304
 40
0.0869565217391304
 40
0.0869565217391304
 40
0.0869565217391304
 40
0.1304347826086956
 40
0.1304347826086956
 40
0.1304347826086956
 40
0.1304347826086956
 40
0.1739130434782609
 40
0.1739130434782609
 40
0.1739130434782609
 40
0.1739130434782609
 40
0.2173913043478261
 40
0.2173913043478261
 40
0.2173913043478261
 40
0.2173913043478261
 40
0.2608695652173913
 40
0.2608695652173913
 40
0.2608695652173913
 40
0.2608695652173913
 40
0.3043478260869565
 40
0.3043478260869565
 40
0.3043478260869565
 40
0.3043478260869565
 40
0.3478260869565217
 40
0.3478260869565217
 40
0.3478260869565217
 40
0.3478260869565217
 40
0.391304347826087
 40
0.391304347826087
 40
0.391304347826087
 40
0.391304347826087
 40
0.4347826086956522
 40
0.4347826086956522
 40
0.4347826086956522
 40
0.4347826086956522
 40
0.4782608695652174
 40
0.4782608695652174
 40
0.4782608695652174
 40
0.4782608695652174
 40
0.5217391304347826
 40
0.5217391304347826
 40
0.5217391304347826
 40
0.5217391304347826
 40
0.5652173913043478
 40
0.5652173913043478
 40
0.5652173913043478
 40
0.5652173913043478
 40
0.6086956521739131
 40
0.6086956521739131
 40
0.6086956521739131
 40
0.6086956521739131
 40
0.6521739130434783
 40
0.6521739130434783
 40
0.6521739130434783
 40
0.6521739130434783
 40
0.6956521739130435
 40
0.6956521739130435
 40
0.6956521739130435
 40
0.6956521739130435
 40
0.7391304347826086
 40
0.7391304347826086
 40
0.7391304347826086
 40
0.7391304347826086
 40
0.782608695652174
 40
0.782608695652174
 40
0.782608695652174
 40
0.782608695652174
 40
0.8260869565217391
 40
0.8260869565217391
 40
0.8260869565217391
 40
0.8260869565217391
 40
0.8695652173913043
 40
0.8695652173913043
 40
0.8695652173913043
 40
0.8695652173913043
 40
0.9130434782608695
 40
0.9130434782608695
 40
0.9130434782608695
 40
0.9130434782608695
 40
1.0
 40
1.0
 40
1.0
 40
1.0
 10
6.13185
 20
-4.22098
 30
0.0
 10
6.13185
 20
-4.22098
 30
0.0
 10
6.13185
 20
-4.24767
 30
0.0
 10
6.13185
 20
-4.24767
 30
0.0
 10
6.13185
 20
-4.24767
 30
0.0
 10
6.13185
 20
-4.24767
 30
0.0
 10
5.98242
 20
-4.24767
 30
0.0
 10
5.98242
 20
-4.24767
 30
0.0
 10
5.98242
 20
-4.24767
 30
0.0
 10
5.98222
 20
-4.24099
 30
0.0
 10
5.98325
 20
-4.23456
 30
0.0
 10
5.98564
 20
-4.2284
 30
0.0
 10
5.98564
 20
-4.2284
 30
0.0
 10
5.98943
 20
-4.2182
 30
0.0
 10
5.99553
 20
-4.20819
 30
0.0
 10
6.00391
 20
-4.1983
 30
0.0
 10
6.00391
 20
-4.1983
 30
0.0
 10
6.01232
 20
-4.18846
 30
0.0
 10
6.02444
 20
-4.17703
 30
0.0
 10
6.04023
 20
-4.16409
 30
0.0
 10
6.04023
 20
-4.16409
 30
0.0
 10
6.06481
 20
-4.14393
 30
0.0
 10
6.08144
 20
-4.12798
 30
0.0
 10
6.09007
 20
-4.11619
 30
0.0
 10
6.09007
 20
-4.11619
 30
0.0
 10
6.09869
 20
-4.10445
 30
0.0
 10
6.10302
 20
-4.0933
 30
0.0
 10
6.10302
 20
-4.08283
 30
0.0
 10
6.10302
 20
-4.08283
 30
0.0
 10
6.10302
 20
-4.07182
 30
0.0
 10
6.09905
 20
-4.06255
 30
0.0
 10
6.09123
 20
-4.05499
 30
0.0
 10
6.09123
 20
-4.05499
 30
0.0
 10
6.08333
 20
-4.04745
 30
0.0
 10
6.07307
 20
-4.04367
 30
0.0
 10
6.06044
 20
-4.04367
 30
0.0
 10
6.06044
 20
-4.04367
 30
0.0
 10
6.04707
 20
-4.04367
 30
0.0
 10
6.03637
 20
-4.04767
 30
0.0
 10
6.02838
 20
-4.05571
 30
0.0
 10
6.02838
 20
-4.05571
 30
0.0
 10
6.02032
 20
-4.06372
 30
0.0
 10
6.01628
 20
-4.07483
 30
0.0
 10
6.01617
 20
-4.08899
 30
0.0
 10
6.01617
 20
-4.08899
 30
0.0
 10
6.01617
 20
-4.08899
 30
0.0
 10
5.98764
 20
-4.08609
 30
0.0
 10
5.98764
 20
-4.08609
 30
0.0
 10
5.98764
 20
-4.08609
 30
0.0
 10
5.98959
 20
-4.06477
 30
0.0
 10
5.99695
 20
-4.04856
 30
0.0
 10
6.0097
 20
-4.03741
 30
0.0
 10
6.0097
 20
-4.03741
 30
0.0
 10
6.02244
 20
-4.02624
 30
0.0
 10
6.03959
 20
-4.02066
 30
0.0
 10
6.06106
 20
-4.02066
 30
0.0
 10
6.06106
 20
-4.02066
 30
0.0
 10
6.08276
 20
-4.02066
 30
0.0
 10
6.09991
 20
-4.02671
 30
0.0
 10
6.11254
 20
-4.03871
 30
0.0
 10
6.11254
 20
-4.03871
 30
0.0
 10
6.12523
 20
-4.05077
 30
0.0
 10
6.13154
 20
-4.06566
 30
0.0
 10
6.13154
 20
-4.08345
 30
0.0
 10
6.13154
 20
-4.08345
 30
0.0
 10
6.13154
 20
-4.09251
 30
0.0
 10
6.1297
 20
-4.1014
 30
0.0
 10
6.12596
 20
-4.11014
 30
0.0
 10
6.12596
 20
-4.11014
 30
0.0
 10
6.12228
 20
-4.11887
 30
0.0
 10
6.11612
 20
-4.12808
 30
0.0
 10
6.10753
 20
-4.13773
 30
0.0
 10
6.10753
 20
-4.13773
 30
0.0
 10
6.09896
 20
-4.14741
 30
0.0
 10
6.0847
 20
-4.16067
 30
0.0
 10
6.06475
 20
-4.1775
 30
0.0
 10
6.06475
 20
-4.1775
 30
0.0
 10
6.04812
 20
-4.19151
 30
0.0
 10
6.03743
 20
-4.20099
 30
0.0
 10
6.0327
 20
-4.20598
 30
0.0
 10
6.0327
 20
-4.20598
 30
0.0
 10
6.02795
 20
-4.21093
 30
0.0
 10
6.02407
 20
-4.21593
 30
0.0
 10
6.02094
 20
-4.22098
 30
0.0
 10
6.02094
 20
-4.22098
 30
0.0
 10
6.02094
 20
-4.22098
 30
0.0
 10
6.13185
 20
-4.22098
 30
0.0
 10
6.13185
 20
-4.22098
 30
0.0
  0
SPLINE
  5
93
330
1F
100
AcDbEntity
  8
Layer 1
 62
     3
370
     9
100
AcDbSpline
210
0.0
220
0.0
230
1.0
 70
    11
 71
     3
 72
    92
 73
    88
 74
     0
 42
0.0000000001
 43
0.0000000001
 12
1.0
 22
0.0
 32
0.0
 13
1.0
 23
0.0
 33
0.0
 40
0.0
 40
0.0
 40
0.0
 40
0.0
 40
0.0434782608695652
 40
0.0434782608695652
 40
0.0434782608695652
 40
0.0434782608695652
 40
0.0869565217391304
 40
0.0869565217391304
 40
0.0869565217391304
 40
0.0869565217391304
 40
0.1304347826086956
 40
0.1304347826086956
 40
0.1304347826086956
 40
0.1304347826086956
 40
0.1739130434782609
 40
0.1739130434782609
 40
0.1739130434782609
 40
0.1739130434782609
 40
0.2173913043478261
 40
0.2173913043478261
 40
0.2173913043478261
 40
0.2173913043478261
 40
0.2608695652173913
 40
0.2608695652173913
 40
0.2608695652173913
 40
0.2608695652173913
 40
0.3043478260869565
 40
0.3043478260869565
 40
0.3043478260869565
 40
0.3043478260869565
 40
0.3478260869565217
 40
0.3478260869565217
 40
0.3478260869565217
 40
0.3478260869565217
 40
0.391304347826087
 40
0.391304347826087
 40
0.391304347826087
 40
0.391304347826087
 40
0.4347826086956522
 40
0.4347826086956522
 40
0.4347826086956522
 40
0.4347826086956522
 40
0.4782608695652174
 40
0.4782608695652174
 40
0.4782608695652174
 40
0.4782608695652174
 40
0.5217391304347826
 40
0.5217391304347826
 40
0.5217391304347826
 40
0.5217391304347826
 40
0.5652173913043478
 40
0.5652173913043478
 40
0.5652173913043478
 40
0.5652173913043478
 40
0.6086956521739131
 40
0.6086956521739131
 40
0.6086956521739131
 40
0.6086956521739131
 40
0.6521739130434783
 40
0.6521739130434783
 40
0.6521739130434783
 40
0.6521739130434783
 40
0.6956521739130435
 40
0.6956521739130435
 40
0.6956521739130435
 40
0.6956521739130435
 40
0.7391304347826086
 40
0.7391304347826086
 40
0.7391304347826086
 40
0.7391304347826086
 40
0.782608695652174
 40
0.782608695652174
 40
0.782608695652174
 40
0.782608695652174
 40
0.8260869565217391
 40
0.8260869565217391
 40
0.8260869565217391
 40
0.8260869565217391
 40
0.8695652173913043
 40
0.8695652173913043
 40
0.8695652173913043
 40
0.8695652173913043
 40
0.9130434782608695
 40
0.9130434782608695
 40
0.9130434782608695
 40
0.9130434782608695
 40
1.0
 40
1.0
 40
1.0
 40
1.0
 10
6.30749
 20
-4.22098
 30
0.0
 10
6.30749
 20
-4.22098
 30
0.0
 10
6.30749
 20
-4.24767
 30
0.0
 10
6.30749
 20
-4.24767
 30
0.0
 10
6.30749
 20
-4.24767
 30
0.0
 10
6.30749
 20
-4.24767
 30
0.0
 10
6.15806
 20
-4.24767
 30
0.0
 10
6.15806
 20
-4.24767
 30
0.0
 10
6.15806
 20
-4.24767
 30
0.0
 10
6.15786
 20
-4.24099
 30
0.0
 10
6.15889
 20
-4.23456
 30
0.0
 10
6.16128
 20
-4.2284
 30
0.0
 10
6.16128
 20
-4.2284
 30
0.0
 10
6.16507
 20
-4.2182
 30
0.0
 10
6.17117
 20
-4.20819
 30
0.0
 10
6.17954
 20
-4.1983
 30
0.0
 10
6.17954
 20
-4.1983
 30
0.0
 10
6.18796
 20
-4.18846
 30
0.0
 10
6.20008
 20
-4.17703
 30
0.0
 10
6.21586
 20
-4.16409
 30
0.0
 10
6.21586
 20
-4.16409
 30
0.0
 10
6.24045
 20
-4.14393
 30
0.0
 10
6.25708
 20
-4.12798
 30
0.0
 10
6.26571
 20
-4.11619
 30
0.0
 10
6.26571
 20
-4.11619
 30
0.0
 10
6.27433
 20
-4.10445
 30
0.0
 10
6.27865
 20
-4.0933
 30
0.0
 10
6.27865
 20
-4.08283
 30
0.0
 10
6.27865
 20
-4.08283
 30
0.0
 10
6.27865
 20
-4.07182
 30
0.0
 10
6.27469
 20
-4.06255
 30
0.0
 10
6.26687
 20
-4.05499
 30
0.0
 10
6.26687
 20
-4.05499
 30
0.0
 10
6.25897
 20
-4.04745
 30
0.0
 10
6.2487
 20
-4.04367
 30
0.0
 10
6.23606
 20
-4.04367
 30
0.0
 10
6.23606
 20
-4.04367
 30
0.0
 10
6.22271
 20
-4.04367
 30
0.0
 10
6.21201
 20
-4.04767
 30
0.0
 10
6.20402
 20
-4.05571
 30
0.0
 10
6.20402
 20
-4.05571
 30
0.0
 10
6.19596
 20
-4.06372
 30
0.0
 10
6.19192
 20
-4.07483
 30
0.0
 10
6.19181
 20
-4.08899
 30
0.0
 10
6.19181
 20
-4.08899
 30
0.0
 10
6.19181
 20
-4.08899
 30
0.0
 10
6.16328
 20
-4.08609
 30
0.0
 10
6.16328
 20
-4.08609
 30
0.0
 10
6.16328
 20
-4.08609
 30
0.0
 10
6.16523
 20
-4.06477
 30
0.0
 10
6.17259
 20
-4.04856
 30
0.0
 10
6.18533
 20
-4.03741
 30
0.0
 10
6.18533
 20
-4.03741
 30
0.0
 10
6.19808
 20
-4.02624
 30
0.0
 10
6.21523
 20
-4.02066
 30
0.0
 10
6.2367
 20
-4.02066
 30
0.0
 10
6.2367
 20
-4.02066
 30
0.0
 10
6.25838
 20
-4.02066
 30
0.0
 10
6.27554
 20
-4.02671
 30
0.0
 10
6.28818
 20
-4.03871
 30
0.0
 10
6.28818
 20
-4.03871
 30
0.0
 10
6.30087
 20
-4.05077
 30
0.0
 10
6.30718
 20
-4.06566
 30
0.0
 10
6.30718
 20
-4.08345
 30
0.0
 10
6.30718
 20
-4.08345
 30
0.0
 10
6.30718
 20
-4.09251
 30
0.0
 10
6.30534
 20
-4.1014
 30
0.0
 10
6.30159
 20
-4.11014
 30
0.0
 10
6.30159
 20
-4.11014
 30
0.0
 10
6.29792
 20
-4.11887
 30
0.0
 10
6.29176
 20
-4.12808
 30
0.0
 10
6.28317
 20
-4.13773
 30
0.0
 10
6.28317
 20
-4.13773
 30
0.0
 10
6.2746
 20
-4.14741
 30
0.0
 10
6.26034
 20
-4.16067
 30
0.0
 10
6.24039
 20
-4.1775
 30
0.0
 10
6.24039
 20
-4.1775
 30
0.0
 10
6.22376
 20
-4.19151
 30
0.0
 10
6.21306
 20
-4.20099
 30
0.0
 10
6.20834
 20
-4.20598
 30
0.0
 10
6.20834
 20
-4.20598
 30
0.0
 10
6.20359
 20
-4.21093
 30
0.0
 10
6.19971
 20
-4.21593
 30
0.0
 10
6.19658
 20
-4.22098
 30
0.0
 10
6.19658
 20
-4.22098
 30
0.0
 10
6.19658
 20
-4.22098
 30
0.0
 10
6.30749
 20
-4.22098
 30
0.0
 10
6.30749
 20
-4.22098
 30
0.0
  0
SPLINE
  5
94
330
1F
100
AcDbEntity
  8
Layer 1
 62
     3
370
     9
100
AcDbSpline
210
0.0
220
0.0
230
1.0
 70
    11
 71
     3
 72
    36
 73
    32
 74
     0
 42
0.0000000001
 43
0.0000000001
 12
1.0
 22
0.0
 32
0.0
 13
1.0
 23
0.0
 33
0.0
 40
0.0
 40
0.0
 40
0.0
 40
0.0
 40
0.1111111111111111
 40
0.1111111111111111
 40
0.1111111111111111
 40
0.1111111111111111
 40
0.2222222222222222
 40
0.2222222222222222
 40
0.2222222222222222
 40
0.2222222222222222
 40
0.3333333333333333
 40
0.3333333333333333
 40
0.3333333333333333
 40
0.3333333333333333
 40
0.4444444444444444
 40
0.4444444444444444
 40
0.4444444444444444
 40
0.4444444444444444
 40
0.5555555555555556
 40
0.5555555555555556
 40
0.5555555555555556
 40
0.5555555555555556
 40
0.6666666666666666
 40
0.6666666666666666
 40
0.6666666666666666
 40
0.6666666666666666
 40
0.7777777777777778
 40
0.7777777777777778
 40
0.7777777777777778
 40
0.7777777777777778
 40
1.0
 40
1.0
 40
1.0
 40
1.0
 10
6.43329
 20
-4.31042
 30
0.0
 10
6.43329
 20
-4.31042
 30
0.0
 10
6.43329
 20
-4.02161
 30
0.0
 10
6.43329
 20
-4.02161
 30
0.0
 10
6.43329
 20
-4.02161
 30
0.0
 10
6.43329
 20
-4.02161
 30
0.0
 10
6.4945
 20
-4.02161
 30
0.0
 10
6.4945
 20
-4.02161
 30
0.0
 10
6.4945
 20
-4.02161
 30
0.0
 10
6.4945
 20
-4.02161
 30
0.0
 10
6.4945
 20
-4.0446
 30
0.0
 10
6.4945
 20
-4.0446
 30
0.0
 10
6.4945
 20
-4.0446
 30
0.0
 10
6.4945
 20
-4.0446
 30
0.0
 10
6.46108
 20
-4.0446
 30
0.0
 10
6.46108
 20
-4.0446
 30
0.0
 10
6.46108
 20
-4.0446
 30
0.0
 10
6.46108
 20
-4.0446
 30
0.0
 10
6.46108
 20
-4.28746
 30
0.0
 10
6.46108
 20
-4.28746
 30
0.0
 10
6.46108
 20
-4.28746
 30
0.0
 10
6.46108
 20
-4.28746
 30
0.0
 10
6.4945
 20
-4.28746
 30
0.0
 10
6.4945
 20
-4.28746
 30
0.0
 10
6.4945
 20
-4.28746
 30
0.0
 10
6.4945
 20
-4.28746
 30
0.0
 10
6.4945
 20
-4.31042
 30
0.0
 10
6.4945
 20
-4.31042
 30
0.0
 10
6.4945
 20
-4.31042
 30
0.0
 10
6.4945
 20
-4.31042
 30
0.0
 10
6.43329
 20
-4.31042
 30
0.0
 10
6.43329
 20
-4.31042
 30
0.0
  0
SPLINE
  5
95
330
1F
100
AcDbEntity
  8
Layer 1
 62
     3
370
     9
100
AcDbSpline
210
0.0
220
0.0
230
1.0
 70
    11
 71
     3
 72
    80
 73
    76
 74
     0
 42
0.0000000001
 43
0.0000000001
 12
1.0
 22
0.0
 32
0.0
 13
1.0
 23
0.0
 33
0.0
 40
0.0
 40
0.0
 40
0.0
 40
0.0
 40
0.05
 40
0.05
 40
0.05
 40
0.05
 40
0.1
 40
0.1
 40
0.1
 40
0.1
 40
0.15
 40
0.15
 40
0.15
 40
0.15
 40
0.2
 40
0.2
 40
0.2
 40
0.2
 40
0.25
 40
0.25
 40
0.25
 40
0.25
 40
0.3
 40
0.3
 40
0.3
 40
0.3
 40
0.35
 40
0.35
 40
0.35
 40
0.35
 40
0.4
 40
0.4
 40
0.4
 40
0.4
 40
0.45
 40
0.45
 40
0.45
 40
0.45
 40
0.5
 40
0.5
 40
0.5
 40
0.5
 40
0.55
 40
0.55
 40
0.55
 40
0.55
 40
0.6
 40
0.6
 40
0.6
 40
0.6
 40
0.65
 40
0.65
 40
0.65
 40
0.65
 40
0.7
 40
0.7
 40
0.7
 40
0.7
 40
0.75
 40
0.75
 40
0.75
 40
0.75
 40
0.8
 40
0.8
 40
0.8
 40
0.8
 40
0.85
 40
0.85
 40
0.85
 40
0.85
 40
0.9
 40
0.9
 40
0.9
 40
0.9
 40
1.0
 40
1.0
 40
1.0
 40
1.0
 10
6.52444
 20
-4.24767
 30
0.0
 10
6.52444
 20
-4.24767
 30
0.0
 10
6.52444
 20
-4.02161
 30
0.0
 10
6.52444
 20
-4.02161
 30
0.0
 10
6.52444
 20
-4.02161
 30
0.0
 10
6.52444
 20
-4.02161
 30
0.0
 10
6.62466
 20
-4.02161
 30
0.0
 10
6.62466
 20
-4.02161
 30
0.0
 10
6.62466
 20
-4.02161
 30
0.0
 10
6.64481
 20
-4.02161
 30
0.0
 10
6.66013
 20
-4.02366
 30
0.0
 10
6.67061
 20
-4.02772
 30
0.0
 10
6.67061
 20
-4.02772
 30
0.0
 10
6.68108
 20
-4.03176
 30
0.0
 10
6.68945
 20
-4.03893
 30
0.0
 10
6.69577
 20
-4.0492
 30
0.0
 10
6.69577
 20
-4.0492
 30
0.0
 10
6.70204
 20
-4.0595
 30
0.0
 10
6.70513
 20
-4.07088
 30
0.0
 10
6.70513
 20
-4.0833
 30
0.0
 10
6.70513
 20
-4.0833
 30
0.0
 10
6.70513
 20
-4.09935
 30
0.0
 10
6.69998
 20
-4.11283
 30
0.0
 10
6.68955
 20
-4.12382
 30
0.0
 10
6.68955
 20
-4.12382
 30
0.0
 10
6.67919
 20
-4.13482
 30
0.0
 10
6.66313
 20
-4.14183
 30
0.0
 10
6.64145
 20
-4.14482
 30
0.0
 10
6.64145
 20
-4.14482
 30
0.0
 10
6.64939
 20
-4.14861
 30
0.0
 10
6.6554
 20
-4.15236
 30
0.0
 10
6.65951
 20
-4.15609
 30
0.0
 10
6.65951
 20
-4.15609
 30
0.0
 10
6.66824
 20
-4.16409
 30
0.0
 10
6.67651
 20
-4.17414
 30
0.0
 10
6.68434
 20
-4.18614
 30
0.0
 10
6.68434
 20
-4.18614
 30
0.0
 10
6.68434
 20
-4.18614
 30
0.0
 10
6.72366
 20
-4.24767
 30
0.0
 10
6.72366
 20
-4.24767
 30
0.0
 10
6.72366
 20
-4.24767
 30
0.0
 10
6.72366
 20
-4.24767
 30
0.0
 10
6.68603
 20
-4.24767
 30
0.0
 10
6.68603
 20
-4.24767
 30
0.0
 10
6.68603
 20
-4.24767
 30
0.0
 10
6.68603
 20
-4.24767
 30
0.0
 10
6.65613
 20
-4.20062
 30
0.0
 10
6.65613
 20
-4.20062
 30
0.0
 10
6.65613
 20
-4.20062
 30
0.0
 10
6.64739
 20
-4.18708
 30
0.0
 10
6.64019
 20
-4.17667
 30
0.0
 10
6.63451
 20
-4.16951
 30
0.0
 10
6.63451
 20
-4.16951
 30
0.0
 10
6.62887
 20
-4.16229
 30
0.0
 10
6.62382
 20
-4.15724
 30
0.0
 10
6.61934
 20
-4.1544
 30
0.0
 10
6.61934
 20
-4.1544
 30
0.0
 10
6.61487
 20
-4.15151
 30
0.0
 10
6.61034
 20
-4.14951
 30
0.0
 10
6.60572
 20
-4.14836
 30
0.0
 10
6.60572
 20
-4.14836
 30
0.0
 10
6.6023
 20
-4.14766
 30
0.0
 10
6.59676
 20
-4.14731
 30
0.0
 10
6.58903
 20
-4.14731
 30
0.0
 10
6.58903
 20
-4.14731
 30
0.0
 10
6.58903
 20
-4.14731
 30
0.0
 10
6.55434
 20
-4.14731
 30
0.0
 10
6.55434
 20
-4.14731
 30
0.0
 10
6.55434
 20
-4.14731
 30
0.0
 10
6.55434
 20
-4.14731
 30
0.0
 10
6.55434
 20
-4.24767
 30
0.0
 10
6.55434
 20
-4.24767
 30
0.0
 10
6.55434
 20
-4.24767
 30
0.0
 10
6.55434
 20
-4.24767
 30
0.0
 10
6.52444
 20
-4.24767
 30
0.0
 10
6.52444
 20
-4.24767
 30
0.0
  0
SPLINE
  5
96
330
1F
100
AcDbEntity
  8
Layer 1
 62
     3
370
     9
100
AcDbSpline
210
0.0
220
0.0
230
1.0
 70
    11
 71
     3
 72
    36
 73
    32
 74
     0
 42
0.0000000001
 43
0.0000000001
 12
1.0
 22
0.0
 32
0.0
 13
1.0
 23
0.0
 33
0.0
 40
0.0
 40
0.0
 40
0.0
 40
0.0
 40
0.1111111111111111
 40
0.1111111111111111
 40
0.1111111111111111
 40
0.1111111111111111
 40
0.2222222222222222
 40
0.2222222222222222
 40
0.2222222222222222
 40
0.2222222222222222
 40
0.3333333333333333
 40
0.3333333333333333
 40
0.3333333333333333
 40
0.3333333333333333
 40
0.4444444444444444
 40
0.4444444444444444
 40
0.4444444444444444
 40
0.4444444444444444
 40
0.5555555555555556
 40
0.5555555555555556
 40
0.5555555555555556
 40
0.5555555555555556
 40
0.6666666666666666
 40
0.6666666666666666
 40
0.6666666666666666
 40
0.6666666666666666
 40
0.7777777777777778
 40
0.7777777777777778
 40
0.7777777777777778
 40
0.7777777777777778
 40
1.0
 40
1.0
 40
1.0
 40
1.0
 10
6.55434
 20
-4.12141
 30
0.0
 10
6.55434
 20
-4.12141
 30
0.0
 10
6.61866
 20
-4.12141
 30
0.0
 10
6.61866
 20
-4.12141
 30
0.0
 10
6.61866
 20
-4.12141
 30
0.0
 10
6.63227
 20
-4.12141
 30
0.0
 10
6.64302
 20
-4.11998
 30
0.0
 10
6.65071
 20
-4.11714
 30
0.0
 10
6.65071
 20
-4.11714
 30
0.0
 10
6.65845
 20
-4.1143
 30
0.0
 10
6.66429
 20
-4.10977
 30
0.0
 10
6.66829
 20
-4.10356
 30
0.0
 10
6.66829
 20
-4.10356
 30
0.0
 10
6.67229
 20
-4.09736
 30
0.0
 10
6.6743
 20
-4.09062
 30
0.0
 10
6.6743
 20
-4.0833
 30
0.0
 10
6.6743
 20
-4.0833
 30
0.0
 10
6.6743
 20
-4.07261
 30
0.0
 10
6.67043
 20
-4.06383
 30
0.0
 10
6.66266
 20
-4.05693
 30
0.0
 10
6.66266
 20
-4.05693
 30
0.0
 10
6.65493
 20
-4.05004
 30
0.0
 10
6.64267
 20
-4.0466
 30
0.0
 10
6.62587
 20
-4.0466
 30
0.0
 10
6.62587
 20
-4.0466
 30
0.0
 10
6.62587
 20
-4.0466
 30
0.0
 10
6.55434
 20
-4.0466
 30
0.0
 10
6.55434
 20
-4.0466
 30
0.0
 10
6.55434
 20
-4.0466
 30
0.0
 10
6.55434
 20
-4.0466
 30
0.0
 10
6.55434
 20
-4.12141
 30
0.0
 10
6.55434
 20
-4.12141
 30
0.0
  0
SPLINE
  5
97
330
1F
100
AcDbEntity
  8
Layer 1
 62
     3
370
     9
100
AcDbSpline
210
0.0
220
0.0
230
1.0
 70
    11
 71
     3
 72
    48
 73
    44
 74
     0
 42
0.0000000001
 43
0.0000000001
 12
1.0
 22
0.0
 32
0.0
 13
1.0
 23
0.0
 33
0.0
 40
0.0
 40
0.0
 40
0.0
 40
0.0
 40
0.0833333333333333
 40
0.0833333333333333
 40
0.0833333333333333
 40
0.0833333333333333
 40
0.1666666666666667
 40
0.1666666666666667
 40
0.1666666666666667
 40
0.1666666666666667
 40
0.25
 40
0.25
 40
0.25
 40
0.25
 40
0.3333333333333333
 40
0.3333333333333333
 40
0.3333333333333333
 40
0.3333333333333333
 40
0.4166666666666667
 40
0.4166666666666667
 40
0.4166666666666667
 40
0.4166666666666667
 40
0.5
 40
0.5
 40
0.5
 40
0.5
 40
0.5833333333333334
 40
0.5833333333333334
 40
0.5833333333333334
 40
0.5833333333333334
 40
0.6666666666666666
 40
0.6666666666666666
 40
0.6666666666666666
 40
0.6666666666666666
 40
0.75
 40
0.75
 40
0.75
 40
0.75
 40
0.8333333333333334
 40
0.8333333333333334
 40
0.8333333333333334
 40
0.8333333333333334
 40
1.0
 40
1.0
 40
1.0
 40
1.0
 10
6.74262
 20
-4.05124
 30
0.0
 10
6.74262
 20
-4.05124
 30
0.0
 10
6.74262
 20
-4.02455
 30
0.0
 10
6.74262
 20
-4.02455
 30
0.0
 10
6.74262
 20
-4.02455
 30
0.0
 10
6.74262
 20
-4.02455
 30
0.0
 10
6.88893
 20
-4.02455
 30
0.0
 10
6.88893
 20
-4.02455
 30
0.0
 10
6.88893
 20
-4.02455
 30
0.0
 10
6.88893
 20
-4.02455
 30
0.0
 10
6.88893
 20
-4.04614
 30
0.0
 10
6.88893
 20
-4.04614
 30
0.0
 10
6.88893
 20
-4.04614
 30
0.0
 10
6.87457
 20
-4.06146
 30
0.0
 10
6.8603
 20
-4.08182
 30
0.0
 10
6.84615
 20
-4.10719
 30
0.0
 10
6.84615
 20
-4.10719
 30
0.0
 10
6.83203
 20
-4.13256
 30
0.0
 10
6.82109
 20
-4.15873
 30
0.0
 10
6.8134
 20
-4.18552
 30
0.0
 10
6.8134
 20
-4.18552
 30
0.0
 10
6.80782
 20
-4.20446
 30
0.0
 10
6.8043
 20
-4.22514
 30
0.0
 10
6.80277
 20
-4.24767
 30
0.0
 10
6.80277
 20
-4.24767
 30
0.0
 10
6.80277
 20
-4.24767
 30
0.0
 10
6.77425
 20
-4.24767
 30
0.0
 10
6.77425
 20
-4.24767
 30
0.0
 10
6.77425
 20
-4.24767
 30
0.0
 10
6.77456
 20
-4.22988
 30
0.0
 10
6.77804
 20
-4.20841
 30
0.0
 10
6.78472
 20
-4.18319
 30
0.0
 10
6.78472
 20
-4.18319
 30
0.0
 10
6.7914
 20
-4.15804
 30
0.0
 10
6.80098
 20
-4.13373
 30
0.0
 10
6.81346
 20
-4.11036
 30
0.0
 10
6.81346
 20
-4.11036
 30
0.0
 10
6.82598
 20
-4.08699
 30
0.0
 10
6.83925
 20
-4.06725
 30
0.0
 10
6.85334
 20
-4.05124
 30
0.0
 10
6.85334
 20
-4.05124
 30
0.0
 10
6.85334
 20
-4.05124
 30
0.0
 10
6.74262
 20
-4.05124
 30
0.0
 10
6.74262
 20
-4.05124
 30
0.0
  0
SPLINE
  5
98
330
1F
100
AcDbEntity
  8
Layer 1
 62
     3
370
     9
100
AcDbSpline
210
0.0
220
0.0
230
1.0
 70
    11
 71
     3
 72
    20
 73
    16
 74
     0
 42
0.0000000001
 43
0.0000000001
 12
1.0
 22
0.0
 32
0.0
 13
1.0
 23
0.0
 33
0.0
 40
0.0
 40
0.0
 40
0.0
 40
0.0
 40
0.2
 40
0.2
 40
0.2
 40
0.2
 40
0.4
 40
0.4
 40
0.4
 40
0.4
 40
0.6
 40
0.6
 40
0.6
 40
0.6
 40
1.0
 40
1.0
 40
1.0
 40
1.0
 10
6.9033
 20
-4.25152
 30
0.0
 10
6.9033
 20
-4.25152
 30
0.0
 10
6.96883
 20
-4.01777
 30
0.0
 10
6.96883
 20
-4.01777
 30
0.0
 10
6.96883
 20
-4.01777
 30
0.0
 10
6.96883
 20
-4.01777
 30
0.0
 10
6.99104
 20
-4.01777
 30
0.0
 10
6.99104
 20
-4.01777
 30
0.0
 10
6.99104
 20
-4.01777
 30
0.0
 10
6.99104
 20
-4.01777
 30
0.0
 10
6.92567
 20
-4.25152
 30
0.0
 10
6.92567
 20
-4.25152
 30
0.0
 10
6.92567
 20
-4.25152
 30
0.0
 10
6.92567
 20
-4.25152
 30
0.0
 10
6.9033
 20
-4.25152
 30
0.0
 10
6.9033
 20
-4.25152
 30
0.0
  0
SPLINE
  5
99
330
1F
100
AcDbEntity
  8
Layer 1
 62
     3
370
     9
100
AcDbSpline
210
0.0
220
0.0
230
1.0
 70
    11
 71
     3
 72
    68
 73
    64
 74
     0
 42
0.0000000001
 43
0.0000000001
 12
1.0
 22
0.0
 32
0.0
 13
1.0
 23
0.0
 33
0.0
 40
0.0
 40
0.0
 40
0.0
 40
0.0
 40
0.0588235294117647
 40
0.0588235294117647
 40
0.0588235294117647
 40
0.0588235294117647
 40
0.1176470588235294
 40
0.1176470588235294
 40
0.1176470588235294
 40
0.1176470588235294
 40
0.1764705882352941
 40
0.1764705882352941
 40
0.1764705882352941
 40
0.1764705882352941
 40
0.2352941176470588
 40
0.2352941176470588
 40
0.2352941176470588
 40
0.2352941176470588
 40
0.2941176470588235
 40
0.2941176470588235
 40
0.2941176470588235
 40
0.2941176470588235
 40
0.3529411764705883
 40
0.3529411764705883
 40
0.3529411764705883
 40
0.3529411764705883
 40
0.4117647058823529
 40
0.4117647058823529
 40
0.4117647058823529
 40
0.4117647058823529
 40
0.4705882352941176
 40
0.4705882352941176
 40
0.4705882352941176
 40
0.4705882352941176
 40
0.5294117647058824
 40
0.5294117647058824
 40
0.5294117647058824
 40
0.5294117647058824
 40
0.5882352941176471
 40
0.5882352941176471
 40
0.5882352941176471
 40
0.5882352941176471
 40
0.6470588235294118
 40
0.6470588235294118
 40
0.6470588235294118
 40
0.6470588235294118
 40
0.7058823529411765
 40
0.7058823529411765
 40
0.7058823529411765
 40
0.7058823529411765
 40
0.7647058823529411
 40
0.7647058823529411
 40
0.7647058823529411
 40
0.7647058823529411
 40
0.8235294117647058
 40
0.8235294117647058
 40
0.8235294117647058
 40
0.8235294117647058
 40
0.8823529411764706
 40
0.8823529411764706
 40
0.8823529411764706
 40
0.8823529411764706
 40
1.0
 40
1.0
 40
1.0
 40
1.0
 10
7.04689
 20
-4.12509
 30
0.0
 10
7.03535
 20
-4.12087
 30
0.0
 10
7.02684
 20
-4.11487
 30
0.0
 10
7.02124
 20
-4.10704
 30
0.0
 10
7.02124
 20
-4.10704
 30
0.0
 10
7.01573
 20
-4.09925
 30
0.0
 10
7.01293
 20
-4.08988
 30
0.0
 10
7.01293
 20
-4.07898
 30
0.0
 10
7.01293
 20
-4.07898
 30
0.0
 10
7.01293
 20
-4.06251
 30
0.0
 10
7.01882
 20
-4.04872
 30
0.0
 10
7.03067
 20
-4.03751
 30
0.0
 10
7.03067
 20
-4.03751
 30
0.0
 10
7.04252
 20
-4.0263
 30
0.0
 10
7.0582
 20
-4.02066
 30
0.0
 10
7.07782
 20
-4.02066
 30
0.0
 10
7.07782
 20
-4.02066
 30
0.0
 10
7.09756
 20
-4.02066
 30
0.0
 10
7.11347
 20
-4.0264
 30
0.0
 10
7.12551
 20
-4.03788
 30
0.0
 10
7.12551
 20
-4.03788
 30
0.0
 10
7.13751
 20
-4.04934
 30
0.0
 10
7.14352
 20
-4.06329
 30
0.0
 10
7.14352
 20
-4.07978
 30
0.0
 10
7.14352
 20
-4.07978
 30
0.0
 10
7.14352
 20
-4.09025
 30
0.0
 10
7.14078
 20
-4.09935
 30
0.0
 10
7.13531
 20
-4.10714
 30
0.0
 10
7.13531
 20
-4.10714
 30
0.0
 10
7.12977
 20
-4.11487
 30
0.0
 10
7.12147
 20
-4.12087
 30
0.0
 10
7.11026
 20
-4.12509
 30
0.0
 10
7.11026
 20
-4.12509
 30
0.0
 10
7.1241
 20
-4.12961
 30
0.0
 10
7.13468
 20
-4.13688
 30
0.0
 10
7.14193
 20
-4.14698
 30
0.0
 10
7.14193
 20
-4.14698
 30
0.0
 10
7.14915
 20
-4.15704
 30
0.0
 10
7.15279
 20
-4.16909
 30
0.0
 10
7.15279
 20
-4.18304
 30
0.0
 10
7.15279
 20
-4.18304
 30
0.0
 10
7.15279
 20
-4.20241
 30
0.0
 10
7.14593
 20
-4.21861
 30
0.0
 10
7.13231
 20
-4.23178
 30
0.0
 10
7.13231
 20
-4.23178
 30
0.0
 10
7.11862
 20
-4.24493
 30
0.0
 10
7.10062
 20
-4.25152
 30
0.0
 10
7.0783
 20
-4.25152
 30
0.0
 10
7.0783
 20
-4.25152
 30
0.0
 10
7.056
 20
-4.25152
 30
0.0
 10
7.03805
 20
-4.24493
 30
0.0
 10
7.02436
 20
-4.23172
 30
0.0
 10
7.02436
 20
-4.23172
 30
0.0
 10
7.01068
 20
-4.21851
 30
0.0
 10
7.00384
 20
-4.20204
 30
0.0
 10
7.00384
 20
-4.1823
 30
0.0
 10
7.00384
 20
-4.1823
 30
0.0
 10
7.00384
 20
-4.16761
 30
0.0
 10
7.00757
 20
-4.1553
 30
0.0
 10
7.01505
 20
-4.14535
 30
0.0
 10
7.01505
 20
-4.14535
 30
0.0
 10
7.02247
 20
-4.13546
 30
0.0
 10
7.0331
 20
-4.12866
 30
0.0
 10
7.04689
 20
-4.12509
 30
0.0
  0
SPLINE
  5
9A
330
1F
100
AcDbEntity
  8
Layer 1
 62
     3
370
     9
100
AcDbSpline
210
0.0
220
0.0
230
1.0
 70
    11
 71
     3
 72
    36
 73
    32
 74
     0
 42
0.0000000001
 43
0.0000000001
 12
1.0
 22
0.0
 32
0.0
 13
1.0
 23
0.0
 33
0.0
 40
0.0
 40
0.0
 40
0.0
 40
0.0
 40
0.1111111111111111
 40
0.1111111111111111
 40
0.1111111111111111
 40
0.1111111111111111
 40
0.2222222222222222
 40
0.2222222222222222
 40
0.2222222222222222
 40
0.2222222222222222
 40
0.3333333333333333
 40
0.3333333333333333
 40
0.3333333333333333
 40
0.3333333333333333
 40
0.4444444444444444
 40
0.4444444444444444
 40
0.4444444444444444
 40
0.4444444444444444
 40
0.5555555555555556
 40
0.5555555555555556
 40
0.5555555555555556
 40
0.5555555555555556
 40
0.6666666666666666
 40
0.6666666666666666
 40
0.6666666666666666
 40
0.6666666666666666
 40
0.7777777777777778
 40
0.7777777777777778
 40
0.7777777777777778
 40
0.7777777777777778
 40
1.0
 40
1.0
 40
1.0
 40
1.0
 10
7.0413
 20
-4.07803
 30
0.0
 10
7.0413
 20
-4.08872
 30
0.0
 10
7.04478
 20
-4.09746
 30
0.0
 10
7.05163
 20
-4.10424
 30
0.0
 10
7.05163
 20
-4.10424
 30
0.0
 10
7.05851
 20
-4.11104
 30
0.0
 10
7.06746
 20
-4.11446
 30
0.0
 10
7.07846
 20
-4.11446
 30
0.0
 10
7.07846
 20
-4.11446
 30
0.0
 10
7.08915
 20
-4.11446
 30
0.0
 10
7.09793
 20
-4.11108
 30
0.0
 10
7.10478
 20
-4.10435
 30
0.0
 10
7.10478
 20
-4.10435
 30
0.0
 10
7.11162
 20
-4.09761
 30
0.0
 10
7.115
 20
-4.08934
 30
0.0
 10
7.115
 20
-4.07961
 30
0.0
 10
7.115
 20
-4.07961
 30
0.0
 10
7.115
 20
-4.0694
 30
0.0
 10
7.11152
 20
-4.06088
 30
0.0
 10
7.10447
 20
-4.05393
 30
0.0
 10
7.10447
 20
-4.05393
 30
0.0
 10
7.09742
 20
-4.04697
 30
0.0
 10
7.08868
 20
-4.04351
 30
0.0
 10
7.07813
 20
-4.04351
 30
0.0
 10
7.07813
 20
-4.04351
 30
0.0
 10
7.06755
 20
-4.04351
 30
0.0
 10
7.05878
 20
-4.04693
 30
0.0
 10
7.05177
 20
-4.05367
 30
0.0
 10
7.05177
 20
-4.05367
 30
0.0
 10
7.04478
 20
-4.06045
 30
0.0
 10
7.0413
 20
-4.06861
 30
0.0
 10
7.0413
 20
-4.07803
 30
0.0
  0
SPLINE
  5
9B
330
1F
100
AcDbEntity
  8
Layer 1
 62
     3
370
     9
100
AcDbSpline
210
0.0
220
0.0
230
1.0
 70
    11
 71
     3
 72
    40
 73
    36
 74
     0
 42
0.0000000001
 43
0.0000000001
 12
1.0
 22
0.0
 32
0.0
 13
1.0
 23
0.0
 33
0.0
 40
0.0
 40
0.0
 40
0.0
 40
0.0
 40
0.1
 40
0.1
 40
0.1
 40
0.1
 40
0.2
 40
0.2
 40
0.2
 40
0.2
 40
0.3
 40
0.3
 40
0.3
 40
0.3
 40
0.4
 40
0.4
 40
0.4
 40
0.4
 40
0.5
 40
0.5
 40
0.5
 40
0.5
 40
0.6
 40
0.6
 40
0.6
 40
0.6
 40
0.7
 40
0.7
 40
0.7
 40
0.7
 40
0.8
 40
0.8
 40
0.8
 40
0.8
 40
1.0
 40
1.0
 40
1.0
 40
1.0
 10
7.03236
 20
-4.18246
 30
0.0
 10
7.03236
 20
-4.19036
 30
0.0
 10
7.03425
 20
-4.19804
 30
0.0
 10
7.03797
 20
-4.2054
 30
0.0
 10
7.03797
 20
-4.2054
 30
0.0
 10
7.04172
 20
-4.21282
 30
0.0
 10
7.0473
 20
-4.21857
 30
0.0
 10
7.05472
 20
-4.22261
 30
0.0
 10
7.05472
 20
-4.22261
 30
0.0
 10
7.06213
 20
-4.22667
 30
0.0
 10
7.07009
 20
-4.22873
 30
0.0
 10
7.07861
 20
-4.22873
 30
0.0
 10
7.07861
 20
-4.22873
 30
0.0
 10
7.09188
 20
-4.22873
 30
0.0
 10
7.10284
 20
-4.22446
 30
0.0
 10
7.11147
 20
-4.21587
 30
0.0
 10
7.11147
 20
-4.21587
 30
0.0
 10
7.1201
 20
-4.20736
 30
0.0
 10
7.12441
 20
-4.1965
 30
0.0
 10
7.12441
 20
-4.18335
 30
0.0
 10
7.12441
 20
-4.18335
 30
0.0
 10
7.12441
 20
-4.16998
 30
0.0
 10
7.11999
 20
-4.15893
 30
0.0
 10
7.1111
 20
-4.15019
 30
0.0
 10
7.1111
 20
-4.15019
 30
0.0
 10
7.1022
 20
-4.14146
 30
0.0
 10
7.09105
 20
-4.13709
 30
0.0
 10
7.07768
 20
-4.13709
 30
0.0
 10
7.07768
 20
-4.13709
 30
0.0
 10
7.0646
 20
-4.13709
 30
0.0
 10
7.05383
 20
-4.1414
 30
0.0
 10
7.04526
 20
-4.15003
 30
0.0
 10
7.04526
 20
-4.15003
 30
0.0
 10
7.03667
 20
-4.15873
 30
0.0
 10
7.03236
 20
-4.16951
 30
0.0
 10
7.03236
 20
-4.18246
 30
0.0
  0
SPLINE
  5
9C
330
1F
100
AcDbEntity
  8
Layer 1
 62
     3
370
     9
100
AcDbSpline
210
0.0
220
0.0
230
1.0
 70
    11
 71
     3
 72
    36
 73
    32
 74
     0
 42
0.0000000001
 43
0.0000000001
 12
1.0
 22
0.0
 32
0.0
 13
1.0
 23
0.0
 33
0.0
 40
0.0
 40
0.0
 40
0.0
 40
0.0
 40
0.1111111111111111
 40
0.1111111111111111
 40
0.1111111111111111
 40
0.1111111111111111
 40
0.2222222222222222
 40
0.2222222222222222
 40
0.2222222222222222
 40
0.2222222222222222
 40
0.3333333333333333
 40
0.3333333333333333
 40
0.3333333333333333
 40
0.3333333333333333
 40
0.4444444444444444
 40
0.4444444444444444
 40
0.4444444444444444
 40
0.4444444444444444
 40
0.5555555555555556
 40
0.5555555555555556
 40
0.5555555555555556
 40
0.5555555555555556
 40
0.6666666666666666
 40
0.6666666666666666
 40
0.6666666666666666
 40
0.6666666666666666
 40
0.7777777777777778
 40
0.7777777777777778
 40
0.7777777777777778
 40
0.7777777777777778
 40
1.0
 40
1.0
 40
1.0
 40
1.0
 10
7.23388
 20
-4.31042
 30
0.0
 10
7.23388
 20
-4.31042
 30
0.0
 10
7.17268
 20
-4.31042
 30
0.0
 10
7.17268
 20
-4.31042
 30
0.0
 10
7.17268
 20
-4.31042
 30
0.0
 10
7.17268
 20
-4.31042
 30
0.0
 10
7.17268
 20
-4.28746
 30
0.0
 10
7.17268
 20
-4.28746
 30
0.0
 10
7.17268
 20
-4.28746
 30
0.0
 10
7.17268
 20
-4.28746
 30
0.0
 10
7.20613
 20
-4.28746
 30
0.0
 10
7.20613
 20
-4.28746
 30
0.0
 10
7.20613
 20
-4.28746
 30
0.0
 10
7.20613
 20
-4.28746
 30
0.0
 10
7.20613
 20
-4.0446
 30
0.0
 10
7.20613
 20
-4.0446
 30
0.0
 10
7.20613
 20
-4.0446
 30
0.0
 10
7.20613
 20
-4.0446
 30
0.0
 10
7.17268
 20
-4.0446
 30
0.0
 10
7.17268
 20
-4.0446
 30
0.0
 10
7.17268
 20
-4.0446
 30
0.0
 10
7.17268
 20
-4.0446
 30
0.0
 10
7.17268
 20
-4.02161
 30
0.0
 10
7.17268
 20
-4.02161
 30
0.0
 10
7.17268
 20
-4.02161
 30
0.0
 10
7.17268
 20
-4.02161
 30
0.0
 10
7.23388
 20
-4.02161
 30
0.0
 10
7.23388
 20
-4.02161
 30
0.0
 10
7.23388
 20
-4.02161
 30
0.0
 10
7.23388
 20
-4.02161
 30
0.0
 10
7.23388
 20
-4.31042
 30
0.0
 10
7.23388
 20
-4.31042
 30
0.0
  0
SPLINE
  5
9D
330
1F
100
AcDbEntity
  8
Layer 1
 62
     3
370
     9
100
AcDbSpline
210
0.0
220
0.0
230
1.0
 70
    27
 71
     3
 72
    12
 73
     8
 74
     0
 42
0.0000000001
 43
0.0000000001
 12
1.0
 22
0.0
 32
0.0
 13
1.0
 23
0.0
 33
0.0
 40
0.0
 40
0.0
 40
0.0
 40
0.0
 40
0.3333333333333333
 40
0.3333333333333333
 40
0.3333333333333333
 40
0.3333333333333333
 40
1.0
 40
1.0
 40
1.0
 40
1.0
 10
8.95394
 20
-5.25017
 30
0.0
 10
8.95394
 20
-5.25017
 30
0.0
 10
9.1097
 20
-5.52987
 30
0.0
 10
9.1097
 20
-5.52987
 30
0.0
 10
9.1097
 20
-5.52987
 30
0.0
 10
9.1097
 20
-5.52987
 30
0.0
 10
8.95394
 20
-5.25017
 30
0.0
 10
8.95394
 20
-5.25017
 30
0.0
  0
SPLINE
  5
9E
330
1F
100
AcDbEntity
  8
Layer 1
 62
     3
370
     9
100
AcDbSpline
210
0.0
220
0.0
230
1.0
 70
    11
 71
     3
 72
    16
 73
    12
 74
     0
 42
0.0000000001
 43
0.0000000001
 12
1.0
 22
0.0
 32
0.0
 13
1.0
 23
0.0
 33
0.0
 40
0.0
 40
0.0
 40
0.0
 40
0.0
 40
0.25
 40
0.25
 40
0.25
 40
0.25
 40
0.5
 40
0.5
 40
0.5
 40
0.5
 40
1.0
 40
1.0
 40
1.0
 40
1.0
 10
9.1097
 20
-5.52987
 30
0.0
 10
9.1097
 20
-5.52987
 30
0.0
 10
8.87165
 20
-5.31581
 30
0.0
 10
8.87165
 20
-5.31581
 30
0.0
 10
8.87165
 20
-5.31581
 30
0.0
 10
8.87165
 20
-5.31581
 30
0.0
 10
8.95394
 20
-5.25017
 30
0.0
 10
8.95394
 20
-5.25017
 30
0.0
 10
8.95394
 20
-5.25017
 30
0.0
 10
8.95394
 20
-5.25017
 30
0.0
 10
9.1097
 20
-5.52987
 30
0.0
 10
9.1097
 20
-5.52987
 30
0.0
  0
SPLINE
  5
9F
330
1F
100
AcDbEntity
  8
Layer 1
 62
     3
370
     9
100
AcDbSpline
210
0.0
220
0.0
230
1.0
 70
    24
 71
     3
 72
     8
 73
     4
 74
     0
 42
0.0000000001
 43
0.0000000001
 12
1.0
 22
0.0
 32
0.0
 13
1.0
 23
0.0
 33
0.0
 40
0.0
 40
0.0
 40
0.0
 40
0.0
 40
1.0
 40
1.0
 40
1.0
 40
1.0
 10
8.95394
 20
-5.25017
 30
0.0
 10
8.95394
 20
-5.25017
 30
0.0
 10
9.1097
 20
-5.52987
 30
0.0
 10
9.1097
 20
-5.52987
 30
0.0
  0
SPLINE
  5
A0
330
1F
100
AcDbEntity
  8
Layer 1
 62
     3
370
     9
100
AcDbSpline
210
0.0
220
0.0
230
1.0
 70
     8
 71
     3
 72
    12
 73
     8
 74
     0
 42
0.0000000001
 43
0.0000000001
 12
1.0
 22
0.0
 32
0.0
 13
1.0
 23
0.0
 33
0.0
 40
0.0
 40
0.0
 40
0.0
 40
0.0
 40
0.3333333333333333
 40
0.3333333333333333
 40
0.3333333333333333
 40
0.3333333333333333
 40
1.0
 40
1.0
 40
1.0
 40
1.0
 10
9.1097
 20
-5.52987
 30
0.0
 10
9.1097
 20
-5.52987
 30
0.0
 10
8.87165
 20
-5.31581
 30
0.0
 10
8.87165
 20
-5.31581
 30
0.0
 10
8.87165
 20
-5.31581
 30
0.0
 10
8.87165
 20
-5.31581
 30
0.0
 10
8.95394
 20
-5.25017
 30
0.0
 10
8.95394
 20
-5.25017
 30
0.0
  0
SPLINE
  5
A2
330
1F
100
AcDbEntity
  8
layer 2
 62
     4
370
    18
100
AcDbSpline
210
0.0
220
0.0
230
1.0
 70
    24
 71
     3
 72
     8
 73
     4
 74
     0
 42
0.0000000001
 43
0.0000000001
 12
1.0
 22
0.0
 32
0.0
 13
1.0
 23
0.0
 33
0.0
 40
0.0
 40
0.0
 40
0.0
 40
0.0
 40
1.0
 40
1.0
 40
1.0
 40
1.0
 10
-8.34954
 20
6.35384
 30
0.0
 10
-8.34954
 20
6.35384
 30
0.0
 10
8.77647
 20
6.35384
 30
0.0
 10
8.77647
 20
6.35384
 30
0.0
  0
SPLINE
  5
A3
330
1F
100
AcDbEntity
  8
layer 2
 62
     4
370
    18
100
AcDbSpline
210
0.0
220
0.0
230
1.0
 70
     8
 71
     3
 72
    12
 73
     8
 74
     0
 42
0.0000000001
 43
0.0000000001
 12
1.0
 22
0.0
 32
0.0
 13
1.0
 23
0.0
 33
0.0
 40
0.0
 40
0.0
 40
0.0
 40
0.0
 40
0.3333333333333333
 40
0.3333333333333333
 40
0.3333333333333333
 40
0.3333333333333333
 40
1.0
 40
1.0
 40
1.0
 40
1.0
 10
9.31089
 20
5.81941
 30
0.0
 10
9.31089
 20
5.96115
 30
0.0
 10
9.25458
 20
6.09709
 30
0.0
 10
9.15435
 20
6.1973
 30
0.0
 10
9.15435
 20
6.1973
 30
0.0
 10
9.05414
 20
6.29753
 30
0.0
 10
8.91821
 20
6.35384
 30
0.0
 10
8.77647
 20
6.35384
 30
0.0
  0
SPLINE
  5
A4
330
1F
100
AcDbEntity
  8
layer 2
 62
     4
370
    18
100
AcDbSpline
210
0.0
220
0.0
230
1.0
 70
    27
 71
     3
 72
     8
 73
     4
 74
     0
 42
0.0000000001
 43
0.0000000001
 12
1.0
 22
0.0
 32
0.0
 13
1.0
 23
0.0
 33
0.0
 40
0.0
 40
0.0
 40
0.0
 40
0.0
 40
1.0
 40
1.0
 40
1.0
 40
1.0
 10
9.31089
 20
5.81941
 30
0.0
 10
9.31089
 20
5.81941
 30
0.0
 10
9.31089
 20
5.81941
 30
0.0
 10
9.31089
 20
5.81941
 30
0.0
  0
SPLINE
  5
A5
330
1F
100
AcDbEntity
  8
layer 2
 62
     4
370
    18
100
AcDbSpline
210
0.0
220
0.0
230
1.0
 70
    24
 71
     3
 72
     8
 73
     4
 74
     0
 42
0.0000000001
 43
0.0000000001
 12
1.0
 22
0.0
 32
0.0
 13
1.0
 23
0.0
 33
0.0
 40
0.0
 40
0.0
 40
0.0
 40
0.0
 40
1.0
 40
1.0
 40
1.0
 40
1.0
 10
9.31089
 20
5.81941
 30
0.0
 10
9.31089
 20
5.81941
 30
0.0
 10
9.31089
 20
-5.11207
 30
0.0
 10
9.31089
 20
-5.11207
 30
0.0
  0
SPLINE
  5
A6
330
1F
100
AcDbEntity
  8
layer 2
 62
     4
370
    18
100
AcDbSpline
210
0.0
220
0.0
230
1.0
 70
     8
 71
     3
 72
    12
 73
     8
 74
     0
 42
0.0000000001
 43
0.0000000001
 12
1.0
 22
0.0
 32
0.0
 13
1.0
 23
0.0
 33
0.0
 40
0.0
 40
0.0
 40
0.0
 40
0.0
 40
0.3333333333333333
 40
0.3333333333333333
 40
0.3333333333333333
 40
0.3333333333333333
 40
1.0
 40
1.0
 40
1.0
 40
1.0
 10
8.77647
 20
-5.6465
 30
0.0
 10
8.91821
 20
-5.6465
 30
0.0
 10
9.05414
 20
-5.59019
 30
0.0
 10
9.15435
 20
-5.48996
 30
0.0
 10
9.15435
 20
-5.48996
 30
0.0
 10
9.25458
 20
-5.38975
 30
0.0
 10
9.31089
 20
-5.25381
 30
0.0
 10
9.31089
 20
-5.11207
 30
0.0
  0
SPLINE
  5
A7
330
1F
100
AcDbEntity
  8
layer 2
 62
     4
370
    18
100
AcDbSpline
210
0.0
220
0.0
230
1.0
 70
    27
 71
     3
 72
     8
 73
     4
 74
     0
 42
0.0000000001
 43
0.0000000001
 12
1.0
 22
0.0
 32
0.0
 13
1.0
 23
0.0
 33
0.0
 40
0.0
 40
0.0
 40
0.0
 40
0.0
 40
1.0
 40
1.0
 40
1.0
 40
1.0
 10
8.77647
 20
-5.6465
 30
0.0
 10
8.77647
 20
-5.6465
 30
0.0
 10
8.77647
 20
-5.6465
 30
0.0
 10
8.77647
 20
-5.6465
 30
0.0
  0
SPLINE
  5
A8
330
1F
100
AcDbEntity
  8
layer 2
 62
     4
370
    18
100
AcDbSpline
210
0.0
220
0.0
230
1.0
 70
    24
 71
     3
 72
     8
 73
     4
 74
     0
 42
0.0000000001
 43
0.0000000001
 12
1.0
 22
0.0
 32
0.0
 13
1.0
 23
0.0
 33
0.0
 40
0.0
 40
0.0
 40
0.0
 40
0.0
 40
1.0
 40
1.0
 40
1.0
 40
1.0
 10
8.77647
 20
-5.6465
 30
0.0
 10
8.77647
 20
-5.6465
 30
0.0
 10
-8.34954
 20
-5.6465
 30
0.0
 10
-8.34954
 20
-5.6465
 30
0.0
  0
SPLINE
  5
A9
330
1F
100
AcDbEntity
  8
layer 2
 62
     4
370
    18
100
AcDbSpline
210
0.0
220
0.0
230
1.0
 70
     8
 71
     3
 72
    12
 73
     8
 74
     0
 42
0.0000000001
 43
0.0000000001
 12
1.0
 22
0.0
 32
0.0
 13
1.0
 23
0.0
 33
0.0
 40
0.0
 40
0.0
 40
0.0
 40
0.0
 40
0.3333333333333333
 40
0.3333333333333333
 40
0.3333333333333333
 40
0.3333333333333333
 40
1.0
 40
1.0
 40
1.0
 40
1.0
 10
-8.88397
 20
-5.11207
 30
0.0
 10
-8.88397
 20
-5.25381
 30
0.0
 10
-8.82766
 20
-5.38975
 30
0.0
 10
-8.72743
 20
-5.48996
 30
0.0
 10
-8.72743
 20
-5.48996
 30
0.0
 10
-8.62722
 20
-5.59019
 30
0.0
 10
-8.49128
 20
-5.6465
 30
0.0
 10
-8.34954
 20
-5.6465
 30
0.0
  0
SPLINE
  5
AA
330
1F
100
AcDbEntity
  8
layer 2
 62
     4
370
    18
100
AcDbSpline
210
0.0
220
0.0
230
1.0
 70
    24
 71
     3
 72
     8
 73
     4
 74
     0
 42
0.0000000001
 43
0.0000000001
 12
1.0
 22
0.0
 32
0.0
 13
1.0
 23
0.0
 33
0.0
 40
0.0
 40
0.0
 40
0.0
 40
0.0
 40
1.0
 40
1.0
 40
1.0
 40
1.0
 10
-8.88397
 20
-5.11207
 30
0.0
 10
-8.88397
 20
-5.11207
 30
0.0
 10
-8.88397
 20
5.81941
 30
0.0
 10
-8.88397
 20
5.81941
 30
0.0
  0
SPLINE
  5
AB
330
1F
100
AcDbEntity
  8
layer 2
 62
     4
370
    18
100
AcDbSpline
210
0.0
220
0.0
230
1.0
 70
     8
 71
     3
 72
    12
 73
     8
 74
     0
 42
0.0000000001
 43
0.0000000001
 12
1.0
 22
0.0
 32
0.0
 13
1.0
 23
0.0
 33
0.0
 40
0.0
 40
0.0
 40
0.0
 40
0.0
 40
0.3333333333333333
 40
0.3333333333333333
 40
0.3333333333333333
 40
0.3333333333333333
 40
1.0
 40
1.0
 40
1.0
 40
1.0
 10
-8.34954
 20
6.35384
 30
0.0
 10
-8.49128
 20
6.35384
 30
0.0
 10
-8.62722
 20
6.29753
 30
0.0
 10
-8.72743
 20
6.1973
 30
0.0
 10
-8.72743
 20
6.1973
 30
0.0
 10
-8.82766
 20
6.09709
 30
0.0
 10
-8.88397
 20
5.96115
 30
0.0
 10
-8.88397
 20
5.81941
 30
0.0
  0
ENDSEC
  0
SECTION
  2
OBJECTS
  0
DICTIONARY
  5
C
330
0
100
AcDbDictionary
281
     1
  3
ACAD_GROUP
350
D
  3
ACAD_LAYOUT
350
1A
  3
ACAD_MATERIAL
350
3B
  3
ACAD_MLEADERSTYLE
350
CD
  3
ACAD_MLINESTYLE
350
17
  3
ACAD_PLOTSETTINGS
350
19
  3
ACAD_PLOTSTYLENAME
350
E
  3
ACAD_TABLESTYLE
350
CC
  3
ACAD_VISUALSTYLE
350
2A
  0
DICTIONARY
  5
D
102
{ACAD_REACTORS
330
C
102
}
330
C
100
AcDbDictionary
281
     1
  0
DICTIONARY
  5
1A
102
{ACAD_REACTORS
330
C
102
}
330
C
100
AcDbDictionary
281
     1
  3
Layout1
350
1E
  3
Layout2
350
26
  3
Model
350
22
  0
DICTIONARY
  5
3B
102
{ACAD_REACTORS
330
C
102
}
330
C
100
AcDbDictionary
281
     1
  3
ByBlock
350
3D
  3
ByLayer
350
3C
  3
Global
350
3E
  0
DICTIONARY
  5
CD
102
{ACAD_REACTORS
330
C
102
}
330
C
100
AcDbDictionary
281
     1
  0
DICTIONARY
  5
17
102
{ACAD_REACTORS
330
C
102
}
330
C
100
AcDbDictionary
281
     1
  3
Standard
350
18
  0
DICTIONARY
  5
19
102
{ACAD_REACTORS
330
C
102
}
330
C
100
AcDbDictionary
281
     1
  0
ACDBDICTIONARYWDFLT
  5
E
102
{ACAD_REACTORS
330
C
102
}
330
C
100
AcDbDictionary
281
     1
  3
Normal
350
F
100
AcDbDictionaryWithDefault
340
F
  0
DICTIONARY
  5
CC
102
{ACAD_REACTORS
330
C
102
}
330
C
100
AcDbDictionary
281
     1
  0
DICTIONARY
  5
2A
102
{ACAD_REACTORS
330
C
102
}
330
C
100
AcDbDictionary
281
     1
  3
2dWireframe
350
2F
  3
3D Hidden
350
31
  3
3dWireframe
350
30
  3
Basic
350
32
  3
Brighten
350
36
  3
ColorChange
350
3A
  3
Conceptual
350
34
  3
Dim
350
35
  3
Facepattern
350
39
  3
Flat
350
2B
  3
FlatWithEdges
350
2C
  3
Gouraud
350
2D
  3
GouraudWithEdges
350
2E
  3
Linepattern
350
38
  3
Realistic
350
33
  3
Thicken
350
37
  0
LAYOUT
  5
1E
102
{ACAD_REACTORS
330
1A
102
}
330
1A
100
AcDbPlotSettings
  1

  2
none_device
  4

  6

 40
0.0
 41
0.0
 42
0.0
 43
0.0
 44
0.0
 45
0.0
 46
0.0
 47
0.0
 48
0.0
 49
0.0
140
0.0
141
0.0
142
1.0
143
1.0
 70
   688
 72
     0
 73
     0
 74
     5
  7

 75
    16
 76
     0
 77
     2
 78
   300
147
1.0
148
0.0
149
0.0
100
AcDbLayout
  1
Layout1
 70
     1
 71
     1
 10
0.0
 20
0.0
 11
12.0
 21
9.0
 12
0.0
 22
0.0
 32
0.0
 14
1.000000000000000E+20
 24
1.000000000000000E+20
 34
1.000000000000000E+20
 15
-1.000000000000000E+20
 25
-1.000000000000000E+20
 35
-1.000000000000000E+20
146
0.0
 13
0.0
 23
0.0
 33
0.0
 16
1.0
 26
0.0
 36
0.0
 17
0.0
 27
1.0
 37
0.0
 76
     0
330
1B
  0
LAYOUT
  5
26
102
{ACAD_REACTORS
330
1A
102
}
330
1A
100
AcDbPlotSettings
  1

  2
none_device
  4

  6

 40
0.0
 41
0.0
 42
0.0
 43
0.0
 44
0.0
 45
0.0
 46
0.0
 47
0.0
 48
0.0
 49
0.0
140
0.0
141
0.0
142
1.0
143
1.0
 70
   688
 72
     0
 73
     0
 74
     5
  7

 75
    16
 76
     0
 77
     2
 78
   300
147
1.0
148
0.0
149
0.0
100
AcDbLayout
  1
Layout2
 70
     1
 71
     2
 10
0.0
 20
0.0
 11
0.0
 21
0.0
 12
0.0
 22
0.0
 32
0.0
 14
0.0
 24
0.0
 34
0.0
 15
0.0
 25
0.0
 35
0.0
146
0.0
 13
0.0
 23
0.0
 33
0.0
 16
1.0
 26
0.0
 36
0.0
 17
0.0
 27
1.0
 37
0.0
 76
     0
330
23
  0
LAYOUT
  5
22
102
{ACAD_REACTORS
330
1A
102
}
330
1A
100
AcDbPlotSettings
  1

  2
none_device
  4

  6

 40
0.0
 41
0.0
 42
0.0
 43
0.0
 44
0.0
 45
0.0
 46
0.0
 47
0.0
 48
0.0
 49
0.0
140
0.0
141
0.0
142
1.0
143
1.0
 70
  1712
 72
     0
 73
     0
 74
     0
  7

 75
     0
 76
     0
 77
     2
 78
   300
147
1.0
148
0.0
149
0.0
100
AcDbLayout
  1
Model
 70
     1
 71
     0
 10
0.0
 20
0.0
 11
12.0
 21
9.0
 12
0.0
 22
0.0
 32
0.0
 14
-10.76472
 24
-8.05418
 34
0.0
 15
9.31989
 25
8.41722
 35
0.0
146
0.0
 13
0.0
 23
0.0
 33
0.0
 16
1.0
 26
0.0
 36
0.0
 17
0.0
 27
1.0
 37
0.0
 76
     0
330
1F
331
29
  0
MATERIAL
  5
3D
102
{ACAD_REACTORS
330
3B
102
}
330
3B
100
AcDbMaterial
  1
ByBlock
 72
     1
 94
      127
  0
MATERIAL
  5
3C
102
{ACAD_REACTORS
330
3B
102
}
330
3B
100
AcDbMaterial
  1
ByLayer
 72
     1
 94
      127
  0
MATERIAL
  5
3E
102
{ACAD_REACTORS
330
3B
102
}
330
3B
100
AcDbMaterial
  1
Global
 72
     1
 94
      127
  0
MLINESTYLE
  5
18
102
{ACAD_REACTORS
330
17
102
}
330
17
100
AcDbMlineStyle
  2
Standard
 70
     0
  3

 62
   256
 51
90.0
 52
90.0
 71
     2
 49
0.5
 62
   256
  6
BYLAYER
 49
-0.5
 62
   256
  6
BYLAYER
  0
ACDBPLACEHOLDER
  5
F
102
{ACAD_REACTORS
330
E
102
}
330
E
  0
VISUALSTYLE
  5
2F
102
{ACAD_REACTORS
330
2A
102
}
102
{ACAD_XDICTIONARY
360
B4
102
}
330
2A
100
AcDbVisualStyle
  2
2dWireframe
 70
     4
 71
     0
 72
     2
 73
     0
 90
        0
 40
-0.6
 41
-30.0
 62
     5
 63
     7
421
 16777215
 74
     1
 91
        4
 64
     7
 65
   257
 75
     1
175
     1
 42
1.0
 92
        0
 66
   257
 43
1.0
 76
     1
 77
     6
 78
     2
 67
     7
 79
     5
170
     0
171
     0
290
     0
174
     0
 93
        1
 44
0.0
173
     0
291
     0
 45
0.0
  0
VISUALSTYLE
  5
31
102
{ACAD_REACTORS
330
2A
102
}
102
{ACAD_XDICTIONARY
360
B8
102
}
330
2A
100
AcDbVisualStyle
  2
3D Hidden
 70
     6
 71
     1
 72
     2
 73
     2
 90
        0
 40
-0.6
 41
-30.0
 62
     5
 63
     7
421
 16777215
 74
     2
 91
        2
 64
     7
 65
   257
 75
     2
175
     1
 42
40.0
 92
        0
 66
   257
 43
1.0
 76
     1
 77
     6
 78
     2
 67
     7
 79
     3
170
     0
171
     0
290
     0
174
     0
 93
        1
 44
0.0
173
     0
291
     0
 45
0.0
  0
VISUALSTYLE
  5
30
102
{ACAD_REACTORS
330
2A
102
}
102
{ACAD_XDICTIONARY
360
B6
102
}
330
2A
100
AcDbVisualStyle
  2
3dWireframe
 70
     5
 71
     0
 72
     2
 73
     0
 90
        0
 40
-0.6
 41
-30.0
 62
     5
 63
     7
421
 16777215
 74
     1
 91
        4
 64
     7
 65
   257
 75
     1
175
     1
 42
1.0
 92
        0
 66
   257
 43
1.0
 76
     1
 77
     6
 78
     2
 67
     7
 79
     5
170
     0
171
     0
290
     0
174
     0
 93
        1
 44
0.0
173
     0
291
     0
 45
0.0
  0
VISUALSTYLE
  5
32
102
{ACAD_REACTORS
330
2A
102
}
102
{ACAD_XDICTIONARY
360
BA
102
}
330
2A
100
AcDbVisualStyle
  2
Basic
 70
     7
 71
     1
 72
     0
 73
     1
 90
        0
 40
-0.6
 41
-30.0
 62
     5
 63
     7
421
 16777215
 74
     0
 91
        4
 64
     7
 65
   257
 75
     1
175
     1
 42
1.0
 92
        8
 66
     7
 43
1.0
 76
     1
 77
     6
 78
     2
 67
     7
 79
     5
170
     0
171
     0
290
     0
174
     0
 93
        1
 44
0.0
173
     0
291
     1
 45
0.0
  0
VISUALSTYLE
  5
36
102
{ACAD_REACTORS
330
2A
102
}
102
{ACAD_XDICTIONARY
360
C2
102
}
330
2A
100
AcDbVisualStyle
  2
Brighten
 70
    12
 71
     2
 72
     2
 73
     0
 90
        0
 40
-0.6
 41
-30.0
 62
     5
 63
     7
421
 16777215
 74
     1
 91
        4
 64
     7
 65
   257
 75
     1
175
     1
 42
1.0
 92
        8
 66
     7
 43
1.0
 76
     1
 77
     6
 78
     2
 67
     7
 79
     5
170
     0
171
     0
290
     0
174
     0
 93
        1
 44
50.0
173
     0
291
     1
 45
0.0
  0
VISUALSTYLE
  5
3A
102
{ACAD_REACTORS
330
2A
102
}
102
{ACAD_XDICTIONARY
360
CA
102
}
330
2A
100
AcDbVisualStyle
  2
ColorChange
 70
    16
 71
     2
 72
     2
 73
     3
 90
        0
 40
-0.6
 41
-30.0
 62
     5
 63
     8
421
  8421504
 74
     1
 91
        4
 64
     7
 65
   257
 75
     1
175
     1
 42
1.0
 92
        8
 66
     8
424
  8421504
 43
1.0
 76
     1
 77
     6
 78
     2
 67
     7
 79
     5
170
     0
171
     0
290
     0
174
     0
 93
        1
 44
0.0
173
     0
291
     1
 45
0.0
  0
VISUALSTYLE
  5
34
102
{ACAD_REACTORS
330
2A
102
}
102
{ACAD_XDICTIONARY
360
BE
102
}
330
2A
100
AcDbVisualStyle
  2
Conceptual
 70
     9
 71
     3
 72
     2
 73
     0
 90
        0
 40
-0.6
 41
-30.0
 62
     5
 63
     7
421
 16777215
 74
     2
 91
        2
 64
     7
 65
   257
 75
     1
175
     1
 42
40.0
 92
        8
 66
     7
 43
1.0
 76
     1
 77
     6
 78
     2
 67
     7
 79
     3
170
     0
171
     0
290
     0
174
     0
 93
        1
 44
0.0
173
     0
291
     0
 45
0.0
  0
VISUALSTYLE
  5
35
102
{ACAD_REACTORS
330
2A
102
}
102
{ACAD_XDICTIONARY
360
C0
102
}
330
2A
100
AcDbVisualStyle
  2
Dim
 70
    11
 71
     2
 72
     2
 73
     0
 90
        0
 40
-0.6
 41
-30.0
 62
     5
 63
     7
421
 16777215
 74
     1
 91
        4
 64
     7
 65
   257
 75
     1
175
     1
 42
1.0
 92
        8
 66
     7
 43
1.0
 76
     1
 77
     6
 78
     2
 67
     7
 79
     5
170
     0
171
     0
290
     0
174
     0
 93
        1
 44
-50.0
173
     0
291
     1
 45
0.0
  0
VISUALSTYLE
  5
39
102
{ACAD_REACTORS
330
2A
102
}
102
{ACAD_XDICTIONARY
360
C8
102
}
330
2A
100
AcDbVisualStyle
  2
Facepattern
 70
    15
 71
     2
 72
     2
 73
     0
 90
        0
 40
-0.6
 41
-30.0
 62
     5
 63
     7
421
 16777215
 74
     1
 91
        4
 64
     7
 65
   257
 75
     1
175
     1
 42
1.0
 92
        8
 66
     7
 43
1.0
 76
     1
 77
     6
 78
     2
 67
     7
 79
     5
170
     0
171
     0
290
     0
174
     0
 93
        1
 44
0.0
173
     0
291
     1
 45
0.0
  0
VISUALSTYLE
  5
2B
102
{ACAD_REACTORS
330
2A
102
}
102
{ACAD_XDICTIONARY
360
AC
102
}
330
2A
100
AcDbVisualStyle
  2
Flat
 70
     0
 71
     2
 72
     1
 73
     1
 90
        2
 40
-0.6
 41
30.0
 62
     5
 63
     7
421
 16777215
 74
     0
 91
        4
 64
     7
 65
   257
 75
     1
175
     1
 42
1.0
 92
        8
 66
     7
 43
1.0
 76
     1
 77
     6
 78
     2
 67
     7
 79
     5
170
     0
171
     0
290
     0
174
     0
 93
       13
 44
0.0
173
     0
291
     1
 45
0.0
  0
VISUALSTYLE
  5
2C
102
{ACAD_REACTORS
330
2A
102
}
102
{ACAD_XDICTIONARY
360
AE
102
}
330
2A
100
AcDbVisualStyle
  2
FlatWithEdges
 70
     1
 71
     2
 72
     1
 73
     1
 90
        2
 40
-0.6
 41
30.0
 62
     5
 63
     7
421
 16777215
 74
     1
 91
        4
 64
     7
 65
   257
 75
     1
175
     1
 42
1.0
 92
        0
 66
   257
 43
1.0
 76
     1
 77
     6
 78
     2
 67
     7
 79
     5
170
     0
171
     0
290
     0
174
     0
 93
       13
 44
0.0
173
     0
291
     1
 45
0.0
  0
VISUALSTYLE
  5
2D
102
{ACAD_REACTORS
330
2A
102
}
102
{ACAD_XDICTIONARY
360
B0
102
}
330
2A
100
AcDbVisualStyle
  2
Gouraud
 70
     2
 71
     2
 72
     2
 73
     1
 90
        2
 40
-0.6
 41
30.0
 62
     5
 63
     7
421
 16777215
 74
     0
 91
        4
 64
     7
 65
   257
 75
     1
175
     1
 42
1.0
 92
        0
 66
     7
 43
1.0
 76
     1
 77
     6
 78
     2
 67
     7
 79
     5
170
     0
171
     0
290
     0
174
     0
 93
       13
 44
0.0
173
     0
291
     1
 45
0.0
  0
VISUALSTYLE
  5
2E
102
{ACAD_REACTORS
330
2A
102
}
102
{ACAD_XDICTIONARY
360
B2
102
}
330
2A
100
AcDbVisualStyle
  2
GouraudWithEdges
 70
     3
 71
     2
 72
     2
 73
     1
 90
        2
 40
-0.6
 41
30.0
 62
     5
 63
     7
421
 16777215
 74
     1
 91
        4
 64
     7
 65
   257
 75
     1
175
     1
 42
1.0
 92
        0
 66
   257
 43
1.0
 76
     1
 77
     6
 78
     2
 67
     7
 79
     5
170
     0
171
     0
290
     0
174
     0
 93
       13
 44
0.0
173
     0
291
     1
 45
0.0
  0
VISUALSTYLE
  5
38
102
{ACAD_REACTORS
330
2A
102
}
102
{ACAD_XDICTIONARY
360
C6
102
}
330
2A
100
AcDbVisualStyle
  2
Linepattern
 70
    14
 71
     2
 72
     2
 73
     0
 90
        0
 40
-0.6
 41
-30.0
 62
     5
 63
     7
421
 16777215
 74
     1
 91
        4
 64
     7
 65
   257
 75
     7
175
     7
 42
1.0
 92
        8
 66
     7
 43
1.0
 76
     1
 77
     6
 78
     2
 67
     7
 79
     5
170
     0
171
     0
290
     0
174
     0
 93
        1
 44
0.0
173
     0
291
     1
 45
0.0
  0
VISUALSTYLE
  5
33
102
{ACAD_REACTORS
330
2A
102
}
102
{ACAD_XDICTIONARY
360
BC
102
}
330
2A
100
AcDbVisualStyle
  2
Realistic
 70
     8
 71
     2
 72
     2
 73
     0
 90
        0
 40
-0.6
 41
-30.0
 62
     5
 63
     7
421
 16777215
 74
     1
 91
        0
 64
     7
 65
   257
 75
     1
175
     1
 42
1.0
 92
        8
 66
     8
424
  7895160
 43
1.0
 76
     1
 77
     6
 78
     2
 67
     7
 79
     5
170
     0
171
     0
290
     0
174
     0
 93
       13
 44
0.0
173
     0
291
     0
 45
0.0
  0
VISUALSTYLE
  5
37
102
{ACAD_REACTORS
330
2A
102
}
102
{ACAD_XDICTIONARY
360
C4
102
}
330
2A
100
AcDbVisualStyle
  2
Thicken
 70
    13
 71
     2
 72
     2
 73
     0
 90
        0
 40
-0.6
 41
-30.0
 62
     5
 63
     7
421
 16777215
 74
     1
 91
        4
 64
     7
 65
   257
 75
     1
175
     1
 42
1.0
 92
       12
 66
     7
 43
1.0
 76
     1
 77
     6
 78
     2
 67
     7
 79
     5
170
     0
171
     0
290
     0
174
     0
 93
        1
 44
0.0
173
     0
291
     1
 45
0.0
  0
DICTIONARY
  5
B4
330
2F
100
AcDbDictionary
280
     1
281
     1
  3
ACAD_XREC_ROUNDTRIP
360
B5
  0
DICTIONARY
  5
B8
330
31
100
AcDbDictionary
280
     1
281
     1
  3
ACAD_XREC_ROUNDTRIP
360
B9
  0
DICTIONARY
  5
B6
330
30
100
AcDbDictionary
280
     1
281
     1
  3
ACAD_XREC_ROUNDTRIP
360
B7
  0
DICTIONARY
  5
BA
330
32
100
AcDbDictionary
280
     1
281
     1
  3
ACAD_XREC_ROUNDTRIP
360
BB
  0
DICTIONARY
  5
C2
330
36
100
AcDbDictionary
280
     1
281
     1
  3
ACAD_XREC_ROUNDTRIP
360
C3
  0
DICTIONARY
  5
CA
330
3A
100
AcDbDictionary
280
     1
281
     1
  3
ACAD_XREC_ROUNDTRIP
360
CB
  0
DICTIONARY
  5
BE
330
34
100
AcDbDictionary
280
     1
281
     1
  3
ACAD_XREC_ROUNDTRIP
360
BF
  0
DICTIONARY
  5
C0
330
35
100
AcDbDictionary
280
     1
281
     1
  3
ACAD_XREC_ROUNDTRIP
360
C1
  0
DICTIONARY
  5
C8
330
39
100
AcDbDictionary
280
     1
281
     1
  3
ACAD_XREC_ROUNDTRIP
360
C9
  0
DICTIONARY
  5
AC
330
2B
100
AcDbDictionary
280
     1
281
     1
  3
ACAD_XREC_ROUNDTRIP
360
AD
  0
DICTIONARY
  5
AE
330
2C
100
AcDbDictionary
280
     1
281
     1
  3
ACAD_XREC_ROUNDTRIP
360
AF
  0
DICTIONARY
  5
B0
330
2D
100
AcDbDictionary
280
     1
281
     1
  3
ACAD_XREC_ROUNDTRIP
360
B1
  0
DICTIONARY
  5
B2
330
2E
100
AcDbDictionary
280
     1
281
     1
  3
ACAD_XREC_ROUNDTRIP
360
B3
  0
DICTIONARY
  5
C6
330
38
100
AcDbDictionary
280
     1
281
     1
  3
ACAD_XREC_ROUNDTRIP
360
C7
  0
DICTIONARY
  5
BC
330
33
100
AcDbDictionary
280
     1
281
     1
  3
ACAD_XREC_ROUNDTRIP
360
BD
  0
DICTIONARY
  5
C4
330
37
100
AcDbDictionary
280
     1
281
     1
  3
ACAD_XREC_ROUNDTRIP
360
C5
  0
XRECORD
  5
B5
102
{ACAD_REACTORS
330
B4
102
}
330
B4
100
AcDbXrecord
280
     1
102
RTVSPropertyOp0
 70
     1
102
RTVSPropertyOp1
 70
     1
102
RTVSPropertyOp2
 70
     1
102
RTVSPropertyOp3
 70
     1
102
RTVSPropertyOp4
 70
     1
102
RTVSPropertyOp5
 70
     1
102
RTVSPropertyOp6
 70
     1
102
RTVSPropertyOp7
 70
     1
102
RTVSPropertyOp8
 70
     1
102
RTVSPropertyOp9
 70
     1
102
RTVSPropertyOp10
 70
     1
102
RTVSPropertyOp11
 70
     1
102
RTVSPropertyOp12
 70
     1
102
RTVSPropertyOp13
 70
     1
102
RTVSPropertyOp14
 70
     1
102
RTVSPropertyOp15
 70
     1
102
RTVSPropertyOp16
 70
     1
102
RTVSPropertyOp17
 70
     1
102
RTVSPropertyOp18
 70
     1
102
RTVSPropertyOp19
 70
     1
102
RTVSPropertyOp20
 70
     1
102
RTVSPropertyOp21
 70
     1
102
RTVSPropertyOp22
 70
     1
102
RTVSPropertyOp23
 70
     1
102
RTVSPropertyOp24
 70
     1
102
RTVSPropertyOp25
 70
     1
102
RTVSPropertyOp26
 70
     1
102
RTVSPropertyOp27
 70
     1
102
RTVSPropertyOp28
 70
     1
102
RTVSPropertyOp29
 70
     1
102
RTVSPropertyOp30
 70
     1
102
RTVSPropertyOp31
 70
     1
102
RTVSPropertyOp32
 70
     1
  0
XRECORD
  5
B9
102
{ACAD_REACTORS
330
B8
102
}
330
B8
100
AcDbXrecord
280
     1
102
RTVSPropertyOp0
 70
     1
102
RTVSPropertyOp1
 70
     1
102
RTVSPropertyOp2
 70
     1
102
RTVSPropertyOp3
 70
     1
102
RTVSPropertyOp4
 70
     1
102
RTVSPropertyOp5
 70
     1
102
RTVSPropertyOp6
 70
     1
102
RTVSPropertyOp7
 70
     1
102
RTVSPropertyOp8
 70
     1
102
RTVSPropertyOp9
 70
     1
102
RTVSPropertyOp10
 70
     1
102
RTVSPropertyOp11
 70
     1
102
RTVSPropertyOp12
 70
     1
102
RTVSPropertyOp13
 70
     1
102
RTVSPropertyOp14
 70
     1
102
RTVSPropertyOp15
 70
     1
102
RTVSPropertyOp16
 70
     1
102
RTVSPropertyOp17
 70
     1
102
RTVSPropertyOp18
 70
     1
102
RTVSPropertyOp19
 70
     1
102
RTVSPropertyOp20
 70
     1
102
RTVSPropertyOp21
 70
     1
102
RTVSPropertyOp22
 70
     1
102
RTVSPropertyOp23
 70
     1
102
RTVSPropertyOp24
 70
     1
102
RTVSPropertyOp25
 70
     1
102
RTVSPropertyOp26
 70
     1
102
RTVSPropertyOp27
 70
     1
102
RTVSPropertyOp28
 70
     1
102
RTVSPropertyOp29
 70
     1
102
RTVSPropertyOp30
 70
     1
102
RTVSPropertyOp31
 70
     1
102
RTVSPropertyOp32
 70
     1
  0
XRECORD
  5
B7
102
{ACAD_REACTORS
330
B6
102
}
330
B6
100
AcDbXrecord
280
     1
102
RTVSPropertyOp0
 70
     1
102
RTVSPropertyOp1
 70
     1
102
RTVSPropertyOp2
 70
     1
102
RTVSPropertyOp3
 70
     1
102
RTVSPropertyOp4
 70
     1
102
RTVSPropertyOp5
 70
     1
102
RTVSPropertyOp6
 70
     1
102
RTVSPropertyOp7
 70
     1
102
RTVSPropertyOp8
 70
     1
102
RTVSPropertyOp9
 70
     1
102
RTVSPropertyOp10
 70
     1
102
RTVSPropertyOp11
 70
     1
102
RTVSPropertyOp12
 70
     1
102
RTVSPropertyOp13
 70
     1
102
RTVSPropertyOp14
 70
     1
102
RTVSPropertyOp15
 70
     1
102
RTVSPropertyOp16
 70
     1
102
RTVSPropertyOp17
 70
     1
102
RTVSPropertyOp18
 70
     1
102
RTVSPropertyOp19
 70
     1
102
RTVSPropertyOp20
 70
     1
102
RTVSPropertyOp21
 70
     1
102
RTVSPropertyOp22
 70
     1
102
RTVSPropertyOp23
 70
     1
102
RTVSPropertyOp24
 70
     1
102
RTVSPropertyOp25
 70
     1
102
RTVSPropertyOp26
 70
     1
102
RTVSPropertyOp27
 70
     1
102
RTVSPropertyOp28
 70
     1
102
RTVSPropertyOp29
 70
     1
102
RTVSPropertyOp30
 70
     1
102
RTVSPropertyOp31
 70
     1
102
RTVSPropertyOp32
 70
     1
  0
XRECORD
  5
BB
102
{ACAD_REACTORS
330
BA
102
}
330
BA
100
AcDbXrecord
280
     1
102
RTVSPropertyOp0
 70
     1
102
RTVSPropertyOp1
 70
     1
102
RTVSPropertyOp2
 70
     1
102
RTVSPropertyOp3
 70
     1
102
RTVSPropertyOp4
 70
     1
102
RTVSPropertyOp5
 70
     1
102
RTVSPropertyOp6
 70
     1
102
RTVSPropertyOp7
 70
     1
102
RTVSPropertyOp8
 70
     1
102
RTVSPropertyOp9
 70
     1
102
RTVSPropertyOp10
 70
     1
102
RTVSPropertyOp11
 70
     1
102
RTVSPropertyOp12
 70
     1
102
RTVSPropertyOp13
 70
     1
102
RTVSPropertyOp14
 70
     1
102
RTVSPropertyOp15
 70
     1
102
RTVSPropertyOp16
 70
     1
102
RTVSPropertyOp17
 70
     1
102
RTVSPropertyOp18
 70
     1
102
RTVSPropertyOp19
 70
     1
102
RTVSPropertyOp20
 70
     1
102
RTVSPropertyOp21
 70
     1
102
RTVSPropertyOp22
 70
     1
102
RTVSPropertyOp23
 70
     1
102
RTVSPropertyOp24
 70
     1
102
RTVSPropertyOp25
 70
     1
102
RTVSPropertyOp26
 70
     1
102
RTVSPropertyOp27
 70
     1
102
RTVSPropertyOp28
 70
     1
102
RTVSPropertyOp29
 70
     1
102
RTVSPropertyOp30
 70
     1
102
RTVSPropertyOp31
 70
     1
102
RTVSPropertyOp32
 70
     1
  0
XRECORD
  5
C3
102
{ACAD_REACTORS
330
C2
102
}
330
C2
100
AcDbXrecord
280
     1
102
RTVSPropertyOp0
 70
     1
102
RTVSPropertyOp1
 70
     1
102
RTVSPropertyOp2
 70
     1
102
RTVSPropertyOp3
 70
     1
102
RTVSPropertyOp4
 70
     1
102
RTVSPropertyOp5
 70
     1
102
RTVSPropertyOp6
 70
     1
102
RTVSPropertyOp7
 70
     1
102
RTVSPropertyOp8
 70
     1
102
RTVSPropertyOp9
 70
     1
102
RTVSPropertyOp10
 70
     1
102
RTVSPropertyOp11
 70
     1
102
RTVSPropertyOp12
 70
     1
102
RTVSPropertyOp13
 70
     1
102
RTVSPropertyOp14
 70
     1
102
RTVSPropertyOp15
 70
     1
102
RTVSPropertyOp16
 70
     1
102
RTVSPropertyOp17
 70
     1
102
RTVSPropertyOp18
 70
     1
102
RTVSPropertyOp19
 70
     1
102
RTVSPropertyOp20
 70
     1
102
RTVSPropertyOp21
 70
     1
102
RTVSPropertyOp22
 70
     1
102
RTVSPropertyOp23
 70
     1
102
RTVSPropertyOp24
 70
     1
102
RTVSPropertyOp25
 70
     1
102
RTVSPropertyOp26
 70
     1
102
RTVSPropertyOp27
 70
     1
102
RTVSPropertyOp28
 70
     1
102
RTVSPropertyOp29
 70
     1
102
RTVSPropertyOp30
 70
     1
102
RTVSPropertyOp31
 70
     1
102
RTVSPropertyOp32
 70
     1
  0
XRECORD
  5
CB
102
{ACAD_REACTORS
330
CA
102
}
330
CA
100
AcDbXrecord
280
     1
102
RTVSPropertyOp0
 70
     1
102
RTVSPropertyOp1
 70
     1
102
RTVSPropertyOp2
 70
     1
102
RTVSPropertyOp3
 70
     1
102
RTVSPropertyOp4
 70
     1
102
RTVSPropertyOp5
 70
     1
102
RTVSPropertyOp6
 70
     1
102
RTVSPropertyOp7
 70
     1
102
RTVSPropertyOp8
 70
     1
102
RTVSPropertyOp9
 70
     1
102
RTVSPropertyOp10
 70
     1
102
RTVSPropertyOp11
 70
     1
102
RTVSPropertyOp12
 70
     1
102
RTVSPropertyOp13
 70
     1
102
RTVSPropertyOp14
 70
     1
102
RTVSPropertyOp15
 70
     1
102
RTVSPropertyOp16
 70
     1
102
RTVSPropertyOp17
 70
     1
102
RTVSPropertyOp18
 70
     1
102
RTVSPropertyOp19
 70
     1
102
RTVSPropertyOp20
 70
     1
102
RTVSPropertyOp21
 70
     1
102
RTVSPropertyOp22
 70
     1
102
RTVSPropertyOp23
 70
     1
102
RTVSPropertyOp24
 70
     1
102
RTVSPropertyOp25
 70
     1
102
RTVSPropertyOp26
 70
     1
102
RTVSPropertyOp27
 70
     1
102
RTVSPropertyOp28
 70
     1
102
RTVSPropertyOp29
 70
     1
102
RTVSPropertyOp30
 70
     1
102
RTVSPropertyOp31
 70
     1
102
RTVSPropertyOp32
 70
     1
  0
XRECORD
  5
BF
102
{ACAD_REACTORS
330
BE
102
}
330
BE
100
AcDbXrecord
280
     1
102
RTVSPropertyOp0
 70
     1
102
RTVSPropertyOp1
 70
     1
102
RTVSPropertyOp2
 70
     1
102
RTVSPropertyOp3
 70
     1
102
RTVSPropertyOp4
 70
     1
102
RTVSPropertyOp5
 70
     1
102
RTVSPropertyOp6
 70
     1
102
RTVSPropertyOp7
 70
     1
102
RTVSPropertyOp8
 70
     1
102
RTVSPropertyOp9
 70
     1
102
RTVSPropertyOp10
 70
     1
102
RTVSPropertyOp11
 70
     1
102
RTVSPropertyOp12
 70
     1
102
RTVSPropertyOp13
 70
     1
102
RTVSPropertyOp14
 70
     1
102
RTVSPropertyOp15
 70
     1
102
RTVSPropertyOp16
 70
     1
102
RTVSPropertyOp17
 70
     1
102
RTVSPropertyOp18
 70
     1
102
RTVSPropertyOp19
 70
     1
102
RTVSPropertyOp20
 70
     1
102
RTVSPropertyOp21
 70
     1
102
RTVSPropertyOp22
 70
     1
102
RTVSPropertyOp23
 70
     1
102
RTVSPropertyOp24
 70
     1
102
RTVSPropertyOp25
 70
     1
102
RTVSPropertyOp26
 70
     1
102
RTVSPropertyOp27
 70
     1
102
RTVSPropertyOp28
 70
     1
102
RTVSPropertyOp29
 70
     1
102
RTVSPropertyOp30
 70
     1
102
RTVSPropertyOp31
 70
     1
102
RTVSPropertyOp32
 70
     1
  0
XRECORD
  5
C1
102
{ACAD_REACTORS
330
C0
102
}
330
C0
100
AcDbXrecord
280
     1
102
RTVSPropertyOp0
 70
     1
102
RTVSPropertyOp1
 70
     1
102
RTVSPropertyOp2
 70
     1
102
RTVSPropertyOp3
 70
     1
102
RTVSPropertyOp4
 70
     1
102
RTVSPropertyOp5
 70
     1
102
RTVSPropertyOp6
 70
     1
102
RTVSPropertyOp7
 70
     1
102
RTVSPropertyOp8
 70
     1
102
RTVSPropertyOp9
 70
     1
102
RTVSPropertyOp10
 70
     1
102
RTVSPropertyOp11
 70
     1
102
RTVSPropertyOp12
 70
     1
102
RTVSPropertyOp13
 70
     1
102
RTVSPropertyOp14
 70
     1
102
RTVSPropertyOp15
 70
     1
102
RTVSPropertyOp16
 70
     1
102
RTVSPropertyOp17
 70
     1
102
RTVSPropertyOp18
 70
     1
102
RTVSPropertyOp19
 70
     1
102
RTVSPropertyOp20
 70
     1
102
RTVSPropertyOp21
 70
     1
102
RTVSPropertyOp22
 70
     1
102
RTVSPropertyOp23
 70
     1
102
RTVSPropertyOp24
 70
     1
102
RTVSPropertyOp25
 70
     1
102
RTVSPropertyOp26
 70
     1
102
RTVSPropertyOp27
 70
     1
102
RTVSPropertyOp28
 70
     1
102
RTVSPropertyOp29
 70
     1
102
RTVSPropertyOp30
 70
     1
102
RTVSPropertyOp31
 70
     1
102
RTVSPropertyOp32
 70
     1
  0
XRECORD
  5
C9
102
{ACAD_REACTORS
330
C8
102
}
330
C8
100
AcDbXrecord
280
     1
102
RTVSPropertyOp0
 70
     1
102
RTVSPropertyOp1
 70
     1
102
RTVSPropertyOp2
 70
     1
102
RTVSPropertyOp3
 70
     1
102
RTVSPropertyOp4
 70
     1
102
RTVSPropertyOp5
 70
     1
102
RTVSPropertyOp6
 70
     1
102
RTVSPropertyOp7
 70
     1
102
RTVSPropertyOp8
 70
     1
102
RTVSPropertyOp9
 70
     1
102
RTVSPropertyOp10
 70
     1
102
RTVSPropertyOp11
 70
     1
102
RTVSPropertyOp12
 70
     1
102
RTVSPropertyOp13
 70
     1
102
RTVSPropertyOp14
 70
     1
102
RTVSPropertyOp15
 70
     1
102
RTVSPropertyOp16
 70
     1
102
RTVSPropertyOp17
 70
     1
102
RTVSPropertyOp18
 70
     1
102
RTVSPropertyOp19
 70
     1
102
RTVSPropertyOp20
 70
     1
102
RTVSPropertyOp21
 70
     1
102
RTVSPropertyOp22
 70
     1
102
RTVSPropertyOp23
 70
     1
102
RTVSPropertyOp24
 70
     1
102
RTVSPropertyOp25
 70
     1
102
RTVSPropertyOp26
 70
     1
102
RTVSPropertyOp27
 70
     1
102
RTVSPropertyOp28
 70
     1
102
RTVSPropertyOp29
 70
     1
102
RTVSPropertyOp30
 70
     1
102
RTVSPropertyOp31
 70
     1
102
RTVSPropertyOp32
 70
     1
  0
XRECORD
  5
AD
102
{ACAD_REACTORS
330
AC
102
}
330
AC
100
AcDbXrecord
280
     1
102
RTVSPropertyOp0
 70
     1
102
RTVSPropertyOp1
 70
     1
102
RTVSPropertyOp2
 70
     1
102
RTVSPropertyOp3
 70
     1
102
RTVSPropertyOp4
 70
     1
102
RTVSPropertyOp5
 70
     1
102
RTVSPropertyOp6
 70
     1
102
RTVSPropertyOp7
 70
     1
102
RTVSPropertyOp8
 70
     1
102
RTVSPropertyOp9
 70
     1
102
RTVSPropertyOp10
 70
     1
102
RTVSPropertyOp11
 70
     1
102
RTVSPropertyOp12
 70
     1
102
RTVSPropertyOp13
 70
     1
102
RTVSPropertyOp14
 70
     1
102
RTVSPropertyOp15
 70
     1
102
RTVSPropertyOp16
 70
     1
102
RTVSPropertyOp17
 70
     1
102
RTVSPropertyOp18
 70
     1
102
RTVSPropertyOp19
 70
     1
102
RTVSPropertyOp20
 70
     1
102
RTVSPropertyOp21
 70
     1
102
RTVSPropertyOp22
 70
     1
102
RTVSPropertyOp23
 70
     1
102
RTVSPropertyOp24
 70
     1
102
RTVSPropertyOp25
 70
     1
102
RTVSPropertyOp26
 70
     1
102
RTVSPropertyOp27
 70
     1
102
RTVSPropertyOp28
 70
     1
102
RTVSPropertyOp29
 70
     1
102
RTVSPropertyOp30
 70
     1
102
RTVSPropertyOp31
 70
     1
102
RTVSPropertyOp32
 70
     1
  0
XRECORD
  5
AF
102
{ACAD_REACTORS
330
AE
102
}
330
AE
100
AcDbXrecord
280
     1
102
RTVSPropertyOp0
 70
     1
102
RTVSPropertyOp1
 70
     1
102
RTVSPropertyOp2
 70
     1
102
RTVSPropertyOp3
 70
     1
102
RTVSPropertyOp4
 70
     1
102
RTVSPropertyOp5
 70
     1
102
RTVSPropertyOp6
 70
     1
102
RTVSPropertyOp7
 70
     1
102
RTVSPropertyOp8
 70
     1
102
RTVSPropertyOp9
 70
     1
102
RTVSPropertyOp10
 70
     1
102
RTVSPropertyOp11
 70
     1
102
RTVSPropertyOp12
 70
     1
102
RTVSPropertyOp13
 70
     1
102
RTVSPropertyOp14
 70
     1
102
RTVSPropertyOp15
 70
     1
102
RTVSPropertyOp16
 70
     1
102
RTVSPropertyOp17
 70
     1
102
RTVSPropertyOp18
 70
     1
102
RTVSPropertyOp19
 70
     1
102
RTVSPropertyOp20
 70
     1
102
RTVSPropertyOp21
 70
     1
102
RTVSPropertyOp22
 70
     1
102
RTVSPropertyOp23
 70
     1
102
RTVSPropertyOp24
 70
     1
102
RTVSPropertyOp25
 70
     1
102
RTVSPropertyOp26
 70
     1
102
RTVSPropertyOp27
 70
     1
102
RTVSPropertyOp28
 70
     1
102
RTVSPropertyOp29
 70
     1
102
RTVSPropertyOp30
 70
     1
102
RTVSPropertyOp31
 70
     1
102
RTVSPropertyOp32
 70
     1
  0
XRECORD
  5
B1
102
{ACAD_REACTORS
330
B0
102
}
330
B0
100
AcDbXrecord
280
     1
102
RTVSPropertyOp0
 70
     1
102
RTVSPropertyOp1
 70
     1
102
RTVSPropertyOp2
 70
     1
102
RTVSPropertyOp3
 70
     1
102
RTVSPropertyOp4
 70
     1
102
RTVSPropertyOp5
 70
     1
102
RTVSPropertyOp6
 70
     1
102
RTVSPropertyOp7
 70
     1
102
RTVSPropertyOp8
 70
     1
102
RTVSPropertyOp9
 70
     1
102
RTVSPropertyOp10
 70
     1
102
RTVSPropertyOp11
 70
     1
102
RTVSPropertyOp12
 70
     1
102
RTVSPropertyOp13
 70
     1
102
RTVSPropertyOp14
 70
     1
102
RTVSPropertyOp15
 70
     1
102
RTVSPropertyOp16
 70
     1
102
RTVSPropertyOp17
 70
     1
102
RTVSPropertyOp18
 70
     1
102
RTVSPropertyOp19
 70
     1
102
RTVSPropertyOp20
 70
     1
102
RTVSPropertyOp21
 70
     1
102
RTVSPropertyOp22
 70
     1
102
RTVSPropertyOp23
 70
     1
102
RTVSPropertyOp24
 70
     1
102
RTVSPropertyOp25
 70
     1
102
RTVSPropertyOp26
 70
     1
102
RTVSPropertyOp27
 70
     1
102
RTVSPropertyOp28
 70
     1
102
RTVSPropertyOp29
 70
     1
102
RTVSPropertyOp30
 70
     1
102
RTVSPropertyOp31
 70
     1
102
RTVSPropertyOp32
 70
     1
  0
XRECORD
  5
B3
102
{ACAD_REACTORS
330
B2
102
}
330
B2
100
AcDbXrecord
280
     1
102
RTVSPropertyOp0
 70
     1
102
RTVSPropertyOp1
 70
     1
102
RTVSPropertyOp2
 70
     1
102
RTVSPropertyOp3
 70
     1
102
RTVSPropertyOp4
 70
     1
102
RTVSPropertyOp5
 70
     1
102
RTVSPropertyOp6
 70
     1
102
RTVSPropertyOp7
 70
     1
102
RTVSPropertyOp8
 70
     1
102
RTVSPropertyOp9
 70
     1
102
RTVSPropertyOp10
 70
     1
102
RTVSPropertyOp11
 70
     1
102
RTVSPropertyOp12
 70
     1
102
RTVSPropertyOp13
 70
     1
102
RTVSPropertyOp14
 70
     1
102
RTVSPropertyOp15
 70
     1
102
RTVSPropertyOp16
 70
     1
102
RTVSPropertyOp17
 70
     1
102
RTVSPropertyOp18
 70
     1
102
RTVSPropertyOp19
 70
     1
102
RTVSPropertyOp20
 70
     1
102
RTVSPropertyOp21
 70
     1
102
RTVSPropertyOp22
 70
     1
102
RTVSPropertyOp23
 70
     1
102
RTVSPropertyOp24
 70
     1
102
RTVSPropertyOp25
 70
     1
102
RTVSPropertyOp26
 70
     1
102
RTVSPropertyOp27
 70
     1
102
RTVSPropertyOp28
 70
     1
102
RTVSPropertyOp29
 70
     1
102
RTVSPropertyOp30
 70
     1
102
RTVSPropertyOp31
 70
     1
102
RTVSPropertyOp32
 70
     1
  0
XRECORD
  5
C7
102
{ACAD_REACTORS
330
C6
102
}
330
C6
100
AcDbXrecord
280
     1
102
RTVSPropertyOp0
 70
     1
102
RTVSPropertyOp1
 70
     1
102
RTVSPropertyOp2
 70
     1
102
RTVSPropertyOp3
 70
     1
102
RTVSPropertyOp4
 70
     1
102
RTVSPropertyOp5
 70
     1
102
RTVSPropertyOp6
 70
     1
102
RTVSPropertyOp7
 70
     1
102
RTVSPropertyOp8
 70
     1
102
RTVSPropertyOp9
 70
     1
102
RTVSPropertyOp10
 70
     1
102
RTVSPropertyOp11
 70
     1
102
RTVSPropertyOp12
 70
     1
102
RTVSPropertyOp13
 70
     1
102
RTVSPropertyOp14
 70
     1
102
RTVSPropertyOp15
 70
     1
102
RTVSPropertyOp16
 70
     1
102
RTVSPropertyOp17
 70
     1
102
RTVSPropertyOp18
 70
     1
102
RTVSPropertyOp19
 70
     1
102
RTVSPropertyOp20
 70
     1
102
RTVSPropertyOp21
 70
     1
102
RTVSPropertyOp22
 70
     1
102
RTVSPropertyOp23
 70
     1
102
RTVSPropertyOp24
 70
     1
102
RTVSPropertyOp25
 70
     1
102
RTVSPropertyOp26
 70
     1
102
RTVSPropertyOp27
 70
     1
102
RTVSPropertyOp28
 70
     1
102
RTVSPropertyOp29
 70
     1
102
RTVSPropertyOp30
 70
     1
102
RTVSPropertyOp31
 70
     1
102
RTVSPropertyOp32
 70
     1
  0
XRECORD
  5
BD
102
{ACAD_REACTORS
330
BC
102
}
330
BC
100
AcDbXrecord
280
     1
102
RTVSPropertyOp0
 70
     1
102
RTVSPropertyOp1
 70
     1
102
RTVSPropertyOp2
 70
     1
102
RTVSPropertyOp3
 70
     1
102
RTVSPropertyOp4
 70
     1
102
RTVSPropertyOp5
 70
     1
102
RTVSPropertyOp6
 70
     1
102
RTVSPropertyOp7
 70
     1
102
RTVSPropertyOp8
 70
     1
102
RTVSPropertyOp9
 70
     1
102
RTVSPropertyOp10
 70
     1
102
RTVSPropertyOp11
 70
     1
102
RTVSPropertyOp12
 70
     1
102
RTVSPropertyOp13
 70
     1
102
RTVSPropertyOp14
 70
     1
102
RTVSPropertyOp15
 70
     1
102
RTVSPropertyOp16
 70
     1
102
RTVSPropertyOp17
 70
     1
102
RTVSPropertyOp18
 70
     1
102
RTVSPropertyOp19
 70
     1
102
RTVSPropertyOp20
 70
     1
102
RTVSPropertyOp21
 70
     1
102
RTVSPropertyOp22
 70
     1
102
RTVSPropertyOp23
 70
     1
102
RTVSPropertyOp24
 70
     1
102
RTVSPropertyOp25
 70
     1
102
RTVSPropertyOp26
 70
     1
102
RTVSPropertyOp27
 70
     1
102
RTVSPropertyOp28
 70
     1
102
RTVSPropertyOp29
 70
     1
102
RTVSPropertyOp30
 70
     1
102
RTVSPropertyOp31
 70
     1
102
RTVSPropertyOp32
 70
     1
  0
XRECORD
  5
C5
102
{ACAD_REACTORS
330
C4
102
}
330
C4
100
AcDbXrecord
280
     1
102
RTVSPropertyOp0
 70
     1
102
RTVSPropertyOp1
 70
     1
102
RTVSPropertyOp2
 70
     1
102
RTVSPropertyOp3
 70
     1
102
RTVSPropertyOp4
 70
     1
102
RTVSPropertyOp5
 70
     1
102
RTVSPropertyOp6
 70
     1
102
RTVSPropertyOp7
 70
     1
102
RTVSPropertyOp8
 70
     1
102
RTVSPropertyOp9
 70
     1
102
RTVSPropertyOp10
 70
     1
102
RTVSPropertyOp11
 70
     1
102
RTVSPropertyOp12
 70
     1
102
RTVSPropertyOp13
 70
     1
102
RTVSPropertyOp14
 70
     1
102
RTVSPropertyOp15
 70
     1
102
RTVSPropertyOp16
 70
     1
102
RTVSPropertyOp17
 70
     1
102
RTVSPropertyOp18
 70
     1
102
RTVSPropertyOp19
 70
     1
102
RTVSPropertyOp20
 70
     1
102
RTVSPropertyOp21
 70
     1
102
RTVSPropertyOp22
 70
     1
102
RTVSPropertyOp23
 70
     1
102
RTVSPropertyOp24
 70
     1
102
RTVSPropertyOp25
 70
     1
102
RTVSPropertyOp26
 70
     1
102
RTVSPropertyOp27
 70
     1
102
RTVSPropertyOp28
 70
     1
102
RTVSPropertyOp29
 70
     1
102
RTVSPropertyOp30
 70
     1
102
RTVSPropertyOp31
 70
     1
102
RTVSPropertyOp32
 70
     1
  0
ENDSEC
  0
EOF
