  0
SECTION
  2
HEADER
  9
$ACADVER
  1
AC1021
  9
$ACADMAINTVER
 70
    25
  9
$DWGCODEPAGE
  3
ANSI_1252
  9
$INSBASE
 10
0.0
 20
0.0
 30
0.0
  9
$EXTMIN
 10
-12.0788
 20
-8.51276
 30
0.0
  9
$EXTMAX
 10
13.37307
 20
10.23717
 30
0.0
  9
$LIMMIN
 10
0.0
 20
0.0
  9
$LIMMAX
 10
12.0
 20
9.0
  9
$ORTHOMODE
 70
     0
  9
$REGENMODE
 70
     1
  9
$FILLMODE
 70
     1
  9
$QTEXTMODE
 70
     0
  9
$MIRRTEXT
 70
     1
  9
$LTSCALE
 40
1.0
  9
$ATTMODE
 70
     1
  9
$TEXTSIZE
 40
0.2
  9
$TRACEWID
 40
0.05
  9
$TEXTSTYLE
  7
Standard
  9
$CLAYER
  8
0
  9
$CELTYPE
  6
ByLayer
  9
$CECOLOR
 62
   256
  9
$CELTSCALE
 40
1.0
  9
$DISPSILH
 70
     0
  9
$DIMSCALE
 40
1.0
  9
$DIMASZ
 40
0.18
  9
$DIMEXO
 40
0.0625
  9
$DIMDLI
 40
0.38
  9
$DIMRND
 40
0.0
  9
$DIMDLE
 40
0.0
  9
$DIMEXE
 40
0.18
  9
$DIMTP
 40
0.0
  9
$DIMTM
 40
0.0
  9
$DIMTXT
 40
0.18
  9
$DIMCEN
 40
0.09
  9
$DIMTSZ
 40
0.0
  9
$DIMTOL
 70
     0
  9
$DIMLIM
 70
     0
  9
$DIMTIH
 70
     1
  9
$DIMTOH
 70
     1
  9
$DIMSE1
 70
     0
  9
$DIMSE2
 70
     0
  9
$DIMTAD
 70
     0
  9
$DIMZIN
 70
     0
  9
$DIMBLK
  1

  9
$DIMASO
 70
     1
  9
$DIMSHO
 70
     1
  9
$DIMPOST
  1

  9
$DIMAPOST
  1

  9
$DIMALT
 70
     0
  9
$DIMALTD
 70
     2
  9
$DIMALTF
 40
25.4
  9
$DIMLFAC
 40
1.0
  9
$DIMTOFL
 70
     0
  9
$DIMTVP
 40
0.0
  9
$DIMTIX
 70
     0
  9
$DIMSOXD
 70
     0
  9
$DIMSAH
 70
     0
  9
$DIMBLK1
  1

  9
$DIMBLK2
  1

  9
$DIMSTYLE
  2
Standard
  9
$DIMCLRD
 70
     0
  9
$DIMCLRE
 70
     0
  9
$DIMCLRT
 70
     0
  9
$DIMTFAC
 40
1.0
  9
$DIMGAP
 40
0.09
  9
$DIMJUST
 70
     0
  9
$DIMSD1
 70
     0
  9
$DIMSD2
 70
     0
  9
$DIMTOLJ
 70
     1
  9
$DIMTZIN
 70
     0
  9
$DIMALTZ
 70
     0
  9
$DIMALTTZ
 70
     0
  9
$DIMUPT
 70
     0
  9
$DIMDEC
 70
     4
  9
$DIMTDEC
 70
     4
  9
$DIMALTU
 70
     2
  9
$DIMALTTD
 70
     2
  9
$DIMTXSTY
  7
Standard
  9
$DIMAUNIT
 70
     0
  9
$DIMADEC
 70
     0
  9
$DIMALTRND
 40
0.0
  9
$DIMAZIN
 70
     0
  9
$DIMDSEP
 70
    46
  9
$DIMATFIT
 70
     3
  9
$DIMFRAC
 70
     0
  9
$DIMLDRBLK
  1

  9
$DIMLUNIT
 70
     2
  9
$DIMLWD
 70
    -2
  9
$DIMLWE
 70
    -2
  9
$DIMTMOVE
 70
     0
  9
$DIMFXL
 40
1.0
  9
$DIMFXLON
 70
     0
  9
$DIMJOGANG
 40
0.7853981633974483
  9
$DIMTFILL
 70
     0
  9
$DIMTFILLCLR
 70
     0
  9
$DIMARCSYM
 70
     0
  9
$DIMLTYPE
  6

  9
$DIMLTEX1
  6

  9
$DIMLTEX2
  6

  9
$LUNITS
 70
     2
  9
$LUPREC
 70
     4
  9
$SKETCHINC
 40
0.1
  9
$FILLETRAD
 40
0.5
  9
$AUNITS
 70
     0
  9
$AUPREC
 70
     0
  9
$MENU
  1
.
  9
$ELEVATION
 40
0.0
  9
$PELEVATION
 40
0.0
  9
$THICKNESS
 40
0.0
  9
$LIMCHECK
 70
     0
  9
$CHAMFERA
 40
0.5
  9
$CHAMFERB
 40
0.5
  9
$CHAMFERC
 40
1.0
  9
$CHAMFERD
 40
0.0
  9
$SKPOLY
 70
     0
  9
$TDCREATE
 40
2456231.942454039
  9
$TDUCREATE
 40
2456232.109120706
  9
$TDUPDATE
 40
2456231.942454086
  9
$TDUUPDATE
 40
2456232.109120752
  9
$TDINDWG
 40
0.0000000116
  9
$TDUSRTIMER
 40
0.0000000116
  9
$USRTIMER
 70
     1
  9
$ANGBASE
 50
0.0
  9
$ANGDIR
 70
     0
  9
$PDMODE
 70
     0
  9
$PDSIZE
 40
0.0
  9
$PLINEWID
 40
0.0
  9
$SPLFRAME
 70
     0
  9
$SPLINETYPE
 70
     6
  9
$SPLINESEGS
 70
     8
  9
$HANDSEED
  5
9A
  9
$SURFTAB1
 70
     6
  9
$SURFTAB2
 70
     6
  9
$SURFTYPE
 70
     6
  9
$SURFU
 70
     6
  9
$SURFV
 70
     6
  9
$UCSBASE
  2

  9
$UCSNAME
  2

  9
$UCSORG
 10
0.0
 20
0.0
 30
0.0
  9
$UCSXDIR
 10
1.0
 20
0.0
 30
0.0
  9
$UCSYDIR
 10
0.0
 20
1.0
 30
0.0
  9
$UCSORTHOREF
  2

  9
$UCSORTHOVIEW
 70
     0
  9
$UCSORGTOP
 10
0.0
 20
0.0
 30
0.0
  9
$UCSORGBOTTOM
 10
0.0
 20
0.0
 30
0.0
  9
$UCSORGLEFT
 10
0.0
 20
0.0
 30
0.0
  9
$UCSORGRIGHT
 10
0.0
 20
0.0
 30
0.0
  9
$UCSORGFRONT
 10
0.0
 20
0.0
 30
0.0
  9
$UCSORGBACK
 10
0.0
 20
0.0
 30
0.0
  9
$PUCSBASE
  2

  9
$PUCSNAME
  2

  9
$PUCSORG
 10
0.0
 20
0.0
 30
0.0
  9
$PUCSXDIR
 10
1.0
 20
0.0
 30
0.0
  9
$PUCSYDIR
 10
0.0
 20
1.0
 30
0.0
  9
$PUCSORTHOREF
  2

  9
$PUCSORTHOVIEW
 70
     0
  9
$PUCSORGTOP
 10
0.0
 20
0.0
 30
0.0
  9
$PUCSORGBOTTOM
 10
0.0
 20
0.0
 30
0.0
  9
$PUCSORGLEFT
 10
0.0
 20
0.0
 30
0.0
  9
$PUCSORGRIGHT
 10
0.0
 20
0.0
 30
0.0
  9
$PUCSORGFRONT
 10
0.0
 20
0.0
 30
0.0
  9
$PUCSORGBACK
 10
0.0
 20
0.0
 30
0.0
  9
$USERI1
 70
     0
  9
$USERI2
 70
     0
  9
$USERI3
 70
     0
  9
$USERI4
 70
     0
  9
$USERI5
 70
     0
  9
$USERR1
 40
0.0
  9
$USERR2
 40
0.0
  9
$USERR3
 40
0.0
  9
$USERR4
 40
0.0
  9
$USERR5
 40
0.0
  9
$WORLDVIEW
 70
     1
  9
$SHADEDGE
 70
     3
  9
$SHADEDIF
 70
    70
  9
$TILEMODE
 70
     1
  9
$MAXACTVP
 70
    64
  9
$PINSBASE
 10
0.0
 20
0.0
 30
0.0
  9
$PLIMCHECK
 70
     0
  9
$PEXTMIN
 10
1.000000000000000E+20
 20
1.000000000000000E+20
 30
1.000000000000000E+20
  9
$PEXTMAX
 10
-1.000000000000000E+20
 20
-1.000000000000000E+20
 30
-1.000000000000000E+20
  9
$PLIMMIN
 10
0.0
 20
0.0
  9
$PLIMMAX
 10
12.0
 20
9.0
  9
$UNITMODE
 70
     0
  9
$VISRETAIN
 70
     1
  9
$PLINEGEN
 70
     0
  9
$PSLTSCALE
 70
     1
  9
$TREEDEPTH
 70
  3020
  9
$CMLSTYLE
  2
Standard
  9
$CMLJUST
 70
     0
  9
$CMLSCALE
 40
1.0
  9
$PROXYGRAPHICS
 70
     1
  9
$MEASUREMENT
 70
     0
  9
$CELWEIGHT
370
    -1
  9
$ENDCAPS
280
     0
  9
$JOINSTYLE
280
     0
  9
$LWDISPLAY
290
     0
  9
$INSUNITS
 70
     5
  9
$HYPERLINKBASE
  1

  9
$STYLESHEET
  1

  9
$XEDIT
290
     1
  9
$CEPSNTYPE
380
     0
  9
$PSTYLEMODE
290
     1
  9
$FINGERPRINTGUID
  2
{282357CD-E627-4A67-89F8-DE08D7DB895F}
  9
$VERSIONGUID
  2
{FAEB1C32-E019-11D5-929B-00C0DF256EC4}
  9
$EXTNAMES
290
     1
  9
$PSVPSCALE
 40
0.0
  9
$OLESTARTUP
290
     0
  9
$SORTENTS
280
   127
  9
$INDEXCTL
280
     0
  9
$HIDETEXT
280
     1
  9
$XCLIPFRAME
290
     0
  9
$HALOGAP
280
     0
  9
$OBSCOLOR
 70
   257
  9
$OBSLTYPE
280
     0
  9
$INTERSECTIONDISPLAY
280
     0
  9
$INTERSECTIONCOLOR
 70
   257
  9
$DIMASSOC
280
     2
  9
$PROJECTNAME
  1

  9
$CAMERADISPLAY
290
     0
  9
$LENSLENGTH
 40
50.0
  9
$CAMERAHEIGHT
 40
0.0
  9
$STEPSPERSEC
 40
2.0
  9
$STEPSIZE
 40
6.0
  9
$3DDWFPREC
 40
2.0
  9
$PSOLWIDTH
 40
0.25
  9
$PSOLHEIGHT
 40
4.0
  9
$LOFTANG1
 40
1.570796326794897
  9
$LOFTANG2
 40
1.570796326794897
  9
$LOFTMAG1
 40
0.0
  9
$LOFTMAG2
 40
0.0
  9
$LOFTPARAM
 70
     7
  9
$LOFTNORMALS
280
     1
  9
$LATITUDE
 40
37.795
  9
$LONGITUDE
 40
-122.394
  9
$NORTHDIRECTION
 40
0.0
  9
$TIMEZONE
 70
 -8000
  9
$LIGHTGLYPHDISPLAY
280
     1
  9
$TILEMODELIGHTSYNCH
280
     1
  9
$SOLIDHIST
280
     1
  9
$SHOWHIST
280
     1
  9
$DWFFRAME
280
     2
  9
$DGNFRAME
280
     2
  9
$REALWORLDSCALE
290
     1
  9
$INTERFERECOLOR
 62
   256
  9
$CSHADOW
280
     0
  9
$SHADOWPLANELOCATION
 40
0.0
  0
ENDSEC
  0
SECTION
  2
CLASSES
  0
CLASS
  1
ACDBDICTIONARYWDFLT
  2
AcDbDictionaryWithDefault
  3
ObjectDBX Classes
 90
        0
 91
        4
280
     0
281
     0
  0
CLASS
  1
VISUALSTYLE
  2
AcDbVisualStyle
  3
ObjectDBX Classes
 90
     4095
 91
        4
280
     0
281
     0
  0
CLASS
  1
MATERIAL
  2
AcDbMaterial
  3
ObjectDBX Classes
 90
     1153
 91
        4
280
     0
281
     0
  0
ENDSEC
  0
SECTION
  2
TABLES
  0
TABLE
  2
VPORT
  5
8
330
0
100
AcDbSymbolTable
 70
     1
  0
VPORT
  5
29
330
8
100
AcDbSymbolTableRecord
100
AcDbViewportTableRecord
  2
*Active
 70
     0
 10
0.0
 20
0.0
 11
1.0
 21
1.0
 12
10.42990654205607
 22
4.5
 13
0.0
 23
0.0
 14
0.5
 24
0.5
 15
0.5
 25
0.5
 16
0.0
 26
0.0
 36
1.0
 17
0.0
 27
0.0
 37
0.0
 40
9.0
 41
1.972972972850329
 42
50.0
 43
0.0
 44
0.0
 50
0.0
 51
0.0
 71
     0
 72
   100
 73
     1
 74
     3
 75
     0
 76
     0
 77
     0
 78
     0
281
     0
 65
     1
110
0.0
120
0.0
130
0.0
111
1.0
121
0.0
131
0.0
112
0.0
122
1.0
132
0.0
 79
     0
146
0.0
 60
     3
 61
     5
292
     1
282
     1
141
0.0
142
0.0
 63
   250
  0
ENDTAB
  0
TABLE
  2
LTYPE
  5
5
330
0
100
AcDbSymbolTable
 70
     1
  0
LTYPE
  5
14
330
5
100
AcDbSymbolTableRecord
100
AcDbLinetypeTableRecord
  2
ByBlock
 70
     0
  3

 72
    65
 73
     0
 40
0.0
  0
LTYPE
  5
15
330
5
100
AcDbSymbolTableRecord
100
AcDbLinetypeTableRecord
  2
ByLayer
 70
     0
  3

 72
    65
 73
     0
 40
0.0
  0
LTYPE
  5
16
330
5
100
AcDbSymbolTableRecord
100
AcDbLinetypeTableRecord
  2
Continuous
 70
     0
  3
Solid line
 72
    65
 73
     0
 40
0.0
  0
ENDTAB
  0
TABLE
  2
LAYER
  5
2
330
0
100
AcDbSymbolTable
 70
     3
  0
LAYER
  5
10
330
2
100
AcDbSymbolTableRecord
100
AcDbLayerTableRecord
  2
0
 70
     0
 62
     7
  6
Continuous
370
    -3
390
F
347
3E
  0
LAYER
  5
40
330
2
100
AcDbSymbolTableRecord
100
AcDbLayerTableRecord
  2
Layer 1
 70
     0
 62
     7
  6
Continuous
370
    -3
390
F
347
3E
  0
LAYER
  5
54
330
2
100
AcDbSymbolTableRecord
100
AcDbLayerTableRecord
  2
layer 2
 70
     0
 62
     7
  6
Continuous
370
    -3
390
F
347
3E
  0
ENDTAB
  0
TABLE
  2
STYLE
  5
3
330
0
100
AcDbSymbolTable
 70
     1
  0
STYLE
  5
11
330
3
100
AcDbSymbolTableRecord
100
AcDbTextStyleTableRecord
  2
Standard
 70
     0
 40
0.0
 41
1.0
 50
0.0
 71
     0
 42
0.2
  3
txt
  4

  0
ENDTAB
  0
TABLE
  2
VIEW
  5
6
330
0
100
AcDbSymbolTable
 70
     0
  0
ENDTAB
  0
TABLE
  2
UCS
  5
7
330
0
100
AcDbSymbolTable
 70
     0
  0
ENDTAB
  0
TABLE
  2
APPID
  5
9
330
0
100
AcDbSymbolTable
 70
     2
  0
APPID
  5
12
330
9
100
AcDbSymbolTableRecord
100
AcDbRegAppTableRecord
  2
ACAD
 70
     0
  0
APPID
  5
3F
330
9
100
AcDbSymbolTableRecord
100
AcDbRegAppTableRecord
  2
ODA
 70
     0
  0
ENDTAB
  0
TABLE
  2
DIMSTYLE
  5
A
330
0
100
AcDbSymbolTable
 70
     1
100
AcDbDimStyleTable
  0
DIMSTYLE
105
27
330
A
100
AcDbSymbolTableRecord
100
AcDbDimStyleTableRecord
  2
Standard
 70
     0
178
     0
340
11
  0
ENDTAB
  0
TABLE
  2
BLOCK_RECORD
  5
1
330
0
100
AcDbSymbolTable
 70
     1
  0
BLOCK_RECORD
  5
1F
330
1
100
AcDbSymbolTableRecord
100
AcDbBlockTableRecord
  2
*Model_Space
340
22
 70
     0
280
     1
281
     0
  0
BLOCK_RECORD
  5
1B
330
1
100
AcDbSymbolTableRecord
100
AcDbBlockTableRecord
  2
*Paper_Space
340
1E
 70
     0
280
     1
281
     0
  0
BLOCK_RECORD
  5
23
330
1
100
AcDbSymbolTableRecord
100
AcDbBlockTableRecord
  2
*Paper_Space0
340
26
 70
     0
280
     1
281
     0
  0
ENDTAB
  0
ENDSEC
  0
SECTION
  2
BLOCKS
  0
BLOCK
  5
20
330
1F
100
AcDbEntity
  8
0
100
AcDbBlockBegin
  2
*Model_Space
 70
     0
 10
0.0
 20
0.0
 30
0.0
  3
*Model_Space
  1

  0
ENDBLK
  5
21
330
1F
100
AcDbEntity
  8
0
100
AcDbBlockEnd
  0
BLOCK
  5
1C
330
1B
100
AcDbEntity
 67
     1
  8
0
100
AcDbBlockBegin
  2
*Paper_Space
 70
     0
 10
0.0
 20
0.0
 30
0.0
  3
*Paper_Space
  1

  0
ENDBLK
  5
1D
330
1B
100
AcDbEntity
 67
     1
  8
0
100
AcDbBlockEnd
  0
BLOCK
  5
24
330
23
100
AcDbEntity
  8
0
100
AcDbBlockBegin
  2
*Paper_Space0
 70
     0
 10
0.0
 20
0.0
 30
0.0
  3
*Paper_Space0
  1

  0
ENDBLK
  5
25
330
23
100
AcDbEntity
  8
0
100
AcDbBlockEnd
  0
ENDSEC
  0
SECTION
  2
ENTITIES
  0
SPLINE
  5
41
330
1F
100
AcDbEntity
  8
Layer 1
 62
   250
100
AcDbSpline
210
0.0
220
0.0
230
1.0
 70
    11
 71
     3
 72
    36
 73
    32
 74
     0
 42
0.0000000001
 43
0.0000000001
 12
1.0
 22
0.0
 32
0.0
 13
1.0
 23
0.0
 33
0.0
 40
0.0
 40
0.0
 40
0.0
 40
0.0
 40
0.1111111111111111
 40
0.1111111111111111
 40
0.1111111111111111
 40
0.1111111111111111
 40
0.2222222222222222
 40
0.2222222222222222
 40
0.2222222222222222
 40
0.2222222222222222
 40
0.3333333333333333
 40
0.3333333333333333
 40
0.3333333333333333
 40
0.3333333333333333
 40
0.4444444444444444
 40
0.4444444444444444
 40
0.4444444444444444
 40
0.4444444444444444
 40
0.5555555555555556
 40
0.5555555555555556
 40
0.5555555555555556
 40
0.5555555555555556
 40
0.6666666666666666
 40
0.6666666666666666
 40
0.6666666666666666
 40
0.6666666666666666
 40
0.7777777777777778
 40
0.7777777777777778
 40
0.7777777777777778
 40
0.7777777777777778
 40
1.0
 40
1.0
 40
1.0
 40
1.0
 10
-3.16394
 20
-8.5026
 30
0.0
 10
-3.16394
 20
-8.5026
 30
0.0
 10
-3.16394
 20
-7.9675
 30
0.0
 10
-3.16394
 20
-7.9675
 30
0.0
 10
-3.16394
 20
-7.9675
 30
0.0
 10
-3.16394
 20
-7.9675
 30
0.0
 10
-3.36376
 20
-7.9675
 30
0.0
 10
-3.36376
 20
-7.9675
 30
0.0
 10
-3.36376
 20
-7.9675
 30
0.0
 10
-3.36376
 20
-7.9675
 30
0.0
 10
-3.36376
 20
-7.89638
 30
0.0
 10
-3.36376
 20
-7.89638
 30
0.0
 10
-3.36376
 20
-7.89638
 30
0.0
 10
-3.36376
 20
-7.89638
 30
0.0
 10
-2.88369
 20
-7.89638
 30
0.0
 10
-2.88369
 20
-7.89638
 30
0.0
 10
-2.88369
 20
-7.89638
 30
0.0
 10
-2.88369
 20
-7.89638
 30
0.0
 10
-2.88369
 20
-7.9675
 30
0.0
 10
-2.88369
 20
-7.9675
 30
0.0
 10
-2.88369
 20
-7.9675
 30
0.0
 10
-2.88369
 20
-7.9675
 30
0.0
 10
-3.08351
 20
-7.9675
 30
0.0
 10
-3.08351
 20
-7.9675
 30
0.0
 10
-3.08351
 20
-7.9675
 30
0.0
 10
-3.08351
 20
-7.9675
 30
0.0
 10
-3.08351
 20
-8.5026
 30
0.0
 10
-3.08351
 20
-8.5026
 30
0.0
 10
-3.08351
 20
-8.5026
 30
0.0
 10
-3.08351
 20
-8.5026
 30
0.0
 10
-3.16394
 20
-8.5026
 30
0.0
 10
-3.16394
 20
-8.5026
 30
0.0
  0
SPLINE
  5
42
330
1F
100
AcDbEntity
  8
Layer 1
 62
   250
100
AcDbSpline
210
0.0
220
0.0
230
1.0
 70
    11
 71
     3
 72
    92
 73
    88
 74
     0
 42
0.0000000001
 43
0.0000000001
 12
1.0
 22
0.0
 32
0.0
 13
1.0
 23
0.0
 33
0.0
 40
0.0
 40
0.0
 40
0.0
 40
0.0
 40
0.0434782608695652
 40
0.0434782608695652
 40
0.0434782608695652
 40
0.0434782608695652
 40
0.0869565217391304
 40
0.0869565217391304
 40
0.0869565217391304
 40
0.0869565217391304
 40
0.1304347826086956
 40
0.1304347826086956
 40
0.1304347826086956
 40
0.1304347826086956
 40
0.1739130434782609
 40
0.1739130434782609
 40
0.1739130434782609
 40
0.1739130434782609
 40
0.2173913043478261
 40
0.2173913043478261
 40
0.2173913043478261
 40
0.2173913043478261
 40
0.2608695652173913
 40
0.2608695652173913
 40
0.2608695652173913
 40
0.2608695652173913
 40
0.3043478260869565
 40
0.3043478260869565
 40
0.3043478260869565
 40
0.3043478260869565
 40
0.3478260869565217
 40
0.3478260869565217
 40
0.3478260869565217
 40
0.3478260869565217
 40
0.391304347826087
 40
0.391304347826087
 40
0.391304347826087
 40
0.391304347826087
 40
0.4347826086956522
 40
0.4347826086956522
 40
0.4347826086956522
 40
0.4347826086956522
 40
0.4782608695652174
 40
0.4782608695652174
 40
0.4782608695652174
 40
0.4782608695652174
 40
0.5217391304347826
 40
0.5217391304347826
 40
0.5217391304347826
 40
0.5217391304347826
 40
0.5652173913043478
 40
0.5652173913043478
 40
0.5652173913043478
 40
0.5652173913043478
 40
0.6086956521739131
 40
0.6086956521739131
 40
0.6086956521739131
 40
0.6086956521739131
 40
0.6521739130434783
 40
0.6521739130434783
 40
0.6521739130434783
 40
0.6521739130434783
 40
0.6956521739130435
 40
0.6956521739130435
 40
0.6956521739130435
 40
0.6956521739130435
 40
0.7391304347826086
 40
0.7391304347826086
 40
0.7391304347826086
 40
0.7391304347826086
 40
0.782608695652174
 40
0.782608695652174
 40
0.782608695652174
 40
0.782608695652174
 40
0.8260869565217391
 40
0.8260869565217391
 40
0.8260869565217391
 40
0.8260869565217391
 40
0.8695652173913043
 40
0.8695652173913043
 40
0.8695652173913043
 40
0.8695652173913043
 40
0.9130434782608695
 40
0.9130434782608695
 40
0.9130434782608695
 40
0.9130434782608695
 40
1.0
 40
1.0
 40
1.0
 40
1.0
 10
-2.44018
 20
-8.43148
 30
0.0
 10
-2.44018
 20
-8.43148
 30
0.0
 10
-2.44018
 20
-8.5026
 30
0.0
 10
-2.44018
 20
-8.5026
 30
0.0
 10
-2.44018
 20
-8.5026
 30
0.0
 10
-2.44018
 20
-8.5026
 30
0.0
 10
-2.84151
 20
-8.5026
 30
0.0
 10
-2.84151
 20
-8.5026
 30
0.0
 10
-2.84151
 20
-8.5026
 30
0.0
 10
-2.84207
 20
-8.48468
 30
0.0
 10
-2.83911
 20
-8.46746
 30
0.0
 10
-2.83276
 20
-8.45081
 30
0.0
 10
-2.83276
 20
-8.45081
 30
0.0
 10
-2.82246
 20
-8.42358
 30
0.0
 10
-2.80595
 20
-8.39663
 30
0.0
 10
-2.78323
 20
-8.37024
 30
0.0
 10
-2.78323
 20
-8.37024
 30
0.0
 10
-2.76051
 20
-8.34385
 30
0.0
 10
-2.72805
 20
-8.31337
 30
0.0
 10
-2.68586
 20
-8.2788
 30
0.0
 10
-2.68586
 20
-8.2788
 30
0.0
 10
-2.62024
 20
-8.22475
 30
0.0
 10
-2.57565
 20
-8.18199
 30
0.0
 10
-2.55237
 20
-8.15039
 30
0.0
 10
-2.55237
 20
-8.15039
 30
0.0
 10
-2.52894
 20
-8.11878
 30
0.0
 10
-2.51723
 20
-8.08886
 30
0.0
 10
-2.51723
 20
-8.06064
 30
0.0
 10
-2.51723
 20
-8.06064
 30
0.0
 10
-2.51723
 20
-8.03115
 30
0.0
 10
-2.52782
 20
-8.00631
 30
0.0
 10
-2.54898
 20
-7.98599
 30
0.0
 10
-2.54898
 20
-7.98599
 30
0.0
 10
-2.57015
 20
-7.96581
 30
0.0
 10
-2.59781
 20
-7.95565
 30
0.0
 10
-2.63181
 20
-7.95565
 30
0.0
 10
-2.63181
 20
-7.95565
 30
0.0
 10
-2.6678
 20
-7.95565
 30
0.0
 10
-2.69658
 20
-7.96638
 30
0.0
 10
-2.71817
 20
-7.98782
 30
0.0
 10
-2.71817
 20
-7.98782
 30
0.0
 10
-2.73977
 20
-8.00913
 30
0.0
 10
-2.75063
 20
-8.03877
 30
0.0
 10
-2.75091
 20
-8.07672
 30
0.0
 10
-2.75091
 20
-8.07672
 30
0.0
 10
-2.75091
 20
-8.07672
 30
0.0
 10
-2.82711
 20
-8.0691
 30
0.0
 10
-2.82711
 20
-8.0691
 30
0.0
 10
-2.82711
 20
-8.0691
 30
0.0
 10
-2.82189
 20
-8.0121
 30
0.0
 10
-2.80214
 20
-7.96863
 30
0.0
 10
-2.76799
 20
-7.93872
 30
0.0
 10
-2.76799
 20
-7.93872
 30
0.0
 10
-2.7337
 20
-7.9088
 30
0.0
 10
-2.68784
 20
-7.89384
 30
0.0
 10
-2.63012
 20
-7.89384
 30
0.0
 10
-2.63012
 20
-7.89384
 30
0.0
 10
-2.57198
 20
-7.89384
 30
0.0
 10
-2.52584
 20
-7.90993
 30
0.0
 10
-2.49197
 20
-7.94225
 30
0.0
 10
-2.49197
 20
-7.94225
 30
0.0
 10
-2.45797
 20
-7.97456
 30
0.0
 10
-2.44103
 20
-8.01464
 30
0.0
 10
-2.44103
 20
-8.06233
 30
0.0
 10
-2.44103
 20
-8.06233
 30
0.0
 10
-2.44103
 20
-8.0866
 30
0.0
 10
-2.44597
 20
-8.11045
 30
0.0
 10
-2.45599
 20
-8.13388
 30
0.0
 10
-2.45599
 20
-8.13388
 30
0.0
 10
-2.46587
 20
-8.15744
 30
0.0
 10
-2.48238
 20
-8.18214
 30
0.0
 10
-2.50538
 20
-8.2081
 30
0.0
 10
-2.50538
 20
-8.2081
 30
0.0
 10
-2.52852
 20
-8.23392
 30
0.0
 10
-2.56676
 20
-8.26962
 30
0.0
 10
-2.6201
 20
-8.31478
 30
0.0
 10
-2.6201
 20
-8.31478
 30
0.0
 10
-2.66483
 20
-8.35232
 30
0.0
 10
-2.69362
 20
-8.37772
 30
0.0
 10
-2.70632
 20
-8.39112
 30
0.0
 10
-2.70632
 20
-8.39112
 30
0.0
 10
-2.71902
 20
-8.40453
 30
0.0
 10
-2.72946
 20
-8.41793
 30
0.0
 10
-2.73779
 20
-8.43148
 30
0.0
 10
-2.73779
 20
-8.43148
 30
0.0
 10
-2.73779
 20
-8.43148
 30
0.0
 10
-2.44018
 20
-8.43148
 30
0.0
 10
-2.44018
 20
-8.43148
 30
0.0
  0
SPLINE
  5
43
330
1F
100
AcDbEntity
  8
Layer 1
 62
   250
100
AcDbSpline
210
0.0
220
0.0
230
1.0
 70
    11
 71
     3
 72
    52
 73
    48
 74
     0
 42
0.0000000001
 43
0.0000000001
 12
1.0
 22
0.0
 32
0.0
 13
1.0
 23
0.0
 33
0.0
 40
0.0
 40
0.0
 40
0.0
 40
0.0
 40
0.0769230769230769
 40
0.0769230769230769
 40
0.0769230769230769
 40
0.0769230769230769
 40
0.1538461538461539
 40
0.1538461538461539
 40
0.1538461538461539
 40
0.1538461538461539
 40
0.2307692307692308
 40
0.2307692307692308
 40
0.2307692307692308
 40
0.2307692307692308
 40
0.3076923076923077
 40
0.3076923076923077
 40
0.3076923076923077
 40
0.3076923076923077
 40
0.3846153846153846
 40
0.3846153846153846
 40
0.3846153846153846
 40
0.3846153846153846
 40
0.4615384615384616
 40
0.4615384615384616
 40
0.4615384615384616
 40
0.4615384615384616
 40
0.5384615384615384
 40
0.5384615384615384
 40
0.5384615384615384
 40
0.5384615384615384
 40
0.6153846153846154
 40
0.6153846153846154
 40
0.6153846153846154
 40
0.6153846153846154
 40
0.6923076923076923
 40
0.6923076923076923
 40
0.6923076923076923
 40
0.6923076923076923
 40
0.7692307692307693
 40
0.7692307692307693
 40
0.7692307692307693
 40
0.7692307692307693
 40
0.8461538461538461
 40
0.8461538461538461
 40
0.8461538461538461
 40
0.8461538461538461
 40
1.0
 40
1.0
 40
1.0
 40
1.0
 10
-2.35961
 20
-8.20344
 30
0.0
 10
-2.35961
 20
-8.1319
 30
0.0
 10
-2.35227
 20
-8.07404
 30
0.0
 10
-2.3376
 20
-8.0303
 30
0.0
 10
-2.3376
 20
-8.0303
 30
0.0
 10
-2.32278
 20
-7.98641
 30
0.0
 10
-2.30091
 20
-7.95269
 30
0.0
 10
-2.27184
 20
-7.92912
 30
0.0
 10
-2.27184
 20
-7.92912
 30
0.0
 10
-2.24291
 20
-7.90556
 30
0.0
 10
-2.20636
 20
-7.89384
 30
0.0
 10
-2.16234
 20
-7.89384
 30
0.0
 10
-2.16234
 20
-7.89384
 30
0.0
 10
-2.12988
 20
-7.89384
 30
0.0
 10
-2.10138
 20
-7.90034
 30
0.0
 10
-2.07668
 20
-7.91346
 30
0.0
 10
-2.07668
 20
-7.91346
 30
0.0
 10
-2.05213
 20
-7.92658
 30
0.0
 10
-2.03181
 20
-7.94549
 30
0.0
 10
-2.016
 20
-7.97019
 30
0.0
 10
-2.016
 20
-7.97019
 30
0.0
 10
-2.0002
 20
-7.99474
 30
0.0
 10
-1.98778
 20
-8.0248
 30
0.0
 10
-1.97875
 20
-8.06021
 30
0.0
 10
-1.97875
 20
-8.06021
 30
0.0
 10
-1.96958
 20
-8.09563
 30
0.0
 10
-1.96506
 20
-8.14347
 30
0.0
 10
-1.96506
 20
-8.20344
 30
0.0
 10
-1.96506
 20
-8.20344
 30
0.0
 10
-1.96506
 20
-8.27456
 30
0.0
 10
-1.9724
 20
-8.33214
 30
0.0
 10
-1.98693
 20
-8.37588
 30
0.0
 10
-1.98693
 20
-8.37588
 30
0.0
 10
-2.00147
 20
-8.41977
 30
0.0
 10
-2.02334
 20
-8.45349
 30
0.0
 10
-2.05241
 20
-8.4772
 30
0.0
 10
-2.05241
 20
-8.4772
 30
0.0
 10
-2.08134
 20
-8.50091
 30
0.0
 10
-2.11803
 20
-8.51276
 30
0.0
 10
-2.16234
 20
-8.51276
 30
0.0
 10
-2.16234
 20
-8.51276
 30
0.0
 10
-2.22061
 20
-8.51276
 30
0.0
 10
-2.26648
 20
-8.49202
 30
0.0
 10
-2.29978
 20
-8.45039
 30
0.0
 10
-2.29978
 20
-8.45039
 30
0.0
 10
-2.33971
 20
-8.39959
 30
0.0
 10
-2.35961
 20
-8.31732
 30
0.0
 10
-2.35961
 20
-8.20344
 30
0.0
  0
SPLINE
  5
44
330
1F
100
AcDbEntity
  8
Layer 1
 62
   250
100
AcDbSpline
210
0.0
220
0.0
230
1.0
 70
    11
 71
     3
 72
    36
 73
    32
 74
     0
 42
0.0000000001
 43
0.0000000001
 12
1.0
 22
0.0
 32
0.0
 13
1.0
 23
0.0
 33
0.0
 40
0.0
 40
0.0
 40
0.0
 40
0.0
 40
0.1111111111111111
 40
0.1111111111111111
 40
0.1111111111111111
 40
0.1111111111111111
 40
0.2222222222222222
 40
0.2222222222222222
 40
0.2222222222222222
 40
0.2222222222222222
 40
0.3333333333333333
 40
0.3333333333333333
 40
0.3333333333333333
 40
0.3333333333333333
 40
0.4444444444444444
 40
0.4444444444444444
 40
0.4444444444444444
 40
0.4444444444444444
 40
0.5555555555555556
 40
0.5555555555555556
 40
0.5555555555555556
 40
0.5555555555555556
 40
0.6666666666666666
 40
0.6666666666666666
 40
0.6666666666666666
 40
0.6666666666666666
 40
0.7777777777777778
 40
0.7777777777777778
 40
0.7777777777777778
 40
0.7777777777777778
 40
1.0
 40
1.0
 40
1.0
 40
1.0
 10
-2.28341
 20
-8.20373
 30
0.0
 10
-2.28341
 20
-8.30349
 30
0.0
 10
-2.27184
 20
-8.36981
 30
0.0
 10
-2.24855
 20
-8.40255
 30
0.0
 10
-2.24855
 20
-8.40255
 30
0.0
 10
-2.22527
 20
-8.43543
 30
0.0
 10
-2.19648
 20
-8.4518
 30
0.0
 10
-2.16234
 20
-8.4518
 30
0.0
 10
-2.16234
 20
-8.4518
 30
0.0
 10
-2.12819
 20
-8.4518
 30
0.0
 10
-2.0994
 20
-8.43529
 30
0.0
 10
-2.07612
 20
-8.40241
 30
0.0
 10
-2.07612
 20
-8.40241
 30
0.0
 10
-2.05283
 20
-8.36939
 30
0.0
 10
-2.04126
 20
-8.30321
 30
0.0
 10
-2.04126
 20
-8.20373
 30
0.0
 10
-2.04126
 20
-8.20373
 30
0.0
 10
-2.04126
 20
-8.10396
 30
0.0
 10
-2.05283
 20
-8.03764
 30
0.0
 10
-2.07612
 20
-8.0049
 30
0.0
 10
-2.07612
 20
-8.0049
 30
0.0
 10
-2.09926
 20
-7.97202
 30
0.0
 10
-2.12833
 20
-7.95565
 30
0.0
 10
-2.16318
 20
-7.95565
 30
0.0
 10
-2.16318
 20
-7.95565
 30
0.0
 10
-2.19733
 20
-7.95565
 30
0.0
 10
-2.22471
 20
-7.97019
 30
0.0
 10
-2.24517
 20
-7.99911
 30
0.0
 10
-2.24517
 20
-7.99911
 30
0.0
 10
-2.27071
 20
-8.03594
 30
0.0
 10
-2.28341
 20
-8.10424
 30
0.0
 10
-2.28341
 20
-8.20373
 30
0.0
  0
SPLINE
  5
45
330
1F
100
AcDbEntity
  8
Layer 1
 62
   250
100
AcDbSpline
210
0.0
220
0.0
230
1.0
 70
    11
 71
     3
 72
   124
 73
   120
 74
     0
 42
0.0000000001
 43
0.0000000001
 12
1.0
 22
0.0
 32
0.0
 13
1.0
 23
0.0
 33
0.0
 40
0.0
 40
0.0
 40
0.0
 40
0.0
 40
0.032258064516129
 40
0.032258064516129
 40
0.032258064516129
 40
0.032258064516129
 40
0.0645161290322581
 40
0.0645161290322581
 40
0.0645161290322581
 40
0.0645161290322581
 40
0.0967741935483871
 40
0.0967741935483871
 40
0.0967741935483871
 40
0.0967741935483871
 40
0.1290322580645161
 40
0.1290322580645161
 40
0.1290322580645161
 40
0.1290322580645161
 40
0.1612903225806452
 40
0.1612903225806452
 40
0.1612903225806452
 40
0.1612903225806452
 40
0.1935483870967742
 40
0.1935483870967742
 40
0.1935483870967742
 40
0.1935483870967742
 40
0.2258064516129032
 40
0.2258064516129032
 40
0.2258064516129032
 40
0.2258064516129032
 40
0.2580645161290323
 40
0.2580645161290323
 40
0.2580645161290323
 40
0.2580645161290323
 40
0.2903225806451613
 40
0.2903225806451613
 40
0.2903225806451613
 40
0.2903225806451613
 40
0.3225806451612903
 40
0.3225806451612903
 40
0.3225806451612903
 40
0.3225806451612903
 40
0.3548387096774194
 40
0.3548387096774194
 40
0.3548387096774194
 40
0.3548387096774194
 40
0.3870967741935484
 40
0.3870967741935484
 40
0.3870967741935484
 40
0.3870967741935484
 40
0.4193548387096774
 40
0.4193548387096774
 40
0.4193548387096774
 40
0.4193548387096774
 40
0.4516129032258064
 40
0.4516129032258064
 40
0.4516129032258064
 40
0.4516129032258064
 40
0.4838709677419355
 40
0.4838709677419355
 40
0.4838709677419355
 40
0.4838709677419355
 40
0.5161290322580645
 40
0.5161290322580645
 40
0.5161290322580645
 40
0.5161290322580645
 40
0.5483870967741935
 40
0.5483870967741935
 40
0.5483870967741935
 40
0.5483870967741935
 40
0.5806451612903226
 40
0.5806451612903226
 40
0.5806451612903226
 40
0.5806451612903226
 40
0.6129032258064516
 40
0.6129032258064516
 40
0.6129032258064516
 40
0.6129032258064516
 40
0.6451612903225806
 40
0.6451612903225806
 40
0.6451612903225806
 40
0.6451612903225806
 40
0.6774193548387096
 40
0.6774193548387096
 40
0.6774193548387096
 40
0.6774193548387096
 40
0.7096774193548387
 40
0.7096774193548387
 40
0.7096774193548387
 40
0.7096774193548387
 40
0.7419354838709677
 40
0.7419354838709677
 40
0.7419354838709677
 40
0.7419354838709677
 40
0.7741935483870968
 40
0.7741935483870968
 40
0.7741935483870968
 40
0.7741935483870968
 40
0.8064516129032258
 40
0.8064516129032258
 40
0.8064516129032258
 40
0.8064516129032258
 40
0.8387096774193549
 40
0.8387096774193549
 40
0.8387096774193549
 40
0.8387096774193549
 40
0.8709677419354839
 40
0.8709677419354839
 40
0.8709677419354839
 40
0.8709677419354839
 40
0.9032258064516129
 40
0.9032258064516129
 40
0.9032258064516129
 40
0.9032258064516129
 40
0.9354838709677419
 40
0.9354838709677419
 40
0.9354838709677419
 40
0.9354838709677419
 40
1.0
 40
1.0
 40
1.0
 40
1.0
 10
-1.88872
 20
-8.34173
 30
0.0
 10
-1.88872
 20
-8.34173
 30
0.0
 10
-1.81421
 20
-8.33157
 30
0.0
 10
-1.81421
 20
-8.33157
 30
0.0
 10
-1.81421
 20
-8.33157
 30
0.0
 10
-1.80561
 20
-8.37391
 30
0.0
 10
-1.79121
 20
-8.40439
 30
0.0
 10
-1.77075
 20
-8.42301
 30
0.0
 10
-1.77075
 20
-8.42301
 30
0.0
 10
-1.75029
 20
-8.44164
 30
0.0
 10
-1.72517
 20
-8.45095
 30
0.0
 10
-1.6954
 20
-8.45095
 30
0.0
 10
-1.6954
 20
-8.45095
 30
0.0
 10
-1.66012
 20
-8.45095
 30
0.0
 10
-1.63034
 20
-8.43882
 30
0.0
 10
-1.60636
 20
-8.41455
 30
0.0
 10
-1.60636
 20
-8.41455
 30
0.0
 10
-1.58237
 20
-8.39028
 30
0.0
 10
-1.57037
 20
-8.36022
 30
0.0
 10
-1.57037
 20
-8.32438
 30
0.0
 10
-1.57037
 20
-8.32438
 30
0.0
 10
-1.57037
 20
-8.29023
 30
0.0
 10
-1.58152
 20
-8.262
 30
0.0
 10
-1.60396
 20
-8.23971
 30
0.0
 10
-1.60396
 20
-8.23971
 30
0.0
 10
-1.62625
 20
-8.21755
 30
0.0
 10
-1.65462
 20
-8.20641
 30
0.0
 10
-1.68919
 20
-8.20641
 30
0.0
 10
-1.68919
 20
-8.20641
 30
0.0
 10
-1.7033
 20
-8.20641
 30
0.0
 10
-1.7208
 20
-8.20923
 30
0.0
 10
-1.74182
 20
-8.21473
 30
0.0
 10
-1.74182
 20
-8.21473
 30
0.0
 10
-1.74182
 20
-8.21473
 30
0.0
 10
-1.7335
 20
-8.14954
 30
0.0
 10
-1.7335
 20
-8.14954
 30
0.0
 10
-1.7335
 20
-8.14954
 30
0.0
 10
-1.72856
 20
-8.1501
 30
0.0
 10
-1.72447
 20
-8.15039
 30
0.0
 10
-1.7215
 20
-8.15039
 30
0.0
 10
-1.7215
 20
-8.15039
 30
0.0
 10
-1.68961
 20
-8.15039
 30
0.0
 10
-1.66111
 20
-8.14206
 30
0.0
 10
-1.63557
 20
-8.12555
 30
0.0
 10
-1.63557
 20
-8.12555
 30
0.0
 10
-1.61017
 20
-8.10904
 30
0.0
 10
-1.59747
 20
-8.08364
 30
0.0
 10
-1.59747
 20
-8.04935
 30
0.0
 10
-1.59747
 20
-8.04935
 30
0.0
 10
-1.59747
 20
-8.02211
 30
0.0
 10
-1.60678
 20
-7.99954
 30
0.0
 10
-1.62526
 20
-7.98162
 30
0.0
 10
-1.62526
 20
-7.98162
 30
0.0
 10
-1.64375
 20
-7.96369
 30
0.0
 10
-1.6676
 20
-7.9548
 30
0.0
 10
-1.69681
 20
-7.9548
 30
0.0
 10
-1.69681
 20
-7.9548
 30
0.0
 10
-1.72588
 20
-7.9548
 30
0.0
 10
-1.75001
 20
-7.96398
 30
0.0
 10
-1.76934
 20
-7.98232
 30
0.0
 10
-1.76934
 20
-7.98232
 30
0.0
 10
-1.78867
 20
-8.00067
 30
0.0
 10
-1.80109
 20
-8.02818
 30
0.0
 10
-1.80659
 20
-8.06487
 30
0.0
 10
-1.80659
 20
-8.06487
 30
0.0
 10
-1.80659
 20
-8.06487
 30
0.0
 10
-1.8811
 20
-8.05132
 30
0.0
 10
-1.8811
 20
-8.05132
 30
0.0
 10
-1.8811
 20
-8.05132
 30
0.0
 10
-1.87193
 20
-8.00137
 30
0.0
 10
-1.85133
 20
-7.96257
 30
0.0
 10
-1.81901
 20
-7.93505
 30
0.0
 10
-1.81901
 20
-7.93505
 30
0.0
 10
-1.78684
 20
-7.90753
 30
0.0
 10
-1.74662
 20
-7.89384
 30
0.0
 10
-1.69864
 20
-7.89384
 30
0.0
 10
-1.69864
 20
-7.89384
 30
0.0
 10
-1.66562
 20
-7.89384
 30
0.0
 10
-1.63514
 20
-7.9009
 30
0.0
 10
-1.60734
 20
-7.91515
 30
0.0
 10
-1.60734
 20
-7.91515
 30
0.0
 10
-1.5794
 20
-7.92926
 30
0.0
 10
-1.5581
 20
-7.9486
 30
0.0
 10
-1.54342
 20
-7.97301
 30
0.0
 10
-1.54342
 20
-7.97301
 30
0.0
 10
-1.5286
 20
-7.99756
 30
0.0
 10
-1.52127
 20
-8.02353
 30
0.0
 10
-1.52127
 20
-8.05104
 30
0.0
 10
-1.52127
 20
-8.05104
 30
0.0
 10
-1.52127
 20
-8.07715
 30
0.0
 10
-1.52832
 20
-8.10086
 30
0.0
 10
-1.54229
 20
-8.1223
 30
0.0
 10
-1.54229
 20
-8.1223
 30
0.0
 10
-1.5564
 20
-8.14375
 30
0.0
 10
-1.57729
 20
-8.16083
 30
0.0
 10
-1.6048
 20
-8.17353
 30
0.0
 10
-1.6048
 20
-8.17353
 30
0.0
 10
-1.56896
 20
-8.18171
 30
0.0
 10
-1.54116
 20
-8.19893
 30
0.0
 10
-1.52127
 20
-8.22503
 30
0.0
 10
-1.52127
 20
-8.22503
 30
0.0
 10
-1.50151
 20
-8.251
 30
0.0
 10
-1.49163
 20
-8.28374
 30
0.0
 10
-1.49163
 20
-8.32282
 30
0.0
 10
-1.49163
 20
-8.32282
 30
0.0
 10
-1.49163
 20
-8.37574
 30
0.0
 10
-1.51096
 20
-8.42076
 30
0.0
 10
-1.54949
 20
-8.45759
 30
0.0
 10
-1.54949
 20
-8.45759
 30
0.0
 10
-1.58815
 20
-8.49442
 30
0.0
 10
-1.63698
 20
-8.51276
 30
0.0
 10
-1.69596
 20
-8.51276
 30
0.0
 10
-1.69596
 20
-8.51276
 30
0.0
 10
-1.74916
 20
-8.51276
 30
0.0
 10
-1.79333
 20
-8.49681
 30
0.0
 10
-1.82847
 20
-8.46506
 30
0.0
 10
-1.82847
 20
-8.46506
 30
0.0
 10
-1.86374
 20
-8.43331
 30
0.0
 10
-1.88378
 20
-8.39225
 30
0.0
 10
-1.88872
 20
-8.34173
 30
0.0
  0
SPLINE
  5
46
330
1F
100
AcDbEntity
  8
Layer 1
 62
   250
100
AcDbSpline
210
0.0
220
0.0
230
1.0
 70
    11
 71
     3
 72
   124
 73
   120
 74
     0
 42
0.0000000001
 43
0.0000000001
 12
1.0
 22
0.0
 32
0.0
 13
1.0
 23
0.0
 33
0.0
 40
0.0
 40
0.0
 40
0.0
 40
0.0
 40
0.032258064516129
 40
0.032258064516129
 40
0.032258064516129
 40
0.032258064516129
 40
0.0645161290322581
 40
0.0645161290322581
 40
0.0645161290322581
 40
0.0645161290322581
 40
0.0967741935483871
 40
0.0967741935483871
 40
0.0967741935483871
 40
0.0967741935483871
 40
0.1290322580645161
 40
0.1290322580645161
 40
0.1290322580645161
 40
0.1290322580645161
 40
0.1612903225806452
 40
0.1612903225806452
 40
0.1612903225806452
 40
0.1612903225806452
 40
0.1935483870967742
 40
0.1935483870967742
 40
0.1935483870967742
 40
0.1935483870967742
 40
0.2258064516129032
 40
0.2258064516129032
 40
0.2258064516129032
 40
0.2258064516129032
 40
0.2580645161290323
 40
0.2580645161290323
 40
0.2580645161290323
 40
0.2580645161290323
 40
0.2903225806451613
 40
0.2903225806451613
 40
0.2903225806451613
 40
0.2903225806451613
 40
0.3225806451612903
 40
0.3225806451612903
 40
0.3225806451612903
 40
0.3225806451612903
 40
0.3548387096774194
 40
0.3548387096774194
 40
0.3548387096774194
 40
0.3548387096774194
 40
0.3870967741935484
 40
0.3870967741935484
 40
0.3870967741935484
 40
0.3870967741935484
 40
0.4193548387096774
 40
0.4193548387096774
 40
0.4193548387096774
 40
0.4193548387096774
 40
0.4516129032258064
 40
0.4516129032258064
 40
0.4516129032258064
 40
0.4516129032258064
 40
0.4838709677419355
 40
0.4838709677419355
 40
0.4838709677419355
 40
0.4838709677419355
 40
0.5161290322580645
 40
0.5161290322580645
 40
0.5161290322580645
 40
0.5161290322580645
 40
0.5483870967741935
 40
0.5483870967741935
 40
0.5483870967741935
 40
0.5483870967741935
 40
0.5806451612903226
 40
0.5806451612903226
 40
0.5806451612903226
 40
0.5806451612903226
 40
0.6129032258064516
 40
0.6129032258064516
 40
0.6129032258064516
 40
0.6129032258064516
 40
0.6451612903225806
 40
0.6451612903225806
 40
0.6451612903225806
 40
0.6451612903225806
 40
0.6774193548387096
 40
0.6774193548387096
 40
0.6774193548387096
 40
0.6774193548387096
 40
0.7096774193548387
 40
0.7096774193548387
 40
0.7096774193548387
 40
0.7096774193548387
 40
0.7419354838709677
 40
0.7419354838709677
 40
0.7419354838709677
 40
0.7419354838709677
 40
0.7741935483870968
 40
0.7741935483870968
 40
0.7741935483870968
 40
0.7741935483870968
 40
0.8064516129032258
 40
0.8064516129032258
 40
0.8064516129032258
 40
0.8064516129032258
 40
0.8387096774193549
 40
0.8387096774193549
 40
0.8387096774193549
 40
0.8387096774193549
 40
0.8709677419354839
 40
0.8709677419354839
 40
0.8709677419354839
 40
0.8709677419354839
 40
0.9032258064516129
 40
0.9032258064516129
 40
0.9032258064516129
 40
0.9032258064516129
 40
0.9354838709677419
 40
0.9354838709677419
 40
0.9354838709677419
 40
0.9354838709677419
 40
1.0
 40
1.0
 40
1.0
 40
1.0
 10
-1.41783
 20
-8.34173
 30
0.0
 10
-1.41783
 20
-8.34173
 30
0.0
 10
-1.34332
 20
-8.33157
 30
0.0
 10
-1.34332
 20
-8.33157
 30
0.0
 10
-1.34332
 20
-8.33157
 30
0.0
 10
-1.33472
 20
-8.37391
 30
0.0
 10
-1.32032
 20
-8.40439
 30
0.0
 10
-1.29986
 20
-8.42301
 30
0.0
 10
-1.29986
 20
-8.42301
 30
0.0
 10
-1.2794
 20
-8.44164
 30
0.0
 10
-1.25428
 20
-8.45095
 30
0.0
 10
-1.22451
 20
-8.45095
 30
0.0
 10
-1.22451
 20
-8.45095
 30
0.0
 10
-1.18923
 20
-8.45095
 30
0.0
 10
-1.15945
 20
-8.43882
 30
0.0
 10
-1.13547
 20
-8.41455
 30
0.0
 10
-1.13547
 20
-8.41455
 30
0.0
 10
-1.11148
 20
-8.39028
 30
0.0
 10
-1.09948
 20
-8.36022
 30
0.0
 10
-1.09948
 20
-8.32438
 30
0.0
 10
-1.09948
 20
-8.32438
 30
0.0
 10
-1.09948
 20
-8.29023
 30
0.0
 10
-1.11063
 20
-8.262
 30
0.0
 10
-1.13307
 20
-8.23971
 30
0.0
 10
-1.13307
 20
-8.23971
 30
0.0
 10
-1.15536
 20
-8.21755
 30
0.0
 10
-1.18373
 20
-8.20641
 30
0.0
 10
-1.2183
 20
-8.20641
 30
0.0
 10
-1.2183
 20
-8.20641
 30
0.0
 10
-1.23241
 20
-8.20641
 30
0.0
 10
-1.24991
 20
-8.20923
 30
0.0
 10
-1.27093
 20
-8.21473
 30
0.0
 10
-1.27093
 20
-8.21473
 30
0.0
 10
-1.27093
 20
-8.21473
 30
0.0
 10
-1.26261
 20
-8.14954
 30
0.0
 10
-1.26261
 20
-8.14954
 30
0.0
 10
-1.26261
 20
-8.14954
 30
0.0
 10
-1.25767
 20
-8.1501
 30
0.0
 10
-1.25358
 20
-8.15039
 30
0.0
 10
-1.25061
 20
-8.15039
 30
0.0
 10
-1.25061
 20
-8.15039
 30
0.0
 10
-1.21872
 20
-8.15039
 30
0.0
 10
-1.19022
 20
-8.14206
 30
0.0
 10
-1.16468
 20
-8.12555
 30
0.0
 10
-1.16468
 20
-8.12555
 30
0.0
 10
-1.13928
 20
-8.10904
 30
0.0
 10
-1.12658
 20
-8.08364
 30
0.0
 10
-1.12658
 20
-8.04935
 30
0.0
 10
-1.12658
 20
-8.04935
 30
0.0
 10
-1.12658
 20
-8.02211
 30
0.0
 10
-1.13589
 20
-7.99954
 30
0.0
 10
-1.15437
 20
-7.98162
 30
0.0
 10
-1.15437
 20
-7.98162
 30
0.0
 10
-1.17286
 20
-7.96369
 30
0.0
 10
-1.19671
 20
-7.9548
 30
0.0
 10
-1.22592
 20
-7.9548
 30
0.0
 10
-1.22592
 20
-7.9548
 30
0.0
 10
-1.25499
 20
-7.9548
 30
0.0
 10
-1.27912
 20
-7.96398
 30
0.0
 10
-1.29845
 20
-7.98232
 30
0.0
 10
-1.29845
 20
-7.98232
 30
0.0
 10
-1.31778
 20
-8.00067
 30
0.0
 10
-1.3302
 20
-8.02818
 30
0.0
 10
-1.3357
 20
-8.06487
 30
0.0
 10
-1.3357
 20
-8.06487
 30
0.0
 10
-1.3357
 20
-8.06487
 30
0.0
 10
-1.41021
 20
-8.05132
 30
0.0
 10
-1.41021
 20
-8.05132
 30
0.0
 10
-1.41021
 20
-8.05132
 30
0.0
 10
-1.40104
 20
-8.00137
 30
0.0
 10
-1.38044
 20
-7.96257
 30
0.0
 10
-1.34812
 20
-7.93505
 30
0.0
 10
-1.34812
 20
-7.93505
 30
0.0
 10
-1.31595
 20
-7.90753
 30
0.0
 10
-1.27573
 20
-7.89384
 30
0.0
 10
-1.22775
 20
-7.89384
 30
0.0
 10
-1.22775
 20
-7.89384
 30
0.0
 10
-1.19473
 20
-7.89384
 30
0.0
 10
-1.16425
 20
-7.9009
 30
0.0
 10
-1.13645
 20
-7.91515
 30
0.0
 10
-1.13645
 20
-7.91515
 30
0.0
 10
-1.10851
 20
-7.92926
 30
0.0
 10
-1.08721
 20
-7.9486
 30
0.0
 10
-1.07253
 20
-7.97301
 30
0.0
 10
-1.07253
 20
-7.97301
 30
0.0
 10
-1.05771
 20
-7.99756
 30
0.0
 10
-1.05038
 20
-8.02353
 30
0.0
 10
-1.05038
 20
-8.05104
 30
0.0
 10
-1.05038
 20
-8.05104
 30
0.0
 10
-1.05038
 20
-8.07715
 30
0.0
 10
-1.05743
 20
-8.10086
 30
0.0
 10
-1.0714
 20
-8.1223
 30
0.0
 10
-1.0714
 20
-8.1223
 30
0.0
 10
-1.08551
 20
-8.14375
 30
0.0
 10
-1.1064
 20
-8.16083
 30
0.0
 10
-1.13391
 20
-8.17353
 30
0.0
 10
-1.13391
 20
-8.17353
 30
0.0
 10
-1.09807
 20
-8.18171
 30
0.0
 10
-1.07027
 20
-8.19893
 30
0.0
 10
-1.05038
 20
-8.22503
 30
0.0
 10
-1.05038
 20
-8.22503
 30
0.0
 10
-1.03062
 20
-8.251
 30
0.0
 10
-1.02074
 20
-8.28374
 30
0.0
 10
-1.02074
 20
-8.32282
 30
0.0
 10
-1.02074
 20
-8.32282
 30
0.0
 10
-1.02074
 20
-8.37574
 30
0.0
 10
-1.04007
 20
-8.42076
 30
0.0
 10
-1.0786
 20
-8.45759
 30
0.0
 10
-1.0786
 20
-8.45759
 30
0.0
 10
-1.11726
 20
-8.49442
 30
0.0
 10
-1.16609
 20
-8.51276
 30
0.0
 10
-1.22507
 20
-8.51276
 30
0.0
 10
-1.22507
 20
-8.51276
 30
0.0
 10
-1.27827
 20
-8.51276
 30
0.0
 10
-1.32244
 20
-8.49681
 30
0.0
 10
-1.35758
 20
-8.46506
 30
0.0
 10
-1.35758
 20
-8.46506
 30
0.0
 10
-1.39285
 20
-8.43331
 30
0.0
 10
-1.41289
 20
-8.39225
 30
0.0
 10
-1.41783
 20
-8.34173
 30
0.0
  0
SPLINE
  5
47
330
1F
100
AcDbEntity
  8
Layer 1
 62
   250
100
AcDbSpline
210
0.0
220
0.0
230
1.0
 70
    11
 71
     3
 72
    92
 73
    88
 74
     0
 42
0.0000000001
 43
0.0000000001
 12
1.0
 22
0.0
 32
0.0
 13
1.0
 23
0.0
 33
0.0
 40
0.0
 40
0.0
 40
0.0
 40
0.0
 40
0.0434782608695652
 40
0.0434782608695652
 40
0.0434782608695652
 40
0.0434782608695652
 40
0.0869565217391304
 40
0.0869565217391304
 40
0.0869565217391304
 40
0.0869565217391304
 40
0.1304347826086956
 40
0.1304347826086956
 40
0.1304347826086956
 40
0.1304347826086956
 40
0.1739130434782609
 40
0.1739130434782609
 40
0.1739130434782609
 40
0.1739130434782609
 40
0.2173913043478261
 40
0.2173913043478261
 40
0.2173913043478261
 40
0.2173913043478261
 40
0.2608695652173913
 40
0.2608695652173913
 40
0.2608695652173913
 40
0.2608695652173913
 40
0.3043478260869565
 40
0.3043478260869565
 40
0.3043478260869565
 40
0.3043478260869565
 40
0.3478260869565217
 40
0.3478260869565217
 40
0.3478260869565217
 40
0.3478260869565217
 40
0.391304347826087
 40
0.391304347826087
 40
0.391304347826087
 40
0.391304347826087
 40
0.4347826086956522
 40
0.4347826086956522
 40
0.4347826086956522
 40
0.4347826086956522
 40
0.4782608695652174
 40
0.4782608695652174
 40
0.4782608695652174
 40
0.4782608695652174
 40
0.5217391304347826
 40
0.5217391304347826
 40
0.5217391304347826
 40
0.5217391304347826
 40
0.5652173913043478
 40
0.5652173913043478
 40
0.5652173913043478
 40
0.5652173913043478
 40
0.6086956521739131
 40
0.6086956521739131
 40
0.6086956521739131
 40
0.6086956521739131
 40
0.6521739130434783
 40
0.6521739130434783
 40
0.6521739130434783
 40
0.6521739130434783
 40
0.6956521739130435
 40
0.6956521739130435
 40
0.6956521739130435
 40
0.6956521739130435
 40
0.7391304347826086
 40
0.7391304347826086
 40
0.7391304347826086
 40
0.7391304347826086
 40
0.782608695652174
 40
0.782608695652174
 40
0.782608695652174
 40
0.782608695652174
 40
0.8260869565217391
 40
0.8260869565217391
 40
0.8260869565217391
 40
0.8260869565217391
 40
0.8695652173913043
 40
0.8695652173913043
 40
0.8695652173913043
 40
0.8695652173913043
 40
0.9130434782608695
 40
0.9130434782608695
 40
0.9130434782608695
 40
0.9130434782608695
 40
1.0
 40
1.0
 40
1.0
 40
1.0
 10
-0.55662
 20
-8.43148
 30
0.0
 10
-0.55662
 20
-8.43148
 30
0.0
 10
-0.55662
 20
-8.5026
 30
0.0
 10
-0.55662
 20
-8.5026
 30
0.0
 10
-0.55662
 20
-8.5026
 30
0.0
 10
-0.55662
 20
-8.5026
 30
0.0
 10
-0.95795
 20
-8.5026
 30
0.0
 10
-0.95795
 20
-8.5026
 30
0.0
 10
-0.95795
 20
-8.5026
 30
0.0
 10
-0.95851
 20
-8.48468
 30
0.0
 10
-0.95555
 20
-8.46746
 30
0.0
 10
-0.9492
 20
-8.45081
 30
0.0
 10
-0.9492
 20
-8.45081
 30
0.0
 10
-0.9389
 20
-8.42358
 30
0.0
 10
-0.92239
 20
-8.39663
 30
0.0
 10
-0.89967
 20
-8.37024
 30
0.0
 10
-0.89967
 20
-8.37024
 30
0.0
 10
-0.87695
 20
-8.34385
 30
0.0
 10
-0.84449
 20
-8.31337
 30
0.0
 10
-0.8023
 20
-8.2788
 30
0.0
 10
-0.8023
 20
-8.2788
 30
0.0
 10
-0.73668
 20
-8.22475
 30
0.0
 10
-0.69209
 20
-8.18199
 30
0.0
 10
-0.66881
 20
-8.15039
 30
0.0
 10
-0.66881
 20
-8.15039
 30
0.0
 10
-0.64538
 20
-8.11878
 30
0.0
 10
-0.63367
 20
-8.08886
 30
0.0
 10
-0.63367
 20
-8.06064
 30
0.0
 10
-0.63367
 20
-8.06064
 30
0.0
 10
-0.63367
 20
-8.03115
 30
0.0
 10
-0.64426
 20
-8.00631
 30
0.0
 10
-0.66542
 20
-7.98599
 30
0.0
 10
-0.66542
 20
-7.98599
 30
0.0
 10
-0.68659
 20
-7.96581
 30
0.0
 10
-0.71425
 20
-7.95565
 30
0.0
 10
-0.74825
 20
-7.95565
 30
0.0
 10
-0.74825
 20
-7.95565
 30
0.0
 10
-0.78424
 20
-7.95565
 30
0.0
 10
-0.81302
 20
-7.96638
 30
0.0
 10
-0.83461
 20
-7.98782
 30
0.0
 10
-0.83461
 20
-7.98782
 30
0.0
 10
-0.85621
 20
-8.00913
 30
0.0
 10
-0.86707
 20
-8.03877
 30
0.0
 10
-0.86735
 20
-8.07672
 30
0.0
 10
-0.86735
 20
-8.07672
 30
0.0
 10
-0.86735
 20
-8.07672
 30
0.0
 10
-0.94355
 20
-8.0691
 30
0.0
 10
-0.94355
 20
-8.0691
 30
0.0
 10
-0.94355
 20
-8.0691
 30
0.0
 10
-0.93833
 20
-8.0121
 30
0.0
 10
-0.91858
 20
-7.96863
 30
0.0
 10
-0.88443
 20
-7.93872
 30
0.0
 10
-0.88443
 20
-7.93872
 30
0.0
 10
-0.85014
 20
-7.9088
 30
0.0
 10
-0.80428
 20
-7.89384
 30
0.0
 10
-0.74656
 20
-7.89384
 30
0.0
 10
-0.74656
 20
-7.89384
 30
0.0
 10
-0.68842
 20
-7.89384
 30
0.0
 10
-0.64228
 20
-7.90993
 30
0.0
 10
-0.60841
 20
-7.94225
 30
0.0
 10
-0.60841
 20
-7.94225
 30
0.0
 10
-0.57441
 20
-7.97456
 30
0.0
 10
-0.55747
 20
-8.01464
 30
0.0
 10
-0.55747
 20
-8.06233
 30
0.0
 10
-0.55747
 20
-8.06233
 30
0.0
 10
-0.55747
 20
-8.0866
 30
0.0
 10
-0.56241
 20
-8.11045
 30
0.0
 10
-0.57243
 20
-8.13388
 30
0.0
 10
-0.57243
 20
-8.13388
 30
0.0
 10
-0.58231
 20
-8.15744
 30
0.0
 10
-0.59882
 20
-8.18214
 30
0.0
 10
-0.62182
 20
-8.2081
 30
0.0
 10
-0.62182
 20
-8.2081
 30
0.0
 10
-0.64496
 20
-8.23392
 30
0.0
 10
-0.6832
 20
-8.26962
 30
0.0
 10
-0.73654
 20
-8.31478
 30
0.0
 10
-0.73654
 20
-8.31478
 30
0.0
 10
-0.78127
 20
-8.35232
 30
0.0
 10
-0.81006
 20
-8.37772
 30
0.0
 10
-0.82276
 20
-8.39112
 30
0.0
 10
-0.82276
 20
-8.39112
 30
0.0
 10
-0.83546
 20
-8.40453
 30
0.0
 10
-0.8459
 20
-8.41793
 30
0.0
 10
-0.85423
 20
-8.43148
 30
0.0
 10
-0.85423
 20
-8.43148
 30
0.0
 10
-0.85423
 20
-8.43148
 30
0.0
 10
-0.55662
 20
-8.43148
 30
0.0
 10
-0.55662
 20
-8.43148
 30
0.0
  0
SPLINE
  5
48
330
1F
100
AcDbEntity
  8
Layer 1
 62
   250
100
AcDbSpline
210
0.0
220
0.0
230
1.0
 70
    11
 71
     3
 72
    92
 73
    88
 74
     0
 42
0.0000000001
 43
0.0000000001
 12
1.0
 22
0.0
 32
0.0
 13
1.0
 23
0.0
 33
0.0
 40
0.0
 40
0.0
 40
0.0
 40
0.0
 40
0.0434782608695652
 40
0.0434782608695652
 40
0.0434782608695652
 40
0.0434782608695652
 40
0.0869565217391304
 40
0.0869565217391304
 40
0.0869565217391304
 40
0.0869565217391304
 40
0.1304347826086956
 40
0.1304347826086956
 40
0.1304347826086956
 40
0.1304347826086956
 40
0.1739130434782609
 40
0.1739130434782609
 40
0.1739130434782609
 40
0.1739130434782609
 40
0.2173913043478261
 40
0.2173913043478261
 40
0.2173913043478261
 40
0.2173913043478261
 40
0.2608695652173913
 40
0.2608695652173913
 40
0.2608695652173913
 40
0.2608695652173913
 40
0.3043478260869565
 40
0.3043478260869565
 40
0.3043478260869565
 40
0.3043478260869565
 40
0.3478260869565217
 40
0.3478260869565217
 40
0.3478260869565217
 40
0.3478260869565217
 40
0.391304347826087
 40
0.391304347826087
 40
0.391304347826087
 40
0.391304347826087
 40
0.4347826086956522
 40
0.4347826086956522
 40
0.4347826086956522
 40
0.4347826086956522
 40
0.4782608695652174
 40
0.4782608695652174
 40
0.4782608695652174
 40
0.4782608695652174
 40
0.5217391304347826
 40
0.5217391304347826
 40
0.5217391304347826
 40
0.5217391304347826
 40
0.5652173913043478
 40
0.5652173913043478
 40
0.5652173913043478
 40
0.5652173913043478
 40
0.6086956521739131
 40
0.6086956521739131
 40
0.6086956521739131
 40
0.6086956521739131
 40
0.6521739130434783
 40
0.6521739130434783
 40
0.6521739130434783
 40
0.6521739130434783
 40
0.6956521739130435
 40
0.6956521739130435
 40
0.6956521739130435
 40
0.6956521739130435
 40
0.7391304347826086
 40
0.7391304347826086
 40
0.7391304347826086
 40
0.7391304347826086
 40
0.782608695652174
 40
0.782608695652174
 40
0.782608695652174
 40
0.782608695652174
 40
0.8260869565217391
 40
0.8260869565217391
 40
0.8260869565217391
 40
0.8260869565217391
 40
0.8695652173913043
 40
0.8695652173913043
 40
0.8695652173913043
 40
0.8695652173913043
 40
0.9130434782608695
 40
0.9130434782608695
 40
0.9130434782608695
 40
0.9130434782608695
 40
1.0
 40
1.0
 40
1.0
 40
1.0
 10
-0.47605
 20
-8.34343
 30
0.0
 10
-0.47605
 20
-8.34343
 30
0.0
 10
-0.39816
 20
-8.3375
 30
0.0
 10
-0.39816
 20
-8.3375
 30
0.0
 10
-0.39816
 20
-8.3375
 30
0.0
 10
-0.39237
 20
-8.37546
 30
0.0
 10
-0.37897
 20
-8.40396
 30
0.0
 10
-0.35808
 20
-8.42315
 30
0.0
 10
-0.35808
 20
-8.42315
 30
0.0
 10
-0.3372
 20
-8.4422
 30
0.0
 10
-0.31165
 20
-8.4518
 30
0.0
 10
-0.2816
 20
-8.4518
 30
0.0
 10
-0.2816
 20
-8.4518
 30
0.0
 10
-0.24533
 20
-8.4518
 30
0.0
 10
-0.21499
 20
-8.43825
 30
0.0
 10
-0.1903
 20
-8.4113
 30
0.0
 10
-0.1903
 20
-8.4113
 30
0.0
 10
-0.16575
 20
-8.38421
 30
0.0
 10
-0.15347
 20
-8.34836
 30
0.0
 10
-0.15347
 20
-8.30377
 30
0.0
 10
-0.15347
 20
-8.30377
 30
0.0
 10
-0.15347
 20
-8.2613
 30
0.0
 10
-0.16518
 20
-8.22786
 30
0.0
 10
-0.18875
 20
-8.2033
 30
0.0
 10
-0.18875
 20
-8.2033
 30
0.0
 10
-0.21231
 20
-8.17875
 30
0.0
 10
-0.2435
 20
-8.16647
 30
0.0
 10
-0.2823
 20
-8.16647
 30
0.0
 10
-0.2823
 20
-8.16647
 30
0.0
 10
-0.30643
 20
-8.16647
 30
0.0
 10
-0.32802
 20
-8.17198
 30
0.0
 10
-0.34721
 20
-8.18298
 30
0.0
 10
-0.34721
 20
-8.18298
 30
0.0
 10
-0.36626
 20
-8.19399
 30
0.0
 10
-0.38122
 20
-8.20824
 30
0.0
 10
-0.39223
 20
-8.22574
 30
0.0
 10
-0.39223
 20
-8.22574
 30
0.0
 10
-0.39223
 20
-8.22574
 30
0.0
 10
-0.4625
 20
-8.21558
 30
0.0
 10
-0.4625
 20
-8.21558
 30
0.0
 10
-0.4625
 20
-8.21558
 30
0.0
 10
-0.4625
 20
-8.21558
 30
0.0
 10
-0.40408
 20
-7.904
 30
0.0
 10
-0.40408
 20
-7.904
 30
0.0
 10
-0.40408
 20
-7.904
 30
0.0
 10
-0.40408
 20
-7.904
 30
0.0
 10
-0.10352
 20
-7.904
 30
0.0
 10
-0.10352
 20
-7.904
 30
0.0
 10
-0.10352
 20
-7.904
 30
0.0
 10
-0.10352
 20
-7.904
 30
0.0
 10
-0.10352
 20
-7.97512
 30
0.0
 10
-0.10352
 20
-7.97512
 30
0.0
 10
-0.10352
 20
-7.97512
 30
0.0
 10
-0.10352
 20
-7.97512
 30
0.0
 10
-0.34467
 20
-7.97512
 30
0.0
 10
-0.34467
 20
-7.97512
 30
0.0
 10
-0.34467
 20
-7.97512
 30
0.0
 10
-0.34467
 20
-7.97512
 30
0.0
 10
-0.37699
 20
-8.13867
 30
0.0
 10
-0.37699
 20
-8.13867
 30
0.0
 10
-0.37699
 20
-8.13867
 30
0.0
 10
-0.34072
 20
-8.11313
 30
0.0
 10
-0.30262
 20
-8.10043
 30
0.0
 10
-0.26283
 20
-8.10043
 30
0.0
 10
-0.26283
 20
-8.10043
 30
0.0
 10
-0.21005
 20
-8.10043
 30
0.0
 10
-0.16546
 20
-8.11878
 30
0.0
 10
-0.1292
 20
-8.15547
 30
0.0
 10
-0.1292
 20
-8.15547
 30
0.0
 10
-0.09293
 20
-8.19215
 30
0.0
 10
-0.07473
 20
-8.23929
 30
0.0
 10
-0.07473
 20
-8.29686
 30
0.0
 10
-0.07473
 20
-8.29686
 30
0.0
 10
-0.07473
 20
-8.35175
 30
0.0
 10
-0.09067
 20
-8.39917
 30
0.0
 10
-0.12257
 20
-8.4391
 30
0.0
 10
-0.12257
 20
-8.4391
 30
0.0
 10
-0.16137
 20
-8.48821
 30
0.0
 10
-0.21443
 20
-8.51276
 30
0.0
 10
-0.2816
 20
-8.51276
 30
0.0
 10
-0.2816
 20
-8.51276
 30
0.0
 10
-0.33663
 20
-8.51276
 30
0.0
 10
-0.38151
 20
-8.49724
 30
0.0
 10
-0.41636
 20
-8.46633
 30
0.0
 10
-0.41636
 20
-8.46633
 30
0.0
 10
-0.45121
 20
-8.43543
 30
0.0
 10
-0.47111
 20
-8.39451
 30
0.0
 10
-0.47605
 20
-8.34343
 30
0.0
  0
SPLINE
  5
49
330
1F
100
AcDbEntity
  8
Layer 1
 62
   250
100
AcDbSpline
210
0.0
220
0.0
230
1.0
 70
    11
 71
     3
 72
    36
 73
    32
 74
     0
 42
0.0000000001
 43
0.0000000001
 12
1.0
 22
0.0
 32
0.0
 13
1.0
 23
0.0
 33
0.0
 40
0.0
 40
0.0
 40
0.0
 40
0.0
 40
0.1111111111111111
 40
0.1111111111111111
 40
0.1111111111111111
 40
0.1111111111111111
 40
0.2222222222222222
 40
0.2222222222222222
 40
0.2222222222222222
 40
0.2222222222222222
 40
0.3333333333333333
 40
0.3333333333333333
 40
0.3333333333333333
 40
0.3333333333333333
 40
0.4444444444444444
 40
0.4444444444444444
 40
0.4444444444444444
 40
0.4444444444444444
 40
0.5555555555555556
 40
0.5555555555555556
 40
0.5555555555555556
 40
0.5555555555555556
 40
0.6666666666666666
 40
0.6666666666666666
 40
0.6666666666666666
 40
0.6666666666666666
 40
0.7777777777777778
 40
0.7777777777777778
 40
0.7777777777777778
 40
0.7777777777777778
 40
1.0
 40
1.0
 40
1.0
 40
1.0
 10
0.39856
 20
-8.5026
 30
0.0
 10
0.39856
 20
-8.5026
 30
0.0
 10
0.39856
 20
-7.9675
 30
0.0
 10
0.39856
 20
-7.9675
 30
0.0
 10
0.39856
 20
-7.9675
 30
0.0
 10
0.39856
 20
-7.9675
 30
0.0
 10
0.19874
 20
-7.9675
 30
0.0
 10
0.19874
 20
-7.9675
 30
0.0
 10
0.19874
 20
-7.9675
 30
0.0
 10
0.19874
 20
-7.9675
 30
0.0
 10
0.19874
 20
-7.89638
 30
0.0
 10
0.19874
 20
-7.89638
 30
0.0
 10
0.19874
 20
-7.89638
 30
0.0
 10
0.19874
 20
-7.89638
 30
0.0
 10
0.67881
 20
-7.89638
 30
0.0
 10
0.67881
 20
-7.89638
 30
0.0
 10
0.67881
 20
-7.89638
 30
0.0
 10
0.67881
 20
-7.89638
 30
0.0
 10
0.67881
 20
-7.9675
 30
0.0
 10
0.67881
 20
-7.9675
 30
0.0
 10
0.67881
 20
-7.9675
 30
0.0
 10
0.67881
 20
-7.9675
 30
0.0
 10
0.47899
 20
-7.9675
 30
0.0
 10
0.47899
 20
-7.9675
 30
0.0
 10
0.47899
 20
-7.9675
 30
0.0
 10
0.47899
 20
-7.9675
 30
0.0
 10
0.47899
 20
-8.5026
 30
0.0
 10
0.47899
 20
-8.5026
 30
0.0
 10
0.47899
 20
-8.5026
 30
0.0
 10
0.47899
 20
-8.5026
 30
0.0
 10
0.39856
 20
-8.5026
 30
0.0
 10
0.39856
 20
-8.5026
 30
0.0
  0
SPLINE
  5
4A
330
1F
100
AcDbEntity
  8
Layer 1
 62
   250
100
AcDbSpline
210
0.0
220
0.0
230
1.0
 70
    11
 71
     3
 72
    52
 73
    48
 74
     0
 42
0.0000000001
 43
0.0000000001
 12
1.0
 22
0.0
 32
0.0
 13
1.0
 23
0.0
 33
0.0
 40
0.0
 40
0.0
 40
0.0
 40
0.0
 40
0.0769230769230769
 40
0.0769230769230769
 40
0.0769230769230769
 40
0.0769230769230769
 40
0.1538461538461539
 40
0.1538461538461539
 40
0.1538461538461539
 40
0.1538461538461539
 40
0.2307692307692308
 40
0.2307692307692308
 40
0.2307692307692308
 40
0.2307692307692308
 40
0.3076923076923077
 40
0.3076923076923077
 40
0.3076923076923077
 40
0.3076923076923077
 40
0.3846153846153846
 40
0.3846153846153846
 40
0.3846153846153846
 40
0.3846153846153846
 40
0.4615384615384616
 40
0.4615384615384616
 40
0.4615384615384616
 40
0.4615384615384616
 40
0.5384615384615384
 40
0.5384615384615384
 40
0.5384615384615384
 40
0.5384615384615384
 40
0.6153846153846154
 40
0.6153846153846154
 40
0.6153846153846154
 40
0.6153846153846154
 40
0.6923076923076923
 40
0.6923076923076923
 40
0.6923076923076923
 40
0.6923076923076923
 40
0.7692307692307693
 40
0.7692307692307693
 40
0.7692307692307693
 40
0.7692307692307693
 40
0.8461538461538461
 40
0.8461538461538461
 40
0.8461538461538461
 40
0.8461538461538461
 40
1.0
 40
1.0
 40
1.0
 40
1.0
 10
0.76333
 20
-8.5026
 30
0.0
 10
0.76333
 20
-8.5026
 30
0.0
 10
0.76333
 20
-7.89638
 30
0.0
 10
0.76333
 20
-7.89638
 30
0.0
 10
0.76333
 20
-7.89638
 30
0.0
 10
0.76333
 20
-7.89638
 30
0.0
 10
1.20106
 20
-7.89638
 30
0.0
 10
1.20106
 20
-7.89638
 30
0.0
 10
1.20106
 20
-7.89638
 30
0.0
 10
1.20106
 20
-7.89638
 30
0.0
 10
1.20106
 20
-7.9675
 30
0.0
 10
1.20106
 20
-7.9675
 30
0.0
 10
1.20106
 20
-7.9675
 30
0.0
 10
1.20106
 20
-7.9675
 30
0.0
 10
0.84376
 20
-7.9675
 30
0.0
 10
0.84376
 20
-7.9675
 30
0.0
 10
0.84376
 20
-7.9675
 30
0.0
 10
0.84376
 20
-7.9675
 30
0.0
 10
0.84376
 20
-8.15377
 30
0.0
 10
0.84376
 20
-8.15377
 30
0.0
 10
0.84376
 20
-8.15377
 30
0.0
 10
0.84376
 20
-8.15377
 30
0.0
 10
1.1782
 20
-8.15377
 30
0.0
 10
1.1782
 20
-8.15377
 30
0.0
 10
1.1782
 20
-8.15377
 30
0.0
 10
1.1782
 20
-8.15377
 30
0.0
 10
1.1782
 20
-8.22489
 30
0.0
 10
1.1782
 20
-8.22489
 30
0.0
 10
1.1782
 20
-8.22489
 30
0.0
 10
1.1782
 20
-8.22489
 30
0.0
 10
0.84376
 20
-8.22489
 30
0.0
 10
0.84376
 20
-8.22489
 30
0.0
 10
0.84376
 20
-8.22489
 30
0.0
 10
0.84376
 20
-8.22489
 30
0.0
 10
0.84376
 20
-8.43148
 30
0.0
 10
0.84376
 20
-8.43148
 30
0.0
 10
0.84376
 20
-8.43148
 30
0.0
 10
0.84376
 20
-8.43148
 30
0.0
 10
1.21545
 20
-8.43148
 30
0.0
 10
1.21545
 20
-8.43148
 30
0.0
 10
1.21545
 20
-8.43148
 30
0.0
 10
1.21545
 20
-8.43148
 30
0.0
 10
1.21545
 20
-8.5026
 30
0.0
 10
1.21545
 20
-8.5026
 30
0.0
 10
1.21545
 20
-8.5026
 30
0.0
 10
1.21545
 20
-8.5026
 30
0.0
 10
0.76333
 20
-8.5026
 30
0.0
 10
0.76333
 20
-8.5026
 30
0.0
  0
SPLINE
  5
4B
330
1F
100
AcDbEntity
  8
Layer 1
 62
   250
100
AcDbSpline
210
0.0
220
0.0
230
1.0
 70
    11
 71
     3
 72
    64
 73
    60
 74
     0
 42
0.0000000001
 43
0.0000000001
 12
1.0
 22
0.0
 32
0.0
 13
1.0
 23
0.0
 33
0.0
 40
0.0
 40
0.0
 40
0.0
 40
0.0
 40
0.0625
 40
0.0625
 40
0.0625
 40
0.0625
 40
0.125
 40
0.125
 40
0.125
 40
0.125
 40
0.1875
 40
0.1875
 40
0.1875
 40
0.1875
 40
0.25
 40
0.25
 40
0.25
 40
0.25
 40
0.3125
 40
0.3125
 40
0.3125
 40
0.3125
 40
0.375
 40
0.375
 40
0.375
 40
0.375
 40
0.4375
 40
0.4375
 40
0.4375
 40
0.4375
 40
0.5
 40
0.5
 40
0.5
 40
0.5
 40
0.5625
 40
0.5625
 40
0.5625
 40
0.5625
 40
0.625
 40
0.625
 40
0.625
 40
0.625
 40
0.6875
 40
0.6875
 40
0.6875
 40
0.6875
 40
0.75
 40
0.75
 40
0.75
 40
0.75
 40
0.8125
 40
0.8125
 40
0.8125
 40
0.8125
 40
0.875
 40
0.875
 40
0.875
 40
0.875
 40
1.0
 40
1.0
 40
1.0
 40
1.0
 10
1.32467
 20
-8.5026
 30
0.0
 10
1.32467
 20
-8.5026
 30
0.0
 10
1.32467
 20
-7.89638
 30
0.0
 10
1.32467
 20
-7.89638
 30
0.0
 10
1.32467
 20
-7.89638
 30
0.0
 10
1.32467
 20
-7.89638
 30
0.0
 10
1.4449
 20
-7.89638
 30
0.0
 10
1.4449
 20
-7.89638
 30
0.0
 10
1.4449
 20
-7.89638
 30
0.0
 10
1.4449
 20
-7.89638
 30
0.0
 10
1.58827
 20
-8.3255
 30
0.0
 10
1.58827
 20
-8.3255
 30
0.0
 10
1.58827
 20
-8.3255
 30
0.0
 10
1.60153
 20
-8.36544
 30
0.0
 10
1.61113
 20
-8.39536
 30
0.0
 10
1.61719
 20
-8.41525
 30
0.0
 10
1.61719
 20
-8.41525
 30
0.0
 10
1.62411
 20
-8.39324
 30
0.0
 10
1.63497
 20
-8.36078
 30
0.0
 10
1.64965
 20
-8.31803
 30
0.0
 10
1.64965
 20
-8.31803
 30
0.0
 10
1.64965
 20
-8.31803
 30
0.0
 10
1.79556
 20
-7.89638
 30
0.0
 10
1.79556
 20
-7.89638
 30
0.0
 10
1.79556
 20
-7.89638
 30
0.0
 10
1.79556
 20
-7.89638
 30
0.0
 10
1.90295
 20
-7.89638
 30
0.0
 10
1.90295
 20
-7.89638
 30
0.0
 10
1.90295
 20
-7.89638
 30
0.0
 10
1.90295
 20
-7.89638
 30
0.0
 10
1.90295
 20
-8.5026
 30
0.0
 10
1.90295
 20
-8.5026
 30
0.0
 10
1.90295
 20
-8.5026
 30
0.0
 10
1.90295
 20
-8.5026
 30
0.0
 10
1.8259
 20
-8.5026
 30
0.0
 10
1.8259
 20
-8.5026
 30
0.0
 10
1.8259
 20
-8.5026
 30
0.0
 10
1.8259
 20
-8.5026
 30
0.0
 10
1.8259
 20
-7.99544
 30
0.0
 10
1.8259
 20
-7.99544
 30
0.0
 10
1.8259
 20
-7.99544
 30
0.0
 10
1.8259
 20
-7.99544
 30
0.0
 10
1.64894
 20
-8.5026
 30
0.0
 10
1.64894
 20
-8.5026
 30
0.0
 10
1.64894
 20
-8.5026
 30
0.0
 10
1.64894
 20
-8.5026
 30
0.0
 10
1.5767
 20
-8.5026
 30
0.0
 10
1.5767
 20
-8.5026
 30
0.0
 10
1.5767
 20
-8.5026
 30
0.0
 10
1.5767
 20
-8.5026
 30
0.0
 10
1.40172
 20
-7.98613
 30
0.0
 10
1.40172
 20
-7.98613
 30
0.0
 10
1.40172
 20
-7.98613
 30
0.0
 10
1.40172
 20
-7.98613
 30
0.0
 10
1.40172
 20
-8.5026
 30
0.0
 10
1.40172
 20
-8.5026
 30
0.0
 10
1.40172
 20
-8.5026
 30
0.0
 10
1.40172
 20
-8.5026
 30
0.0
 10
1.32467
 20
-8.5026
 30
0.0
 10
1.32467
 20
-8.5026
 30
0.0
  0
SPLINE
  5
4C
330
1F
100
AcDbEntity
  8
Layer 1
 62
   250
100
AcDbSpline
210
0.0
220
0.0
230
1.0
 70
    11
 71
     3
 72
    48
 73
    44
 74
     0
 42
0.0000000001
 43
0.0000000001
 12
1.0
 22
0.0
 32
0.0
 13
1.0
 23
0.0
 33
0.0
 40
0.0
 40
0.0
 40
0.0
 40
0.0
 40
0.0833333333333333
 40
0.0833333333333333
 40
0.0833333333333333
 40
0.0833333333333333
 40
0.1666666666666667
 40
0.1666666666666667
 40
0.1666666666666667
 40
0.1666666666666667
 40
0.25
 40
0.25
 40
0.25
 40
0.25
 40
0.3333333333333333
 40
0.3333333333333333
 40
0.3333333333333333
 40
0.3333333333333333
 40
0.4166666666666667
 40
0.4166666666666667
 40
0.4166666666666667
 40
0.4166666666666667
 40
0.5
 40
0.5
 40
0.5
 40
0.5
 40
0.5833333333333334
 40
0.5833333333333334
 40
0.5833333333333334
 40
0.5833333333333334
 40
0.6666666666666666
 40
0.6666666666666666
 40
0.6666666666666666
 40
0.6666666666666666
 40
0.75
 40
0.75
 40
0.75
 40
0.75
 40
0.8333333333333334
 40
0.8333333333333334
 40
0.8333333333333334
 40
0.8333333333333334
 40
1.0
 40
1.0
 40
1.0
 40
1.0
 10
2.03164
 20
-8.5026
 30
0.0
 10
2.03164
 20
-8.5026
 30
0.0
 10
2.03164
 20
-7.89638
 30
0.0
 10
2.03164
 20
-7.89638
 30
0.0
 10
2.03164
 20
-7.89638
 30
0.0
 10
2.03164
 20
-7.89638
 30
0.0
 10
2.26053
 20
-7.89638
 30
0.0
 10
2.26053
 20
-7.89638
 30
0.0
 10
2.26053
 20
-7.89638
 30
0.0
 10
2.30074
 20
-7.89638
 30
0.0
 10
2.33151
 20
-7.89836
 30
0.0
 10
2.35281
 20
-7.90217
 30
0.0
 10
2.35281
 20
-7.90217
 30
0.0
 10
2.38259
 20
-7.90711
 30
0.0
 10
2.40757
 20
-7.91656
 30
0.0
 10
2.42774
 20
-7.93039
 30
0.0
 10
2.42774
 20
-7.93039
 30
0.0
 10
2.44792
 20
-7.94436
 30
0.0
 10
2.46415
 20
-7.96384
 30
0.0
 10
2.47643
 20
-7.98881
 30
0.0
 10
2.47643
 20
-7.98881
 30
0.0
 10
2.4887
 20
-8.01379
 30
0.0
 10
2.49477
 20
-8.04131
 30
0.0
 10
2.49477
 20
-8.07136
 30
0.0
 10
2.49477
 20
-8.07136
 30
0.0
 10
2.49477
 20
-8.12273
 30
0.0
 10
2.4784
 20
-8.16633
 30
0.0
 10
2.44552
 20
-8.20189
 30
0.0
 10
2.44552
 20
-8.20189
 30
0.0
 10
2.41279
 20
-8.23759
 30
0.0
 10
2.35338
 20
-8.25537
 30
0.0
 10
2.26758
 20
-8.25537
 30
0.0
 10
2.26758
 20
-8.25537
 30
0.0
 10
2.26758
 20
-8.25537
 30
0.0
 10
2.11208
 20
-8.25537
 30
0.0
 10
2.11208
 20
-8.25537
 30
0.0
 10
2.11208
 20
-8.25537
 30
0.0
 10
2.11208
 20
-8.25537
 30
0.0
 10
2.11208
 20
-8.5026
 30
0.0
 10
2.11208
 20
-8.5026
 30
0.0
 10
2.11208
 20
-8.5026
 30
0.0
 10
2.11208
 20
-8.5026
 30
0.0
 10
2.03164
 20
-8.5026
 30
0.0
 10
2.03164
 20
-8.5026
 30
0.0
  0
SPLINE
  5
4D
330
1F
100
AcDbEntity
  8
Layer 1
 62
   250
100
AcDbSpline
210
0.0
220
0.0
230
1.0
 70
    11
 71
     3
 72
    36
 73
    32
 74
     0
 42
0.0000000001
 43
0.0000000001
 12
1.0
 22
0.0
 32
0.0
 13
1.0
 23
0.0
 33
0.0
 40
0.0
 40
0.0
 40
0.0
 40
0.0
 40
0.1111111111111111
 40
0.1111111111111111
 40
0.1111111111111111
 40
0.1111111111111111
 40
0.2222222222222222
 40
0.2222222222222222
 40
0.2222222222222222
 40
0.2222222222222222
 40
0.3333333333333333
 40
0.3333333333333333
 40
0.3333333333333333
 40
0.3333333333333333
 40
0.4444444444444444
 40
0.4444444444444444
 40
0.4444444444444444
 40
0.4444444444444444
 40
0.5555555555555556
 40
0.5555555555555556
 40
0.5555555555555556
 40
0.5555555555555556
 40
0.6666666666666666
 40
0.6666666666666666
 40
0.6666666666666666
 40
0.6666666666666666
 40
0.7777777777777778
 40
0.7777777777777778
 40
0.7777777777777778
 40
0.7777777777777778
 40
1.0
 40
1.0
 40
1.0
 40
1.0
 10
2.11208
 20
-8.18425
 30
0.0
 10
2.11208
 20
-8.18425
 30
0.0
 10
2.26871
 20
-8.18425
 30
0.0
 10
2.26871
 20
-8.18425
 30
0.0
 10
2.26871
 20
-8.18425
 30
0.0
 10
2.32064
 20
-8.18425
 30
0.0
 10
2.35733
 20
-8.17466
 30
0.0
 10
2.3792
 20
-8.15532
 30
0.0
 10
2.3792
 20
-8.15532
 30
0.0
 10
2.40093
 20
-8.13599
 30
0.0
 10
2.4118
 20
-8.1089
 30
0.0
 10
2.4118
 20
-8.07376
 30
0.0
 10
2.4118
 20
-8.07376
 30
0.0
 10
2.4118
 20
-8.0485
 30
0.0
 10
2.40545
 20
-8.02677
 30
0.0
 10
2.39261
 20
-8.00871
 30
0.0
 10
2.39261
 20
-8.00871
 30
0.0
 10
2.37977
 20
-7.99065
 30
0.0
 10
2.36283
 20
-7.97865
 30
0.0
 10
2.34195
 20
-7.97287
 30
0.0
 10
2.34195
 20
-7.97287
 30
0.0
 10
2.3284
 20
-7.96934
 30
0.0
 10
2.30342
 20
-7.9675
 30
0.0
 10
2.26716
 20
-7.9675
 30
0.0
 10
2.26716
 20
-7.9675
 30
0.0
 10
2.26716
 20
-7.9675
 30
0.0
 10
2.11208
 20
-7.9675
 30
0.0
 10
2.11208
 20
-7.9675
 30
0.0
 10
2.11208
 20
-7.9675
 30
0.0
 10
2.11208
 20
-7.9675
 30
0.0
 10
2.11208
 20
-8.18425
 30
0.0
 10
2.11208
 20
-8.18425
 30
0.0
  0
SPLINE
  5
4E
330
1F
100
AcDbEntity
  8
Layer 1
 62
   250
100
AcDbSpline
210
0.0
220
0.0
230
1.0
 70
    11
 71
     3
 72
    28
 73
    24
 74
     0
 42
0.0000000001
 43
0.0000000001
 12
1.0
 22
0.0
 32
0.0
 13
1.0
 23
0.0
 33
0.0
 40
0.0
 40
0.0
 40
0.0
 40
0.0
 40
0.1428571428571428
 40
0.1428571428571428
 40
0.1428571428571428
 40
0.1428571428571428
 40
0.2857142857142857
 40
0.2857142857142857
 40
0.2857142857142857
 40
0.2857142857142857
 40
0.4285714285714285
 40
0.4285714285714285
 40
0.4285714285714285
 40
0.4285714285714285
 40
0.5714285714285714
 40
0.5714285714285714
 40
0.5714285714285714
 40
0.5714285714285714
 40
0.7142857142857143
 40
0.7142857142857143
 40
0.7142857142857143
 40
0.7142857142857143
 40
1.0
 40
1.0
 40
1.0
 40
1.0
 10
2.59299
 20
-8.5026
 30
0.0
 10
2.59299
 20
-8.5026
 30
0.0
 10
2.59299
 20
-7.89638
 30
0.0
 10
2.59299
 20
-7.89638
 30
0.0
 10
2.59299
 20
-7.89638
 30
0.0
 10
2.59299
 20
-7.89638
 30
0.0
 10
2.67342
 20
-7.89638
 30
0.0
 10
2.67342
 20
-7.89638
 30
0.0
 10
2.67342
 20
-7.89638
 30
0.0
 10
2.67342
 20
-7.89638
 30
0.0
 10
2.67342
 20
-8.43148
 30
0.0
 10
2.67342
 20
-8.43148
 30
0.0
 10
2.67342
 20
-8.43148
 30
0.0
 10
2.67342
 20
-8.43148
 30
0.0
 10
2.97145
 20
-8.43148
 30
0.0
 10
2.97145
 20
-8.43148
 30
0.0
 10
2.97145
 20
-8.43148
 30
0.0
 10
2.97145
 20
-8.43148
 30
0.0
 10
2.97145
 20
-8.5026
 30
0.0
 10
2.97145
 20
-8.5026
 30
0.0
 10
2.97145
 20
-8.5026
 30
0.0
 10
2.97145
 20
-8.5026
 30
0.0
 10
2.59299
 20
-8.5026
 30
0.0
 10
2.59299
 20
-8.5026
 30
0.0
  0
SPLINE
  5
4F
330
1F
100
AcDbEntity
  8
Layer 1
 62
   250
100
AcDbSpline
210
0.0
220
0.0
230
1.0
 70
    11
 71
     3
 72
    36
 73
    32
 74
     0
 42
0.0000000001
 43
0.0000000001
 12
1.0
 22
0.0
 32
0.0
 13
1.0
 23
0.0
 33
0.0
 40
0.0
 40
0.0
 40
0.0
 40
0.0
 40
0.1111111111111111
 40
0.1111111111111111
 40
0.1111111111111111
 40
0.1111111111111111
 40
0.2222222222222222
 40
0.2222222222222222
 40
0.2222222222222222
 40
0.2222222222222222
 40
0.3333333333333333
 40
0.3333333333333333
 40
0.3333333333333333
 40
0.3333333333333333
 40
0.4444444444444444
 40
0.4444444444444444
 40
0.4444444444444444
 40
0.4444444444444444
 40
0.5555555555555556
 40
0.5555555555555556
 40
0.5555555555555556
 40
0.5555555555555556
 40
0.6666666666666666
 40
0.6666666666666666
 40
0.6666666666666666
 40
0.6666666666666666
 40
0.7777777777777778
 40
0.7777777777777778
 40
0.7777777777777778
 40
0.7777777777777778
 40
1.0
 40
1.0
 40
1.0
 40
1.0
 10
3.0008
 20
-8.5026
 30
0.0
 10
3.0008
 20
-8.5026
 30
0.0
 10
3.23335
 20
-7.89638
 30
0.0
 10
3.23335
 20
-7.89638
 30
0.0
 10
3.23335
 20
-7.89638
 30
0.0
 10
3.23335
 20
-7.89638
 30
0.0
 10
3.32155
 20
-7.89638
 30
0.0
 10
3.32155
 20
-7.89638
 30
0.0
 10
3.32155
 20
-7.89638
 30
0.0
 10
3.32155
 20
-7.89638
 30
0.0
 10
3.56835
 20
-8.5026
 30
0.0
 10
3.56835
 20
-8.5026
 30
0.0
 10
3.56835
 20
-8.5026
 30
0.0
 10
3.56835
 20
-8.5026
 30
0.0
 10
3.47705
 20
-8.5026
 30
0.0
 10
3.47705
 20
-8.5026
 30
0.0
 10
3.47705
 20
-8.5026
 30
0.0
 10
3.47705
 20
-8.5026
 30
0.0
 10
3.40692
 20
-8.31887
 30
0.0
 10
3.40692
 20
-8.31887
 30
0.0
 10
3.40692
 20
-8.31887
 30
0.0
 10
3.40692
 20
-8.31887
 30
0.0
 10
3.15165
 20
-8.31887
 30
0.0
 10
3.15165
 20
-8.31887
 30
0.0
 10
3.15165
 20
-8.31887
 30
0.0
 10
3.15165
 20
-8.31887
 30
0.0
 10
3.08589
 20
-8.5026
 30
0.0
 10
3.08589
 20
-8.5026
 30
0.0
 10
3.08589
 20
-8.5026
 30
0.0
 10
3.08589
 20
-8.5026
 30
0.0
 10
3.0008
 20
-8.5026
 30
0.0
 10
3.0008
 20
-8.5026
 30
0.0
  0
SPLINE
  5
50
330
1F
100
AcDbEntity
  8
Layer 1
 62
   250
100
AcDbSpline
210
0.0
220
0.0
230
1.0
 70
    11
 71
     3
 72
    24
 73
    20
 74
     0
 42
0.0000000001
 43
0.0000000001
 12
1.0
 22
0.0
 32
0.0
 13
1.0
 23
0.0
 33
0.0
 40
0.0
 40
0.0
 40
0.0
 40
0.0
 40
0.1666666666666667
 40
0.1666666666666667
 40
0.1666666666666667
 40
0.1666666666666667
 40
0.3333333333333333
 40
0.3333333333333333
 40
0.3333333333333333
 40
0.3333333333333333
 40
0.5
 40
0.5
 40
0.5
 40
0.5
 40
0.6666666666666666
 40
0.6666666666666666
 40
0.6666666666666666
 40
0.6666666666666666
 40
1.0
 40
1.0
 40
1.0
 40
1.0
 10
3.17521
 20
-8.25368
 30
0.0
 10
3.17521
 20
-8.25368
 30
0.0
 10
3.3818
 20
-8.25368
 30
0.0
 10
3.3818
 20
-8.25368
 30
0.0
 10
3.3818
 20
-8.25368
 30
0.0
 10
3.3818
 20
-8.25368
 30
0.0
 10
3.31858
 20
-8.08562
 30
0.0
 10
3.31858
 20
-8.08562
 30
0.0
 10
3.31858
 20
-8.08562
 30
0.0
 10
3.29953
 20
-8.03453
 30
0.0
 10
3.28514
 20
-7.99234
 30
0.0
 10
3.27512
 20
-7.95904
 30
0.0
 10
3.27512
 20
-7.95904
 30
0.0
 10
3.2668
 20
-7.99855
 30
0.0
 10
3.25565
 20
-8.03735
 30
0.0
 10
3.24168
 20
-8.07574
 30
0.0
 10
3.24168
 20
-8.07574
 30
0.0
 10
3.24168
 20
-8.07574
 30
0.0
 10
3.17521
 20
-8.25368
 30
0.0
 10
3.17521
 20
-8.25368
 30
0.0
  0
SPLINE
  5
51
330
1F
100
AcDbEntity
  8
Layer 1
 62
   250
100
AcDbSpline
210
0.0
220
0.0
230
1.0
 70
    11
 71
     3
 72
    36
 73
    32
 74
     0
 42
0.0000000001
 43
0.0000000001
 12
1.0
 22
0.0
 32
0.0
 13
1.0
 23
0.0
 33
0.0
 40
0.0
 40
0.0
 40
0.0
 40
0.0
 40
0.1111111111111111
 40
0.1111111111111111
 40
0.1111111111111111
 40
0.1111111111111111
 40
0.2222222222222222
 40
0.2222222222222222
 40
0.2222222222222222
 40
0.2222222222222222
 40
0.3333333333333333
 40
0.3333333333333333
 40
0.3333333333333333
 40
0.3333333333333333
 40
0.4444444444444444
 40
0.4444444444444444
 40
0.4444444444444444
 40
0.4444444444444444
 40
0.5555555555555556
 40
0.5555555555555556
 40
0.5555555555555556
 40
0.5555555555555556
 40
0.6666666666666666
 40
0.6666666666666666
 40
0.6666666666666666
 40
0.6666666666666666
 40
0.7777777777777778
 40
0.7777777777777778
 40
0.7777777777777778
 40
0.7777777777777778
 40
1.0
 40
1.0
 40
1.0
 40
1.0
 10
3.7233
 20
-8.5026
 30
0.0
 10
3.7233
 20
-8.5026
 30
0.0
 10
3.7233
 20
-7.9675
 30
0.0
 10
3.7233
 20
-7.9675
 30
0.0
 10
3.7233
 20
-7.9675
 30
0.0
 10
3.7233
 20
-7.9675
 30
0.0
 10
3.52348
 20
-7.9675
 30
0.0
 10
3.52348
 20
-7.9675
 30
0.0
 10
3.52348
 20
-7.9675
 30
0.0
 10
3.52348
 20
-7.9675
 30
0.0
 10
3.52348
 20
-7.89638
 30
0.0
 10
3.52348
 20
-7.89638
 30
0.0
 10
3.52348
 20
-7.89638
 30
0.0
 10
3.52348
 20
-7.89638
 30
0.0
 10
4.00355
 20
-7.89638
 30
0.0
 10
4.00355
 20
-7.89638
 30
0.0
 10
4.00355
 20
-7.89638
 30
0.0
 10
4.00355
 20
-7.89638
 30
0.0
 10
4.00355
 20
-7.9675
 30
0.0
 10
4.00355
 20
-7.9675
 30
0.0
 10
4.00355
 20
-7.9675
 30
0.0
 10
4.00355
 20
-7.9675
 30
0.0
 10
3.80373
 20
-7.9675
 30
0.0
 10
3.80373
 20
-7.9675
 30
0.0
 10
3.80373
 20
-7.9675
 30
0.0
 10
3.80373
 20
-7.9675
 30
0.0
 10
3.80373
 20
-8.5026
 30
0.0
 10
3.80373
 20
-8.5026
 30
0.0
 10
3.80373
 20
-8.5026
 30
0.0
 10
3.80373
 20
-8.5026
 30
0.0
 10
3.7233
 20
-8.5026
 30
0.0
 10
3.7233
 20
-8.5026
 30
0.0
  0
SPLINE
  5
52
330
1F
100
AcDbEntity
  8
Layer 1
 62
   250
100
AcDbSpline
210
0.0
220
0.0
230
1.0
 70
    11
 71
     3
 72
    52
 73
    48
 74
     0
 42
0.0000000001
 43
0.0000000001
 12
1.0
 22
0.0
 32
0.0
 13
1.0
 23
0.0
 33
0.0
 40
0.0
 40
0.0
 40
0.0
 40
0.0
 40
0.0769230769230769
 40
0.0769230769230769
 40
0.0769230769230769
 40
0.0769230769230769
 40
0.1538461538461539
 40
0.1538461538461539
 40
0.1538461538461539
 40
0.1538461538461539
 40
0.2307692307692308
 40
0.2307692307692308
 40
0.2307692307692308
 40
0.2307692307692308
 40
0.3076923076923077
 40
0.3076923076923077
 40
0.3076923076923077
 40
0.3076923076923077
 40
0.3846153846153846
 40
0.3846153846153846
 40
0.3846153846153846
 40
0.3846153846153846
 40
0.4615384615384616
 40
0.4615384615384616
 40
0.4615384615384616
 40
0.4615384615384616
 40
0.5384615384615384
 40
0.5384615384615384
 40
0.5384615384615384
 40
0.5384615384615384
 40
0.6153846153846154
 40
0.6153846153846154
 40
0.6153846153846154
 40
0.6153846153846154
 40
0.6923076923076923
 40
0.6923076923076923
 40
0.6923076923076923
 40
0.6923076923076923
 40
0.7692307692307693
 40
0.7692307692307693
 40
0.7692307692307693
 40
0.7692307692307693
 40
0.8461538461538461
 40
0.8461538461538461
 40
0.8461538461538461
 40
0.8461538461538461
 40
1.0
 40
1.0
 40
1.0
 40
1.0
 10
4.08807
 20
-8.5026
 30
0.0
 10
4.08807
 20
-8.5026
 30
0.0
 10
4.08807
 20
-7.89638
 30
0.0
 10
4.08807
 20
-7.89638
 30
0.0
 10
4.08807
 20
-7.89638
 30
0.0
 10
4.08807
 20
-7.89638
 30
0.0
 10
4.5258
 20
-7.89638
 30
0.0
 10
4.5258
 20
-7.89638
 30
0.0
 10
4.5258
 20
-7.89638
 30
0.0
 10
4.5258
 20
-7.89638
 30
0.0
 10
4.5258
 20
-7.9675
 30
0.0
 10
4.5258
 20
-7.9675
 30
0.0
 10
4.5258
 20
-7.9675
 30
0.0
 10
4.5258
 20
-7.9675
 30
0.0
 10
4.1685
 20
-7.9675
 30
0.0
 10
4.1685
 20
-7.9675
 30
0.0
 10
4.1685
 20
-7.9675
 30
0.0
 10
4.1685
 20
-7.9675
 30
0.0
 10
4.1685
 20
-8.15377
 30
0.0
 10
4.1685
 20
-8.15377
 30
0.0
 10
4.1685
 20
-8.15377
 30
0.0
 10
4.1685
 20
-8.15377
 30
0.0
 10
4.50294
 20
-8.15377
 30
0.0
 10
4.50294
 20
-8.15377
 30
0.0
 10
4.50294
 20
-8.15377
 30
0.0
 10
4.50294
 20
-8.15377
 30
0.0
 10
4.50294
 20
-8.22489
 30
0.0
 10
4.50294
 20
-8.22489
 30
0.0
 10
4.50294
 20
-8.22489
 30
0.0
 10
4.50294
 20
-8.22489
 30
0.0
 10
4.1685
 20
-8.22489
 30
0.0
 10
4.1685
 20
-8.22489
 30
0.0
 10
4.1685
 20
-8.22489
 30
0.0
 10
4.1685
 20
-8.22489
 30
0.0
 10
4.1685
 20
-8.43148
 30
0.0
 10
4.1685
 20
-8.43148
 30
0.0
 10
4.1685
 20
-8.43148
 30
0.0
 10
4.1685
 20
-8.43148
 30
0.0
 10
4.54019
 20
-8.43148
 30
0.0
 10
4.54019
 20
-8.43148
 30
0.0
 10
4.54019
 20
-8.43148
 30
0.0
 10
4.54019
 20
-8.43148
 30
0.0
 10
4.54019
 20
-8.5026
 30
0.0
 10
4.54019
 20
-8.5026
 30
0.0
 10
4.54019
 20
-8.5026
 30
0.0
 10
4.54019
 20
-8.5026
 30
0.0
 10
4.08807
 20
-8.5026
 30
0.0
 10
4.08807
 20
-8.5026
 30
0.0
  0
SPLINE
  5
53
330
1F
100
AcDbEntity
  8
Layer 1
 62
     3
370
     9
100
AcDbSpline
210
0.0
220
0.0
230
1.0
 70
    11
 71
     3
 72
    20
 73
    16
 74
     0
 42
0.0000000001
 43
0.0000000001
 12
1.0
 22
0.0
 32
0.0
 13
1.0
 23
0.0
 33
0.0
 40
0.0
 40
0.0
 40
0.0
 40
0.0
 40
0.2
 40
0.2
 40
0.2
 40
0.2
 40
0.4
 40
0.4
 40
0.4
 40
0.4
 40
0.6
 40
0.6
 40
0.6
 40
0.6
 40
1.0
 40
1.0
 40
1.0
 40
1.0
 10
-12.07499
 20
8.14698
 30
0.0
 10
-12.07499
 20
8.14698
 30
0.0
 10
-12.07499
 20
-6.07922
 30
0.0
 10
-12.07499
 20
-6.07922
 30
0.0
 10
-12.07499
 20
-6.07922
 30
0.0
 10
-12.07499
 20
-6.07922
 30
0.0
 10
11.04261
 20
-6.07922
 30
0.0
 10
11.04261
 20
-6.07922
 30
0.0
 10
11.04261
 20
-6.07922
 30
0.0
 10
11.04261
 20
-6.07922
 30
0.0
 10
11.04261
 20
8.14698
 30
0.0
 10
11.04261
 20
8.14698
 30
0.0
 10
11.04261
 20
8.14698
 30
0.0
 10
11.04261
 20
8.14698
 30
0.0
 10
-12.07499
 20
8.14698
 30
0.0
 10
-12.07499
 20
8.14698
 30
0.0
  0
SPLINE
  5
55
330
1F
100
AcDbEntity
  8
layer 2
 62
     1
370
     0
100
AcDbSpline
210
0.0
220
0.0
230
1.0
 70
    24
 71
     3
 72
     8
 73
     4
 74
     0
 42
0.0000000001
 43
0.0000000001
 12
1.0
 22
0.0
 32
0.0
 13
1.0
 23
0.0
 33
0.0
 40
0.0
 40
0.0
 40
0.0
 40
0.0
 40
1.0
 40
1.0
 40
1.0
 40
1.0
 10
-12.07499
 20
8.29275
 30
0.0
 10
-12.07499
 20
8.29275
 30
0.0
 10
-12.07499
 20
9.89377
 30
0.0
 10
-12.07499
 20
9.89377
 30
0.0
  0
SPLINE
  5
56
330
1F
100
AcDbEntity
  8
layer 2
 62
     1
370
     0
100
AcDbSpline
210
0.0
220
0.0
230
1.0
 70
    24
 71
     3
 72
     8
 73
     4
 74
     0
 42
0.0000000001
 43
0.0000000001
 12
1.0
 22
0.0
 32
0.0
 13
1.0
 23
0.0
 33
0.0
 40
0.0
 40
0.0
 40
0.0
 40
0.0
 40
1.0
 40
1.0
 40
1.0
 40
1.0
 10
11.04261
 20
8.29275
 30
0.0
 10
11.04261
 20
8.29275
 30
0.0
 10
11.04261
 20
9.89377
 30
0.0
 10
11.04261
 20
9.89377
 30
0.0
  0
SPLINE
  5
57
330
1F
100
AcDbEntity
  8
layer 2
 62
     1
370
     0
100
AcDbSpline
210
0.0
220
0.0
230
1.0
 70
    24
 71
     3
 72
     8
 73
     4
 74
     0
 42
0.0000000001
 43
0.0000000001
 12
1.0
 22
0.0
 32
0.0
 13
1.0
 23
0.0
 33
0.0
 40
0.0
 40
0.0
 40
0.0
 40
0.0
 40
1.0
 40
1.0
 40
1.0
 40
1.0
 10
-11.49195
 20
9.60225
 30
0.0
 10
-11.49195
 20
9.60225
 30
0.0
 10
10.45957
 20
9.60225
 30
0.0
 10
10.45957
 20
9.60225
 30
0.0
  0
SPLINE
  5
58
330
1F
100
AcDbEntity
  8
layer 2
 62
     1
100
AcDbSpline
210
0.0
220
0.0
230
1.0
 70
    27
 71
     3
 72
    12
 73
     8
 74
     0
 42
0.0000000001
 43
0.0000000001
 12
1.0
 22
0.0
 32
0.0
 13
1.0
 23
0.0
 33
0.0
 40
0.0
 40
0.0
 40
0.0
 40
0.0
 40
0.3333333333333333
 40
0.3333333333333333
 40
0.3333333333333333
 40
0.3333333333333333
 40
1.0
 40
1.0
 40
1.0
 40
1.0
 10
-11.49195
 20
9.69942
 30
0.0
 10
-11.49195
 20
9.69942
 30
0.0
 10
-12.07499
 20
9.60225
 30
0.0
 10
-12.07499
 20
9.60225
 30
0.0
 10
-12.07499
 20
9.60225
 30
0.0
 10
-12.07499
 20
9.60225
 30
0.0
 10
-11.49195
 20
9.69942
 30
0.0
 10
-11.49195
 20
9.69942
 30
0.0
  0
SPLINE
  5
59
330
1F
100
AcDbEntity
  8
layer 2
 62
     1
100
AcDbSpline
210
0.0
220
0.0
230
1.0
 70
     8
 71
     3
 72
    12
 73
     8
 74
     0
 42
0.0000000001
 43
0.0000000001
 12
1.0
 22
0.0
 32
0.0
 13
1.0
 23
0.0
 33
0.0
 40
0.0
 40
0.0
 40
0.0
 40
0.0
 40
0.3333333333333333
 40
0.3333333333333333
 40
0.3333333333333333
 40
0.3333333333333333
 40
1.0
 40
1.0
 40
1.0
 40
1.0
 10
-12.07499
 20
9.60225
 30
0.0
 10
-12.07499
 20
9.60225
 30
0.0
 10
-11.49195
 20
9.50508
 30
0.0
 10
-11.49195
 20
9.50508
 30
0.0
 10
-11.49195
 20
9.50508
 30
0.0
 10
-11.49195
 20
9.50508
 30
0.0
 10
-11.49195
 20
9.69942
 30
0.0
 10
-11.49195
 20
9.69942
 30
0.0
  0
SPLINE
  5
5A
330
1F
100
AcDbEntity
  8
layer 2
 62
     1
370
     9
100
AcDbSpline
210
0.0
220
0.0
230
1.0
 70
    24
 71
     3
 72
     8
 73
     4
 74
     0
 42
0.0000000001
 43
0.0000000001
 12
1.0
 22
0.0
 32
0.0
 13
1.0
 23
0.0
 33
0.0
 40
0.0
 40
0.0
 40
0.0
 40
0.0
 40
1.0
 40
1.0
 40
1.0
 40
1.0
 10
-11.49195
 20
9.69942
 30
0.0
 10
-11.49195
 20
9.69942
 30
0.0
 10
-12.07499
 20
9.60225
 30
0.0
 10
-12.07499
 20
9.60225
 30
0.0
  0
SPLINE
  5
5B
330
1F
100
AcDbEntity
  8
layer 2
 62
     1
370
     9
100
AcDbSpline
210
0.0
220
0.0
230
1.0
 70
     8
 71
     3
 72
    12
 73
     8
 74
     0
 42
0.0000000001
 43
0.0000000001
 12
1.0
 22
0.0
 32
0.0
 13
1.0
 23
0.0
 33
0.0
 40
0.0
 40
0.0
 40
0.0
 40
0.0
 40
0.3333333333333333
 40
0.3333333333333333
 40
0.3333333333333333
 40
0.3333333333333333
 40
1.0
 40
1.0
 40
1.0
 40
1.0
 10
-12.07499
 20
9.60225
 30
0.0
 10
-12.07499
 20
9.60225
 30
0.0
 10
-11.49195
 20
9.50508
 30
0.0
 10
-11.49195
 20
9.50508
 30
0.0
 10
-11.49195
 20
9.50508
 30
0.0
 10
-11.49195
 20
9.50508
 30
0.0
 10
-11.49195
 20
9.69942
 30
0.0
 10
-11.49195
 20
9.69942
 30
0.0
  0
SPLINE
  5
5C
330
1F
100
AcDbEntity
  8
layer 2
 62
     1
100
AcDbSpline
210
0.0
220
0.0
230
1.0
 70
    27
 71
     3
 72
    12
 73
     8
 74
     0
 42
0.0000000001
 43
0.0000000001
 12
1.0
 22
0.0
 32
0.0
 13
1.0
 23
0.0
 33
0.0
 40
0.0
 40
0.0
 40
0.0
 40
0.0
 40
0.3333333333333333
 40
0.3333333333333333
 40
0.3333333333333333
 40
0.3333333333333333
 40
1.0
 40
1.0
 40
1.0
 40
1.0
 10
10.45957
 20
9.69942
 30
0.0
 10
10.45957
 20
9.69942
 30
0.0
 10
11.04261
 20
9.60225
 30
0.0
 10
11.04261
 20
9.60225
 30
0.0
 10
11.04261
 20
9.60225
 30
0.0
 10
11.04261
 20
9.60225
 30
0.0
 10
10.45957
 20
9.69942
 30
0.0
 10
10.45957
 20
9.69942
 30
0.0
  0
SPLINE
  5
5D
330
1F
100
AcDbEntity
  8
layer 2
 62
     1
100
AcDbSpline
210
0.0
220
0.0
230
1.0
 70
     8
 71
     3
 72
    12
 73
     8
 74
     0
 42
0.0000000001
 43
0.0000000001
 12
1.0
 22
0.0
 32
0.0
 13
1.0
 23
0.0
 33
0.0
 40
0.0
 40
0.0
 40
0.0
 40
0.0
 40
0.3333333333333333
 40
0.3333333333333333
 40
0.3333333333333333
 40
0.3333333333333333
 40
1.0
 40
1.0
 40
1.0
 40
1.0
 10
11.04261
 20
9.60225
 30
0.0
 10
11.04261
 20
9.60225
 30
0.0
 10
10.45957
 20
9.50508
 30
0.0
 10
10.45957
 20
9.50508
 30
0.0
 10
10.45957
 20
9.50508
 30
0.0
 10
10.45957
 20
9.50508
 30
0.0
 10
10.45957
 20
9.69942
 30
0.0
 10
10.45957
 20
9.69942
 30
0.0
  0
SPLINE
  5
5E
330
1F
100
AcDbEntity
  8
layer 2
 62
     1
370
     9
100
AcDbSpline
210
0.0
220
0.0
230
1.0
 70
    24
 71
     3
 72
     8
 73
     4
 74
     0
 42
0.0000000001
 43
0.0000000001
 12
1.0
 22
0.0
 32
0.0
 13
1.0
 23
0.0
 33
0.0
 40
0.0
 40
0.0
 40
0.0
 40
0.0
 40
1.0
 40
1.0
 40
1.0
 40
1.0
 10
10.45957
 20
9.69942
 30
0.0
 10
10.45957
 20
9.69942
 30
0.0
 10
11.04261
 20
9.60225
 30
0.0
 10
11.04261
 20
9.60225
 30
0.0
  0
SPLINE
  5
5F
330
1F
100
AcDbEntity
  8
layer 2
 62
     1
370
     9
100
AcDbSpline
210
0.0
220
0.0
230
1.0
 70
     8
 71
     3
 72
    12
 73
     8
 74
     0
 42
0.0000000001
 43
0.0000000001
 12
1.0
 22
0.0
 32
0.0
 13
1.0
 23
0.0
 33
0.0
 40
0.0
 40
0.0
 40
0.0
 40
0.0
 40
0.3333333333333333
 40
0.3333333333333333
 40
0.3333333333333333
 40
0.3333333333333333
 40
1.0
 40
1.0
 40
1.0
 40
1.0
 10
11.04261
 20
9.60225
 30
0.0
 10
11.04261
 20
9.60225
 30
0.0
 10
10.45957
 20
9.50508
 30
0.0
 10
10.45957
 20
9.50508
 30
0.0
 10
10.45957
 20
9.50508
 30
0.0
 10
10.45957
 20
9.50508
 30
0.0
 10
10.45957
 20
9.69942
 30
0.0
 10
10.45957
 20
9.69942
 30
0.0
  0
SPLINE
  5
60
330
1F
100
AcDbEntity
  8
layer 2
 62
     1
100
AcDbSpline
210
0.0
220
0.0
230
1.0
 70
    11
 71
     3
 72
   124
 73
   120
 74
     0
 42
0.0000000001
 43
0.0000000001
 12
1.0
 22
0.0
 32
0.0
 13
1.0
 23
0.0
 33
0.0
 40
0.0
 40
0.0
 40
0.0
 40
0.0
 40
0.032258064516129
 40
0.032258064516129
 40
0.032258064516129
 40
0.032258064516129
 40
0.0645161290322581
 40
0.0645161290322581
 40
0.0645161290322581
 40
0.0645161290322581
 40
0.0967741935483871
 40
0.0967741935483871
 40
0.0967741935483871
 40
0.0967741935483871
 40
0.1290322580645161
 40
0.1290322580645161
 40
0.1290322580645161
 40
0.1290322580645161
 40
0.1612903225806452
 40
0.1612903225806452
 40
0.1612903225806452
 40
0.1612903225806452
 40
0.1935483870967742
 40
0.1935483870967742
 40
0.1935483870967742
 40
0.1935483870967742
 40
0.2258064516129032
 40
0.2258064516129032
 40
0.2258064516129032
 40
0.2258064516129032
 40
0.2580645161290323
 40
0.2580645161290323
 40
0.2580645161290323
 40
0.2580645161290323
 40
0.2903225806451613
 40
0.2903225806451613
 40
0.2903225806451613
 40
0.2903225806451613
 40
0.3225806451612903
 40
0.3225806451612903
 40
0.3225806451612903
 40
0.3225806451612903
 40
0.3548387096774194
 40
0.3548387096774194
 40
0.3548387096774194
 40
0.3548387096774194
 40
0.3870967741935484
 40
0.3870967741935484
 40
0.3870967741935484
 40
0.3870967741935484
 40
0.4193548387096774
 40
0.4193548387096774
 40
0.4193548387096774
 40
0.4193548387096774
 40
0.4516129032258064
 40
0.4516129032258064
 40
0.4516129032258064
 40
0.4516129032258064
 40
0.4838709677419355
 40
0.4838709677419355
 40
0.4838709677419355
 40
0.4838709677419355
 40
0.5161290322580645
 40
0.5161290322580645
 40
0.5161290322580645
 40
0.5161290322580645
 40
0.5483870967741935
 40
0.5483870967741935
 40
0.5483870967741935
 40
0.5483870967741935
 40
0.5806451612903226
 40
0.5806451612903226
 40
0.5806451612903226
 40
0.5806451612903226
 40
0.6129032258064516
 40
0.6129032258064516
 40
0.6129032258064516
 40
0.6129032258064516
 40
0.6451612903225806
 40
0.6451612903225806
 40
0.6451612903225806
 40
0.6451612903225806
 40
0.6774193548387096
 40
0.6774193548387096
 40
0.6774193548387096
 40
0.6774193548387096
 40
0.7096774193548387
 40
0.7096774193548387
 40
0.7096774193548387
 40
0.7096774193548387
 40
0.7419354838709677
 40
0.7419354838709677
 40
0.7419354838709677
 40
0.7419354838709677
 40
0.7741935483870968
 40
0.7741935483870968
 40
0.7741935483870968
 40
0.7741935483870968
 40
0.8064516129032258
 40
0.8064516129032258
 40
0.8064516129032258
 40
0.8064516129032258
 40
0.8387096774193549
 40
0.8387096774193549
 40
0.8387096774193549
 40
0.8387096774193549
 40
0.8709677419354839
 40
0.8709677419354839
 40
0.8709677419354839
 40
0.8709677419354839
 40
0.9032258064516129
 40
0.9032258064516129
 40
0.9032258064516129
 40
0.9032258064516129
 40
0.9354838709677419
 40
0.9354838709677419
 40
0.9354838709677419
 40
0.9354838709677419
 40
1.0
 40
1.0
 40
1.0
 40
1.0
 10
-1.11087
 20
9.95341
 30
0.0
 10
-1.11087
 20
9.95341
 30
0.0
 10
-1.06367
 20
9.95985
 30
0.0
 10
-1.06367
 20
9.95985
 30
0.0
 10
-1.06367
 20
9.95985
 30
0.0
 10
-1.05822
 20
9.93304
 30
0.0
 10
-1.04911
 20
9.91372
 30
0.0
 10
-1.03613
 20
9.90192
 30
0.0
 10
-1.03613
 20
9.90192
 30
0.0
 10
-1.02317
 20
9.89013
 30
0.0
 10
-1.00727
 20
9.88423
 30
0.0
 10
-0.9884
 20
9.88423
 30
0.0
 10
-0.9884
 20
9.88423
 30
0.0
 10
-0.96604
 20
9.88423
 30
0.0
 10
-0.94719
 20
9.89191
 30
0.0
 10
-0.93199
 20
9.90728
 30
0.0
 10
-0.93199
 20
9.90728
 30
0.0
 10
-0.91678
 20
9.92266
 30
0.0
 10
-0.90919
 20
9.9417
 30
0.0
 10
-0.90919
 20
9.96441
 30
0.0
 10
-0.90919
 20
9.96441
 30
0.0
 10
-0.90919
 20
9.98604
 30
0.0
 10
-0.91625
 20
10.00393
 30
0.0
 10
-0.93047
 20
10.01805
 30
0.0
 10
-0.93047
 20
10.01805
 30
0.0
 10
-0.94459
 20
10.0321
 30
0.0
 10
-0.96256
 20
10.03914
 30
0.0
 10
-0.98447
 20
10.03914
 30
0.0
 10
-0.98447
 20
10.03914
 30
0.0
 10
-0.99341
 20
10.03914
 30
0.0
 10
-1.00449
 20
10.03736
 30
0.0
 10
-1.01781
 20
10.03387
 30
0.0
 10
-1.01781
 20
10.03387
 30
0.0
 10
-1.01781
 20
10.03387
 30
0.0
 10
-1.01254
 20
10.07518
 30
0.0
 10
-1.01254
 20
10.07518
 30
0.0
 10
-1.01254
 20
10.07518
 30
0.0
 10
-1.0094
 20
10.07482
 30
0.0
 10
-1.00682
 20
10.07464
 30
0.0
 10
-1.00494
 20
10.07464
 30
0.0
 10
-1.00494
 20
10.07464
 30
0.0
 10
-0.98473
 20
10.07464
 30
0.0
 10
-0.96667
 20
10.07992
 30
0.0
 10
-0.95049
 20
10.09037
 30
0.0
 10
-0.95049
 20
10.09037
 30
0.0
 10
-0.9344
 20
10.10084
 30
0.0
 10
-0.92636
 20
10.11692
 30
0.0
 10
-0.92636
 20
10.13865
 30
0.0
 10
-0.92636
 20
10.13865
 30
0.0
 10
-0.92636
 20
10.1559
 30
0.0
 10
-0.93225
 20
10.17021
 30
0.0
 10
-0.94397
 20
10.18157
 30
0.0
 10
-0.94397
 20
10.18157
 30
0.0
 10
-0.95568
 20
10.19292
 30
0.0
 10
-0.97079
 20
10.19855
 30
0.0
 10
-0.98929
 20
10.19855
 30
0.0
 10
-0.98929
 20
10.19855
 30
0.0
 10
-1.00771
 20
10.19855
 30
0.0
 10
-1.023
 20
10.19274
 30
0.0
 10
-1.03525
 20
10.18112
 30
0.0
 10
-1.03525
 20
10.18112
 30
0.0
 10
-1.04749
 20
10.1695
 30
0.0
 10
-1.05536
 20
10.15206
 30
0.0
 10
-1.05885
 20
10.12883
 30
0.0
 10
-1.05885
 20
10.12883
 30
0.0
 10
-1.05885
 20
10.12883
 30
0.0
 10
-1.10605
 20
10.13739
 30
0.0
 10
-1.10605
 20
10.13739
 30
0.0
 10
-1.10605
 20
10.13739
 30
0.0
 10
-1.10024
 20
10.16905
 30
0.0
 10
-1.08719
 20
10.19364
 30
0.0
 10
-1.06672
 20
10.21107
 30
0.0
 10
-1.06672
 20
10.21107
 30
0.0
 10
-1.04632
 20
10.2285
 30
0.0
 10
-1.02085
 20
10.23717
 30
0.0
 10
-0.99046
 20
10.23717
 30
0.0
 10
-0.99046
 20
10.23717
 30
0.0
 10
-0.96954
 20
10.23717
 30
0.0
 10
-0.95022
 20
10.23271
 30
0.0
 10
-0.93262
 20
10.22367
 30
0.0
 10
-0.93262
 20
10.22367
 30
0.0
 10
-0.91491
 20
10.21474
 30
0.0
 10
-0.90141
 20
10.20248
 30
0.0
 10
-0.89211
 20
10.18702
 30
0.0
 10
-0.89211
 20
10.18702
 30
0.0
 10
-0.88273
 20
10.17146
 30
0.0
 10
-0.87808
 20
10.155
 30
0.0
 10
-0.87808
 20
10.13758
 30
0.0
 10
-0.87808
 20
10.13758
 30
0.0
 10
-0.87808
 20
10.12103
 30
0.0
 10
-0.88255
 20
10.10602
 30
0.0
 10
-0.8914
 20
10.09243
 30
0.0
 10
-0.8914
 20
10.09243
 30
0.0
 10
-0.90034
 20
10.07885
 30
0.0
 10
-0.91357
 20
10.06803
 30
0.0
 10
-0.93101
 20
10.05999
 30
0.0
 10
-0.93101
 20
10.05999
 30
0.0
 10
-0.9083
 20
10.05479
 30
0.0
 10
-0.89068
 20
10.04389
 30
0.0
 10
-0.87808
 20
10.02735
 30
0.0
 10
-0.87808
 20
10.02735
 30
0.0
 10
-0.86556
 20
10.0109
 30
0.0
 10
-0.85931
 20
9.99016
 30
0.0
 10
-0.85931
 20
9.9654
 30
0.0
 10
-0.85931
 20
9.9654
 30
0.0
 10
-0.85931
 20
9.93187
 30
0.0
 10
-0.87155
 20
9.90336
 30
0.0
 10
-0.89596
 20
9.88001
 30
0.0
 10
-0.89596
 20
9.88001
 30
0.0
 10
-0.92045
 20
9.85668
 30
0.0
 10
-0.95139
 20
9.84507
 30
0.0
 10
-0.98875
 20
9.84507
 30
0.0
 10
-0.98875
 20
9.84507
 30
0.0
 10
-1.02246
 20
9.84507
 30
0.0
 10
-1.05045
 20
9.85517
 30
0.0
 10
-1.0727
 20
9.87529
 30
0.0
 10
-1.0727
 20
9.87529
 30
0.0
 10
-1.09506
 20
9.8954
 30
0.0
 10
-1.10775
 20
9.92141
 30
0.0
 10
-1.11087
 20
9.95341
 30
0.0
  0
SPLINE
  5
61
330
1F
100
AcDbEntity
  8
layer 2
 62
     1
100
AcDbSpline
210
0.0
220
0.0
230
1.0
 70
    11
 71
     3
 72
    40
 73
    36
 74
     0
 42
0.0000000001
 43
0.0000000001
 12
1.0
 22
0.0
 32
0.0
 13
1.0
 23
0.0
 33
0.0
 40
0.0
 40
0.0
 40
0.0
 40
0.0
 40
0.1
 40
0.1
 40
0.1
 40
0.1
 40
0.2
 40
0.2
 40
0.2
 40
0.2
 40
0.3
 40
0.3
 40
0.3
 40
0.3
 40
0.4
 40
0.4
 40
0.4
 40
0.4
 40
0.5
 40
0.5
 40
0.5
 40
0.5
 40
0.6
 40
0.6
 40
0.6
 40
0.6
 40
0.7
 40
0.7
 40
0.7
 40
0.7
 40
0.8
 40
0.8
 40
0.8
 40
0.8
 40
1.0
 40
1.0
 40
1.0
 40
1.0
 10
-0.63554
 20
9.8515
 30
0.0
 10
-0.63554
 20
9.8515
 30
0.0
 10
-0.68274
 20
9.8515
 30
0.0
 10
-0.68274
 20
9.8515
 30
0.0
 10
-0.68274
 20
9.8515
 30
0.0
 10
-0.68274
 20
9.8515
 30
0.0
 10
-0.68274
 20
10.15206
 30
0.0
 10
-0.68274
 20
10.15206
 30
0.0
 10
-0.68274
 20
10.15206
 30
0.0
 10
-0.6941
 20
10.14116
 30
0.0
 10
-0.70903
 20
10.13034
 30
0.0
 10
-0.72745
 20
10.11952
 30
0.0
 10
-0.72745
 20
10.11952
 30
0.0
 10
-0.74586
 20
10.10871
 30
0.0
 10
-0.76249
 20
10.10056
 30
0.0
 10
-0.77714
 20
10.09521
 30
0.0
 10
-0.77714
 20
10.09521
 30
0.0
 10
-0.77714
 20
10.09521
 30
0.0
 10
-0.77714
 20
10.1408
 30
0.0
 10
-0.77714
 20
10.1408
 30
0.0
 10
-0.77714
 20
10.1408
 30
0.0
 10
-0.75078
 20
10.15314
 30
0.0
 10
-0.72771
 20
10.16816
 30
0.0
 10
-0.70794
 20
10.18585
 30
0.0
 10
-0.70794
 20
10.18585
 30
0.0
 10
-0.68819
 20
10.20347
 30
0.0
 10
-0.67416
 20
10.22054
 30
0.0
 10
-0.66593
 20
10.23717
 30
0.0
 10
-0.66593
 20
10.23717
 30
0.0
 10
-0.66593
 20
10.23717
 30
0.0
 10
-0.63554
 20
10.23717
 30
0.0
 10
-0.63554
 20
10.23717
 30
0.0
 10
-0.63554
 20
10.23717
 30
0.0
 10
-0.63554
 20
10.23717
 30
0.0
 10
-0.63554
 20
9.8515
 30
0.0
 10
-0.63554
 20
9.8515
 30
0.0
  0
SPLINE
  5
62
330
1F
100
AcDbEntity
  8
layer 2
 62
     1
100
AcDbSpline
210
0.0
220
0.0
230
1.0
 70
    11
 71
     3
 72
    20
 73
    16
 74
     0
 42
0.0000000001
 43
0.0000000001
 12
1.0
 22
0.0
 32
0.0
 13
1.0
 23
0.0
 33
0.0
 40
0.0
 40
0.0
 40
0.0
 40
0.0
 40
0.2
 40
0.2
 40
0.2
 40
0.2
 40
0.4
 40
0.4
 40
0.4
 40
0.4
 40
0.6
 40
0.6
 40
0.6
 40
0.6
 40
1.0
 40
1.0
 40
1.0
 40
1.0
 10
-0.48794
 20
9.8515
 30
0.0
 10
-0.48794
 20
9.8515
 30
0.0
 10
-0.48794
 20
9.90515
 30
0.0
 10
-0.48794
 20
9.90515
 30
0.0
 10
-0.48794
 20
9.90515
 30
0.0
 10
-0.48794
 20
9.90515
 30
0.0
 10
-0.4343
 20
9.90515
 30
0.0
 10
-0.4343
 20
9.90515
 30
0.0
 10
-0.4343
 20
9.90515
 30
0.0
 10
-0.4343
 20
9.90515
 30
0.0
 10
-0.4343
 20
9.8515
 30
0.0
 10
-0.4343
 20
9.8515
 30
0.0
 10
-0.4343
 20
9.8515
 30
0.0
 10
-0.4343
 20
9.8515
 30
0.0
 10
-0.48794
 20
9.8515
 30
0.0
 10
-0.48794
 20
9.8515
 30
0.0
  0
SPLINE
  5
63
330
1F
100
AcDbEntity
  8
layer 2
 62
     1
100
AcDbSpline
210
0.0
220
0.0
230
1.0
 70
    11
 71
     3
 72
    92
 73
    88
 74
     0
 42
0.0000000001
 43
0.0000000001
 12
1.0
 22
0.0
 32
0.0
 13
1.0
 23
0.0
 33
0.0
 40
0.0
 40
0.0
 40
0.0
 40
0.0
 40
0.0434782608695652
 40
0.0434782608695652
 40
0.0434782608695652
 40
0.0434782608695652
 40
0.0869565217391304
 40
0.0869565217391304
 40
0.0869565217391304
 40
0.0869565217391304
 40
0.1304347826086956
 40
0.1304347826086956
 40
0.1304347826086956
 40
0.1304347826086956
 40
0.1739130434782609
 40
0.1739130434782609
 40
0.1739130434782609
 40
0.1739130434782609
 40
0.2173913043478261
 40
0.2173913043478261
 40
0.2173913043478261
 40
0.2173913043478261
 40
0.2608695652173913
 40
0.2608695652173913
 40
0.2608695652173913
 40
0.2608695652173913
 40
0.3043478260869565
 40
0.3043478260869565
 40
0.3043478260869565
 40
0.3043478260869565
 40
0.3478260869565217
 40
0.3478260869565217
 40
0.3478260869565217
 40
0.3478260869565217
 40
0.391304347826087
 40
0.391304347826087
 40
0.391304347826087
 40
0.391304347826087
 40
0.4347826086956522
 40
0.4347826086956522
 40
0.4347826086956522
 40
0.4347826086956522
 40
0.4782608695652174
 40
0.4782608695652174
 40
0.4782608695652174
 40
0.4782608695652174
 40
0.5217391304347826
 40
0.5217391304347826
 40
0.5217391304347826
 40
0.5217391304347826
 40
0.5652173913043478
 40
0.5652173913043478
 40
0.5652173913043478
 40
0.5652173913043478
 40
0.6086956521739131
 40
0.6086956521739131
 40
0.6086956521739131
 40
0.6086956521739131
 40
0.6521739130434783
 40
0.6521739130434783
 40
0.6521739130434783
 40
0.6521739130434783
 40
0.6956521739130435
 40
0.6956521739130435
 40
0.6956521739130435
 40
0.6956521739130435
 40
0.7391304347826086
 40
0.7391304347826086
 40
0.7391304347826086
 40
0.7391304347826086
 40
0.782608695652174
 40
0.782608695652174
 40
0.782608695652174
 40
0.782608695652174
 40
0.8260869565217391
 40
0.8260869565217391
 40
0.8260869565217391
 40
0.8260869565217391
 40
0.8695652173913043
 40
0.8695652173913043
 40
0.8695652173913043
 40
0.8695652173913043
 40
0.9130434782608695
 40
0.9130434782608695
 40
0.9130434782608695
 40
0.9130434782608695
 40
1.0
 40
1.0
 40
1.0
 40
1.0
 10
-0.11792
 20
9.89656
 30
0.0
 10
-0.11792
 20
9.89656
 30
0.0
 10
-0.11792
 20
9.8515
 30
0.0
 10
-0.11792
 20
9.8515
 30
0.0
 10
-0.11792
 20
9.8515
 30
0.0
 10
-0.11792
 20
9.8515
 30
0.0
 10
-0.37217
 20
9.8515
 30
0.0
 10
-0.37217
 20
9.8515
 30
0.0
 10
-0.37217
 20
9.8515
 30
0.0
 10
-0.37252
 20
9.86286
 30
0.0
 10
-0.37064
 20
9.87376
 30
0.0
 10
-0.36662
 20
9.88431
 30
0.0
 10
-0.36662
 20
9.88431
 30
0.0
 10
-0.3601
 20
9.90157
 30
0.0
 10
-0.34964
 20
9.91865
 30
0.0
 10
-0.33525
 20
9.93536
 30
0.0
 10
-0.33525
 20
9.93536
 30
0.0
 10
-0.32085
 20
9.95207
 30
0.0
 10
-0.30028
 20
9.97139
 30
0.0
 10
-0.27356
 20
9.99329
 30
0.0
 10
-0.27356
 20
9.99329
 30
0.0
 10
-0.23199
 20
10.02754
 30
0.0
 10
-0.20374
 20
10.05462
 30
0.0
 10
-0.18898
 20
10.07464
 30
0.0
 10
-0.18898
 20
10.07464
 30
0.0
 10
-0.17415
 20
10.09467
 30
0.0
 10
-0.16673
 20
10.11361
 30
0.0
 10
-0.16673
 20
10.1315
 30
0.0
 10
-0.16673
 20
10.1315
 30
0.0
 10
-0.16673
 20
10.15018
 30
0.0
 10
-0.17343
 20
10.16592
 30
0.0
 10
-0.18683
 20
10.17879
 30
0.0
 10
-0.18683
 20
10.17879
 30
0.0
 10
-0.20026
 20
10.19158
 30
0.0
 10
-0.21777
 20
10.19802
 30
0.0
 10
-0.23931
 20
10.19802
 30
0.0
 10
-0.23931
 20
10.19802
 30
0.0
 10
-0.26212
 20
10.19802
 30
0.0
 10
-0.28036
 20
10.19121
 30
0.0
 10
-0.29403
 20
10.17763
 30
0.0
 10
-0.29403
 20
10.17763
 30
0.0
 10
-0.3077
 20
10.16413
 30
0.0
 10
-0.3146
 20
10.14536
 30
0.0
 10
-0.31478
 20
10.12131
 30
0.0
 10
-0.31478
 20
10.12131
 30
0.0
 10
-0.31478
 20
10.12131
 30
0.0
 10
-0.36304
 20
10.12614
 30
0.0
 10
-0.36304
 20
10.12614
 30
0.0
 10
-0.36304
 20
10.12614
 30
0.0
 10
-0.35974
 20
10.16225
 30
0.0
 10
-0.34723
 20
10.1898
 30
0.0
 10
-0.32559
 20
10.20874
 30
0.0
 10
-0.32559
 20
10.20874
 30
0.0
 10
-0.30386
 20
10.22769
 30
0.0
 10
-0.2748
 20
10.23717
 30
0.0
 10
-0.23824
 20
10.23717
 30
0.0
 10
-0.23824
 20
10.23717
 30
0.0
 10
-0.20141
 20
10.23717
 30
0.0
 10
-0.17219
 20
10.22698
 30
0.0
 10
-0.15072
 20
10.2065
 30
0.0
 10
-0.15072
 20
10.2065
 30
0.0
 10
-0.12918
 20
10.18603
 30
0.0
 10
-0.11845
 20
10.16065
 30
0.0
 10
-0.11845
 20
10.13042
 30
0.0
 10
-0.11845
 20
10.13042
 30
0.0
 10
-0.11845
 20
10.11506
 30
0.0
 10
-0.12158
 20
10.09994
 30
0.0
 10
-0.12792
 20
10.0851
 30
0.0
 10
-0.12792
 20
10.0851
 30
0.0
 10
-0.13418
 20
10.07017
 30
0.0
 10
-0.14464
 20
10.05453
 30
0.0
 10
-0.15921
 20
10.03808
 30
0.0
 10
-0.15921
 20
10.03808
 30
0.0
 10
-0.17388
 20
10.02172
 30
0.0
 10
-0.1981
 20
9.99909
 30
0.0
 10
-0.23189
 20
9.97049
 30
0.0
 10
-0.23189
 20
9.97049
 30
0.0
 10
-0.26023
 20
9.94671
 30
0.0
 10
-0.27848
 20
9.93063
 30
0.0
 10
-0.28652
 20
9.92213
 30
0.0
 10
-0.28652
 20
9.92213
 30
0.0
 10
-0.29456
 20
9.91363
 30
0.0
 10
-0.30118
 20
9.90515
 30
0.0
 10
-0.30646
 20
9.89656
 30
0.0
 10
-0.30646
 20
9.89656
 30
0.0
 10
-0.30646
 20
9.89656
 30
0.0
 10
-0.11792
 20
9.89656
 30
0.0
 10
-0.11792
 20
9.89656
 30
0.0
  0
SPLINE
  5
64
330
1F
100
AcDbEntity
  8
layer 2
 62
     1
100
AcDbSpline
210
0.0
220
0.0
230
1.0
 70
    11
 71
     3
 72
    28
 73
    24
 74
     0
 42
0.0000000001
 43
0.0000000001
 12
1.0
 22
0.0
 32
0.0
 13
1.0
 23
0.0
 33
0.0
 40
0.0
 40
0.0
 40
0.0
 40
0.0
 40
0.1428571428571428
 40
0.1428571428571428
 40
0.1428571428571428
 40
0.1428571428571428
 40
0.2857142857142857
 40
0.2857142857142857
 40
0.2857142857142857
 40
0.2857142857142857
 40
0.4285714285714285
 40
0.4285714285714285
 40
0.4285714285714285
 40
0.4285714285714285
 40
0.5714285714285714
 40
0.5714285714285714
 40
0.5714285714285714
 40
0.5714285714285714
 40
0.7142857142857143
 40
0.7142857142857143
 40
0.7142857142857143
 40
0.7142857142857143
 40
1.0
 40
1.0
 40
1.0
 40
1.0
 10
-0.05166
 20
10.09985
 30
0.0
 10
-0.05166
 20
10.09985
 30
0.0
 10
-0.06471
 20
10.1728
 30
0.0
 10
-0.06471
 20
10.1728
 30
0.0
 10
-0.06471
 20
10.1728
 30
0.0
 10
-0.06471
 20
10.1728
 30
0.0
 10
-0.06471
 20
10.23555
 30
0.0
 10
-0.06471
 20
10.23555
 30
0.0
 10
-0.06471
 20
10.23555
 30
0.0
 10
-0.06471
 20
10.23555
 30
0.0
 10
-0.01108
 20
10.23555
 30
0.0
 10
-0.01108
 20
10.23555
 30
0.0
 10
-0.01108
 20
10.23555
 30
0.0
 10
-0.01108
 20
10.23555
 30
0.0
 10
-0.01108
 20
10.1728
 30
0.0
 10
-0.01108
 20
10.1728
 30
0.0
 10
-0.01108
 20
10.1728
 30
0.0
 10
-0.01108
 20
10.1728
 30
0.0
 10
-0.02287
 20
10.09985
 30
0.0
 10
-0.02287
 20
10.09985
 30
0.0
 10
-0.02287
 20
10.09985
 30
0.0
 10
-0.02287
 20
10.09985
 30
0.0
 10
-0.05166
 20
10.09985
 30
0.0
 10
-0.05166
 20
10.09985
 30
0.0
  0
SPLINE
  5
65
330
1F
100
AcDbEntity
  8
layer 2
 62
     1
100
AcDbSpline
210
0.0
220
0.0
230
1.0
 70
    11
 71
     3
 72
    28
 73
    24
 74
     0
 42
0.0000000001
 43
0.0000000001
 12
1.0
 22
0.0
 32
0.0
 13
1.0
 23
0.0
 33
0.0
 40
0.0
 40
0.0
 40
0.0
 40
0.0
 40
0.1428571428571428
 40
0.1428571428571428
 40
0.1428571428571428
 40
0.1428571428571428
 40
0.2857142857142857
 40
0.2857142857142857
 40
0.2857142857142857
 40
0.2857142857142857
 40
0.4285714285714285
 40
0.4285714285714285
 40
0.4285714285714285
 40
0.4285714285714285
 40
0.5714285714285714
 40
0.5714285714285714
 40
0.5714285714285714
 40
0.5714285714285714
 40
0.7142857142857143
 40
0.7142857142857143
 40
0.7142857142857143
 40
0.7142857142857143
 40
1.0
 40
1.0
 40
1.0
 40
1.0
 10
0.03496
 20
10.09985
 30
0.0
 10
0.03496
 20
10.09985
 30
0.0
 10
0.02218
 20
10.1728
 30
0.0
 10
0.02218
 20
10.1728
 30
0.0
 10
0.02218
 20
10.1728
 30
0.0
 10
0.02218
 20
10.1728
 30
0.0
 10
0.02218
 20
10.23555
 30
0.0
 10
0.02218
 20
10.23555
 30
0.0
 10
0.02218
 20
10.23555
 30
0.0
 10
0.02218
 20
10.23555
 30
0.0
 10
0.07582
 20
10.23555
 30
0.0
 10
0.07582
 20
10.23555
 30
0.0
 10
0.07582
 20
10.23555
 30
0.0
 10
0.07582
 20
10.23555
 30
0.0
 10
0.07582
 20
10.1728
 30
0.0
 10
0.07582
 20
10.1728
 30
0.0
 10
0.07582
 20
10.1728
 30
0.0
 10
0.07582
 20
10.1728
 30
0.0
 10
0.0632
 20
10.09985
 30
0.0
 10
0.0632
 20
10.09985
 30
0.0
 10
0.0632
 20
10.09985
 30
0.0
 10
0.0632
 20
10.09985
 30
0.0
 10
0.03496
 20
10.09985
 30
0.0
 10
0.03496
 20
10.09985
 30
0.0
  0
SPLINE
  5
66
330
1F
100
AcDbEntity
  8
layer 2
 62
     1
370
     0
100
AcDbSpline
210
0.0
220
0.0
230
1.0
 70
    24
 71
     3
 72
     8
 73
     4
 74
     0
 42
0.0000000001
 43
0.0000000001
 12
1.0
 22
0.0
 32
0.0
 13
1.0
 23
0.0
 33
0.0
 40
0.0
 40
0.0
 40
0.0
 40
0.0
 40
1.0
 40
1.0
 40
1.0
 40
1.0
 10
11.1226
 20
8.14698
 30
0.0
 10
11.1226
 20
8.14698
 30
0.0
 10
13.37307
 20
8.14698
 30
0.0
 10
13.37307
 20
8.14698
 30
0.0
  0
SPLINE
  5
67
330
1F
100
AcDbEntity
  8
layer 2
 62
     1
370
     0
100
AcDbSpline
210
0.0
220
0.0
230
1.0
 70
    24
 71
     3
 72
     8
 73
     4
 74
     0
 42
0.0000000001
 43
0.0000000001
 12
1.0
 22
0.0
 32
0.0
 13
1.0
 23
0.0
 33
0.0
 40
0.0
 40
0.0
 40
0.0
 40
0.0
 40
1.0
 40
1.0
 40
1.0
 40
1.0
 10
11.1226
 20
-6.07922
 30
0.0
 10
11.1226
 20
-6.07922
 30
0.0
 10
13.37307
 20
-6.07922
 30
0.0
 10
13.37307
 20
-6.07922
 30
0.0
  0
SPLINE
  5
68
330
1F
100
AcDbEntity
  8
layer 2
 62
     1
370
     0
100
AcDbSpline
210
0.0
220
0.0
230
1.0
 70
    24
 71
     3
 72
     8
 73
     4
 74
     0
 42
0.0000000001
 43
0.0000000001
 12
1.0
 22
0.0
 32
0.0
 13
1.0
 23
0.0
 33
0.0
 40
0.0
 40
0.0
 40
0.0
 40
0.0
 40
1.0
 40
1.0
 40
1.0
 40
1.0
 10
13.08155
 20
7.56395
 30
0.0
 10
13.08155
 20
7.56395
 30
0.0
 10
13.08155
 20
-5.49619
 30
0.0
 10
13.08155
 20
-5.49619
 30
0.0
  0
SPLINE
  5
69
330
1F
100
AcDbEntity
  8
layer 2
 62
     1
100
AcDbSpline
210
0.0
220
0.0
230
1.0
 70
    27
 71
     3
 72
    12
 73
     8
 74
     0
 42
0.0000000001
 43
0.0000000001
 12
1.0
 22
0.0
 32
0.0
 13
1.0
 23
0.0
 33
0.0
 40
0.0
 40
0.0
 40
0.0
 40
0.0
 40
0.3333333333333333
 40
0.3333333333333333
 40
0.3333333333333333
 40
0.3333333333333333
 40
1.0
 40
1.0
 40
1.0
 40
1.0
 10
12.98437
 20
7.56395
 30
0.0
 10
12.98437
 20
7.56395
 30
0.0
 10
13.08155
 20
8.14698
 30
0.0
 10
13.08155
 20
8.14698
 30
0.0
 10
13.08155
 20
8.14698
 30
0.0
 10
13.08155
 20
8.14698
 30
0.0
 10
12.98437
 20
7.56395
 30
0.0
 10
12.98437
 20
7.56395
 30
0.0
  0
SPLINE
  5
6A
330
1F
100
AcDbEntity
  8
layer 2
 62
     1
100
AcDbSpline
210
0.0
220
0.0
230
1.0
 70
     8
 71
     3
 72
    12
 73
     8
 74
     0
 42
0.0000000001
 43
0.0000000001
 12
1.0
 22
0.0
 32
0.0
 13
1.0
 23
0.0
 33
0.0
 40
0.0
 40
0.0
 40
0.0
 40
0.0
 40
0.3333333333333333
 40
0.3333333333333333
 40
0.3333333333333333
 40
0.3333333333333333
 40
1.0
 40
1.0
 40
1.0
 40
1.0
 10
13.08155
 20
8.14698
 30
0.0
 10
13.08155
 20
8.14698
 30
0.0
 10
13.17873
 20
7.56395
 30
0.0
 10
13.17873
 20
7.56395
 30
0.0
 10
13.17873
 20
7.56395
 30
0.0
 10
13.17873
 20
7.56395
 30
0.0
 10
12.98437
 20
7.56395
 30
0.0
 10
12.98437
 20
7.56395
 30
0.0
  0
SPLINE
  5
6B
330
1F
100
AcDbEntity
  8
layer 2
 62
     1
370
     9
100
AcDbSpline
210
0.0
220
0.0
230
1.0
 70
    24
 71
     3
 72
     8
 73
     4
 74
     0
 42
0.0000000001
 43
0.0000000001
 12
1.0
 22
0.0
 32
0.0
 13
1.0
 23
0.0
 33
0.0
 40
0.0
 40
0.0
 40
0.0
 40
0.0
 40
1.0
 40
1.0
 40
1.0
 40
1.0
 10
12.98437
 20
7.56395
 30
0.0
 10
12.98437
 20
7.56395
 30
0.0
 10
13.08155
 20
8.14698
 30
0.0
 10
13.08155
 20
8.14698
 30
0.0
  0
SPLINE
  5
6C
330
1F
100
AcDbEntity
  8
layer 2
 62
     1
370
     9
100
AcDbSpline
210
0.0
220
0.0
230
1.0
 70
     8
 71
     3
 72
    12
 73
     8
 74
     0
 42
0.0000000001
 43
0.0000000001
 12
1.0
 22
0.0
 32
0.0
 13
1.0
 23
0.0
 33
0.0
 40
0.0
 40
0.0
 40
0.0
 40
0.0
 40
0.3333333333333333
 40
0.3333333333333333
 40
0.3333333333333333
 40
0.3333333333333333
 40
1.0
 40
1.0
 40
1.0
 40
1.0
 10
13.08155
 20
8.14698
 30
0.0
 10
13.08155
 20
8.14698
 30
0.0
 10
13.17873
 20
7.56395
 30
0.0
 10
13.17873
 20
7.56395
 30
0.0
 10
13.17873
 20
7.56395
 30
0.0
 10
13.17873
 20
7.56395
 30
0.0
 10
12.98437
 20
7.56395
 30
0.0
 10
12.98437
 20
7.56395
 30
0.0
  0
SPLINE
  5
6D
330
1F
100
AcDbEntity
  8
layer 2
 62
     1
100
AcDbSpline
210
0.0
220
0.0
230
1.0
 70
    27
 71
     3
 72
    12
 73
     8
 74
     0
 42
0.0000000001
 43
0.0000000001
 12
1.0
 22
0.0
 32
0.0
 13
1.0
 23
0.0
 33
0.0
 40
0.0
 40
0.0
 40
0.0
 40
0.0
 40
0.3333333333333333
 40
0.3333333333333333
 40
0.3333333333333333
 40
0.3333333333333333
 40
1.0
 40
1.0
 40
1.0
 40
1.0
 10
12.98437
 20
-5.49619
 30
0.0
 10
12.98437
 20
-5.49619
 30
0.0
 10
13.08155
 20
-6.07922
 30
0.0
 10
13.08155
 20
-6.07922
 30
0.0
 10
13.08155
 20
-6.07922
 30
0.0
 10
13.08155
 20
-6.07922
 30
0.0
 10
12.98437
 20
-5.49619
 30
0.0
 10
12.98437
 20
-5.49619
 30
0.0
  0
SPLINE
  5
6E
330
1F
100
AcDbEntity
  8
layer 2
 62
     1
100
AcDbSpline
210
0.0
220
0.0
230
1.0
 70
     8
 71
     3
 72
    12
 73
     8
 74
     0
 42
0.0000000001
 43
0.0000000001
 12
1.0
 22
0.0
 32
0.0
 13
1.0
 23
0.0
 33
0.0
 40
0.0
 40
0.0
 40
0.0
 40
0.0
 40
0.3333333333333333
 40
0.3333333333333333
 40
0.3333333333333333
 40
0.3333333333333333
 40
1.0
 40
1.0
 40
1.0
 40
1.0
 10
13.08155
 20
-6.07922
 30
0.0
 10
13.08155
 20
-6.07922
 30
0.0
 10
13.17873
 20
-5.49619
 30
0.0
 10
13.17873
 20
-5.49619
 30
0.0
 10
13.17873
 20
-5.49619
 30
0.0
 10
13.17873
 20
-5.49619
 30
0.0
 10
12.98437
 20
-5.49619
 30
0.0
 10
12.98437
 20
-5.49619
 30
0.0
  0
SPLINE
  5
6F
330
1F
100
AcDbEntity
  8
layer 2
 62
     1
370
     9
100
AcDbSpline
210
0.0
220
0.0
230
1.0
 70
    24
 71
     3
 72
     8
 73
     4
 74
     0
 42
0.0000000001
 43
0.0000000001
 12
1.0
 22
0.0
 32
0.0
 13
1.0
 23
0.0
 33
0.0
 40
0.0
 40
0.0
 40
0.0
 40
0.0
 40
1.0
 40
1.0
 40
1.0
 40
1.0
 10
12.98437
 20
-5.49619
 30
0.0
 10
12.98437
 20
-5.49619
 30
0.0
 10
13.08155
 20
-6.07922
 30
0.0
 10
13.08155
 20
-6.07922
 30
0.0
  0
SPLINE
  5
70
330
1F
100
AcDbEntity
  8
layer 2
 62
     1
370
     9
100
AcDbSpline
210
0.0
220
0.0
230
1.0
 70
     8
 71
     3
 72
    12
 73
     8
 74
     0
 42
0.0000000001
 43
0.0000000001
 12
1.0
 22
0.0
 32
0.0
 13
1.0
 23
0.0
 33
0.0
 40
0.0
 40
0.0
 40
0.0
 40
0.0
 40
0.3333333333333333
 40
0.3333333333333333
 40
0.3333333333333333
 40
0.3333333333333333
 40
1.0
 40
1.0
 40
1.0
 40
1.0
 10
13.08155
 20
-6.07922
 30
0.0
 10
13.08155
 20
-6.07922
 30
0.0
 10
13.17873
 20
-5.49619
 30
0.0
 10
13.17873
 20
-5.49619
 30
0.0
 10
13.17873
 20
-5.49619
 30
0.0
 10
13.17873
 20
-5.49619
 30
0.0
 10
12.98437
 20
-5.49619
 30
0.0
 10
12.98437
 20
-5.49619
 30
0.0
  0
SPLINE
  5
71
330
1F
100
AcDbEntity
  8
layer 2
 62
     1
100
AcDbSpline
210
0.0
220
0.0
230
1.0
 70
    11
 71
     3
 72
    40
 73
    36
 74
     0
 42
0.0000000001
 43
0.0000000001
 12
1.0
 22
0.0
 32
0.0
 13
1.0
 23
0.0
 33
0.0
 40
0.0
 40
0.0
 40
0.0
 40
0.0
 40
0.1
 40
0.1
 40
0.1
 40
0.1
 40
0.2
 40
0.2
 40
0.2
 40
0.2
 40
0.3
 40
0.3
 40
0.3
 40
0.3
 40
0.4
 40
0.4
 40
0.4
 40
0.4
 40
0.5
 40
0.5
 40
0.5
 40
0.5
 40
0.6
 40
0.6
 40
0.6
 40
0.6
 40
0.7
 40
0.7
 40
0.7
 40
0.7
 40
0.8
 40
0.8
 40
0.8
 40
0.8
 40
1.0
 40
1.0
 40
1.0
 40
1.0
 10
12.8323
 20
2.55746
 30
0.0
 10
12.8323
 20
2.55746
 30
0.0
 10
12.8323
 20
2.51025
 30
0.0
 10
12.8323
 20
2.51025
 30
0.0
 10
12.8323
 20
2.51025
 30
0.0
 10
12.8323
 20
2.51025
 30
0.0
 10
12.53173
 20
2.51025
 30
0.0
 10
12.53173
 20
2.51025
 30
0.0
 10
12.53173
 20
2.51025
 30
0.0
 10
12.54265
 20
2.4989
 30
0.0
 10
12.55346
 20
2.48396
 30
0.0
 10
12.56428
 20
2.46555
 30
0.0
 10
12.56428
 20
2.46555
 30
0.0
 10
12.57509
 20
2.44713
 30
0.0
 10
12.58323
 20
2.43051
 30
0.0
 10
12.58859
 20
2.41585
 30
0.0
 10
12.58859
 20
2.41585
 30
0.0
 10
12.58859
 20
2.41585
 30
0.0
 10
12.543
 20
2.41585
 30
0.0
 10
12.543
 20
2.41585
 30
0.0
 10
12.543
 20
2.41585
 30
0.0
 10
12.53066
 20
2.44222
 30
0.0
 10
12.51565
 20
2.46528
 30
0.0
 10
12.49795
 20
2.48503
 30
0.0
 10
12.49795
 20
2.48503
 30
0.0
 10
12.48034
 20
2.50479
 30
0.0
 10
12.46326
 20
2.51883
 30
0.0
 10
12.44663
 20
2.52706
 30
0.0
 10
12.44663
 20
2.52706
 30
0.0
 10
12.44663
 20
2.52706
 30
0.0
 10
12.44663
 20
2.55746
 30
0.0
 10
12.44663
 20
2.55746
 30
0.0
 10
12.44663
 20
2.55746
 30
0.0
 10
12.44663
 20
2.55746
 30
0.0
 10
12.8323
 20
2.55746
 30
0.0
 10
12.8323
 20
2.55746
 30
0.0
  0
SPLINE
  5
72
330
1F
100
AcDbEntity
  8
layer 2
 62
     1
100
AcDbSpline
210
0.0
220
0.0
230
1.0
 70
    11
 71
     3
 72
    92
 73
    88
 74
     0
 42
0.0000000001
 43
0.0000000001
 12
1.0
 22
0.0
 32
0.0
 13
1.0
 23
0.0
 33
0.0
 40
0.0
 40
0.0
 40
0.0
 40
0.0
 40
0.0434782608695652
 40
0.0434782608695652
 40
0.0434782608695652
 40
0.0434782608695652
 40
0.0869565217391304
 40
0.0869565217391304
 40
0.0869565217391304
 40
0.0869565217391304
 40
0.1304347826086956
 40
0.1304347826086956
 40
0.1304347826086956
 40
0.1304347826086956
 40
0.1739130434782609
 40
0.1739130434782609
 40
0.1739130434782609
 40
0.1739130434782609
 40
0.2173913043478261
 40
0.2173913043478261
 40
0.2173913043478261
 40
0.2173913043478261
 40
0.2608695652173913
 40
0.2608695652173913
 40
0.2608695652173913
 40
0.2608695652173913
 40
0.3043478260869565
 40
0.3043478260869565
 40
0.3043478260869565
 40
0.3043478260869565
 40
0.3478260869565217
 40
0.3478260869565217
 40
0.3478260869565217
 40
0.3478260869565217
 40
0.391304347826087
 40
0.391304347826087
 40
0.391304347826087
 40
0.391304347826087
 40
0.4347826086956522
 40
0.4347826086956522
 40
0.4347826086956522
 40
0.4347826086956522
 40
0.4782608695652174
 40
0.4782608695652174
 40
0.4782608695652174
 40
0.4782608695652174
 40
0.5217391304347826
 40
0.5217391304347826
 40
0.5217391304347826
 40
0.5217391304347826
 40
0.5652173913043478
 40
0.5652173913043478
 40
0.5652173913043478
 40
0.5652173913043478
 40
0.6086956521739131
 40
0.6086956521739131
 40
0.6086956521739131
 40
0.6086956521739131
 40
0.6521739130434783
 40
0.6521739130434783
 40
0.6521739130434783
 40
0.6521739130434783
 40
0.6956521739130435
 40
0.6956521739130435
 40
0.6956521739130435
 40
0.6956521739130435
 40
0.7391304347826086
 40
0.7391304347826086
 40
0.7391304347826086
 40
0.7391304347826086
 40
0.782608695652174
 40
0.782608695652174
 40
0.782608695652174
 40
0.782608695652174
 40
0.8260869565217391
 40
0.8260869565217391
 40
0.8260869565217391
 40
0.8260869565217391
 40
0.8695652173913043
 40
0.8695652173913043
 40
0.8695652173913043
 40
0.8695652173913043
 40
0.9130434782608695
 40
0.9130434782608695
 40
0.9130434782608695
 40
0.9130434782608695
 40
1.0
 40
1.0
 40
1.0
 40
1.0
 10
12.74325
 20
2.68574
 30
0.0
 10
12.74325
 20
2.68574
 30
0.0
 10
12.73951
 20
2.7308
 30
0.0
 10
12.73951
 20
2.7308
 30
0.0
 10
12.73951
 20
2.7308
 30
0.0
 10
12.76078
 20
2.73464
 30
0.0
 10
12.77615
 20
2.74198
 30
0.0
 10
12.78572
 20
2.75279
 30
0.0
 10
12.78572
 20
2.75279
 30
0.0
 10
12.79528
 20
2.76361
 30
0.0
 10
12.80012
 20
2.77747
 30
0.0
 10
12.80012
 20
2.79446
 30
0.0
 10
12.80012
 20
2.79446
 30
0.0
 10
12.80012
 20
2.80894
 30
0.0
 10
12.79681
 20
2.82163
 30
0.0
 10
12.7901
 20
2.83263
 30
0.0
 10
12.7901
 20
2.83263
 30
0.0
 10
12.78348
 20
2.84363
 30
0.0
 10
12.77464
 20
2.85257
 30
0.0
 10
12.76346
 20
2.85944
 30
0.0
 10
12.76346
 20
2.85944
 30
0.0
 10
12.75237
 20
2.86633
 30
0.0
 10
12.73736
 20
2.87215
 30
0.0
 10
12.71849
 20
2.87688
 30
0.0
 10
12.71849
 20
2.87688
 30
0.0
 10
12.69963
 20
2.88162
 30
0.0
 10
12.68041
 20
2.88394
 30
0.0
 10
12.66083
 20
2.88394
 30
0.0
 10
12.66083
 20
2.88394
 30
0.0
 10
12.65877
 20
2.88394
 30
0.0
 10
12.65556
 20
2.88386
 30
0.0
 10
12.65135
 20
2.88368
 30
0.0
 10
12.65135
 20
2.88368
 30
0.0
 10
12.66637
 20
2.87428
 30
0.0
 10
12.67862
 20
2.86142
 30
0.0
 10
12.68792
 20
2.84515
 30
0.0
 10
12.68792
 20
2.84515
 30
0.0
 10
12.6973
 20
2.82886
 30
0.0
 10
12.70196
 20
2.81118
 30
0.0
 10
12.70196
 20
2.79222
 30
0.0
 10
12.70196
 20
2.79222
 30
0.0
 10
12.70196
 20
2.76047
 30
0.0
 10
12.69042
 20
2.73366
 30
0.0
 10
12.66736
 20
2.71167
 30
0.0
 10
12.66736
 20
2.71167
 30
0.0
 10
12.64438
 20
2.68977
 30
0.0
 10
12.61399
 20
2.67877
 30
0.0
 10
12.57626
 20
2.67877
 30
0.0
 10
12.57626
 20
2.67877
 30
0.0
 10
12.53728
 20
2.67877
 30
0.0
 10
12.50599
 20
2.69022
 30
0.0
 10
12.48221
 20
2.71319
 30
0.0
 10
12.48221
 20
2.71319
 30
0.0
 10
12.45852
 20
2.73607
 30
0.0
 10
12.44663
 20
2.76477
 30
0.0
 10
12.44663
 20
2.79937
 30
0.0
 10
12.44663
 20
2.79937
 30
0.0
 10
12.44663
 20
2.82423
 30
0.0
 10
12.45334
 20
2.84702
 30
0.0
 10
12.46684
 20
2.86776
 30
0.0
 10
12.46684
 20
2.86776
 30
0.0
 10
12.48024
 20
2.88842
 30
0.0
 10
12.49937
 20
2.90405
 30
0.0
 10
12.52431
 20
2.91478
 30
0.0
 10
12.52431
 20
2.91478
 30
0.0
 10
12.54918
 20
2.92551
 30
0.0
 10
12.5852
 20
2.93088
 30
0.0
 10
12.63231
 20
2.93088
 30
0.0
 10
12.63231
 20
2.93088
 30
0.0
 10
12.68138
 20
2.93088
 30
0.0
 10
12.72046
 20
2.9256
 30
0.0
 10
12.74951
 20
2.91497
 30
0.0
 10
12.74951
 20
2.91497
 30
0.0
 10
12.77866
 20
2.90433
 30
0.0
 10
12.80074
 20
2.88842
 30
0.0
 10
12.81594
 20
2.8674
 30
0.0
 10
12.81594
 20
2.8674
 30
0.0
 10
12.83114
 20
2.84639
 30
0.0
 10
12.83874
 20
2.82182
 30
0.0
 10
12.83874
 20
2.79356
 30
0.0
 10
12.83874
 20
2.79356
 30
0.0
 10
12.83874
 20
2.76352
 30
0.0
 10
12.83042
 20
2.73903
 30
0.0
 10
12.8137
 20
2.71997
 30
0.0
 10
12.8137
 20
2.71997
 30
0.0
 10
12.79698
 20
2.70103
 30
0.0
 10
12.77348
 20
2.68958
 30
0.0
 10
12.74325
 20
2.68574
 30
0.0
  0
SPLINE
  5
73
330
1F
100
AcDbEntity
  8
layer 2
 62
     1
100
AcDbSpline
210
0.0
220
0.0
230
1.0
 70
    11
 71
     3
 72
    36
 73
    32
 74
     0
 42
0.0000000001
 43
0.0000000001
 12
1.0
 22
0.0
 32
0.0
 13
1.0
 23
0.0
 33
0.0
 40
0.0
 40
0.0
 40
0.0
 40
0.0
 40
0.1111111111111111
 40
0.1111111111111111
 40
0.1111111111111111
 40
0.1111111111111111
 40
0.2222222222222222
 40
0.2222222222222222
 40
0.2222222222222222
 40
0.2222222222222222
 40
0.3333333333333333
 40
0.3333333333333333
 40
0.3333333333333333
 40
0.3333333333333333
 40
0.4444444444444444
 40
0.4444444444444444
 40
0.4444444444444444
 40
0.4444444444444444
 40
0.5555555555555556
 40
0.5555555555555556
 40
0.5555555555555556
 40
0.5555555555555556
 40
0.6666666666666666
 40
0.6666666666666666
 40
0.6666666666666666
 40
0.6666666666666666
 40
0.7777777777777778
 40
0.7777777777777778
 40
0.7777777777777778
 40
0.7777777777777778
 40
1.0
 40
1.0
 40
1.0
 40
1.0
 10
12.57384
 20
2.87831
 30
0.0
 10
12.54684
 20
2.87831
 30
0.0
 10
12.52539
 20
2.87115
 30
0.0
 10
12.50956
 20
2.85686
 30
0.0
 10
12.50956
 20
2.85686
 30
0.0
 10
12.49373
 20
2.84263
 30
0.0
 10
12.48578
 20
2.8253
 30
0.0
 10
12.48578
 20
2.80491
 30
0.0
 10
12.48578
 20
2.80491
 30
0.0
 10
12.48578
 20
2.78382
 30
0.0
 10
12.49428
 20
2.76558
 30
0.0
 10
12.51135
 20
2.75021
 30
0.0
 10
12.51135
 20
2.75021
 30
0.0
 10
12.52843
 20
2.73474
 30
0.0
 10
12.5506
 20
2.72705
 30
0.0
 10
12.57778
 20
2.72705
 30
0.0
 10
12.57778
 20
2.72705
 30
0.0
 10
12.60218
 20
2.72705
 30
0.0
 10
12.62203
 20
2.73437
 30
0.0
 10
12.63723
 20
2.74895
 30
0.0
 10
12.63723
 20
2.74895
 30
0.0
 10
12.65252
 20
2.76361
 30
0.0
 10
12.66012
 20
2.78184
 30
0.0
 10
12.66012
 20
2.80357
 30
0.0
 10
12.66012
 20
2.80357
 30
0.0
 10
12.66012
 20
2.82538
 30
0.0
 10
12.65252
 20
2.84326
 30
0.0
 10
12.63723
 20
2.8573
 30
0.0
 10
12.63723
 20
2.8573
 30
0.0
 10
12.62203
 20
2.87134
 30
0.0
 10
12.60083
 20
2.87831
 30
0.0
 10
12.57384
 20
2.87831
 30
0.0
  0
SPLINE
  5
74
330
1F
100
AcDbEntity
  8
layer 2
 62
     1
100
AcDbSpline
210
0.0
220
0.0
230
1.0
 70
    11
 71
     3
 72
    20
 73
    16
 74
     0
 42
0.0000000001
 43
0.0000000001
 12
1.0
 22
0.0
 32
0.0
 13
1.0
 23
0.0
 33
0.0
 40
0.0
 40
0.0
 40
0.0
 40
0.0
 40
0.2
 40
0.2
 40
0.2
 40
0.2
 40
0.4
 40
0.4
 40
0.4
 40
0.4
 40
0.6
 40
0.6
 40
0.6
 40
0.6
 40
1.0
 40
1.0
 40
1.0
 40
1.0
 10
12.8323
 20
3.00339
 30
0.0
 10
12.8323
 20
3.00339
 30
0.0
 10
12.77866
 20
3.00339
 30
0.0
 10
12.77866
 20
3.00339
 30
0.0
 10
12.77866
 20
3.00339
 30
0.0
 10
12.77866
 20
3.00339
 30
0.0
 10
12.77866
 20
3.05702
 30
0.0
 10
12.77866
 20
3.05702
 30
0.0
 10
12.77866
 20
3.05702
 30
0.0
 10
12.77866
 20
3.05702
 30
0.0
 10
12.8323
 20
3.05702
 30
0.0
 10
12.8323
 20
3.05702
 30
0.0
 10
12.8323
 20
3.05702
 30
0.0
 10
12.8323
 20
3.05702
 30
0.0
 10
12.8323
 20
3.00339
 30
0.0
 10
12.8323
 20
3.00339
 30
0.0
  0
SPLINE
  5
75
330
1F
100
AcDbEntity
  8
layer 2
 62
     1
100
AcDbSpline
210
0.0
220
0.0
230
1.0
 70
    11
 71
     3
 72
    92
 73
    88
 74
     0
 42
0.0000000001
 43
0.0000000001
 12
1.0
 22
0.0
 32
0.0
 13
1.0
 23
0.0
 33
0.0
 40
0.0
 40
0.0
 40
0.0
 40
0.0
 40
0.0434782608695652
 40
0.0434782608695652
 40
0.0434782608695652
 40
0.0434782608695652
 40
0.0869565217391304
 40
0.0869565217391304
 40
0.0869565217391304
 40
0.0869565217391304
 40
0.1304347826086956
 40
0.1304347826086956
 40
0.1304347826086956
 40
0.1304347826086956
 40
0.1739130434782609
 40
0.1739130434782609
 40
0.1739130434782609
 40
0.1739130434782609
 40
0.2173913043478261
 40
0.2173913043478261
 40
0.2173913043478261
 40
0.2173913043478261
 40
0.2608695652173913
 40
0.2608695652173913
 40
0.2608695652173913
 40
0.2608695652173913
 40
0.3043478260869565
 40
0.3043478260869565
 40
0.3043478260869565
 40
0.3043478260869565
 40
0.3478260869565217
 40
0.3478260869565217
 40
0.3478260869565217
 40
0.3478260869565217
 40
0.391304347826087
 40
0.391304347826087
 40
0.391304347826087
 40
0.391304347826087
 40
0.4347826086956522
 40
0.4347826086956522
 40
0.4347826086956522
 40
0.4347826086956522
 40
0.4782608695652174
 40
0.4782608695652174
 40
0.4782608695652174
 40
0.4782608695652174
 40
0.5217391304347826
 40
0.5217391304347826
 40
0.5217391304347826
 40
0.5217391304347826
 40
0.5652173913043478
 40
0.5652173913043478
 40
0.5652173913043478
 40
0.5652173913043478
 40
0.6086956521739131
 40
0.6086956521739131
 40
0.6086956521739131
 40
0.6086956521739131
 40
0.6521739130434783
 40
0.6521739130434783
 40
0.6521739130434783
 40
0.6521739130434783
 40
0.6956521739130435
 40
0.6956521739130435
 40
0.6956521739130435
 40
0.6956521739130435
 40
0.7391304347826086
 40
0.7391304347826086
 40
0.7391304347826086
 40
0.7391304347826086
 40
0.782608695652174
 40
0.782608695652174
 40
0.782608695652174
 40
0.782608695652174
 40
0.8260869565217391
 40
0.8260869565217391
 40
0.8260869565217391
 40
0.8260869565217391
 40
0.8695652173913043
 40
0.8695652173913043
 40
0.8695652173913043
 40
0.8695652173913043
 40
0.9130434782608695
 40
0.9130434782608695
 40
0.9130434782608695
 40
0.9130434782608695
 40
1.0
 40
1.0
 40
1.0
 40
1.0
 10
12.78724
 20
3.37341
 30
0.0
 10
12.78724
 20
3.37341
 30
0.0
 10
12.8323
 20
3.37341
 30
0.0
 10
12.8323
 20
3.37341
 30
0.0
 10
12.8323
 20
3.37341
 30
0.0
 10
12.8323
 20
3.37341
 30
0.0
 10
12.8323
 20
3.11915
 30
0.0
 10
12.8323
 20
3.11915
 30
0.0
 10
12.8323
 20
3.11915
 30
0.0
 10
12.82095
 20
3.1188
 30
0.0
 10
12.81004
 20
3.12066
 30
0.0
 10
12.79948
 20
3.12469
 30
0.0
 10
12.79948
 20
3.12469
 30
0.0
 10
12.78223
 20
3.13122
 30
0.0
 10
12.76516
 20
3.14169
 30
0.0
 10
12.74844
 20
3.15608
 30
0.0
 10
12.74844
 20
3.15608
 30
0.0
 10
12.73172
 20
3.17047
 30
0.0
 10
12.71241
 20
3.19103
 30
0.0
 10
12.69051
 20
3.21776
 30
0.0
 10
12.69051
 20
3.21776
 30
0.0
 10
12.65627
 20
3.25934
 30
0.0
 10
12.62917
 20
3.28758
 30
0.0
 10
12.60915
 20
3.30233
 30
0.0
 10
12.60915
 20
3.30233
 30
0.0
 10
12.58913
 20
3.31718
 30
0.0
 10
12.57018
 20
3.3246
 30
0.0
 10
12.5523
 20
3.3246
 30
0.0
 10
12.5523
 20
3.3246
 30
0.0
 10
12.53362
 20
3.3246
 30
0.0
 10
12.51788
 20
3.31789
 30
0.0
 10
12.505
 20
3.30447
 30
0.0
 10
12.505
 20
3.30447
 30
0.0
 10
12.49222
 20
3.29107
 30
0.0
 10
12.48578
 20
3.27354
 30
0.0
 10
12.48578
 20
3.252
 30
0.0
 10
12.48578
 20
3.252
 30
0.0
 10
12.48578
 20
3.22921
 30
0.0
 10
12.49258
 20
3.21097
 30
0.0
 10
12.50617
 20
3.1973
 30
0.0
 10
12.50617
 20
3.1973
 30
0.0
 10
12.51967
 20
3.18361
 30
0.0
 10
12.53845
 20
3.17672
 30
0.0
 10
12.56249
 20
3.17655
 30
0.0
 10
12.56249
 20
3.17655
 30
0.0
 10
12.56249
 20
3.17655
 30
0.0
 10
12.55766
 20
3.12827
 30
0.0
 10
12.55766
 20
3.12827
 30
0.0
 10
12.55766
 20
3.12827
 30
0.0
 10
12.52154
 20
3.13158
 30
0.0
 10
12.49401
 20
3.14409
 30
0.0
 10
12.47505
 20
3.16574
 30
0.0
 10
12.47505
 20
3.16574
 30
0.0
 10
12.45611
 20
3.18745
 30
0.0
 10
12.44663
 20
3.2165
 30
0.0
 10
12.44663
 20
3.25307
 30
0.0
 10
12.44663
 20
3.25307
 30
0.0
 10
12.44663
 20
3.2899
 30
0.0
 10
12.45682
 20
3.31914
 30
0.0
 10
12.47729
 20
3.34059
 30
0.0
 10
12.47729
 20
3.34059
 30
0.0
 10
12.49776
 20
3.36215
 30
0.0
 10
12.52316
 20
3.37286
 30
0.0
 10
12.55336
 20
3.37286
 30
0.0
 10
12.55336
 20
3.37286
 30
0.0
 10
12.56875
 20
3.37286
 30
0.0
 10
12.58386
 20
3.36974
 30
0.0
 10
12.5987
 20
3.36339
 30
0.0
 10
12.5987
 20
3.36339
 30
0.0
 10
12.61362
 20
3.35714
 30
0.0
 10
12.62928
 20
3.34667
 30
0.0
 10
12.64572
 20
3.3321
 30
0.0
 10
12.64572
 20
3.3321
 30
0.0
 10
12.66208
 20
3.31745
 30
0.0
 10
12.6847
 20
3.29321
 30
0.0
 10
12.7133
 20
3.25942
 30
0.0
 10
12.7133
 20
3.25942
 30
0.0
 10
12.73708
 20
3.23108
 30
0.0
 10
12.75318
 20
3.21285
 30
0.0
 10
12.76167
 20
3.20479
 30
0.0
 10
12.76167
 20
3.20479
 30
0.0
 10
12.77017
 20
3.19675
 30
0.0
 10
12.77866
 20
3.19014
 30
0.0
 10
12.78724
 20
3.18487
 30
0.0
 10
12.78724
 20
3.18487
 30
0.0
 10
12.78724
 20
3.18487
 30
0.0
 10
12.78724
 20
3.37341
 30
0.0
 10
12.78724
 20
3.37341
 30
0.0
  0
SPLINE
  5
76
330
1F
100
AcDbEntity
  8
layer 2
 62
     1
100
AcDbSpline
210
0.0
220
0.0
230
1.0
 70
    11
 71
     3
 72
    28
 73
    24
 74
     0
 42
0.0000000001
 43
0.0000000001
 12
1.0
 22
0.0
 32
0.0
 13
1.0
 23
0.0
 33
0.0
 40
0.0
 40
0.0
 40
0.0
 40
0.0
 40
0.1428571428571428
 40
0.1428571428571428
 40
0.1428571428571428
 40
0.1428571428571428
 40
0.2857142857142857
 40
0.2857142857142857
 40
0.2857142857142857
 40
0.2857142857142857
 40
0.4285714285714285
 40
0.4285714285714285
 40
0.4285714285714285
 40
0.4285714285714285
 40
0.5714285714285714
 40
0.5714285714285714
 40
0.5714285714285714
 40
0.5714285714285714
 40
0.7142857142857143
 40
0.7142857142857143
 40
0.7142857142857143
 40
0.7142857142857143
 40
1.0
 40
1.0
 40
1.0
 40
1.0
 10
12.58394
 20
3.43965
 30
0.0
 10
12.58394
 20
3.43965
 30
0.0
 10
12.511
 20
3.4266
 30
0.0
 10
12.511
 20
3.4266
 30
0.0
 10
12.511
 20
3.4266
 30
0.0
 10
12.511
 20
3.4266
 30
0.0
 10
12.44824
 20
3.4266
 30
0.0
 10
12.44824
 20
3.4266
 30
0.0
 10
12.44824
 20
3.4266
 30
0.0
 10
12.44824
 20
3.4266
 30
0.0
 10
12.44824
 20
3.48023
 30
0.0
 10
12.44824
 20
3.48023
 30
0.0
 10
12.44824
 20
3.48023
 30
0.0
 10
12.44824
 20
3.48023
 30
0.0
 10
12.511
 20
3.48023
 30
0.0
 10
12.511
 20
3.48023
 30
0.0
 10
12.511
 20
3.48023
 30
0.0
 10
12.511
 20
3.48023
 30
0.0
 10
12.58394
 20
3.46844
 30
0.0
 10
12.58394
 20
3.46844
 30
0.0
 10
12.58394
 20
3.46844
 30
0.0
 10
12.58394
 20
3.46844
 30
0.0
 10
12.58394
 20
3.43965
 30
0.0
 10
12.58394
 20
3.43965
 30
0.0
  0
SPLINE
  5
77
330
1F
100
AcDbEntity
  8
layer 2
 62
     1
100
AcDbSpline
210
0.0
220
0.0
230
1.0
 70
    11
 71
     3
 72
    28
 73
    24
 74
     0
 42
0.0000000001
 43
0.0000000001
 12
1.0
 22
0.0
 32
0.0
 13
1.0
 23
0.0
 33
0.0
 40
0.0
 40
0.0
 40
0.0
 40
0.0
 40
0.1428571428571428
 40
0.1428571428571428
 40
0.1428571428571428
 40
0.1428571428571428
 40
0.2857142857142857
 40
0.2857142857142857
 40
0.2857142857142857
 40
0.2857142857142857
 40
0.4285714285714285
 40
0.4285714285714285
 40
0.4285714285714285
 40
0.4285714285714285
 40
0.5714285714285714
 40
0.5714285714285714
 40
0.5714285714285714
 40
0.5714285714285714
 40
0.7142857142857143
 40
0.7142857142857143
 40
0.7142857142857143
 40
0.7142857142857143
 40
1.0
 40
1.0
 40
1.0
 40
1.0
 10
12.58394
 20
3.52628
 30
0.0
 10
12.58394
 20
3.52628
 30
0.0
 10
12.511
 20
3.5135
 30
0.0
 10
12.511
 20
3.5135
 30
0.0
 10
12.511
 20
3.5135
 30
0.0
 10
12.511
 20
3.5135
 30
0.0
 10
12.44824
 20
3.5135
 30
0.0
 10
12.44824
 20
3.5135
 30
0.0
 10
12.44824
 20
3.5135
 30
0.0
 10
12.44824
 20
3.5135
 30
0.0
 10
12.44824
 20
3.56714
 30
0.0
 10
12.44824
 20
3.56714
 30
0.0
 10
12.44824
 20
3.56714
 30
0.0
 10
12.44824
 20
3.56714
 30
0.0
 10
12.511
 20
3.56714
 30
0.0
 10
12.511
 20
3.56714
 30
0.0
 10
12.511
 20
3.56714
 30
0.0
 10
12.511
 20
3.56714
 30
0.0
 10
12.58394
 20
3.55453
 30
0.0
 10
12.58394
 20
3.55453
 30
0.0
 10
12.58394
 20
3.55453
 30
0.0
 10
12.58394
 20
3.55453
 30
0.0
 10
12.58394
 20
3.52628
 30
0.0
 10
12.58394
 20
3.52628
 30
0.0
  0
ENDSEC
  0
SECTION
  2
OBJECTS
  0
DICTIONARY
  5
C
330
0
100
AcDbDictionary
281
     1
  3
ACAD_GROUP
350
D
  3
ACAD_LAYOUT
350
1A
  3
ACAD_MATERIAL
350
3B
  3
ACAD_MLEADERSTYLE
350
99
  3
ACAD_MLINESTYLE
350
17
  3
ACAD_PLOTSETTINGS
350
19
  3
ACAD_PLOTSTYLENAME
350
E
  3
ACAD_TABLESTYLE
350
98
  3
ACAD_VISUALSTYLE
350
2A
  0
DICTIONARY
  5
D
102
{ACAD_REACTORS
330
C
102
}
330
C
100
AcDbDictionary
281
     1
  0
DICTIONARY
  5
1A
102
{ACAD_REACTORS
330
C
102
}
330
C
100
AcDbDictionary
281
     1
  3
Layout1
350
1E
  3
Layout2
350
26
  3
Model
350
22
  0
DICTIONARY
  5
3B
102
{ACAD_REACTORS
330
C
102
}
330
C
100
AcDbDictionary
281
     1
  3
ByBlock
350
3D
  3
ByLayer
350
3C
  3
Global
350
3E
  0
DICTIONARY
  5
99
102
{ACAD_REACTORS
330
C
102
}
330
C
100
AcDbDictionary
281
     1
  0
DICTIONARY
  5
17
102
{ACAD_REACTORS
330
C
102
}
330
C
100
AcDbDictionary
281
     1
  3
Standard
350
18
  0
DICTIONARY
  5
19
102
{ACAD_REACTORS
330
C
102
}
330
C
100
AcDbDictionary
281
     1
  0
ACDBDICTIONARYWDFLT
  5
E
102
{ACAD_REACTORS
330
C
102
}
330
C
100
AcDbDictionary
281
     1
  3
Normal
350
F
100
AcDbDictionaryWithDefault
340
F
  0
DICTIONARY
  5
98
102
{ACAD_REACTORS
330
C
102
}
330
C
100
AcDbDictionary
281
     1
  0
DICTIONARY
  5
2A
102
{ACAD_REACTORS
330
C
102
}
330
C
100
AcDbDictionary
281
     1
  3
2dWireframe
350
2F
  3
3D Hidden
350
31
  3
3dWireframe
350
30
  3
Basic
350
32
  3
Brighten
350
36
  3
ColorChange
350
3A
  3
Conceptual
350
34
  3
Dim
350
35
  3
Facepattern
350
39
  3
Flat
350
2B
  3
FlatWithEdges
350
2C
  3
Gouraud
350
2D
  3
GouraudWithEdges
350
2E
  3
Linepattern
350
38
  3
Realistic
350
33
  3
Thicken
350
37
  0
LAYOUT
  5
1E
102
{ACAD_REACTORS
330
1A
102
}
330
1A
100
AcDbPlotSettings
  1

  2
none_device
  4

  6

 40
0.0
 41
0.0
 42
0.0
 43
0.0
 44
0.0
 45
0.0
 46
0.0
 47
0.0
 48
0.0
 49
0.0
140
0.0
141
0.0
142
1.0
143
1.0
 70
   688
 72
     0
 73
     0
 74
     5
  7

 75
    16
 76
     0
 77
     2
 78
   300
147
1.0
148
0.0
149
0.0
100
AcDbLayout
  1
Layout1
 70
     1
 71
     1
 10
0.0
 20
0.0
 11
12.0
 21
9.0
 12
0.0
 22
0.0
 32
0.0
 14
1.000000000000000E+20
 24
1.000000000000000E+20
 34
1.000000000000000E+20
 15
-1.000000000000000E+20
 25
-1.000000000000000E+20
 35
-1.000000000000000E+20
146
0.0
 13
0.0
 23
0.0
 33
0.0
 16
1.0
 26
0.0
 36
0.0
 17
0.0
 27
1.0
 37
0.0
 76
     0
330
1B
  0
LAYOUT
  5
26
102
{ACAD_REACTORS
330
1A
102
}
330
1A
100
AcDbPlotSettings
  1

  2
none_device
  4

  6

 40
0.0
 41
0.0
 42
0.0
 43
0.0
 44
0.0
 45
0.0
 46
0.0
 47
0.0
 48
0.0
 49
0.0
140
0.0
141
0.0
142
1.0
143
1.0
 70
   688
 72
     0
 73
     0
 74
     5
  7

 75
    16
 76
     0
 77
     2
 78
   300
147
1.0
148
0.0
149
0.0
100
AcDbLayout
  1
Layout2
 70
     1
 71
     2
 10
0.0
 20
0.0
 11
0.0
 21
0.0
 12
0.0
 22
0.0
 32
0.0
 14
0.0
 24
0.0
 34
0.0
 15
0.0
 25
0.0
 35
0.0
146
0.0
 13
0.0
 23
0.0
 33
0.0
 16
1.0
 26
0.0
 36
0.0
 17
0.0
 27
1.0
 37
0.0
 76
     0
330
23
  0
LAYOUT
  5
22
102
{ACAD_REACTORS
330
1A
102
}
330
1A
100
AcDbPlotSettings
  1

  2
none_device
  4

  6

 40
0.0
 41
0.0
 42
0.0
 43
0.0
 44
0.0
 45
0.0
 46
0.0
 47
0.0
 48
0.0
 49
0.0
140
0.0
141
0.0
142
1.0
143
1.0
 70
  1712
 72
     0
 73
     0
 74
     0
  7

 75
     0
 76
     0
 77
     2
 78
   300
147
1.0
148
0.0
149
0.0
100
AcDbLayout
  1
Model
 70
     1
 71
     0
 10
0.0
 20
0.0
 11
12.0
 21
9.0
 12
0.0
 22
0.0
 32
0.0
 14
-12.0788
 24
-8.51276
 34
0.0
 15
13.37307
 25
10.23717
 35
0.0
146
0.0
 13
0.0
 23
0.0
 33
0.0
 16
1.0
 26
0.0
 36
0.0
 17
0.0
 27
1.0
 37
0.0
 76
     0
330
1F
331
29
  0
MATERIAL
  5
3D
102
{ACAD_REACTORS
330
3B
102
}
330
3B
100
AcDbMaterial
  1
ByBlock
 72
     1
 94
      127
  0
MATERIAL
  5
3C
102
{ACAD_REACTORS
330
3B
102
}
330
3B
100
AcDbMaterial
  1
ByLayer
 72
     1
 94
      127
  0
MATERIAL
  5
3E
102
{ACAD_REACTORS
330
3B
102
}
330
3B
100
AcDbMaterial
  1
Global
 72
     1
 94
      127
  0
MLINESTYLE
  5
18
102
{ACAD_REACTORS
330
17
102
}
330
17
100
AcDbMlineStyle
  2
Standard
 70
     0
  3

 62
   256
 51
90.0
 52
90.0
 71
     2
 49
0.5
 62
   256
  6
BYLAYER
 49
-0.5
 62
   256
  6
BYLAYER
  0
ACDBPLACEHOLDER
  5
F
102
{ACAD_REACTORS
330
E
102
}
330
E
  0
VISUALSTYLE
  5
2F
102
{ACAD_REACTORS
330
2A
102
}
102
{ACAD_XDICTIONARY
360
80
102
}
330
2A
100
AcDbVisualStyle
  2
2dWireframe
 70
     4
 71
     0
 72
     2
 73
     0
 90
        0
 40
-0.6
 41
-30.0
 62
     5
 63
     7
421
 16777215
 74
     1
 91
        4
 64
     7
 65
   257
 75
     1
175
     1
 42
1.0
 92
        0
 66
   257
 43
1.0
 76
     1
 77
     6
 78
     2
 67
     7
 79
     5
170
     0
171
     0
290
     0
174
     0
 93
        1
 44
0.0
173
     0
291
     0
 45
0.0
  0
VISUALSTYLE
  5
31
102
{ACAD_REACTORS
330
2A
102
}
102
{ACAD_XDICTIONARY
360
84
102
}
330
2A
100
AcDbVisualStyle
  2
3D Hidden
 70
     6
 71
     1
 72
     2
 73
     2
 90
        0
 40
-0.6
 41
-30.0
 62
     5
 63
     7
421
 16777215
 74
     2
 91
        2
 64
     7
 65
   257
 75
     2
175
     1
 42
40.0
 92
        0
 66
   257
 43
1.0
 76
     1
 77
     6
 78
     2
 67
     7
 79
     3
170
     0
171
     0
290
     0
174
     0
 93
        1
 44
0.0
173
     0
291
     0
 45
0.0
  0
VISUALSTYLE
  5
30
102
{ACAD_REACTORS
330
2A
102
}
102
{ACAD_XDICTIONARY
360
82
102
}
330
2A
100
AcDbVisualStyle
  2
3dWireframe
 70
     5
 71
     0
 72
     2
 73
     0
 90
        0
 40
-0.6
 41
-30.0
 62
     5
 63
     7
421
 16777215
 74
     1
 91
        4
 64
     7
 65
   257
 75
     1
175
     1
 42
1.0
 92
        0
 66
   257
 43
1.0
 76
     1
 77
     6
 78
     2
 67
     7
 79
     5
170
     0
171
     0
290
     0
174
     0
 93
        1
 44
0.0
173
     0
291
     0
 45
0.0
  0
VISUALSTYLE
  5
32
102
{ACAD_REACTORS
330
2A
102
}
102
{ACAD_XDICTIONARY
360
86
102
}
330
2A
100
AcDbVisualStyle
  2
Basic
 70
     7
 71
     1
 72
     0
 73
     1
 90
        0
 40
-0.6
 41
-30.0
 62
     5
 63
     7
421
 16777215
 74
     0
 91
        4
 64
     7
 65
   257
 75
     1
175
     1
 42
1.0
 92
        8
 66
     7
 43
1.0
 76
     1
 77
     6
 78
     2
 67
     7
 79
     5
170
     0
171
     0
290
     0
174
     0
 93
        1
 44
0.0
173
     0
291
     1
 45
0.0
  0
VISUALSTYLE
  5
36
102
{ACAD_REACTORS
330
2A
102
}
102
{ACAD_XDICTIONARY
360
8E
102
}
330
2A
100
AcDbVisualStyle
  2
Brighten
 70
    12
 71
     2
 72
     2
 73
     0
 90
        0
 40
-0.6
 41
-30.0
 62
     5
 63
     7
421
 16777215
 74
     1
 91
        4
 64
     7
 65
   257
 75
     1
175
     1
 42
1.0
 92
        8
 66
     7
 43
1.0
 76
     1
 77
     6
 78
     2
 67
     7
 79
     5
170
     0
171
     0
290
     0
174
     0
 93
        1
 44
50.0
173
     0
291
     1
 45
0.0
  0
VISUALSTYLE
  5
3A
102
{ACAD_REACTORS
330
2A
102
}
102
{ACAD_XDICTIONARY
360
96
102
}
330
2A
100
AcDbVisualStyle
  2
ColorChange
 70
    16
 71
     2
 72
     2
 73
     3
 90
        0
 40
-0.6
 41
-30.0
 62
     5
 63
     8
421
  8421504
 74
     1
 91
        4
 64
     7
 65
   257
 75
     1
175
     1
 42
1.0
 92
        8
 66
     8
424
  8421504
 43
1.0
 76
     1
 77
     6
 78
     2
 67
     7
 79
     5
170
     0
171
     0
290
     0
174
     0
 93
        1
 44
0.0
173
     0
291
     1
 45
0.0
  0
VISUALSTYLE
  5
34
102
{ACAD_REACTORS
330
2A
102
}
102
{ACAD_XDICTIONARY
360
8A
102
}
330
2A
100
AcDbVisualStyle
  2
Conceptual
 70
     9
 71
     3
 72
     2
 73
     0
 90
        0
 40
-0.6
 41
-30.0
 62
     5
 63
     7
421
 16777215
 74
     2
 91
        2
 64
     7
 65
   257
 75
     1
175
     1
 42
40.0
 92
        8
 66
     7
 43
1.0
 76
     1
 77
     6
 78
     2
 67
     7
 79
     3
170
     0
171
     0
290
     0
174
     0
 93
        1
 44
0.0
173
     0
291
     0
 45
0.0
  0
VISUALSTYLE
  5
35
102
{ACAD_REACTORS
330
2A
102
}
102
{ACAD_XDICTIONARY
360
8C
102
}
330
2A
100
AcDbVisualStyle
  2
Dim
 70
    11
 71
     2
 72
     2
 73
     0
 90
        0
 40
-0.6
 41
-30.0
 62
     5
 63
     7
421
 16777215
 74
     1
 91
        4
 64
     7
 65
   257
 75
     1
175
     1
 42
1.0
 92
        8
 66
     7
 43
1.0
 76
     1
 77
     6
 78
     2
 67
     7
 79
     5
170
     0
171
     0
290
     0
174
     0
 93
        1
 44
-50.0
173
     0
291
     1
 45
0.0
  0
VISUALSTYLE
  5
39
102
{ACAD_REACTORS
330
2A
102
}
102
{ACAD_XDICTIONARY
360
94
102
}
330
2A
100
AcDbVisualStyle
  2
Facepattern
 70
    15
 71
     2
 72
     2
 73
     0
 90
        0
 40
-0.6
 41
-30.0
 62
     5
 63
     7
421
 16777215
 74
     1
 91
        4
 64
     7
 65
   257
 75
     1
175
     1
 42
1.0
 92
        8
 66
     7
 43
1.0
 76
     1
 77
     6
 78
     2
 67
     7
 79
     5
170
     0
171
     0
290
     0
174
     0
 93
        1
 44
0.0
173
     0
291
     1
 45
0.0
  0
VISUALSTYLE
  5
2B
102
{ACAD_REACTORS
330
2A
102
}
102
{ACAD_XDICTIONARY
360
78
102
}
330
2A
100
AcDbVisualStyle
  2
Flat
 70
     0
 71
     2
 72
     1
 73
     1
 90
        2
 40
-0.6
 41
30.0
 62
     5
 63
     7
421
 16777215
 74
     0
 91
        4
 64
     7
 65
   257
 75
     1
175
     1
 42
1.0
 92
        8
 66
     7
 43
1.0
 76
     1
 77
     6
 78
     2
 67
     7
 79
     5
170
     0
171
     0
290
     0
174
     0
 93
       13
 44
0.0
173
     0
291
     1
 45
0.0
  0
VISUALSTYLE
  5
2C
102
{ACAD_REACTORS
330
2A
102
}
102
{ACAD_XDICTIONARY
360
7A
102
}
330
2A
100
AcDbVisualStyle
  2
FlatWithEdges
 70
     1
 71
     2
 72
     1
 73
     1
 90
        2
 40
-0.6
 41
30.0
 62
     5
 63
     7
421
 16777215
 74
     1
 91
        4
 64
     7
 65
   257
 75
     1
175
     1
 42
1.0
 92
        0
 66
   257
 43
1.0
 76
     1
 77
     6
 78
     2
 67
     7
 79
     5
170
     0
171
     0
290
     0
174
     0
 93
       13
 44
0.0
173
     0
291
     1
 45
0.0
  0
VISUALSTYLE
  5
2D
102
{ACAD_REACTORS
330
2A
102
}
102
{ACAD_XDICTIONARY
360
7C
102
}
330
2A
100
AcDbVisualStyle
  2
Gouraud
 70
     2
 71
     2
 72
     2
 73
     1
 90
        2
 40
-0.6
 41
30.0
 62
     5
 63
     7
421
 16777215
 74
     0
 91
        4
 64
     7
 65
   257
 75
     1
175
     1
 42
1.0
 92
        0
 66
     7
 43
1.0
 76
     1
 77
     6
 78
     2
 67
     7
 79
     5
170
     0
171
     0
290
     0
174
     0
 93
       13
 44
0.0
173
     0
291
     1
 45
0.0
  0
VISUALSTYLE
  5
2E
102
{ACAD_REACTORS
330
2A
102
}
102
{ACAD_XDICTIONARY
360
7E
102
}
330
2A
100
AcDbVisualStyle
  2
GouraudWithEdges
 70
     3
 71
     2
 72
     2
 73
     1
 90
        2
 40
-0.6
 41
30.0
 62
     5
 63
     7
421
 16777215
 74
     1
 91
        4
 64
     7
 65
   257
 75
     1
175
     1
 42
1.0
 92
        0
 66
   257
 43
1.0
 76
     1
 77
     6
 78
     2
 67
     7
 79
     5
170
     0
171
     0
290
     0
174
     0
 93
       13
 44
0.0
173
     0
291
     1
 45
0.0
  0
VISUALSTYLE
  5
38
102
{ACAD_REACTORS
330
2A
102
}
102
{ACAD_XDICTIONARY
360
92
102
}
330
2A
100
AcDbVisualStyle
  2
Linepattern
 70
    14
 71
     2
 72
     2
 73
     0
 90
        0
 40
-0.6
 41
-30.0
 62
     5
 63
     7
421
 16777215
 74
     1
 91
        4
 64
     7
 65
   257
 75
     7
175
     7
 42
1.0
 92
        8
 66
     7
 43
1.0
 76
     1
 77
     6
 78
     2
 67
     7
 79
     5
170
     0
171
     0
290
     0
174
     0
 93
        1
 44
0.0
173
     0
291
     1
 45
0.0
  0
VISUALSTYLE
  5
33
102
{ACAD_REACTORS
330
2A
102
}
102
{ACAD_XDICTIONARY
360
88
102
}
330
2A
100
AcDbVisualStyle
  2
Realistic
 70
     8
 71
     2
 72
     2
 73
     0
 90
        0
 40
-0.6
 41
-30.0
 62
     5
 63
     7
421
 16777215
 74
     1
 91
        0
 64
     7
 65
   257
 75
     1
175
     1
 42
1.0
 92
        8
 66
     8
424
  7895160
 43
1.0
 76
     1
 77
     6
 78
     2
 67
     7
 79
     5
170
     0
171
     0
290
     0
174
     0
 93
       13
 44
0.0
173
     0
291
     0
 45
0.0
  0
VISUALSTYLE
  5
37
102
{ACAD_REACTORS
330
2A
102
}
102
{ACAD_XDICTIONARY
360
90
102
}
330
2A
100
AcDbVisualStyle
  2
Thicken
 70
    13
 71
     2
 72
     2
 73
     0
 90
        0
 40
-0.6
 41
-30.0
 62
     5
 63
     7
421
 16777215
 74
     1
 91
        4
 64
     7
 65
   257
 75
     1
175
     1
 42
1.0
 92
       12
 66
     7
 43
1.0
 76
     1
 77
     6
 78
     2
 67
     7
 79
     5
170
     0
171
     0
290
     0
174
     0
 93
        1
 44
0.0
173
     0
291
     1
 45
0.0
  0
DICTIONARY
  5
80
330
2F
100
AcDbDictionary
280
     1
281
     1
  3
ACAD_XREC_ROUNDTRIP
360
81
  0
DICTIONARY
  5
84
330
31
100
AcDbDictionary
280
     1
281
     1
  3
ACAD_XREC_ROUNDTRIP
360
85
  0
DICTIONARY
  5
82
330
30
100
AcDbDictionary
280
     1
281
     1
  3
ACAD_XREC_ROUNDTRIP
360
83
  0
DICTIONARY
  5
86
330
32
100
AcDbDictionary
280
     1
281
     1
  3
ACAD_XREC_ROUNDTRIP
360
87
  0
DICTIONARY
  5
8E
330
36
100
AcDbDictionary
280
     1
281
     1
  3
ACAD_XREC_ROUNDTRIP
360
8F
  0
DICTIONARY
  5
96
330
3A
100
AcDbDictionary
280
     1
281
     1
  3
ACAD_XREC_ROUNDTRIP
360
97
  0
DICTIONARY
  5
8A
330
34
100
AcDbDictionary
280
     1
281
     1
  3
ACAD_XREC_ROUNDTRIP
360
8B
  0
DICTIONARY
  5
8C
330
35
100
AcDbDictionary
280
     1
281
     1
  3
ACAD_XREC_ROUNDTRIP
360
8D
  0
DICTIONARY
  5
94
330
39
100
AcDbDictionary
280
     1
281
     1
  3
ACAD_XREC_ROUNDTRIP
360
95
  0
DICTIONARY
  5
78
330
2B
100
AcDbDictionary
280
     1
281
     1
  3
ACAD_XREC_ROUNDTRIP
360
79
  0
DICTIONARY
  5
7A
330
2C
100
AcDbDictionary
280
     1
281
     1
  3
ACAD_XREC_ROUNDTRIP
360
7B
  0
DICTIONARY
  5
7C
330
2D
100
AcDbDictionary
280
     1
281
     1
  3
ACAD_XREC_ROUNDTRIP
360
7D
  0
DICTIONARY
  5
7E
330
2E
100
AcDbDictionary
280
     1
281
     1
  3
ACAD_XREC_ROUNDTRIP
360
7F
  0
DICTIONARY
  5
92
330
38
100
AcDbDictionary
280
     1
281
     1
  3
ACAD_XREC_ROUNDTRIP
360
93
  0
DICTIONARY
  5
88
330
33
100
AcDbDictionary
280
     1
281
     1
  3
ACAD_XREC_ROUNDTRIP
360
89
  0
DICTIONARY
  5
90
330
37
100
AcDbDictionary
280
     1
281
     1
  3
ACAD_XREC_ROUNDTRIP
360
91
  0
XRECORD
  5
81
102
{ACAD_REACTORS
330
80
102
}
330
80
100
AcDbXrecord
280
     1
102
RTVSPropertyOp0
 70
     1
102
RTVSPropertyOp1
 70
     1
102
RTVSPropertyOp2
 70
     1
102
RTVSPropertyOp3
 70
     1
102
RTVSPropertyOp4
 70
     1
102
RTVSPropertyOp5
 70
     1
102
RTVSPropertyOp6
 70
     1
102
RTVSPropertyOp7
 70
     1
102
RTVSPropertyOp8
 70
     1
102
RTVSPropertyOp9
 70
     1
102
RTVSPropertyOp10
 70
     1
102
RTVSPropertyOp11
 70
     1
102
RTVSPropertyOp12
 70
     1
102
RTVSPropertyOp13
 70
     1
102
RTVSPropertyOp14
 70
     1
102
RTVSPropertyOp15
 70
     1
102
RTVSPropertyOp16
 70
     1
102
RTVSPropertyOp17
 70
     1
102
RTVSPropertyOp18
 70
     1
102
RTVSPropertyOp19
 70
     1
102
RTVSPropertyOp20
 70
     1
102
RTVSPropertyOp21
 70
     1
102
RTVSPropertyOp22
 70
     1
102
RTVSPropertyOp23
 70
     1
102
RTVSPropertyOp24
 70
     1
102
RTVSPropertyOp25
 70
     1
102
RTVSPropertyOp26
 70
     1
102
RTVSPropertyOp27
 70
     1
102
RTVSPropertyOp28
 70
     1
102
RTVSPropertyOp29
 70
     1
102
RTVSPropertyOp30
 70
     1
102
RTVSPropertyOp31
 70
     1
102
RTVSPropertyOp32
 70
     1
  0
XRECORD
  5
85
102
{ACAD_REACTORS
330
84
102
}
330
84
100
AcDbXrecord
280
     1
102
RTVSPropertyOp0
 70
     1
102
RTVSPropertyOp1
 70
     1
102
RTVSPropertyOp2
 70
     1
102
RTVSPropertyOp3
 70
     1
102
RTVSPropertyOp4
 70
     1
102
RTVSPropertyOp5
 70
     1
102
RTVSPropertyOp6
 70
     1
102
RTVSPropertyOp7
 70
     1
102
RTVSPropertyOp8
 70
     1
102
RTVSPropertyOp9
 70
     1
102
RTVSPropertyOp10
 70
     1
102
RTVSPropertyOp11
 70
     1
102
RTVSPropertyOp12
 70
     1
102
RTVSPropertyOp13
 70
     1
102
RTVSPropertyOp14
 70
     1
102
RTVSPropertyOp15
 70
     1
102
RTVSPropertyOp16
 70
     1
102
RTVSPropertyOp17
 70
     1
102
RTVSPropertyOp18
 70
     1
102
RTVSPropertyOp19
 70
     1
102
RTVSPropertyOp20
 70
     1
102
RTVSPropertyOp21
 70
     1
102
RTVSPropertyOp22
 70
     1
102
RTVSPropertyOp23
 70
     1
102
RTVSPropertyOp24
 70
     1
102
RTVSPropertyOp25
 70
     1
102
RTVSPropertyOp26
 70
     1
102
RTVSPropertyOp27
 70
     1
102
RTVSPropertyOp28
 70
     1
102
RTVSPropertyOp29
 70
     1
102
RTVSPropertyOp30
 70
     1
102
RTVSPropertyOp31
 70
     1
102
RTVSPropertyOp32
 70
     1
  0
XRECORD
  5
83
102
{ACAD_REACTORS
330
82
102
}
330
82
100
AcDbXrecord
280
     1
102
RTVSPropertyOp0
 70
     1
102
RTVSPropertyOp1
 70
     1
102
RTVSPropertyOp2
 70
     1
102
RTVSPropertyOp3
 70
     1
102
RTVSPropertyOp4
 70
     1
102
RTVSPropertyOp5
 70
     1
102
RTVSPropertyOp6
 70
     1
102
RTVSPropertyOp7
 70
     1
102
RTVSPropertyOp8
 70
     1
102
RTVSPropertyOp9
 70
     1
102
RTVSPropertyOp10
 70
     1
102
RTVSPropertyOp11
 70
     1
102
RTVSPropertyOp12
 70
     1
102
RTVSPropertyOp13
 70
     1
102
RTVSPropertyOp14
 70
     1
102
RTVSPropertyOp15
 70
     1
102
RTVSPropertyOp16
 70
     1
102
RTVSPropertyOp17
 70
     1
102
RTVSPropertyOp18
 70
     1
102
RTVSPropertyOp19
 70
     1
102
RTVSPropertyOp20
 70
     1
102
RTVSPropertyOp21
 70
     1
102
RTVSPropertyOp22
 70
     1
102
RTVSPropertyOp23
 70
     1
102
RTVSPropertyOp24
 70
     1
102
RTVSPropertyOp25
 70
     1
102
RTVSPropertyOp26
 70
     1
102
RTVSPropertyOp27
 70
     1
102
RTVSPropertyOp28
 70
     1
102
RTVSPropertyOp29
 70
     1
102
RTVSPropertyOp30
 70
     1
102
RTVSPropertyOp31
 70
     1
102
RTVSPropertyOp32
 70
     1
  0
XRECORD
  5
87
102
{ACAD_REACTORS
330
86
102
}
330
86
100
AcDbXrecord
280
     1
102
RTVSPropertyOp0
 70
     1
102
RTVSPropertyOp1
 70
     1
102
RTVSPropertyOp2
 70
     1
102
RTVSPropertyOp3
 70
     1
102
RTVSPropertyOp4
 70
     1
102
RTVSPropertyOp5
 70
     1
102
RTVSPropertyOp6
 70
     1
102
RTVSPropertyOp7
 70
     1
102
RTVSPropertyOp8
 70
     1
102
RTVSPropertyOp9
 70
     1
102
RTVSPropertyOp10
 70
     1
102
RTVSPropertyOp11
 70
     1
102
RTVSPropertyOp12
 70
     1
102
RTVSPropertyOp13
 70
     1
102
RTVSPropertyOp14
 70
     1
102
RTVSPropertyOp15
 70
     1
102
RTVSPropertyOp16
 70
     1
102
RTVSPropertyOp17
 70
     1
102
RTVSPropertyOp18
 70
     1
102
RTVSPropertyOp19
 70
     1
102
RTVSPropertyOp20
 70
     1
102
RTVSPropertyOp21
 70
     1
102
RTVSPropertyOp22
 70
     1
102
RTVSPropertyOp23
 70
     1
102
RTVSPropertyOp24
 70
     1
102
RTVSPropertyOp25
 70
     1
102
RTVSPropertyOp26
 70
     1
102
RTVSPropertyOp27
 70
     1
102
RTVSPropertyOp28
 70
     1
102
RTVSPropertyOp29
 70
     1
102
RTVSPropertyOp30
 70
     1
102
RTVSPropertyOp31
 70
     1
102
RTVSPropertyOp32
 70
     1
  0
XRECORD
  5
8F
102
{ACAD_REACTORS
330
8E
102
}
330
8E
100
AcDbXrecord
280
     1
102
RTVSPropertyOp0
 70
     1
102
RTVSPropertyOp1
 70
     1
102
RTVSPropertyOp2
 70
     1
102
RTVSPropertyOp3
 70
     1
102
RTVSPropertyOp4
 70
     1
102
RTVSPropertyOp5
 70
     1
102
RTVSPropertyOp6
 70
     1
102
RTVSPropertyOp7
 70
     1
102
RTVSPropertyOp8
 70
     1
102
RTVSPropertyOp9
 70
     1
102
RTVSPropertyOp10
 70
     1
102
RTVSPropertyOp11
 70
     1
102
RTVSPropertyOp12
 70
     1
102
RTVSPropertyOp13
 70
     1
102
RTVSPropertyOp14
 70
     1
102
RTVSPropertyOp15
 70
     1
102
RTVSPropertyOp16
 70
     1
102
RTVSPropertyOp17
 70
     1
102
RTVSPropertyOp18
 70
     1
102
RTVSPropertyOp19
 70
     1
102
RTVSPropertyOp20
 70
     1
102
RTVSPropertyOp21
 70
     1
102
RTVSPropertyOp22
 70
     1
102
RTVSPropertyOp23
 70
     1
102
RTVSPropertyOp24
 70
     1
102
RTVSPropertyOp25
 70
     1
102
RTVSPropertyOp26
 70
     1
102
RTVSPropertyOp27
 70
     1
102
RTVSPropertyOp28
 70
     1
102
RTVSPropertyOp29
 70
     1
102
RTVSPropertyOp30
 70
     1
102
RTVSPropertyOp31
 70
     1
102
RTVSPropertyOp32
 70
     1
  0
XRECORD
  5
97
102
{ACAD_REACTORS
330
96
102
}
330
96
100
AcDbXrecord
280
     1
102
RTVSPropertyOp0
 70
     1
102
RTVSPropertyOp1
 70
     1
102
RTVSPropertyOp2
 70
     1
102
RTVSPropertyOp3
 70
     1
102
RTVSPropertyOp4
 70
     1
102
RTVSPropertyOp5
 70
     1
102
RTVSPropertyOp6
 70
     1
102
RTVSPropertyOp7
 70
     1
102
RTVSPropertyOp8
 70
     1
102
RTVSPropertyOp9
 70
     1
102
RTVSPropertyOp10
 70
     1
102
RTVSPropertyOp11
 70
     1
102
RTVSPropertyOp12
 70
     1
102
RTVSPropertyOp13
 70
     1
102
RTVSPropertyOp14
 70
     1
102
RTVSPropertyOp15
 70
     1
102
RTVSPropertyOp16
 70
     1
102
RTVSPropertyOp17
 70
     1
102
RTVSPropertyOp18
 70
     1
102
RTVSPropertyOp19
 70
     1
102
RTVSPropertyOp20
 70
     1
102
RTVSPropertyOp21
 70
     1
102
RTVSPropertyOp22
 70
     1
102
RTVSPropertyOp23
 70
     1
102
RTVSPropertyOp24
 70
     1
102
RTVSPropertyOp25
 70
     1
102
RTVSPropertyOp26
 70
     1
102
RTVSPropertyOp27
 70
     1
102
RTVSPropertyOp28
 70
     1
102
RTVSPropertyOp29
 70
     1
102
RTVSPropertyOp30
 70
     1
102
RTVSPropertyOp31
 70
     1
102
RTVSPropertyOp32
 70
     1
  0
XRECORD
  5
8B
102
{ACAD_REACTORS
330
8A
102
}
330
8A
100
AcDbXrecord
280
     1
102
RTVSPropertyOp0
 70
     1
102
RTVSPropertyOp1
 70
     1
102
RTVSPropertyOp2
 70
     1
102
RTVSPropertyOp3
 70
     1
102
RTVSPropertyOp4
 70
     1
102
RTVSPropertyOp5
 70
     1
102
RTVSPropertyOp6
 70
     1
102
RTVSPropertyOp7
 70
     1
102
RTVSPropertyOp8
 70
     1
102
RTVSPropertyOp9
 70
     1
102
RTVSPropertyOp10
 70
     1
102
RTVSPropertyOp11
 70
     1
102
RTVSPropertyOp12
 70
     1
102
RTVSPropertyOp13
 70
     1
102
RTVSPropertyOp14
 70
     1
102
RTVSPropertyOp15
 70
     1
102
RTVSPropertyOp16
 70
     1
102
RTVSPropertyOp17
 70
     1
102
RTVSPropertyOp18
 70
     1
102
RTVSPropertyOp19
 70
     1
102
RTVSPropertyOp20
 70
     1
102
RTVSPropertyOp21
 70
     1
102
RTVSPropertyOp22
 70
     1
102
RTVSPropertyOp23
 70
     1
102
RTVSPropertyOp24
 70
     1
102
RTVSPropertyOp25
 70
     1
102
RTVSPropertyOp26
 70
     1
102
RTVSPropertyOp27
 70
     1
102
RTVSPropertyOp28
 70
     1
102
RTVSPropertyOp29
 70
     1
102
RTVSPropertyOp30
 70
     1
102
RTVSPropertyOp31
 70
     1
102
RTVSPropertyOp32
 70
     1
  0
XRECORD
  5
8D
102
{ACAD_REACTORS
330
8C
102
}
330
8C
100
AcDbXrecord
280
     1
102
RTVSPropertyOp0
 70
     1
102
RTVSPropertyOp1
 70
     1
102
RTVSPropertyOp2
 70
     1
102
RTVSPropertyOp3
 70
     1
102
RTVSPropertyOp4
 70
     1
102
RTVSPropertyOp5
 70
     1
102
RTVSPropertyOp6
 70
     1
102
RTVSPropertyOp7
 70
     1
102
RTVSPropertyOp8
 70
     1
102
RTVSPropertyOp9
 70
     1
102
RTVSPropertyOp10
 70
     1
102
RTVSPropertyOp11
 70
     1
102
RTVSPropertyOp12
 70
     1
102
RTVSPropertyOp13
 70
     1
102
RTVSPropertyOp14
 70
     1
102
RTVSPropertyOp15
 70
     1
102
RTVSPropertyOp16
 70
     1
102
RTVSPropertyOp17
 70
     1
102
RTVSPropertyOp18
 70
     1
102
RTVSPropertyOp19
 70
     1
102
RTVSPropertyOp20
 70
     1
102
RTVSPropertyOp21
 70
     1
102
RTVSPropertyOp22
 70
     1
102
RTVSPropertyOp23
 70
     1
102
RTVSPropertyOp24
 70
     1
102
RTVSPropertyOp25
 70
     1
102
RTVSPropertyOp26
 70
     1
102
RTVSPropertyOp27
 70
     1
102
RTVSPropertyOp28
 70
     1
102
RTVSPropertyOp29
 70
     1
102
RTVSPropertyOp30
 70
     1
102
RTVSPropertyOp31
 70
     1
102
RTVSPropertyOp32
 70
     1
  0
XRECORD
  5
95
102
{ACAD_REACTORS
330
94
102
}
330
94
100
AcDbXrecord
280
     1
102
RTVSPropertyOp0
 70
     1
102
RTVSPropertyOp1
 70
     1
102
RTVSPropertyOp2
 70
     1
102
RTVSPropertyOp3
 70
     1
102
RTVSPropertyOp4
 70
     1
102
RTVSPropertyOp5
 70
     1
102
RTVSPropertyOp6
 70
     1
102
RTVSPropertyOp7
 70
     1
102
RTVSPropertyOp8
 70
     1
102
RTVSPropertyOp9
 70
     1
102
RTVSPropertyOp10
 70
     1
102
RTVSPropertyOp11
 70
     1
102
RTVSPropertyOp12
 70
     1
102
RTVSPropertyOp13
 70
     1
102
RTVSPropertyOp14
 70
     1
102
RTVSPropertyOp15
 70
     1
102
RTVSPropertyOp16
 70
     1
102
RTVSPropertyOp17
 70
     1
102
RTVSPropertyOp18
 70
     1
102
RTVSPropertyOp19
 70
     1
102
RTVSPropertyOp20
 70
     1
102
RTVSPropertyOp21
 70
     1
102
RTVSPropertyOp22
 70
     1
102
RTVSPropertyOp23
 70
     1
102
RTVSPropertyOp24
 70
     1
102
RTVSPropertyOp25
 70
     1
102
RTVSPropertyOp26
 70
     1
102
RTVSPropertyOp27
 70
     1
102
RTVSPropertyOp28
 70
     1
102
RTVSPropertyOp29
 70
     1
102
RTVSPropertyOp30
 70
     1
102
RTVSPropertyOp31
 70
     1
102
RTVSPropertyOp32
 70
     1
  0
XRECORD
  5
79
102
{ACAD_REACTORS
330
78
102
}
330
78
100
AcDbXrecord
280
     1
102
RTVSPropertyOp0
 70
     1
102
RTVSPropertyOp1
 70
     1
102
RTVSPropertyOp2
 70
     1
102
RTVSPropertyOp3
 70
     1
102
RTVSPropertyOp4
 70
     1
102
RTVSPropertyOp5
 70
     1
102
RTVSPropertyOp6
 70
     1
102
RTVSPropertyOp7
 70
     1
102
RTVSPropertyOp8
 70
     1
102
RTVSPropertyOp9
 70
     1
102
RTVSPropertyOp10
 70
     1
102
RTVSPropertyOp11
 70
     1
102
RTVSPropertyOp12
 70
     1
102
RTVSPropertyOp13
 70
     1
102
RTVSPropertyOp14
 70
     1
102
RTVSPropertyOp15
 70
     1
102
RTVSPropertyOp16
 70
     1
102
RTVSPropertyOp17
 70
     1
102
RTVSPropertyOp18
 70
     1
102
RTVSPropertyOp19
 70
     1
102
RTVSPropertyOp20
 70
     1
102
RTVSPropertyOp21
 70
     1
102
RTVSPropertyOp22
 70
     1
102
RTVSPropertyOp23
 70
     1
102
RTVSPropertyOp24
 70
     1
102
RTVSPropertyOp25
 70
     1
102
RTVSPropertyOp26
 70
     1
102
RTVSPropertyOp27
 70
     1
102
RTVSPropertyOp28
 70
     1
102
RTVSPropertyOp29
 70
     1
102
RTVSPropertyOp30
 70
     1
102
RTVSPropertyOp31
 70
     1
102
RTVSPropertyOp32
 70
     1
  0
XRECORD
  5
7B
102
{ACAD_REACTORS
330
7A
102
}
330
7A
100
AcDbXrecord
280
     1
102
RTVSPropertyOp0
 70
     1
102
RTVSPropertyOp1
 70
     1
102
RTVSPropertyOp2
 70
     1
102
RTVSPropertyOp3
 70
     1
102
RTVSPropertyOp4
 70
     1
102
RTVSPropertyOp5
 70
     1
102
RTVSPropertyOp6
 70
     1
102
RTVSPropertyOp7
 70
     1
102
RTVSPropertyOp8
 70
     1
102
RTVSPropertyOp9
 70
     1
102
RTVSPropertyOp10
 70
     1
102
RTVSPropertyOp11
 70
     1
102
RTVSPropertyOp12
 70
     1
102
RTVSPropertyOp13
 70
     1
102
RTVSPropertyOp14
 70
     1
102
RTVSPropertyOp15
 70
     1
102
RTVSPropertyOp16
 70
     1
102
RTVSPropertyOp17
 70
     1
102
RTVSPropertyOp18
 70
     1
102
RTVSPropertyOp19
 70
     1
102
RTVSPropertyOp20
 70
     1
102
RTVSPropertyOp21
 70
     1
102
RTVSPropertyOp22
 70
     1
102
RTVSPropertyOp23
 70
     1
102
RTVSPropertyOp24
 70
     1
102
RTVSPropertyOp25
 70
     1
102
RTVSPropertyOp26
 70
     1
102
RTVSPropertyOp27
 70
     1
102
RTVSPropertyOp28
 70
     1
102
RTVSPropertyOp29
 70
     1
102
RTVSPropertyOp30
 70
     1
102
RTVSPropertyOp31
 70
     1
102
RTVSPropertyOp32
 70
     1
  0
XRECORD
  5
7D
102
{ACAD_REACTORS
330
7C
102
}
330
7C
100
AcDbXrecord
280
     1
102
RTVSPropertyOp0
 70
     1
102
RTVSPropertyOp1
 70
     1
102
RTVSPropertyOp2
 70
     1
102
RTVSPropertyOp3
 70
     1
102
RTVSPropertyOp4
 70
     1
102
RTVSPropertyOp5
 70
     1
102
RTVSPropertyOp6
 70
     1
102
RTVSPropertyOp7
 70
     1
102
RTVSPropertyOp8
 70
     1
102
RTVSPropertyOp9
 70
     1
102
RTVSPropertyOp10
 70
     1
102
RTVSPropertyOp11
 70
     1
102
RTVSPropertyOp12
 70
     1
102
RTVSPropertyOp13
 70
     1
102
RTVSPropertyOp14
 70
     1
102
RTVSPropertyOp15
 70
     1
102
RTVSPropertyOp16
 70
     1
102
RTVSPropertyOp17
 70
     1
102
RTVSPropertyOp18
 70
     1
102
RTVSPropertyOp19
 70
     1
102
RTVSPropertyOp20
 70
     1
102
RTVSPropertyOp21
 70
     1
102
RTVSPropertyOp22
 70
     1
102
RTVSPropertyOp23
 70
     1
102
RTVSPropertyOp24
 70
     1
102
RTVSPropertyOp25
 70
     1
102
RTVSPropertyOp26
 70
     1
102
RTVSPropertyOp27
 70
     1
102
RTVSPropertyOp28
 70
     1
102
RTVSPropertyOp29
 70
     1
102
RTVSPropertyOp30
 70
     1
102
RTVSPropertyOp31
 70
     1
102
RTVSPropertyOp32
 70
     1
  0
XRECORD
  5
7F
102
{ACAD_REACTORS
330
7E
102
}
330
7E
100
AcDbXrecord
280
     1
102
RTVSPropertyOp0
 70
     1
102
RTVSPropertyOp1
 70
     1
102
RTVSPropertyOp2
 70
     1
102
RTVSPropertyOp3
 70
     1
102
RTVSPropertyOp4
 70
     1
102
RTVSPropertyOp5
 70
     1
102
RTVSPropertyOp6
 70
     1
102
RTVSPropertyOp7
 70
     1
102
RTVSPropertyOp8
 70
     1
102
RTVSPropertyOp9
 70
     1
102
RTVSPropertyOp10
 70
     1
102
RTVSPropertyOp11
 70
     1
102
RTVSPropertyOp12
 70
     1
102
RTVSPropertyOp13
 70
     1
102
RTVSPropertyOp14
 70
     1
102
RTVSPropertyOp15
 70
     1
102
RTVSPropertyOp16
 70
     1
102
RTVSPropertyOp17
 70
     1
102
RTVSPropertyOp18
 70
     1
102
RTVSPropertyOp19
 70
     1
102
RTVSPropertyOp20
 70
     1
102
RTVSPropertyOp21
 70
     1
102
RTVSPropertyOp22
 70
     1
102
RTVSPropertyOp23
 70
     1
102
RTVSPropertyOp24
 70
     1
102
RTVSPropertyOp25
 70
     1
102
RTVSPropertyOp26
 70
     1
102
RTVSPropertyOp27
 70
     1
102
RTVSPropertyOp28
 70
     1
102
RTVSPropertyOp29
 70
     1
102
RTVSPropertyOp30
 70
     1
102
RTVSPropertyOp31
 70
     1
102
RTVSPropertyOp32
 70
     1
  0
XRECORD
  5
93
102
{ACAD_REACTORS
330
92
102
}
330
92
100
AcDbXrecord
280
     1
102
RTVSPropertyOp0
 70
     1
102
RTVSPropertyOp1
 70
     1
102
RTVSPropertyOp2
 70
     1
102
RTVSPropertyOp3
 70
     1
102
RTVSPropertyOp4
 70
     1
102
RTVSPropertyOp5
 70
     1
102
RTVSPropertyOp6
 70
     1
102
RTVSPropertyOp7
 70
     1
102
RTVSPropertyOp8
 70
     1
102
RTVSPropertyOp9
 70
     1
102
RTVSPropertyOp10
 70
     1
102
RTVSPropertyOp11
 70
     1
102
RTVSPropertyOp12
 70
     1
102
RTVSPropertyOp13
 70
     1
102
RTVSPropertyOp14
 70
     1
102
RTVSPropertyOp15
 70
     1
102
RTVSPropertyOp16
 70
     1
102
RTVSPropertyOp17
 70
     1
102
RTVSPropertyOp18
 70
     1
102
RTVSPropertyOp19
 70
     1
102
RTVSPropertyOp20
 70
     1
102
RTVSPropertyOp21
 70
     1
102
RTVSPropertyOp22
 70
     1
102
RTVSPropertyOp23
 70
     1
102
RTVSPropertyOp24
 70
     1
102
RTVSPropertyOp25
 70
     1
102
RTVSPropertyOp26
 70
     1
102
RTVSPropertyOp27
 70
     1
102
RTVSPropertyOp28
 70
     1
102
RTVSPropertyOp29
 70
     1
102
RTVSPropertyOp30
 70
     1
102
RTVSPropertyOp31
 70
     1
102
RTVSPropertyOp32
 70
     1
  0
XRECORD
  5
89
102
{ACAD_REACTORS
330
88
102
}
330
88
100
AcDbXrecord
280
     1
102
RTVSPropertyOp0
 70
     1
102
RTVSPropertyOp1
 70
     1
102
RTVSPropertyOp2
 70
     1
102
RTVSPropertyOp3
 70
     1
102
RTVSPropertyOp4
 70
     1
102
RTVSPropertyOp5
 70
     1
102
RTVSPropertyOp6
 70
     1
102
RTVSPropertyOp7
 70
     1
102
RTVSPropertyOp8
 70
     1
102
RTVSPropertyOp9
 70
     1
102
RTVSPropertyOp10
 70
     1
102
RTVSPropertyOp11
 70
     1
102
RTVSPropertyOp12
 70
     1
102
RTVSPropertyOp13
 70
     1
102
RTVSPropertyOp14
 70
     1
102
RTVSPropertyOp15
 70
     1
102
RTVSPropertyOp16
 70
     1
102
RTVSPropertyOp17
 70
     1
102
RTVSPropertyOp18
 70
     1
102
RTVSPropertyOp19
 70
     1
102
RTVSPropertyOp20
 70
     1
102
RTVSPropertyOp21
 70
     1
102
RTVSPropertyOp22
 70
     1
102
RTVSPropertyOp23
 70
     1
102
RTVSPropertyOp24
 70
     1
102
RTVSPropertyOp25
 70
     1
102
RTVSPropertyOp26
 70
     1
102
RTVSPropertyOp27
 70
     1
102
RTVSPropertyOp28
 70
     1
102
RTVSPropertyOp29
 70
     1
102
RTVSPropertyOp30
 70
     1
102
RTVSPropertyOp31
 70
     1
102
RTVSPropertyOp32
 70
     1
  0
XRECORD
  5
91
102
{ACAD_REACTORS
330
90
102
}
330
90
100
AcDbXrecord
280
     1
102
RTVSPropertyOp0
 70
     1
102
RTVSPropertyOp1
 70
     1
102
RTVSPropertyOp2
 70
     1
102
RTVSPropertyOp3
 70
     1
102
RTVSPropertyOp4
 70
     1
102
RTVSPropertyOp5
 70
     1
102
RTVSPropertyOp6
 70
     1
102
RTVSPropertyOp7
 70
     1
102
RTVSPropertyOp8
 70
     1
102
RTVSPropertyOp9
 70
     1
102
RTVSPropertyOp10
 70
     1
102
RTVSPropertyOp11
 70
     1
102
RTVSPropertyOp12
 70
     1
102
RTVSPropertyOp13
 70
     1
102
RTVSPropertyOp14
 70
     1
102
RTVSPropertyOp15
 70
     1
102
RTVSPropertyOp16
 70
     1
102
RTVSPropertyOp17
 70
     1
102
RTVSPropertyOp18
 70
     1
102
RTVSPropertyOp19
 70
     1
102
RTVSPropertyOp20
 70
     1
102
RTVSPropertyOp21
 70
     1
102
RTVSPropertyOp22
 70
     1
102
RTVSPropertyOp23
 70
     1
102
RTVSPropertyOp24
 70
     1
102
RTVSPropertyOp25
 70
     1
102
RTVSPropertyOp26
 70
     1
102
RTVSPropertyOp27
 70
     1
102
RTVSPropertyOp28
 70
     1
102
RTVSPropertyOp29
 70
     1
102
RTVSPropertyOp30
 70
     1
102
RTVSPropertyOp31
 70
     1
102
RTVSPropertyOp32
 70
     1
  0
ENDSEC
  0
EOF
