  0
SECTION
  2
HEADER
  9
$ACADVER
  1
AC1021
  9
$ACADMAINTVER
 70
    25
  9
$DWGCODEPAGE
  3
ANSI_1252
  9
$INSBASE
 10
0.0
 20
0.0
 30
0.0
  9
$EXTMIN
 10
-10.39158
 20
-8.94877
 30
0.0
  9
$EXTMAX
 10
9.94758
 20
8.42803
 30
0.0
  9
$LIMMIN
 10
0.0
 20
0.0
  9
$LIMMAX
 10
12.0
 20
9.0
  9
$ORTHOMODE
 70
     0
  9
$REGENMODE
 70
     1
  9
$FILLMODE
 70
     1
  9
$QTEXTMODE
 70
     0
  9
$MIRRTEXT
 70
     1
  9
$LTSCALE
 40
1.0
  9
$ATTMODE
 70
     1
  9
$TEXTSIZE
 40
0.2
  9
$TRACEWID
 40
0.05
  9
$TEXTSTYLE
  7
Standard
  9
$CLAYER
  8
0
  9
$CELTYPE
  6
ByLayer
  9
$CECOLOR
 62
   256
  9
$CELTSCALE
 40
1.0
  9
$DISPSILH
 70
     0
  9
$DIMSCALE
 40
1.0
  9
$DIMASZ
 40
0.18
  9
$DIMEXO
 40
0.0625
  9
$DIMDLI
 40
0.38
  9
$DIMRND
 40
0.0
  9
$DIMDLE
 40
0.0
  9
$DIMEXE
 40
0.18
  9
$DIMTP
 40
0.0
  9
$DIMTM
 40
0.0
  9
$DIMTXT
 40
0.18
  9
$DIMCEN
 40
0.09
  9
$DIMTSZ
 40
0.0
  9
$DIMTOL
 70
     0
  9
$DIMLIM
 70
     0
  9
$DIMTIH
 70
     1
  9
$DIMTOH
 70
     1
  9
$DIMSE1
 70
     0
  9
$DIMSE2
 70
     0
  9
$DIMTAD
 70
     0
  9
$DIMZIN
 70
     0
  9
$DIMBLK
  1

  9
$DIMASO
 70
     1
  9
$DIMSHO
 70
     1
  9
$DIMPOST
  1

  9
$DIMAPOST
  1

  9
$DIMALT
 70
     0
  9
$DIMALTD
 70
     2
  9
$DIMALTF
 40
25.4
  9
$DIMLFAC
 40
1.0
  9
$DIMTOFL
 70
     0
  9
$DIMTVP
 40
0.0
  9
$DIMTIX
 70
     0
  9
$DIMSOXD
 70
     0
  9
$DIMSAH
 70
     0
  9
$DIMBLK1
  1

  9
$DIMBLK2
  1

  9
$DIMSTYLE
  2
Standard
  9
$DIMCLRD
 70
     0
  9
$DIMCLRE
 70
     0
  9
$DIMCLRT
 70
     0
  9
$DIMTFAC
 40
1.0
  9
$DIMGAP
 40
0.09
  9
$DIMJUST
 70
     0
  9
$DIMSD1
 70
     0
  9
$DIMSD2
 70
     0
  9
$DIMTOLJ
 70
     1
  9
$DIMTZIN
 70
     0
  9
$DIMALTZ
 70
     0
  9
$DIMALTTZ
 70
     0
  9
$DIMUPT
 70
     0
  9
$DIMDEC
 70
     4
  9
$DIMTDEC
 70
     4
  9
$DIMALTU
 70
     2
  9
$DIMALTTD
 70
     2
  9
$DIMTXSTY
  7
Standard
  9
$DIMAUNIT
 70
     0
  9
$DIMADEC
 70
     0
  9
$DIMALTRND
 40
0.0
  9
$DIMAZIN
 70
     0
  9
$DIMDSEP
 70
    46
  9
$DIMATFIT
 70
     3
  9
$DIMFRAC
 70
     0
  9
$DIMLDRBLK
  1

  9
$DIMLUNIT
 70
     2
  9
$DIMLWD
 70
    -2
  9
$DIMLWE
 70
    -2
  9
$DIMTMOVE
 70
     0
  9
$DIMFXL
 40
1.0
  9
$DIMFXLON
 70
     0
  9
$DIMJOGANG
 40
0.7853981633974483
  9
$DIMTFILL
 70
     0
  9
$DIMTFILLCLR
 70
     0
  9
$DIMARCSYM
 70
     0
  9
$DIMLTYPE
  6

  9
$DIMLTEX1
  6

  9
$DIMLTEX2
  6

  9
$LUNITS
 70
     2
  9
$LUPREC
 70
     4
  9
$SKETCHINC
 40
0.1
  9
$FILLETRAD
 40
0.5
  9
$AUNITS
 70
     0
  9
$AUPREC
 70
     0
  9
$MENU
  1
.
  9
$ELEVATION
 40
0.0
  9
$PELEVATION
 40
0.0
  9
$THICKNESS
 40
0.0
  9
$LIMCHECK
 70
     0
  9
$CHAMFERA
 40
0.5
  9
$CHAMFERB
 40
0.5
  9
$CHAMFERC
 40
1.0
  9
$CHAMFERD
 40
0.0
  9
$SKPOLY
 70
     0
  9
$TDCREATE
 40
2456231.94158544
  9
$TDUCREATE
 40
2456232.108252107
  9
$TDUPDATE
 40
2456231.941585475
  9
$TDUUPDATE
 40
2456232.108252141
  9
$TDINDWG
 40
0.0000000116
  9
$TDUSRTIMER
 40
0.0000000116
  9
$USRTIMER
 70
     1
  9
$ANGBASE
 50
0.0
  9
$ANGDIR
 70
     0
  9
$PDMODE
 70
     0
  9
$PDSIZE
 40
0.0
  9
$PLINEWID
 40
0.0
  9
$SPLFRAME
 70
     0
  9
$SPLINETYPE
 70
     6
  9
$SPLINESEGS
 70
     8
  9
$HANDSEED
  5
9B
  9
$SURFTAB1
 70
     6
  9
$SURFTAB2
 70
     6
  9
$SURFTYPE
 70
     6
  9
$SURFU
 70
     6
  9
$SURFV
 70
     6
  9
$UCSBASE
  2

  9
$UCSNAME
  2

  9
$UCSORG
 10
0.0
 20
0.0
 30
0.0
  9
$UCSXDIR
 10
1.0
 20
0.0
 30
0.0
  9
$UCSYDIR
 10
0.0
 20
1.0
 30
0.0
  9
$UCSORTHOREF
  2

  9
$UCSORTHOVIEW
 70
     0
  9
$UCSORGTOP
 10
0.0
 20
0.0
 30
0.0
  9
$UCSORGBOTTOM
 10
0.0
 20
0.0
 30
0.0
  9
$UCSORGLEFT
 10
0.0
 20
0.0
 30
0.0
  9
$UCSORGRIGHT
 10
0.0
 20
0.0
 30
0.0
  9
$UCSORGFRONT
 10
0.0
 20
0.0
 30
0.0
  9
$UCSORGBACK
 10
0.0
 20
0.0
 30
0.0
  9
$PUCSBASE
  2

  9
$PUCSNAME
  2

  9
$PUCSORG
 10
0.0
 20
0.0
 30
0.0
  9
$PUCSXDIR
 10
1.0
 20
0.0
 30
0.0
  9
$PUCSYDIR
 10
0.0
 20
1.0
 30
0.0
  9
$PUCSORTHOREF
  2

  9
$PUCSORTHOVIEW
 70
     0
  9
$PUCSORGTOP
 10
0.0
 20
0.0
 30
0.0
  9
$PUCSORGBOTTOM
 10
0.0
 20
0.0
 30
0.0
  9
$PUCSORGLEFT
 10
0.0
 20
0.0
 30
0.0
  9
$PUCSORGRIGHT
 10
0.0
 20
0.0
 30
0.0
  9
$PUCSORGFRONT
 10
0.0
 20
0.0
 30
0.0
  9
$PUCSORGBACK
 10
0.0
 20
0.0
 30
0.0
  9
$USERI1
 70
     0
  9
$USERI2
 70
     0
  9
$USERI3
 70
     0
  9
$USERI4
 70
     0
  9
$USERI5
 70
     0
  9
$USERR1
 40
0.0
  9
$USERR2
 40
0.0
  9
$USERR3
 40
0.0
  9
$USERR4
 40
0.0
  9
$USERR5
 40
0.0
  9
$WORLDVIEW
 70
     1
  9
$SHADEDGE
 70
     3
  9
$SHADEDIF
 70
    70
  9
$TILEMODE
 70
     1
  9
$MAXACTVP
 70
    64
  9
$PINSBASE
 10
0.0
 20
0.0
 30
0.0
  9
$PLIMCHECK
 70
     0
  9
$PEXTMIN
 10
1.000000000000000E+20
 20
1.000000000000000E+20
 30
1.000000000000000E+20
  9
$PEXTMAX
 10
-1.000000000000000E+20
 20
-1.000000000000000E+20
 30
-1.000000000000000E+20
  9
$PLIMMIN
 10
0.0
 20
0.0
  9
$PLIMMAX
 10
12.0
 20
9.0
  9
$UNITMODE
 70
     0
  9
$VISRETAIN
 70
     1
  9
$PLINEGEN
 70
     0
  9
$PSLTSCALE
 70
     1
  9
$TREEDEPTH
 70
  3020
  9
$CMLSTYLE
  2
Standard
  9
$CMLJUST
 70
     0
  9
$CMLSCALE
 40
1.0
  9
$PROXYGRAPHICS
 70
     1
  9
$MEASUREMENT
 70
     0
  9
$CELWEIGHT
370
    -1
  9
$ENDCAPS
280
     0
  9
$JOINSTYLE
280
     0
  9
$LWDISPLAY
290
     0
  9
$INSUNITS
 70
     5
  9
$HYPERLINKBASE
  1

  9
$STYLESHEET
  1

  9
$XEDIT
290
     1
  9
$CEPSNTYPE
380
     0
  9
$PSTYLEMODE
290
     1
  9
$FINGERPRINTGUID
  2
{E38EC7CE-7871-4CB2-9D6C-247AF21138DB}
  9
$VERSIONGUID
  2
{FAEB1C32-E019-11D5-929B-00C0DF256EC4}
  9
$EXTNAMES
290
     1
  9
$PSVPSCALE
 40
0.0
  9
$OLESTARTUP
290
     0
  9
$SORTENTS
280
   127
  9
$INDEXCTL
280
     0
  9
$HIDETEXT
280
     1
  9
$XCLIPFRAME
290
     0
  9
$HALOGAP
280
     0
  9
$OBSCOLOR
 70
   257
  9
$OBSLTYPE
280
     0
  9
$INTERSECTIONDISPLAY
280
     0
  9
$INTERSECTIONCOLOR
 70
   257
  9
$DIMASSOC
280
     2
  9
$PROJECTNAME
  1

  9
$CAMERADISPLAY
290
     0
  9
$LENSLENGTH
 40
50.0
  9
$CAMERAHEIGHT
 40
0.0
  9
$STEPSPERSEC
 40
2.0
  9
$STEPSIZE
 40
6.0
  9
$3DDWFPREC
 40
2.0
  9
$PSOLWIDTH
 40
0.25
  9
$PSOLHEIGHT
 40
4.0
  9
$LOFTANG1
 40
1.570796326794897
  9
$LOFTANG2
 40
1.570796326794897
  9
$LOFTMAG1
 40
0.0
  9
$LOFTMAG2
 40
0.0
  9
$LOFTPARAM
 70
     7
  9
$LOFTNORMALS
280
     1
  9
$LATITUDE
 40
37.795
  9
$LONGITUDE
 40
-122.394
  9
$NORTHDIRECTION
 40
0.0
  9
$TIMEZONE
 70
 -8000
  9
$LIGHTGLYPHDISPLAY
280
     1
  9
$TILEMODELIGHTSYNCH
280
     1
  9
$SOLIDHIST
280
     1
  9
$SHOWHIST
280
     1
  9
$DWFFRAME
280
     2
  9
$DGNFRAME
280
     2
  9
$REALWORLDSCALE
290
     1
  9
$INTERFERECOLOR
 62
   256
  9
$CSHADOW
280
     0
  9
$SHADOWPLANELOCATION
 40
0.0
  0
ENDSEC
  0
SECTION
  2
CLASSES
  0
CLASS
  1
ACDBDICTIONARYWDFLT
  2
AcDbDictionaryWithDefault
  3
ObjectDBX Classes
 90
        0
 91
        4
280
     0
281
     0
  0
CLASS
  1
VISUALSTYLE
  2
AcDbVisualStyle
  3
ObjectDBX Classes
 90
     4095
 91
        4
280
     0
281
     0
  0
CLASS
  1
MATERIAL
  2
AcDbMaterial
  3
ObjectDBX Classes
 90
     1153
 91
        4
280
     0
281
     0
  0
ENDSEC
  0
SECTION
  2
TABLES
  0
TABLE
  2
VPORT
  5
8
330
0
100
AcDbSymbolTable
 70
     1
  0
VPORT
  5
29
330
8
100
AcDbSymbolTableRecord
100
AcDbViewportTableRecord
  2
*Active
 70
     0
 10
0.0
 20
0.0
 11
1.0
 21
1.0
 12
10.42990654205607
 22
4.5
 13
0.0
 23
0.0
 14
0.5
 24
0.5
 15
0.5
 25
0.5
 16
0.0
 26
0.0
 36
1.0
 17
0.0
 27
0.0
 37
0.0
 40
9.0
 41
1.972972972850329
 42
50.0
 43
0.0
 44
0.0
 50
0.0
 51
0.0
 71
     0
 72
   100
 73
     1
 74
     3
 75
     0
 76
     0
 77
     0
 78
     0
281
     0
 65
     1
110
0.0
120
0.0
130
0.0
111
1.0
121
0.0
131
0.0
112
0.0
122
1.0
132
0.0
 79
     0
146
0.0
 60
     3
 61
     5
292
     1
282
     1
141
0.0
142
0.0
 63
   250
  0
ENDTAB
  0
TABLE
  2
LTYPE
  5
5
330
0
100
AcDbSymbolTable
 70
     1
  0
LTYPE
  5
14
330
5
100
AcDbSymbolTableRecord
100
AcDbLinetypeTableRecord
  2
ByBlock
 70
     0
  3

 72
    65
 73
     0
 40
0.0
  0
LTYPE
  5
15
330
5
100
AcDbSymbolTableRecord
100
AcDbLinetypeTableRecord
  2
ByLayer
 70
     0
  3

 72
    65
 73
     0
 40
0.0
  0
LTYPE
  5
16
330
5
100
AcDbSymbolTableRecord
100
AcDbLinetypeTableRecord
  2
Continuous
 70
     0
  3
Solid line
 72
    65
 73
     0
 40
0.0
  0
ENDTAB
  0
TABLE
  2
LAYER
  5
2
330
0
100
AcDbSymbolTable
 70
     3
  0
LAYER
  5
10
330
2
100
AcDbSymbolTableRecord
100
AcDbLayerTableRecord
  2
0
 70
     0
 62
     7
  6
Continuous
370
    -3
390
F
347
3E
  0
LAYER
  5
40
330
2
100
AcDbSymbolTableRecord
100
AcDbLayerTableRecord
  2
Layer 1
 70
     0
 62
     7
  6
Continuous
370
    -3
390
F
347
3E
  0
LAYER
  5
54
330
2
100
AcDbSymbolTableRecord
100
AcDbLayerTableRecord
  2
layer 2
 70
     0
 62
     7
  6
Continuous
370
    -3
390
F
347
3E
  0
ENDTAB
  0
TABLE
  2
STYLE
  5
3
330
0
100
AcDbSymbolTable
 70
     1
  0
STYLE
  5
11
330
3
100
AcDbSymbolTableRecord
100
AcDbTextStyleTableRecord
  2
Standard
 70
     0
 40
0.0
 41
1.0
 50
0.0
 71
     0
 42
0.2
  3
txt
  4

  0
ENDTAB
  0
TABLE
  2
VIEW
  5
6
330
0
100
AcDbSymbolTable
 70
     0
  0
ENDTAB
  0
TABLE
  2
UCS
  5
7
330
0
100
AcDbSymbolTable
 70
     0
  0
ENDTAB
  0
TABLE
  2
APPID
  5
9
330
0
100
AcDbSymbolTable
 70
     2
  0
APPID
  5
12
330
9
100
AcDbSymbolTableRecord
100
AcDbRegAppTableRecord
  2
ACAD
 70
     0
  0
APPID
  5
3F
330
9
100
AcDbSymbolTableRecord
100
AcDbRegAppTableRecord
  2
ODA
 70
     0
  0
ENDTAB
  0
TABLE
  2
DIMSTYLE
  5
A
330
0
100
AcDbSymbolTable
 70
     1
100
AcDbDimStyleTable
  0
DIMSTYLE
105
27
330
A
100
AcDbSymbolTableRecord
100
AcDbDimStyleTableRecord
  2
Standard
 70
     0
178
     0
340
11
  0
ENDTAB
  0
TABLE
  2
BLOCK_RECORD
  5
1
330
0
100
AcDbSymbolTable
 70
     1
  0
BLOCK_RECORD
  5
1F
330
1
100
AcDbSymbolTableRecord
100
AcDbBlockTableRecord
  2
*Model_Space
340
22
 70
     0
280
     1
281
     0
  0
BLOCK_RECORD
  5
1B
330
1
100
AcDbSymbolTableRecord
100
AcDbBlockTableRecord
  2
*Paper_Space
340
1E
 70
     0
280
     1
281
     0
  0
BLOCK_RECORD
  5
23
330
1
100
AcDbSymbolTableRecord
100
AcDbBlockTableRecord
  2
*Paper_Space0
340
26
 70
     0
280
     1
281
     0
  0
ENDTAB
  0
ENDSEC
  0
SECTION
  2
BLOCKS
  0
BLOCK
  5
20
330
1F
100
AcDbEntity
  8
0
100
AcDbBlockBegin
  2
*Model_Space
 70
     0
 10
0.0
 20
0.0
 30
0.0
  3
*Model_Space
  1

  0
ENDBLK
  5
21
330
1F
100
AcDbEntity
  8
0
100
AcDbBlockEnd
  0
BLOCK
  5
1C
330
1B
100
AcDbEntity
 67
     1
  8
0
100
AcDbBlockBegin
  2
*Paper_Space
 70
     0
 10
0.0
 20
0.0
 30
0.0
  3
*Paper_Space
  1

  0
ENDBLK
  5
1D
330
1B
100
AcDbEntity
 67
     1
  8
0
100
AcDbBlockEnd
  0
BLOCK
  5
24
330
23
100
AcDbEntity
  8
0
100
AcDbBlockBegin
  2
*Paper_Space0
 70
     0
 10
0.0
 20
0.0
 30
0.0
  3
*Paper_Space0
  1

  0
ENDBLK
  5
25
330
23
100
AcDbEntity
  8
0
100
AcDbBlockEnd
  0
ENDSEC
  0
SECTION
  2
ENTITIES
  0
SPLINE
  5
41
330
1F
100
AcDbEntity
  8
Layer 1
 62
   250
100
AcDbSpline
210
0.0
220
0.0
230
1.0
 70
    11
 71
     3
 72
    36
 73
    32
 74
     0
 42
0.0000000001
 43
0.0000000001
 12
1.0
 22
0.0
 32
0.0
 13
1.0
 23
0.0
 33
0.0
 40
0.0
 40
0.0
 40
0.0
 40
0.0
 40
0.1111111111111111
 40
0.1111111111111111
 40
0.1111111111111111
 40
0.1111111111111111
 40
0.2222222222222222
 40
0.2222222222222222
 40
0.2222222222222222
 40
0.2222222222222222
 40
0.3333333333333333
 40
0.3333333333333333
 40
0.3333333333333333
 40
0.3333333333333333
 40
0.4444444444444444
 40
0.4444444444444444
 40
0.4444444444444444
 40
0.4444444444444444
 40
0.5555555555555556
 40
0.5555555555555556
 40
0.5555555555555556
 40
0.5555555555555556
 40
0.6666666666666666
 40
0.6666666666666666
 40
0.6666666666666666
 40
0.6666666666666666
 40
0.7777777777777778
 40
0.7777777777777778
 40
0.7777777777777778
 40
0.7777777777777778
 40
1.0
 40
1.0
 40
1.0
 40
1.0
 10
-5.71915
 20
-8.93861
 30
0.0
 10
-5.71915
 20
-8.93861
 30
0.0
 10
-5.71915
 20
-8.40351
 30
0.0
 10
-5.71915
 20
-8.40351
 30
0.0
 10
-5.71915
 20
-8.40351
 30
0.0
 10
-5.71915
 20
-8.40351
 30
0.0
 10
-5.91897
 20
-8.40351
 30
0.0
 10
-5.91897
 20
-8.40351
 30
0.0
 10
-5.91897
 20
-8.40351
 30
0.0
 10
-5.91897
 20
-8.40351
 30
0.0
 10
-5.91897
 20
-8.33239
 30
0.0
 10
-5.91897
 20
-8.33239
 30
0.0
 10
-5.91897
 20
-8.33239
 30
0.0
 10
-5.91897
 20
-8.33239
 30
0.0
 10
-5.4389
 20
-8.33239
 30
0.0
 10
-5.4389
 20
-8.33239
 30
0.0
 10
-5.4389
 20
-8.33239
 30
0.0
 10
-5.4389
 20
-8.33239
 30
0.0
 10
-5.4389
 20
-8.40351
 30
0.0
 10
-5.4389
 20
-8.40351
 30
0.0
 10
-5.4389
 20
-8.40351
 30
0.0
 10
-5.4389
 20
-8.40351
 30
0.0
 10
-5.63872
 20
-8.40351
 30
0.0
 10
-5.63872
 20
-8.40351
 30
0.0
 10
-5.63872
 20
-8.40351
 30
0.0
 10
-5.63872
 20
-8.40351
 30
0.0
 10
-5.63872
 20
-8.93861
 30
0.0
 10
-5.63872
 20
-8.93861
 30
0.0
 10
-5.63872
 20
-8.93861
 30
0.0
 10
-5.63872
 20
-8.93861
 30
0.0
 10
-5.71915
 20
-8.93861
 30
0.0
 10
-5.71915
 20
-8.93861
 30
0.0
  0
SPLINE
  5
42
330
1F
100
AcDbEntity
  8
Layer 1
 62
   250
100
AcDbSpline
210
0.0
220
0.0
230
1.0
 70
    11
 71
     3
 72
    92
 73
    88
 74
     0
 42
0.0000000001
 43
0.0000000001
 12
1.0
 22
0.0
 32
0.0
 13
1.0
 23
0.0
 33
0.0
 40
0.0
 40
0.0
 40
0.0
 40
0.0
 40
0.0434782608695652
 40
0.0434782608695652
 40
0.0434782608695652
 40
0.0434782608695652
 40
0.0869565217391304
 40
0.0869565217391304
 40
0.0869565217391304
 40
0.0869565217391304
 40
0.1304347826086956
 40
0.1304347826086956
 40
0.1304347826086956
 40
0.1304347826086956
 40
0.1739130434782609
 40
0.1739130434782609
 40
0.1739130434782609
 40
0.1739130434782609
 40
0.2173913043478261
 40
0.2173913043478261
 40
0.2173913043478261
 40
0.2173913043478261
 40
0.2608695652173913
 40
0.2608695652173913
 40
0.2608695652173913
 40
0.2608695652173913
 40
0.3043478260869565
 40
0.3043478260869565
 40
0.3043478260869565
 40
0.3043478260869565
 40
0.3478260869565217
 40
0.3478260869565217
 40
0.3478260869565217
 40
0.3478260869565217
 40
0.391304347826087
 40
0.391304347826087
 40
0.391304347826087
 40
0.391304347826087
 40
0.4347826086956522
 40
0.4347826086956522
 40
0.4347826086956522
 40
0.4347826086956522
 40
0.4782608695652174
 40
0.4782608695652174
 40
0.4782608695652174
 40
0.4782608695652174
 40
0.5217391304347826
 40
0.5217391304347826
 40
0.5217391304347826
 40
0.5217391304347826
 40
0.5652173913043478
 40
0.5652173913043478
 40
0.5652173913043478
 40
0.5652173913043478
 40
0.6086956521739131
 40
0.6086956521739131
 40
0.6086956521739131
 40
0.6086956521739131
 40
0.6521739130434783
 40
0.6521739130434783
 40
0.6521739130434783
 40
0.6521739130434783
 40
0.6956521739130435
 40
0.6956521739130435
 40
0.6956521739130435
 40
0.6956521739130435
 40
0.7391304347826086
 40
0.7391304347826086
 40
0.7391304347826086
 40
0.7391304347826086
 40
0.782608695652174
 40
0.782608695652174
 40
0.782608695652174
 40
0.782608695652174
 40
0.8260869565217391
 40
0.8260869565217391
 40
0.8260869565217391
 40
0.8260869565217391
 40
0.8695652173913043
 40
0.8695652173913043
 40
0.8695652173913043
 40
0.8695652173913043
 40
0.9130434782608695
 40
0.9130434782608695
 40
0.9130434782608695
 40
0.9130434782608695
 40
1.0
 40
1.0
 40
1.0
 40
1.0
 10
-4.99539
 20
-8.86749
 30
0.0
 10
-4.99539
 20
-8.86749
 30
0.0
 10
-4.99539
 20
-8.93861
 30
0.0
 10
-4.99539
 20
-8.93861
 30
0.0
 10
-4.99539
 20
-8.93861
 30
0.0
 10
-4.99539
 20
-8.93861
 30
0.0
 10
-5.39672
 20
-8.93861
 30
0.0
 10
-5.39672
 20
-8.93861
 30
0.0
 10
-5.39672
 20
-8.93861
 30
0.0
 10
-5.39728
 20
-8.92069
 30
0.0
 10
-5.39432
 20
-8.90347
 30
0.0
 10
-5.38797
 20
-8.88682
 30
0.0
 10
-5.38797
 20
-8.88682
 30
0.0
 10
-5.37767
 20
-8.85959
 30
0.0
 10
-5.36116
 20
-8.83264
 30
0.0
 10
-5.33844
 20
-8.80625
 30
0.0
 10
-5.33844
 20
-8.80625
 30
0.0
 10
-5.31572
 20
-8.77986
 30
0.0
 10
-5.28326
 20
-8.74938
 30
0.0
 10
-5.24107
 20
-8.71481
 30
0.0
 10
-5.24107
 20
-8.71481
 30
0.0
 10
-5.17545
 20
-8.66076
 30
0.0
 10
-5.13086
 20
-8.618
 30
0.0
 10
-5.10758
 20
-8.5864
 30
0.0
 10
-5.10758
 20
-8.5864
 30
0.0
 10
-5.08415
 20
-8.55479
 30
0.0
 10
-5.07244
 20
-8.52487
 30
0.0
 10
-5.07244
 20
-8.49665
 30
0.0
 10
-5.07244
 20
-8.49665
 30
0.0
 10
-5.07244
 20
-8.46716
 30
0.0
 10
-5.08303
 20
-8.44232
 30
0.0
 10
-5.10419
 20
-8.422
 30
0.0
 10
-5.10419
 20
-8.422
 30
0.0
 10
-5.12536
 20
-8.40182
 30
0.0
 10
-5.15302
 20
-8.39166
 30
0.0
 10
-5.18702
 20
-8.39166
 30
0.0
 10
-5.18702
 20
-8.39166
 30
0.0
 10
-5.22301
 20
-8.39166
 30
0.0
 10
-5.25179
 20
-8.40239
 30
0.0
 10
-5.27338
 20
-8.42383
 30
0.0
 10
-5.27338
 20
-8.42383
 30
0.0
 10
-5.29498
 20
-8.44514
 30
0.0
 10
-5.30584
 20
-8.47478
 30
0.0
 10
-5.30612
 20
-8.51273
 30
0.0
 10
-5.30612
 20
-8.51273
 30
0.0
 10
-5.30612
 20
-8.51273
 30
0.0
 10
-5.38232
 20
-8.50511
 30
0.0
 10
-5.38232
 20
-8.50511
 30
0.0
 10
-5.38232
 20
-8.50511
 30
0.0
 10
-5.3771
 20
-8.44811
 30
0.0
 10
-5.35735
 20
-8.40464
 30
0.0
 10
-5.3232
 20
-8.37473
 30
0.0
 10
-5.3232
 20
-8.37473
 30
0.0
 10
-5.28891
 20
-8.34481
 30
0.0
 10
-5.24305
 20
-8.32985
 30
0.0
 10
-5.18533
 20
-8.32985
 30
0.0
 10
-5.18533
 20
-8.32985
 30
0.0
 10
-5.12719
 20
-8.32985
 30
0.0
 10
-5.08105
 20
-8.34594
 30
0.0
 10
-5.04718
 20
-8.37826
 30
0.0
 10
-5.04718
 20
-8.37826
 30
0.0
 10
-5.01318
 20
-8.41057
 30
0.0
 10
-4.99624
 20
-8.45065
 30
0.0
 10
-4.99624
 20
-8.49834
 30
0.0
 10
-4.99624
 20
-8.49834
 30
0.0
 10
-4.99624
 20
-8.52261
 30
0.0
 10
-5.00118
 20
-8.54646
 30
0.0
 10
-5.0112
 20
-8.56989
 30
0.0
 10
-5.0112
 20
-8.56989
 30
0.0
 10
-5.02108
 20
-8.59345
 30
0.0
 10
-5.03759
 20
-8.61815
 30
0.0
 10
-5.06059
 20
-8.64411
 30
0.0
 10
-5.06059
 20
-8.64411
 30
0.0
 10
-5.08373
 20
-8.66993
 30
0.0
 10
-5.12197
 20
-8.70563
 30
0.0
 10
-5.17531
 20
-8.75079
 30
0.0
 10
-5.17531
 20
-8.75079
 30
0.0
 10
-5.22004
 20
-8.78833
 30
0.0
 10
-5.24883
 20
-8.81373
 30
0.0
 10
-5.26153
 20
-8.82713
 30
0.0
 10
-5.26153
 20
-8.82713
 30
0.0
 10
-5.27423
 20
-8.84054
 30
0.0
 10
-5.28467
 20
-8.85394
 30
0.0
 10
-5.293
 20
-8.86749
 30
0.0
 10
-5.293
 20
-8.86749
 30
0.0
 10
-5.293
 20
-8.86749
 30
0.0
 10
-4.99539
 20
-8.86749
 30
0.0
 10
-4.99539
 20
-8.86749
 30
0.0
  0
SPLINE
  5
43
330
1F
100
AcDbEntity
  8
Layer 1
 62
   250
100
AcDbSpline
210
0.0
220
0.0
230
1.0
 70
    11
 71
     3
 72
    52
 73
    48
 74
     0
 42
0.0000000001
 43
0.0000000001
 12
1.0
 22
0.0
 32
0.0
 13
1.0
 23
0.0
 33
0.0
 40
0.0
 40
0.0
 40
0.0
 40
0.0
 40
0.0769230769230769
 40
0.0769230769230769
 40
0.0769230769230769
 40
0.0769230769230769
 40
0.1538461538461539
 40
0.1538461538461539
 40
0.1538461538461539
 40
0.1538461538461539
 40
0.2307692307692308
 40
0.2307692307692308
 40
0.2307692307692308
 40
0.2307692307692308
 40
0.3076923076923077
 40
0.3076923076923077
 40
0.3076923076923077
 40
0.3076923076923077
 40
0.3846153846153846
 40
0.3846153846153846
 40
0.3846153846153846
 40
0.3846153846153846
 40
0.4615384615384616
 40
0.4615384615384616
 40
0.4615384615384616
 40
0.4615384615384616
 40
0.5384615384615384
 40
0.5384615384615384
 40
0.5384615384615384
 40
0.5384615384615384
 40
0.6153846153846154
 40
0.6153846153846154
 40
0.6153846153846154
 40
0.6153846153846154
 40
0.6923076923076923
 40
0.6923076923076923
 40
0.6923076923076923
 40
0.6923076923076923
 40
0.7692307692307693
 40
0.7692307692307693
 40
0.7692307692307693
 40
0.7692307692307693
 40
0.8461538461538461
 40
0.8461538461538461
 40
0.8461538461538461
 40
0.8461538461538461
 40
1.0
 40
1.0
 40
1.0
 40
1.0
 10
-4.91482
 20
-8.63945
 30
0.0
 10
-4.91482
 20
-8.56791
 30
0.0
 10
-4.90748
 20
-8.51005
 30
0.0
 10
-4.89281
 20
-8.46631
 30
0.0
 10
-4.89281
 20
-8.46631
 30
0.0
 10
-4.87799
 20
-8.42242
 30
0.0
 10
-4.85612
 20
-8.3887
 30
0.0
 10
-4.82705
 20
-8.36513
 30
0.0
 10
-4.82705
 20
-8.36513
 30
0.0
 10
-4.79812
 20
-8.34157
 30
0.0
 10
-4.76157
 20
-8.32985
 30
0.0
 10
-4.71755
 20
-8.32985
 30
0.0
 10
-4.71755
 20
-8.32985
 30
0.0
 10
-4.68509
 20
-8.32985
 30
0.0
 10
-4.65659
 20
-8.33635
 30
0.0
 10
-4.63189
 20
-8.34947
 30
0.0
 10
-4.63189
 20
-8.34947
 30
0.0
 10
-4.60734
 20
-8.36259
 30
0.0
 10
-4.58702
 20
-8.3815
 30
0.0
 10
-4.57121
 20
-8.4062
 30
0.0
 10
-4.57121
 20
-8.4062
 30
0.0
 10
-4.55541
 20
-8.43075
 30
0.0
 10
-4.54299
 20
-8.46081
 30
0.0
 10
-4.53396
 20
-8.49622
 30
0.0
 10
-4.53396
 20
-8.49622
 30
0.0
 10
-4.52479
 20
-8.53164
 30
0.0
 10
-4.52027
 20
-8.57948
 30
0.0
 10
-4.52027
 20
-8.63945
 30
0.0
 10
-4.52027
 20
-8.63945
 30
0.0
 10
-4.52027
 20
-8.71057
 30
0.0
 10
-4.52761
 20
-8.76815
 30
0.0
 10
-4.54214
 20
-8.81189
 30
0.0
 10
-4.54214
 20
-8.81189
 30
0.0
 10
-4.55668
 20
-8.85578
 30
0.0
 10
-4.57855
 20
-8.8895
 30
0.0
 10
-4.60762
 20
-8.91321
 30
0.0
 10
-4.60762
 20
-8.91321
 30
0.0
 10
-4.63655
 20
-8.93692
 30
0.0
 10
-4.67324
 20
-8.94877
 30
0.0
 10
-4.71755
 20
-8.94877
 30
0.0
 10
-4.71755
 20
-8.94877
 30
0.0
 10
-4.77582
 20
-8.94877
 30
0.0
 10
-4.82169
 20
-8.92803
 30
0.0
 10
-4.85499
 20
-8.8864
 30
0.0
 10
-4.85499
 20
-8.8864
 30
0.0
 10
-4.89492
 20
-8.8356
 30
0.0
 10
-4.91482
 20
-8.75333
 30
0.0
 10
-4.91482
 20
-8.63945
 30
0.0
  0
SPLINE
  5
44
330
1F
100
AcDbEntity
  8
Layer 1
 62
   250
100
AcDbSpline
210
0.0
220
0.0
230
1.0
 70
    11
 71
     3
 72
    36
 73
    32
 74
     0
 42
0.0000000001
 43
0.0000000001
 12
1.0
 22
0.0
 32
0.0
 13
1.0
 23
0.0
 33
0.0
 40
0.0
 40
0.0
 40
0.0
 40
0.0
 40
0.1111111111111111
 40
0.1111111111111111
 40
0.1111111111111111
 40
0.1111111111111111
 40
0.2222222222222222
 40
0.2222222222222222
 40
0.2222222222222222
 40
0.2222222222222222
 40
0.3333333333333333
 40
0.3333333333333333
 40
0.3333333333333333
 40
0.3333333333333333
 40
0.4444444444444444
 40
0.4444444444444444
 40
0.4444444444444444
 40
0.4444444444444444
 40
0.5555555555555556
 40
0.5555555555555556
 40
0.5555555555555556
 40
0.5555555555555556
 40
0.6666666666666666
 40
0.6666666666666666
 40
0.6666666666666666
 40
0.6666666666666666
 40
0.7777777777777778
 40
0.7777777777777778
 40
0.7777777777777778
 40
0.7777777777777778
 40
1.0
 40
1.0
 40
1.0
 40
1.0
 10
-4.83862
 20
-8.63974
 30
0.0
 10
-4.83862
 20
-8.7395
 30
0.0
 10
-4.82705
 20
-8.80582
 30
0.0
 10
-4.80376
 20
-8.83856
 30
0.0
 10
-4.80376
 20
-8.83856
 30
0.0
 10
-4.78048
 20
-8.87144
 30
0.0
 10
-4.75169
 20
-8.88781
 30
0.0
 10
-4.71755
 20
-8.88781
 30
0.0
 10
-4.71755
 20
-8.88781
 30
0.0
 10
-4.6834
 20
-8.88781
 30
0.0
 10
-4.65461
 20
-8.8713
 30
0.0
 10
-4.63133
 20
-8.83842
 30
0.0
 10
-4.63133
 20
-8.83842
 30
0.0
 10
-4.60804
 20
-8.8054
 30
0.0
 10
-4.59647
 20
-8.73922
 30
0.0
 10
-4.59647
 20
-8.63974
 30
0.0
 10
-4.59647
 20
-8.63974
 30
0.0
 10
-4.59647
 20
-8.53997
 30
0.0
 10
-4.60804
 20
-8.47365
 30
0.0
 10
-4.63133
 20
-8.44091
 30
0.0
 10
-4.63133
 20
-8.44091
 30
0.0
 10
-4.65447
 20
-8.40803
 30
0.0
 10
-4.68354
 20
-8.39166
 30
0.0
 10
-4.71839
 20
-8.39166
 30
0.0
 10
-4.71839
 20
-8.39166
 30
0.0
 10
-4.75254
 20
-8.39166
 30
0.0
 10
-4.77992
 20
-8.4062
 30
0.0
 10
-4.80038
 20
-8.43512
 30
0.0
 10
-4.80038
 20
-8.43512
 30
0.0
 10
-4.82592
 20
-8.47195
 30
0.0
 10
-4.83862
 20
-8.54025
 30
0.0
 10
-4.83862
 20
-8.63974
 30
0.0
  0
SPLINE
  5
45
330
1F
100
AcDbEntity
  8
Layer 1
 62
   250
100
AcDbSpline
210
0.0
220
0.0
230
1.0
 70
    11
 71
     3
 72
    92
 73
    88
 74
     0
 42
0.0000000001
 43
0.0000000001
 12
1.0
 22
0.0
 32
0.0
 13
1.0
 23
0.0
 33
0.0
 40
0.0
 40
0.0
 40
0.0
 40
0.0
 40
0.0434782608695652
 40
0.0434782608695652
 40
0.0434782608695652
 40
0.0434782608695652
 40
0.0869565217391304
 40
0.0869565217391304
 40
0.0869565217391304
 40
0.0869565217391304
 40
0.1304347826086956
 40
0.1304347826086956
 40
0.1304347826086956
 40
0.1304347826086956
 40
0.1739130434782609
 40
0.1739130434782609
 40
0.1739130434782609
 40
0.1739130434782609
 40
0.2173913043478261
 40
0.2173913043478261
 40
0.2173913043478261
 40
0.2173913043478261
 40
0.2608695652173913
 40
0.2608695652173913
 40
0.2608695652173913
 40
0.2608695652173913
 40
0.3043478260869565
 40
0.3043478260869565
 40
0.3043478260869565
 40
0.3043478260869565
 40
0.3478260869565217
 40
0.3478260869565217
 40
0.3478260869565217
 40
0.3478260869565217
 40
0.391304347826087
 40
0.391304347826087
 40
0.391304347826087
 40
0.391304347826087
 40
0.4347826086956522
 40
0.4347826086956522
 40
0.4347826086956522
 40
0.4347826086956522
 40
0.4782608695652174
 40
0.4782608695652174
 40
0.4782608695652174
 40
0.4782608695652174
 40
0.5217391304347826
 40
0.5217391304347826
 40
0.5217391304347826
 40
0.5217391304347826
 40
0.5652173913043478
 40
0.5652173913043478
 40
0.5652173913043478
 40
0.5652173913043478
 40
0.6086956521739131
 40
0.6086956521739131
 40
0.6086956521739131
 40
0.6086956521739131
 40
0.6521739130434783
 40
0.6521739130434783
 40
0.6521739130434783
 40
0.6521739130434783
 40
0.6956521739130435
 40
0.6956521739130435
 40
0.6956521739130435
 40
0.6956521739130435
 40
0.7391304347826086
 40
0.7391304347826086
 40
0.7391304347826086
 40
0.7391304347826086
 40
0.782608695652174
 40
0.782608695652174
 40
0.782608695652174
 40
0.782608695652174
 40
0.8260869565217391
 40
0.8260869565217391
 40
0.8260869565217391
 40
0.8260869565217391
 40
0.8695652173913043
 40
0.8695652173913043
 40
0.8695652173913043
 40
0.8695652173913043
 40
0.9130434782608695
 40
0.9130434782608695
 40
0.9130434782608695
 40
0.9130434782608695
 40
1.0
 40
1.0
 40
1.0
 40
1.0
 10
-4.05361
 20
-8.86749
 30
0.0
 10
-4.05361
 20
-8.86749
 30
0.0
 10
-4.05361
 20
-8.93861
 30
0.0
 10
-4.05361
 20
-8.93861
 30
0.0
 10
-4.05361
 20
-8.93861
 30
0.0
 10
-4.05361
 20
-8.93861
 30
0.0
 10
-4.45494
 20
-8.93861
 30
0.0
 10
-4.45494
 20
-8.93861
 30
0.0
 10
-4.45494
 20
-8.93861
 30
0.0
 10
-4.4555
 20
-8.92069
 30
0.0
 10
-4.45254
 20
-8.90347
 30
0.0
 10
-4.44619
 20
-8.88682
 30
0.0
 10
-4.44619
 20
-8.88682
 30
0.0
 10
-4.43589
 20
-8.85959
 30
0.0
 10
-4.41938
 20
-8.83264
 30
0.0
 10
-4.39666
 20
-8.80625
 30
0.0
 10
-4.39666
 20
-8.80625
 30
0.0
 10
-4.37394
 20
-8.77986
 30
0.0
 10
-4.34148
 20
-8.74938
 30
0.0
 10
-4.29929
 20
-8.71481
 30
0.0
 10
-4.29929
 20
-8.71481
 30
0.0
 10
-4.23367
 20
-8.66076
 30
0.0
 10
-4.18908
 20
-8.618
 30
0.0
 10
-4.1658
 20
-8.5864
 30
0.0
 10
-4.1658
 20
-8.5864
 30
0.0
 10
-4.14237
 20
-8.55479
 30
0.0
 10
-4.13066
 20
-8.52487
 30
0.0
 10
-4.13066
 20
-8.49665
 30
0.0
 10
-4.13066
 20
-8.49665
 30
0.0
 10
-4.13066
 20
-8.46716
 30
0.0
 10
-4.14125
 20
-8.44232
 30
0.0
 10
-4.16241
 20
-8.422
 30
0.0
 10
-4.16241
 20
-8.422
 30
0.0
 10
-4.18358
 20
-8.40182
 30
0.0
 10
-4.21124
 20
-8.39166
 30
0.0
 10
-4.24524
 20
-8.39166
 30
0.0
 10
-4.24524
 20
-8.39166
 30
0.0
 10
-4.28123
 20
-8.39166
 30
0.0
 10
-4.31001
 20
-8.40239
 30
0.0
 10
-4.3316
 20
-8.42383
 30
0.0
 10
-4.3316
 20
-8.42383
 30
0.0
 10
-4.3532
 20
-8.44514
 30
0.0
 10
-4.36406
 20
-8.47478
 30
0.0
 10
-4.36434
 20
-8.51273
 30
0.0
 10
-4.36434
 20
-8.51273
 30
0.0
 10
-4.36434
 20
-8.51273
 30
0.0
 10
-4.44054
 20
-8.50511
 30
0.0
 10
-4.44054
 20
-8.50511
 30
0.0
 10
-4.44054
 20
-8.50511
 30
0.0
 10
-4.43532
 20
-8.44811
 30
0.0
 10
-4.41557
 20
-8.40464
 30
0.0
 10
-4.38142
 20
-8.37473
 30
0.0
 10
-4.38142
 20
-8.37473
 30
0.0
 10
-4.34713
 20
-8.34481
 30
0.0
 10
-4.30127
 20
-8.32985
 30
0.0
 10
-4.24355
 20
-8.32985
 30
0.0
 10
-4.24355
 20
-8.32985
 30
0.0
 10
-4.18541
 20
-8.32985
 30
0.0
 10
-4.13927
 20
-8.34594
 30
0.0
 10
-4.1054
 20
-8.37826
 30
0.0
 10
-4.1054
 20
-8.37826
 30
0.0
 10
-4.0714
 20
-8.41057
 30
0.0
 10
-4.05446
 20
-8.45065
 30
0.0
 10
-4.05446
 20
-8.49834
 30
0.0
 10
-4.05446
 20
-8.49834
 30
0.0
 10
-4.05446
 20
-8.52261
 30
0.0
 10
-4.0594
 20
-8.54646
 30
0.0
 10
-4.06942
 20
-8.56989
 30
0.0
 10
-4.06942
 20
-8.56989
 30
0.0
 10
-4.0793
 20
-8.59345
 30
0.0
 10
-4.09581
 20
-8.61815
 30
0.0
 10
-4.11881
 20
-8.64411
 30
0.0
 10
-4.11881
 20
-8.64411
 30
0.0
 10
-4.14195
 20
-8.66993
 30
0.0
 10
-4.18019
 20
-8.70563
 30
0.0
 10
-4.23353
 20
-8.75079
 30
0.0
 10
-4.23353
 20
-8.75079
 30
0.0
 10
-4.27826
 20
-8.78833
 30
0.0
 10
-4.30705
 20
-8.81373
 30
0.0
 10
-4.31975
 20
-8.82713
 30
0.0
 10
-4.31975
 20
-8.82713
 30
0.0
 10
-4.33245
 20
-8.84054
 30
0.0
 10
-4.34289
 20
-8.85394
 30
0.0
 10
-4.35122
 20
-8.86749
 30
0.0
 10
-4.35122
 20
-8.86749
 30
0.0
 10
-4.35122
 20
-8.86749
 30
0.0
 10
-4.05361
 20
-8.86749
 30
0.0
 10
-4.05361
 20
-8.86749
 30
0.0
  0
SPLINE
  5
46
330
1F
100
AcDbEntity
  8
Layer 1
 62
   250
100
AcDbSpline
210
0.0
220
0.0
230
1.0
 70
    11
 71
     3
 72
    92
 73
    88
 74
     0
 42
0.0000000001
 43
0.0000000001
 12
1.0
 22
0.0
 32
0.0
 13
1.0
 23
0.0
 33
0.0
 40
0.0
 40
0.0
 40
0.0
 40
0.0
 40
0.0434782608695652
 40
0.0434782608695652
 40
0.0434782608695652
 40
0.0434782608695652
 40
0.0869565217391304
 40
0.0869565217391304
 40
0.0869565217391304
 40
0.0869565217391304
 40
0.1304347826086956
 40
0.1304347826086956
 40
0.1304347826086956
 40
0.1304347826086956
 40
0.1739130434782609
 40
0.1739130434782609
 40
0.1739130434782609
 40
0.1739130434782609
 40
0.2173913043478261
 40
0.2173913043478261
 40
0.2173913043478261
 40
0.2173913043478261
 40
0.2608695652173913
 40
0.2608695652173913
 40
0.2608695652173913
 40
0.2608695652173913
 40
0.3043478260869565
 40
0.3043478260869565
 40
0.3043478260869565
 40
0.3043478260869565
 40
0.3478260869565217
 40
0.3478260869565217
 40
0.3478260869565217
 40
0.3478260869565217
 40
0.391304347826087
 40
0.391304347826087
 40
0.391304347826087
 40
0.391304347826087
 40
0.4347826086956522
 40
0.4347826086956522
 40
0.4347826086956522
 40
0.4347826086956522
 40
0.4782608695652174
 40
0.4782608695652174
 40
0.4782608695652174
 40
0.4782608695652174
 40
0.5217391304347826
 40
0.5217391304347826
 40
0.5217391304347826
 40
0.5217391304347826
 40
0.5652173913043478
 40
0.5652173913043478
 40
0.5652173913043478
 40
0.5652173913043478
 40
0.6086956521739131
 40
0.6086956521739131
 40
0.6086956521739131
 40
0.6086956521739131
 40
0.6521739130434783
 40
0.6521739130434783
 40
0.6521739130434783
 40
0.6521739130434783
 40
0.6956521739130435
 40
0.6956521739130435
 40
0.6956521739130435
 40
0.6956521739130435
 40
0.7391304347826086
 40
0.7391304347826086
 40
0.7391304347826086
 40
0.7391304347826086
 40
0.782608695652174
 40
0.782608695652174
 40
0.782608695652174
 40
0.782608695652174
 40
0.8260869565217391
 40
0.8260869565217391
 40
0.8260869565217391
 40
0.8260869565217391
 40
0.8695652173913043
 40
0.8695652173913043
 40
0.8695652173913043
 40
0.8695652173913043
 40
0.9130434782608695
 40
0.9130434782608695
 40
0.9130434782608695
 40
0.9130434782608695
 40
1.0
 40
1.0
 40
1.0
 40
1.0
 10
-3.58272
 20
-8.86749
 30
0.0
 10
-3.58272
 20
-8.86749
 30
0.0
 10
-3.58272
 20
-8.93861
 30
0.0
 10
-3.58272
 20
-8.93861
 30
0.0
 10
-3.58272
 20
-8.93861
 30
0.0
 10
-3.58272
 20
-8.93861
 30
0.0
 10
-3.98405
 20
-8.93861
 30
0.0
 10
-3.98405
 20
-8.93861
 30
0.0
 10
-3.98405
 20
-8.93861
 30
0.0
 10
-3.98461
 20
-8.92069
 30
0.0
 10
-3.98165
 20
-8.90347
 30
0.0
 10
-3.9753
 20
-8.88682
 30
0.0
 10
-3.9753
 20
-8.88682
 30
0.0
 10
-3.965
 20
-8.85959
 30
0.0
 10
-3.94849
 20
-8.83264
 30
0.0
 10
-3.92577
 20
-8.80625
 30
0.0
 10
-3.92577
 20
-8.80625
 30
0.0
 10
-3.90305
 20
-8.77986
 30
0.0
 10
-3.87059
 20
-8.74938
 30
0.0
 10
-3.8284
 20
-8.71481
 30
0.0
 10
-3.8284
 20
-8.71481
 30
0.0
 10
-3.76278
 20
-8.66076
 30
0.0
 10
-3.71819
 20
-8.618
 30
0.0
 10
-3.69491
 20
-8.5864
 30
0.0
 10
-3.69491
 20
-8.5864
 30
0.0
 10
-3.67148
 20
-8.55479
 30
0.0
 10
-3.65977
 20
-8.52487
 30
0.0
 10
-3.65977
 20
-8.49665
 30
0.0
 10
-3.65977
 20
-8.49665
 30
0.0
 10
-3.65977
 20
-8.46716
 30
0.0
 10
-3.67036
 20
-8.44232
 30
0.0
 10
-3.69152
 20
-8.422
 30
0.0
 10
-3.69152
 20
-8.422
 30
0.0
 10
-3.71269
 20
-8.40182
 30
0.0
 10
-3.74035
 20
-8.39166
 30
0.0
 10
-3.77435
 20
-8.39166
 30
0.0
 10
-3.77435
 20
-8.39166
 30
0.0
 10
-3.81034
 20
-8.39166
 30
0.0
 10
-3.83912
 20
-8.40239
 30
0.0
 10
-3.86071
 20
-8.42383
 30
0.0
 10
-3.86071
 20
-8.42383
 30
0.0
 10
-3.88231
 20
-8.44514
 30
0.0
 10
-3.89317
 20
-8.47478
 30
0.0
 10
-3.89345
 20
-8.51273
 30
0.0
 10
-3.89345
 20
-8.51273
 30
0.0
 10
-3.89345
 20
-8.51273
 30
0.0
 10
-3.96965
 20
-8.50511
 30
0.0
 10
-3.96965
 20
-8.50511
 30
0.0
 10
-3.96965
 20
-8.50511
 30
0.0
 10
-3.96443
 20
-8.44811
 30
0.0
 10
-3.94468
 20
-8.40464
 30
0.0
 10
-3.91053
 20
-8.37473
 30
0.0
 10
-3.91053
 20
-8.37473
 30
0.0
 10
-3.87624
 20
-8.34481
 30
0.0
 10
-3.83038
 20
-8.32985
 30
0.0
 10
-3.77266
 20
-8.32985
 30
0.0
 10
-3.77266
 20
-8.32985
 30
0.0
 10
-3.71452
 20
-8.32985
 30
0.0
 10
-3.66838
 20
-8.34594
 30
0.0
 10
-3.63451
 20
-8.37826
 30
0.0
 10
-3.63451
 20
-8.37826
 30
0.0
 10
-3.60051
 20
-8.41057
 30
0.0
 10
-3.58357
 20
-8.45065
 30
0.0
 10
-3.58357
 20
-8.49834
 30
0.0
 10
-3.58357
 20
-8.49834
 30
0.0
 10
-3.58357
 20
-8.52261
 30
0.0
 10
-3.58851
 20
-8.54646
 30
0.0
 10
-3.59853
 20
-8.56989
 30
0.0
 10
-3.59853
 20
-8.56989
 30
0.0
 10
-3.60841
 20
-8.59345
 30
0.0
 10
-3.62492
 20
-8.61815
 30
0.0
 10
-3.64792
 20
-8.64411
 30
0.0
 10
-3.64792
 20
-8.64411
 30
0.0
 10
-3.67106
 20
-8.66993
 30
0.0
 10
-3.7093
 20
-8.70563
 30
0.0
 10
-3.76264
 20
-8.75079
 30
0.0
 10
-3.76264
 20
-8.75079
 30
0.0
 10
-3.80737
 20
-8.78833
 30
0.0
 10
-3.83616
 20
-8.81373
 30
0.0
 10
-3.84886
 20
-8.82713
 30
0.0
 10
-3.84886
 20
-8.82713
 30
0.0
 10
-3.86156
 20
-8.84054
 30
0.0
 10
-3.872
 20
-8.85394
 30
0.0
 10
-3.88033
 20
-8.86749
 30
0.0
 10
-3.88033
 20
-8.86749
 30
0.0
 10
-3.88033
 20
-8.86749
 30
0.0
 10
-3.58272
 20
-8.86749
 30
0.0
 10
-3.58272
 20
-8.86749
 30
0.0
  0
SPLINE
  5
47
330
1F
100
AcDbEntity
  8
Layer 1
 62
   250
100
AcDbSpline
210
0.0
220
0.0
230
1.0
 70
    11
 71
     3
 72
    92
 73
    88
 74
     0
 42
0.0000000001
 43
0.0000000001
 12
1.0
 22
0.0
 32
0.0
 13
1.0
 23
0.0
 33
0.0
 40
0.0
 40
0.0
 40
0.0
 40
0.0
 40
0.0434782608695652
 40
0.0434782608695652
 40
0.0434782608695652
 40
0.0434782608695652
 40
0.0869565217391304
 40
0.0869565217391304
 40
0.0869565217391304
 40
0.0869565217391304
 40
0.1304347826086956
 40
0.1304347826086956
 40
0.1304347826086956
 40
0.1304347826086956
 40
0.1739130434782609
 40
0.1739130434782609
 40
0.1739130434782609
 40
0.1739130434782609
 40
0.2173913043478261
 40
0.2173913043478261
 40
0.2173913043478261
 40
0.2173913043478261
 40
0.2608695652173913
 40
0.2608695652173913
 40
0.2608695652173913
 40
0.2608695652173913
 40
0.3043478260869565
 40
0.3043478260869565
 40
0.3043478260869565
 40
0.3043478260869565
 40
0.3478260869565217
 40
0.3478260869565217
 40
0.3478260869565217
 40
0.3478260869565217
 40
0.391304347826087
 40
0.391304347826087
 40
0.391304347826087
 40
0.391304347826087
 40
0.4347826086956522
 40
0.4347826086956522
 40
0.4347826086956522
 40
0.4347826086956522
 40
0.4782608695652174
 40
0.4782608695652174
 40
0.4782608695652174
 40
0.4782608695652174
 40
0.5217391304347826
 40
0.5217391304347826
 40
0.5217391304347826
 40
0.5217391304347826
 40
0.5652173913043478
 40
0.5652173913043478
 40
0.5652173913043478
 40
0.5652173913043478
 40
0.6086956521739131
 40
0.6086956521739131
 40
0.6086956521739131
 40
0.6086956521739131
 40
0.6521739130434783
 40
0.6521739130434783
 40
0.6521739130434783
 40
0.6521739130434783
 40
0.6956521739130435
 40
0.6956521739130435
 40
0.6956521739130435
 40
0.6956521739130435
 40
0.7391304347826086
 40
0.7391304347826086
 40
0.7391304347826086
 40
0.7391304347826086
 40
0.782608695652174
 40
0.782608695652174
 40
0.782608695652174
 40
0.782608695652174
 40
0.8260869565217391
 40
0.8260869565217391
 40
0.8260869565217391
 40
0.8260869565217391
 40
0.8695652173913043
 40
0.8695652173913043
 40
0.8695652173913043
 40
0.8695652173913043
 40
0.9130434782608695
 40
0.9130434782608695
 40
0.9130434782608695
 40
0.9130434782608695
 40
1.0
 40
1.0
 40
1.0
 40
1.0
 10
-3.11183
 20
-8.86749
 30
0.0
 10
-3.11183
 20
-8.86749
 30
0.0
 10
-3.11183
 20
-8.93861
 30
0.0
 10
-3.11183
 20
-8.93861
 30
0.0
 10
-3.11183
 20
-8.93861
 30
0.0
 10
-3.11183
 20
-8.93861
 30
0.0
 10
-3.51316
 20
-8.93861
 30
0.0
 10
-3.51316
 20
-8.93861
 30
0.0
 10
-3.51316
 20
-8.93861
 30
0.0
 10
-3.51372
 20
-8.92069
 30
0.0
 10
-3.51076
 20
-8.90347
 30
0.0
 10
-3.50441
 20
-8.88682
 30
0.0
 10
-3.50441
 20
-8.88682
 30
0.0
 10
-3.49411
 20
-8.85959
 30
0.0
 10
-3.4776
 20
-8.83264
 30
0.0
 10
-3.45488
 20
-8.80625
 30
0.0
 10
-3.45488
 20
-8.80625
 30
0.0
 10
-3.43216
 20
-8.77986
 30
0.0
 10
-3.3997
 20
-8.74938
 30
0.0
 10
-3.35751
 20
-8.71481
 30
0.0
 10
-3.35751
 20
-8.71481
 30
0.0
 10
-3.29189
 20
-8.66076
 30
0.0
 10
-3.2473
 20
-8.618
 30
0.0
 10
-3.22402
 20
-8.5864
 30
0.0
 10
-3.22402
 20
-8.5864
 30
0.0
 10
-3.20059
 20
-8.55479
 30
0.0
 10
-3.18888
 20
-8.52487
 30
0.0
 10
-3.18888
 20
-8.49665
 30
0.0
 10
-3.18888
 20
-8.49665
 30
0.0
 10
-3.18888
 20
-8.46716
 30
0.0
 10
-3.19947
 20
-8.44232
 30
0.0
 10
-3.22063
 20
-8.422
 30
0.0
 10
-3.22063
 20
-8.422
 30
0.0
 10
-3.2418
 20
-8.40182
 30
0.0
 10
-3.26946
 20
-8.39166
 30
0.0
 10
-3.30346
 20
-8.39166
 30
0.0
 10
-3.30346
 20
-8.39166
 30
0.0
 10
-3.33945
 20
-8.39166
 30
0.0
 10
-3.36823
 20
-8.40239
 30
0.0
 10
-3.38982
 20
-8.42383
 30
0.0
 10
-3.38982
 20
-8.42383
 30
0.0
 10
-3.41142
 20
-8.44514
 30
0.0
 10
-3.42228
 20
-8.47478
 30
0.0
 10
-3.42256
 20
-8.51273
 30
0.0
 10
-3.42256
 20
-8.51273
 30
0.0
 10
-3.42256
 20
-8.51273
 30
0.0
 10
-3.49876
 20
-8.50511
 30
0.0
 10
-3.49876
 20
-8.50511
 30
0.0
 10
-3.49876
 20
-8.50511
 30
0.0
 10
-3.49354
 20
-8.44811
 30
0.0
 10
-3.47379
 20
-8.40464
 30
0.0
 10
-3.43964
 20
-8.37473
 30
0.0
 10
-3.43964
 20
-8.37473
 30
0.0
 10
-3.40535
 20
-8.34481
 30
0.0
 10
-3.35949
 20
-8.32985
 30
0.0
 10
-3.30177
 20
-8.32985
 30
0.0
 10
-3.30177
 20
-8.32985
 30
0.0
 10
-3.24363
 20
-8.32985
 30
0.0
 10
-3.19749
 20
-8.34594
 30
0.0
 10
-3.16362
 20
-8.37826
 30
0.0
 10
-3.16362
 20
-8.37826
 30
0.0
 10
-3.12962
 20
-8.41057
 30
0.0
 10
-3.11268
 20
-8.45065
 30
0.0
 10
-3.11268
 20
-8.49834
 30
0.0
 10
-3.11268
 20
-8.49834
 30
0.0
 10
-3.11268
 20
-8.52261
 30
0.0
 10
-3.11762
 20
-8.54646
 30
0.0
 10
-3.12764
 20
-8.56989
 30
0.0
 10
-3.12764
 20
-8.56989
 30
0.0
 10
-3.13752
 20
-8.59345
 30
0.0
 10
-3.15403
 20
-8.61815
 30
0.0
 10
-3.17703
 20
-8.64411
 30
0.0
 10
-3.17703
 20
-8.64411
 30
0.0
 10
-3.20017
 20
-8.66993
 30
0.0
 10
-3.23841
 20
-8.70563
 30
0.0
 10
-3.29175
 20
-8.75079
 30
0.0
 10
-3.29175
 20
-8.75079
 30
0.0
 10
-3.33648
 20
-8.78833
 30
0.0
 10
-3.36527
 20
-8.81373
 30
0.0
 10
-3.37797
 20
-8.82713
 30
0.0
 10
-3.37797
 20
-8.82713
 30
0.0
 10
-3.39067
 20
-8.84054
 30
0.0
 10
-3.40111
 20
-8.85394
 30
0.0
 10
-3.40944
 20
-8.86749
 30
0.0
 10
-3.40944
 20
-8.86749
 30
0.0
 10
-3.40944
 20
-8.86749
 30
0.0
 10
-3.11183
 20
-8.86749
 30
0.0
 10
-3.11183
 20
-8.86749
 30
0.0
  0
SPLINE
  5
48
330
1F
100
AcDbEntity
  8
Layer 1
 62
   250
100
AcDbSpline
210
0.0
220
0.0
230
1.0
 70
    11
 71
     3
 72
    40
 73
    36
 74
     0
 42
0.0000000001
 43
0.0000000001
 12
1.0
 22
0.0
 32
0.0
 13
1.0
 23
0.0
 33
0.0
 40
0.0
 40
0.0
 40
0.0
 40
0.0
 40
0.1
 40
0.1
 40
0.1
 40
0.1
 40
0.2
 40
0.2
 40
0.2
 40
0.2
 40
0.3
 40
0.3
 40
0.3
 40
0.3
 40
0.4
 40
0.4
 40
0.4
 40
0.4
 40
0.5
 40
0.5
 40
0.5
 40
0.5
 40
0.6
 40
0.6
 40
0.6
 40
0.6
 40
0.7
 40
0.7
 40
0.7
 40
0.7
 40
0.8
 40
0.8
 40
0.8
 40
0.8
 40
1.0
 40
1.0
 40
1.0
 40
1.0
 10
-2.75186
 20
-8.93861
 30
0.0
 10
-2.75186
 20
-8.93861
 30
0.0
 10
-2.82637
 20
-8.93861
 30
0.0
 10
-2.82637
 20
-8.93861
 30
0.0
 10
-2.82637
 20
-8.93861
 30
0.0
 10
-2.82637
 20
-8.93861
 30
0.0
 10
-2.82637
 20
-8.46419
 30
0.0
 10
-2.82637
 20
-8.46419
 30
0.0
 10
-2.82637
 20
-8.46419
 30
0.0
 10
-2.84429
 20
-8.48141
 30
0.0
 10
-2.86785
 20
-8.49848
 30
0.0
 10
-2.89692
 20
-8.51556
 30
0.0
 10
-2.89692
 20
-8.51556
 30
0.0
 10
-2.92599
 20
-8.53263
 30
0.0
 10
-2.95224
 20
-8.54547
 30
0.0
 10
-2.97538
 20
-8.55394
 30
0.0
 10
-2.97538
 20
-8.55394
 30
0.0
 10
-2.97538
 20
-8.55394
 30
0.0
 10
-2.97538
 20
-8.48197
 30
0.0
 10
-2.97538
 20
-8.48197
 30
0.0
 10
-2.97538
 20
-8.48197
 30
0.0
 10
-2.93375
 20
-8.4625
 30
0.0
 10
-2.89734
 20
-8.43879
 30
0.0
 10
-2.86616
 20
-8.41085
 30
0.0
 10
-2.86616
 20
-8.41085
 30
0.0
 10
-2.83497
 20
-8.38305
 30
0.0
 10
-2.81282
 20
-8.3561
 30
0.0
 10
-2.79984
 20
-8.32985
 30
0.0
 10
-2.79984
 20
-8.32985
 30
0.0
 10
-2.79984
 20
-8.32985
 30
0.0
 10
-2.75186
 20
-8.32985
 30
0.0
 10
-2.75186
 20
-8.32985
 30
0.0
 10
-2.75186
 20
-8.32985
 30
0.0
 10
-2.75186
 20
-8.32985
 30
0.0
 10
-2.75186
 20
-8.93861
 30
0.0
 10
-2.75186
 20
-8.93861
 30
0.0
  0
SPLINE
  5
49
330
1F
100
AcDbEntity
  8
Layer 1
 62
   250
100
AcDbSpline
210
0.0
220
0.0
230
1.0
 70
    11
 71
     3
 72
    36
 73
    32
 74
     0
 42
0.0000000001
 43
0.0000000001
 12
1.0
 22
0.0
 32
0.0
 13
1.0
 23
0.0
 33
0.0
 40
0.0
 40
0.0
 40
0.0
 40
0.0
 40
0.1111111111111111
 40
0.1111111111111111
 40
0.1111111111111111
 40
0.1111111111111111
 40
0.2222222222222222
 40
0.2222222222222222
 40
0.2222222222222222
 40
0.2222222222222222
 40
0.3333333333333333
 40
0.3333333333333333
 40
0.3333333333333333
 40
0.3333333333333333
 40
0.4444444444444444
 40
0.4444444444444444
 40
0.4444444444444444
 40
0.4444444444444444
 40
0.5555555555555556
 40
0.5555555555555556
 40
0.5555555555555556
 40
0.5555555555555556
 40
0.6666666666666666
 40
0.6666666666666666
 40
0.6666666666666666
 40
0.6666666666666666
 40
0.7777777777777778
 40
0.7777777777777778
 40
0.7777777777777778
 40
0.7777777777777778
 40
1.0
 40
1.0
 40
1.0
 40
1.0
 10
-2.15665
 20
-8.93861
 30
0.0
 10
-2.15665
 20
-8.93861
 30
0.0
 10
-2.15665
 20
-8.40351
 30
0.0
 10
-2.15665
 20
-8.40351
 30
0.0
 10
-2.15665
 20
-8.40351
 30
0.0
 10
-2.15665
 20
-8.40351
 30
0.0
 10
-2.35647
 20
-8.40351
 30
0.0
 10
-2.35647
 20
-8.40351
 30
0.0
 10
-2.35647
 20
-8.40351
 30
0.0
 10
-2.35647
 20
-8.40351
 30
0.0
 10
-2.35647
 20
-8.33239
 30
0.0
 10
-2.35647
 20
-8.33239
 30
0.0
 10
-2.35647
 20
-8.33239
 30
0.0
 10
-2.35647
 20
-8.33239
 30
0.0
 10
-1.8764
 20
-8.33239
 30
0.0
 10
-1.8764
 20
-8.33239
 30
0.0
 10
-1.8764
 20
-8.33239
 30
0.0
 10
-1.8764
 20
-8.33239
 30
0.0
 10
-1.8764
 20
-8.40351
 30
0.0
 10
-1.8764
 20
-8.40351
 30
0.0
 10
-1.8764
 20
-8.40351
 30
0.0
 10
-1.8764
 20
-8.40351
 30
0.0
 10
-2.07622
 20
-8.40351
 30
0.0
 10
-2.07622
 20
-8.40351
 30
0.0
 10
-2.07622
 20
-8.40351
 30
0.0
 10
-2.07622
 20
-8.40351
 30
0.0
 10
-2.07622
 20
-8.93861
 30
0.0
 10
-2.07622
 20
-8.93861
 30
0.0
 10
-2.07622
 20
-8.93861
 30
0.0
 10
-2.07622
 20
-8.93861
 30
0.0
 10
-2.15665
 20
-8.93861
 30
0.0
 10
-2.15665
 20
-8.93861
 30
0.0
  0
SPLINE
  5
4A
330
1F
100
AcDbEntity
  8
Layer 1
 62
   250
100
AcDbSpline
210
0.0
220
0.0
230
1.0
 70
    11
 71
     3
 72
    52
 73
    48
 74
     0
 42
0.0000000001
 43
0.0000000001
 12
1.0
 22
0.0
 32
0.0
 13
1.0
 23
0.0
 33
0.0
 40
0.0
 40
0.0
 40
0.0
 40
0.0
 40
0.0769230769230769
 40
0.0769230769230769
 40
0.0769230769230769
 40
0.0769230769230769
 40
0.1538461538461539
 40
0.1538461538461539
 40
0.1538461538461539
 40
0.1538461538461539
 40
0.2307692307692308
 40
0.2307692307692308
 40
0.2307692307692308
 40
0.2307692307692308
 40
0.3076923076923077
 40
0.3076923076923077
 40
0.3076923076923077
 40
0.3076923076923077
 40
0.3846153846153846
 40
0.3846153846153846
 40
0.3846153846153846
 40
0.3846153846153846
 40
0.4615384615384616
 40
0.4615384615384616
 40
0.4615384615384616
 40
0.4615384615384616
 40
0.5384615384615384
 40
0.5384615384615384
 40
0.5384615384615384
 40
0.5384615384615384
 40
0.6153846153846154
 40
0.6153846153846154
 40
0.6153846153846154
 40
0.6153846153846154
 40
0.6923076923076923
 40
0.6923076923076923
 40
0.6923076923076923
 40
0.6923076923076923
 40
0.7692307692307693
 40
0.7692307692307693
 40
0.7692307692307693
 40
0.7692307692307693
 40
0.8461538461538461
 40
0.8461538461538461
 40
0.8461538461538461
 40
0.8461538461538461
 40
1.0
 40
1.0
 40
1.0
 40
1.0
 10
-1.79188
 20
-8.93861
 30
0.0
 10
-1.79188
 20
-8.93861
 30
0.0
 10
-1.79188
 20
-8.33239
 30
0.0
 10
-1.79188
 20
-8.33239
 30
0.0
 10
-1.79188
 20
-8.33239
 30
0.0
 10
-1.79188
 20
-8.33239
 30
0.0
 10
-1.35415
 20
-8.33239
 30
0.0
 10
-1.35415
 20
-8.33239
 30
0.0
 10
-1.35415
 20
-8.33239
 30
0.0
 10
-1.35415
 20
-8.33239
 30
0.0
 10
-1.35415
 20
-8.40351
 30
0.0
 10
-1.35415
 20
-8.40351
 30
0.0
 10
-1.35415
 20
-8.40351
 30
0.0
 10
-1.35415
 20
-8.40351
 30
0.0
 10
-1.71145
 20
-8.40351
 30
0.0
 10
-1.71145
 20
-8.40351
 30
0.0
 10
-1.71145
 20
-8.40351
 30
0.0
 10
-1.71145
 20
-8.40351
 30
0.0
 10
-1.71145
 20
-8.58978
 30
0.0
 10
-1.71145
 20
-8.58978
 30
0.0
 10
-1.71145
 20
-8.58978
 30
0.0
 10
-1.71145
 20
-8.58978
 30
0.0
 10
-1.37701
 20
-8.58978
 30
0.0
 10
-1.37701
 20
-8.58978
 30
0.0
 10
-1.37701
 20
-8.58978
 30
0.0
 10
-1.37701
 20
-8.58978
 30
0.0
 10
-1.37701
 20
-8.6609
 30
0.0
 10
-1.37701
 20
-8.6609
 30
0.0
 10
-1.37701
 20
-8.6609
 30
0.0
 10
-1.37701
 20
-8.6609
 30
0.0
 10
-1.71145
 20
-8.6609
 30
0.0
 10
-1.71145
 20
-8.6609
 30
0.0
 10
-1.71145
 20
-8.6609
 30
0.0
 10
-1.71145
 20
-8.6609
 30
0.0
 10
-1.71145
 20
-8.86749
 30
0.0
 10
-1.71145
 20
-8.86749
 30
0.0
 10
-1.71145
 20
-8.86749
 30
0.0
 10
-1.71145
 20
-8.86749
 30
0.0
 10
-1.33976
 20
-8.86749
 30
0.0
 10
-1.33976
 20
-8.86749
 30
0.0
 10
-1.33976
 20
-8.86749
 30
0.0
 10
-1.33976
 20
-8.86749
 30
0.0
 10
-1.33976
 20
-8.93861
 30
0.0
 10
-1.33976
 20
-8.93861
 30
0.0
 10
-1.33976
 20
-8.93861
 30
0.0
 10
-1.33976
 20
-8.93861
 30
0.0
 10
-1.79188
 20
-8.93861
 30
0.0
 10
-1.79188
 20
-8.93861
 30
0.0
  0
SPLINE
  5
4B
330
1F
100
AcDbEntity
  8
Layer 1
 62
   250
100
AcDbSpline
210
0.0
220
0.0
230
1.0
 70
    11
 71
     3
 72
    64
 73
    60
 74
     0
 42
0.0000000001
 43
0.0000000001
 12
1.0
 22
0.0
 32
0.0
 13
1.0
 23
0.0
 33
0.0
 40
0.0
 40
0.0
 40
0.0
 40
0.0
 40
0.0625
 40
0.0625
 40
0.0625
 40
0.0625
 40
0.125
 40
0.125
 40
0.125
 40
0.125
 40
0.1875
 40
0.1875
 40
0.1875
 40
0.1875
 40
0.25
 40
0.25
 40
0.25
 40
0.25
 40
0.3125
 40
0.3125
 40
0.3125
 40
0.3125
 40
0.375
 40
0.375
 40
0.375
 40
0.375
 40
0.4375
 40
0.4375
 40
0.4375
 40
0.4375
 40
0.5
 40
0.5
 40
0.5
 40
0.5
 40
0.5625
 40
0.5625
 40
0.5625
 40
0.5625
 40
0.625
 40
0.625
 40
0.625
 40
0.625
 40
0.6875
 40
0.6875
 40
0.6875
 40
0.6875
 40
0.75
 40
0.75
 40
0.75
 40
0.75
 40
0.8125
 40
0.8125
 40
0.8125
 40
0.8125
 40
0.875
 40
0.875
 40
0.875
 40
0.875
 40
1.0
 40
1.0
 40
1.0
 40
1.0
 10
-1.23054
 20
-8.93861
 30
0.0
 10
-1.23054
 20
-8.93861
 30
0.0
 10
-1.23054
 20
-8.33239
 30
0.0
 10
-1.23054
 20
-8.33239
 30
0.0
 10
-1.23054
 20
-8.33239
 30
0.0
 10
-1.23054
 20
-8.33239
 30
0.0
 10
-1.11031
 20
-8.33239
 30
0.0
 10
-1.11031
 20
-8.33239
 30
0.0
 10
-1.11031
 20
-8.33239
 30
0.0
 10
-1.11031
 20
-8.33239
 30
0.0
 10
-0.96694
 20
-8.76151
 30
0.0
 10
-0.96694
 20
-8.76151
 30
0.0
 10
-0.96694
 20
-8.76151
 30
0.0
 10
-0.95368
 20
-8.80145
 30
0.0
 10
-0.94408
 20
-8.83137
 30
0.0
 10
-0.93802
 20
-8.85126
 30
0.0
 10
-0.93802
 20
-8.85126
 30
0.0
 10
-0.9311
 20
-8.82925
 30
0.0
 10
-0.92024
 20
-8.79679
 30
0.0
 10
-0.90556
 20
-8.75404
 30
0.0
 10
-0.90556
 20
-8.75404
 30
0.0
 10
-0.90556
 20
-8.75404
 30
0.0
 10
-0.75965
 20
-8.33239
 30
0.0
 10
-0.75965
 20
-8.33239
 30
0.0
 10
-0.75965
 20
-8.33239
 30
0.0
 10
-0.75965
 20
-8.33239
 30
0.0
 10
-0.65226
 20
-8.33239
 30
0.0
 10
-0.65226
 20
-8.33239
 30
0.0
 10
-0.65226
 20
-8.33239
 30
0.0
 10
-0.65226
 20
-8.33239
 30
0.0
 10
-0.65226
 20
-8.93861
 30
0.0
 10
-0.65226
 20
-8.93861
 30
0.0
 10
-0.65226
 20
-8.93861
 30
0.0
 10
-0.65226
 20
-8.93861
 30
0.0
 10
-0.72931
 20
-8.93861
 30
0.0
 10
-0.72931
 20
-8.93861
 30
0.0
 10
-0.72931
 20
-8.93861
 30
0.0
 10
-0.72931
 20
-8.93861
 30
0.0
 10
-0.72931
 20
-8.43145
 30
0.0
 10
-0.72931
 20
-8.43145
 30
0.0
 10
-0.72931
 20
-8.43145
 30
0.0
 10
-0.72931
 20
-8.43145
 30
0.0
 10
-0.90627
 20
-8.93861
 30
0.0
 10
-0.90627
 20
-8.93861
 30
0.0
 10
-0.90627
 20
-8.93861
 30
0.0
 10
-0.90627
 20
-8.93861
 30
0.0
 10
-0.97851
 20
-8.93861
 30
0.0
 10
-0.97851
 20
-8.93861
 30
0.0
 10
-0.97851
 20
-8.93861
 30
0.0
 10
-0.97851
 20
-8.93861
 30
0.0
 10
-1.15349
 20
-8.42214
 30
0.0
 10
-1.15349
 20
-8.42214
 30
0.0
 10
-1.15349
 20
-8.42214
 30
0.0
 10
-1.15349
 20
-8.42214
 30
0.0
 10
-1.15349
 20
-8.93861
 30
0.0
 10
-1.15349
 20
-8.93861
 30
0.0
 10
-1.15349
 20
-8.93861
 30
0.0
 10
-1.15349
 20
-8.93861
 30
0.0
 10
-1.23054
 20
-8.93861
 30
0.0
 10
-1.23054
 20
-8.93861
 30
0.0
  0
SPLINE
  5
4C
330
1F
100
AcDbEntity
  8
Layer 1
 62
   250
100
AcDbSpline
210
0.0
220
0.0
230
1.0
 70
    11
 71
     3
 72
    48
 73
    44
 74
     0
 42
0.0000000001
 43
0.0000000001
 12
1.0
 22
0.0
 32
0.0
 13
1.0
 23
0.0
 33
0.0
 40
0.0
 40
0.0
 40
0.0
 40
0.0
 40
0.0833333333333333
 40
0.0833333333333333
 40
0.0833333333333333
 40
0.0833333333333333
 40
0.1666666666666667
 40
0.1666666666666667
 40
0.1666666666666667
 40
0.1666666666666667
 40
0.25
 40
0.25
 40
0.25
 40
0.25
 40
0.3333333333333333
 40
0.3333333333333333
 40
0.3333333333333333
 40
0.3333333333333333
 40
0.4166666666666667
 40
0.4166666666666667
 40
0.4166666666666667
 40
0.4166666666666667
 40
0.5
 40
0.5
 40
0.5
 40
0.5
 40
0.5833333333333334
 40
0.5833333333333334
 40
0.5833333333333334
 40
0.5833333333333334
 40
0.6666666666666666
 40
0.6666666666666666
 40
0.6666666666666666
 40
0.6666666666666666
 40
0.75
 40
0.75
 40
0.75
 40
0.75
 40
0.8333333333333334
 40
0.8333333333333334
 40
0.8333333333333334
 40
0.8333333333333334
 40
1.0
 40
1.0
 40
1.0
 40
1.0
 10
-0.52357
 20
-8.93861
 30
0.0
 10
-0.52357
 20
-8.93861
 30
0.0
 10
-0.52357
 20
-8.33239
 30
0.0
 10
-0.52357
 20
-8.33239
 30
0.0
 10
-0.52357
 20
-8.33239
 30
0.0
 10
-0.52357
 20
-8.33239
 30
0.0
 10
-0.29468
 20
-8.33239
 30
0.0
 10
-0.29468
 20
-8.33239
 30
0.0
 10
-0.29468
 20
-8.33239
 30
0.0
 10
-0.25447
 20
-8.33239
 30
0.0
 10
-0.2237
 20
-8.33437
 30
0.0
 10
-0.2024
 20
-8.33818
 30
0.0
 10
-0.2024
 20
-8.33818
 30
0.0
 10
-0.17262
 20
-8.34312
 30
0.0
 10
-0.14764
 20
-8.35257
 30
0.0
 10
-0.12747
 20
-8.3664
 30
0.0
 10
-0.12747
 20
-8.3664
 30
0.0
 10
-0.10729
 20
-8.38037
 30
0.0
 10
-0.09106
 20
-8.39985
 30
0.0
 10
-0.07878
 20
-8.42482
 30
0.0
 10
-0.07878
 20
-8.42482
 30
0.0
 10
-0.06651
 20
-8.4498
 30
0.0
 10
-0.06044
 20
-8.47732
 30
0.0
 10
-0.06044
 20
-8.50737
 30
0.0
 10
-0.06044
 20
-8.50737
 30
0.0
 10
-0.06044
 20
-8.55874
 30
0.0
 10
-0.07681
 20
-8.60234
 30
0.0
 10
-0.10969
 20
-8.6379
 30
0.0
 10
-0.10969
 20
-8.6379
 30
0.0
 10
-0.14242
 20
-8.6736
 30
0.0
 10
-0.20183
 20
-8.69138
 30
0.0
 10
-0.28763
 20
-8.69138
 30
0.0
 10
-0.28763
 20
-8.69138
 30
0.0
 10
-0.28763
 20
-8.69138
 30
0.0
 10
-0.44313
 20
-8.69138
 30
0.0
 10
-0.44313
 20
-8.69138
 30
0.0
 10
-0.44313
 20
-8.69138
 30
0.0
 10
-0.44313
 20
-8.69138
 30
0.0
 10
-0.44313
 20
-8.93861
 30
0.0
 10
-0.44313
 20
-8.93861
 30
0.0
 10
-0.44313
 20
-8.93861
 30
0.0
 10
-0.44313
 20
-8.93861
 30
0.0
 10
-0.52357
 20
-8.93861
 30
0.0
 10
-0.52357
 20
-8.93861
 30
0.0
  0
SPLINE
  5
4D
330
1F
100
AcDbEntity
  8
Layer 1
 62
   250
100
AcDbSpline
210
0.0
220
0.0
230
1.0
 70
    11
 71
     3
 72
    36
 73
    32
 74
     0
 42
0.0000000001
 43
0.0000000001
 12
1.0
 22
0.0
 32
0.0
 13
1.0
 23
0.0
 33
0.0
 40
0.0
 40
0.0
 40
0.0
 40
0.0
 40
0.1111111111111111
 40
0.1111111111111111
 40
0.1111111111111111
 40
0.1111111111111111
 40
0.2222222222222222
 40
0.2222222222222222
 40
0.2222222222222222
 40
0.2222222222222222
 40
0.3333333333333333
 40
0.3333333333333333
 40
0.3333333333333333
 40
0.3333333333333333
 40
0.4444444444444444
 40
0.4444444444444444
 40
0.4444444444444444
 40
0.4444444444444444
 40
0.5555555555555556
 40
0.5555555555555556
 40
0.5555555555555556
 40
0.5555555555555556
 40
0.6666666666666666
 40
0.6666666666666666
 40
0.6666666666666666
 40
0.6666666666666666
 40
0.7777777777777778
 40
0.7777777777777778
 40
0.7777777777777778
 40
0.7777777777777778
 40
1.0
 40
1.0
 40
1.0
 40
1.0
 10
-0.44313
 20
-8.62026
 30
0.0
 10
-0.44313
 20
-8.62026
 30
0.0
 10
-0.2865
 20
-8.62026
 30
0.0
 10
-0.2865
 20
-8.62026
 30
0.0
 10
-0.2865
 20
-8.62026
 30
0.0
 10
-0.23457
 20
-8.62026
 30
0.0
 10
-0.19788
 20
-8.61067
 30
0.0
 10
-0.17601
 20
-8.59133
 30
0.0
 10
-0.17601
 20
-8.59133
 30
0.0
 10
-0.15428
 20
-8.572
 30
0.0
 10
-0.14341
 20
-8.54491
 30
0.0
 10
-0.14341
 20
-8.50977
 30
0.0
 10
-0.14341
 20
-8.50977
 30
0.0
 10
-0.14341
 20
-8.48451
 30
0.0
 10
-0.14976
 20
-8.46278
 30
0.0
 10
-0.1626
 20
-8.44472
 30
0.0
 10
-0.1626
 20
-8.44472
 30
0.0
 10
-0.17544
 20
-8.42666
 30
0.0
 10
-0.19238
 20
-8.41466
 30
0.0
 10
-0.21326
 20
-8.40888
 30
0.0
 10
-0.21326
 20
-8.40888
 30
0.0
 10
-0.22681
 20
-8.40535
 30
0.0
 10
-0.25179
 20
-8.40351
 30
0.0
 10
-0.28805
 20
-8.40351
 30
0.0
 10
-0.28805
 20
-8.40351
 30
0.0
 10
-0.28805
 20
-8.40351
 30
0.0
 10
-0.44313
 20
-8.40351
 30
0.0
 10
-0.44313
 20
-8.40351
 30
0.0
 10
-0.44313
 20
-8.40351
 30
0.0
 10
-0.44313
 20
-8.40351
 30
0.0
 10
-0.44313
 20
-8.62026
 30
0.0
 10
-0.44313
 20
-8.62026
 30
0.0
  0
SPLINE
  5
4E
330
1F
100
AcDbEntity
  8
Layer 1
 62
   250
100
AcDbSpline
210
0.0
220
0.0
230
1.0
 70
    11
 71
     3
 72
    28
 73
    24
 74
     0
 42
0.0000000001
 43
0.0000000001
 12
1.0
 22
0.0
 32
0.0
 13
1.0
 23
0.0
 33
0.0
 40
0.0
 40
0.0
 40
0.0
 40
0.0
 40
0.1428571428571428
 40
0.1428571428571428
 40
0.1428571428571428
 40
0.1428571428571428
 40
0.2857142857142857
 40
0.2857142857142857
 40
0.2857142857142857
 40
0.2857142857142857
 40
0.4285714285714285
 40
0.4285714285714285
 40
0.4285714285714285
 40
0.4285714285714285
 40
0.5714285714285714
 40
0.5714285714285714
 40
0.5714285714285714
 40
0.5714285714285714
 40
0.7142857142857143
 40
0.7142857142857143
 40
0.7142857142857143
 40
0.7142857142857143
 40
1.0
 40
1.0
 40
1.0
 40
1.0
 10
0.03778
 20
-8.93861
 30
0.0
 10
0.03778
 20
-8.93861
 30
0.0
 10
0.03778
 20
-8.33239
 30
0.0
 10
0.03778
 20
-8.33239
 30
0.0
 10
0.03778
 20
-8.33239
 30
0.0
 10
0.03778
 20
-8.33239
 30
0.0
 10
0.11821
 20
-8.33239
 30
0.0
 10
0.11821
 20
-8.33239
 30
0.0
 10
0.11821
 20
-8.33239
 30
0.0
 10
0.11821
 20
-8.33239
 30
0.0
 10
0.11821
 20
-8.86749
 30
0.0
 10
0.11821
 20
-8.86749
 30
0.0
 10
0.11821
 20
-8.86749
 30
0.0
 10
0.11821
 20
-8.86749
 30
0.0
 10
0.41624
 20
-8.86749
 30
0.0
 10
0.41624
 20
-8.86749
 30
0.0
 10
0.41624
 20
-8.86749
 30
0.0
 10
0.41624
 20
-8.86749
 30
0.0
 10
0.41624
 20
-8.93861
 30
0.0
 10
0.41624
 20
-8.93861
 30
0.0
 10
0.41624
 20
-8.93861
 30
0.0
 10
0.41624
 20
-8.93861
 30
0.0
 10
0.03778
 20
-8.93861
 30
0.0
 10
0.03778
 20
-8.93861
 30
0.0
  0
SPLINE
  5
4F
330
1F
100
AcDbEntity
  8
Layer 1
 62
   250
100
AcDbSpline
210
0.0
220
0.0
230
1.0
 70
    11
 71
     3
 72
    36
 73
    32
 74
     0
 42
0.0000000001
 43
0.0000000001
 12
1.0
 22
0.0
 32
0.0
 13
1.0
 23
0.0
 33
0.0
 40
0.0
 40
0.0
 40
0.0
 40
0.0
 40
0.1111111111111111
 40
0.1111111111111111
 40
0.1111111111111111
 40
0.1111111111111111
 40
0.2222222222222222
 40
0.2222222222222222
 40
0.2222222222222222
 40
0.2222222222222222
 40
0.3333333333333333
 40
0.3333333333333333
 40
0.3333333333333333
 40
0.3333333333333333
 40
0.4444444444444444
 40
0.4444444444444444
 40
0.4444444444444444
 40
0.4444444444444444
 40
0.5555555555555556
 40
0.5555555555555556
 40
0.5555555555555556
 40
0.5555555555555556
 40
0.6666666666666666
 40
0.6666666666666666
 40
0.6666666666666666
 40
0.6666666666666666
 40
0.7777777777777778
 40
0.7777777777777778
 40
0.7777777777777778
 40
0.7777777777777778
 40
1.0
 40
1.0
 40
1.0
 40
1.0
 10
0.44559
 20
-8.93861
 30
0.0
 10
0.44559
 20
-8.93861
 30
0.0
 10
0.67814
 20
-8.33239
 30
0.0
 10
0.67814
 20
-8.33239
 30
0.0
 10
0.67814
 20
-8.33239
 30
0.0
 10
0.67814
 20
-8.33239
 30
0.0
 10
0.76634
 20
-8.33239
 30
0.0
 10
0.76634
 20
-8.33239
 30
0.0
 10
0.76634
 20
-8.33239
 30
0.0
 10
0.76634
 20
-8.33239
 30
0.0
 10
1.01314
 20
-8.93861
 30
0.0
 10
1.01314
 20
-8.93861
 30
0.0
 10
1.01314
 20
-8.93861
 30
0.0
 10
1.01314
 20
-8.93861
 30
0.0
 10
0.92184
 20
-8.93861
 30
0.0
 10
0.92184
 20
-8.93861
 30
0.0
 10
0.92184
 20
-8.93861
 30
0.0
 10
0.92184
 20
-8.93861
 30
0.0
 10
0.85171
 20
-8.75488
 30
0.0
 10
0.85171
 20
-8.75488
 30
0.0
 10
0.85171
 20
-8.75488
 30
0.0
 10
0.85171
 20
-8.75488
 30
0.0
 10
0.59644
 20
-8.75488
 30
0.0
 10
0.59644
 20
-8.75488
 30
0.0
 10
0.59644
 20
-8.75488
 30
0.0
 10
0.59644
 20
-8.75488
 30
0.0
 10
0.53068
 20
-8.93861
 30
0.0
 10
0.53068
 20
-8.93861
 30
0.0
 10
0.53068
 20
-8.93861
 30
0.0
 10
0.53068
 20
-8.93861
 30
0.0
 10
0.44559
 20
-8.93861
 30
0.0
 10
0.44559
 20
-8.93861
 30
0.0
  0
SPLINE
  5
50
330
1F
100
AcDbEntity
  8
Layer 1
 62
   250
100
AcDbSpline
210
0.0
220
0.0
230
1.0
 70
    11
 71
     3
 72
    24
 73
    20
 74
     0
 42
0.0000000001
 43
0.0000000001
 12
1.0
 22
0.0
 32
0.0
 13
1.0
 23
0.0
 33
0.0
 40
0.0
 40
0.0
 40
0.0
 40
0.0
 40
0.1666666666666667
 40
0.1666666666666667
 40
0.1666666666666667
 40
0.1666666666666667
 40
0.3333333333333333
 40
0.3333333333333333
 40
0.3333333333333333
 40
0.3333333333333333
 40
0.5
 40
0.5
 40
0.5
 40
0.5
 40
0.6666666666666666
 40
0.6666666666666666
 40
0.6666666666666666
 40
0.6666666666666666
 40
1.0
 40
1.0
 40
1.0
 40
1.0
 10
0.62
 20
-8.68969
 30
0.0
 10
0.62
 20
-8.68969
 30
0.0
 10
0.82659
 20
-8.68969
 30
0.0
 10
0.82659
 20
-8.68969
 30
0.0
 10
0.82659
 20
-8.68969
 30
0.0
 10
0.82659
 20
-8.68969
 30
0.0
 10
0.76337
 20
-8.52163
 30
0.0
 10
0.76337
 20
-8.52163
 30
0.0
 10
0.76337
 20
-8.52163
 30
0.0
 10
0.74432
 20
-8.47054
 30
0.0
 10
0.72993
 20
-8.42835
 30
0.0
 10
0.71991
 20
-8.39505
 30
0.0
 10
0.71991
 20
-8.39505
 30
0.0
 10
0.71159
 20
-8.43456
 30
0.0
 10
0.70044
 20
-8.47336
 30
0.0
 10
0.68647
 20
-8.51175
 30
0.0
 10
0.68647
 20
-8.51175
 30
0.0
 10
0.68647
 20
-8.51175
 30
0.0
 10
0.62
 20
-8.68969
 30
0.0
 10
0.62
 20
-8.68969
 30
0.0
  0
SPLINE
  5
51
330
1F
100
AcDbEntity
  8
Layer 1
 62
   250
100
AcDbSpline
210
0.0
220
0.0
230
1.0
 70
    11
 71
     3
 72
    36
 73
    32
 74
     0
 42
0.0000000001
 43
0.0000000001
 12
1.0
 22
0.0
 32
0.0
 13
1.0
 23
0.0
 33
0.0
 40
0.0
 40
0.0
 40
0.0
 40
0.0
 40
0.1111111111111111
 40
0.1111111111111111
 40
0.1111111111111111
 40
0.1111111111111111
 40
0.2222222222222222
 40
0.2222222222222222
 40
0.2222222222222222
 40
0.2222222222222222
 40
0.3333333333333333
 40
0.3333333333333333
 40
0.3333333333333333
 40
0.3333333333333333
 40
0.4444444444444444
 40
0.4444444444444444
 40
0.4444444444444444
 40
0.4444444444444444
 40
0.5555555555555556
 40
0.5555555555555556
 40
0.5555555555555556
 40
0.5555555555555556
 40
0.6666666666666666
 40
0.6666666666666666
 40
0.6666666666666666
 40
0.6666666666666666
 40
0.7777777777777778
 40
0.7777777777777778
 40
0.7777777777777778
 40
0.7777777777777778
 40
1.0
 40
1.0
 40
1.0
 40
1.0
 10
1.16809
 20
-8.93861
 30
0.0
 10
1.16809
 20
-8.93861
 30
0.0
 10
1.16809
 20
-8.40351
 30
0.0
 10
1.16809
 20
-8.40351
 30
0.0
 10
1.16809
 20
-8.40351
 30
0.0
 10
1.16809
 20
-8.40351
 30
0.0
 10
0.96827
 20
-8.40351
 30
0.0
 10
0.96827
 20
-8.40351
 30
0.0
 10
0.96827
 20
-8.40351
 30
0.0
 10
0.96827
 20
-8.40351
 30
0.0
 10
0.96827
 20
-8.33239
 30
0.0
 10
0.96827
 20
-8.33239
 30
0.0
 10
0.96827
 20
-8.33239
 30
0.0
 10
0.96827
 20
-8.33239
 30
0.0
 10
1.44834
 20
-8.33239
 30
0.0
 10
1.44834
 20
-8.33239
 30
0.0
 10
1.44834
 20
-8.33239
 30
0.0
 10
1.44834
 20
-8.33239
 30
0.0
 10
1.44834
 20
-8.40351
 30
0.0
 10
1.44834
 20
-8.40351
 30
0.0
 10
1.44834
 20
-8.40351
 30
0.0
 10
1.44834
 20
-8.40351
 30
0.0
 10
1.24852
 20
-8.40351
 30
0.0
 10
1.24852
 20
-8.40351
 30
0.0
 10
1.24852
 20
-8.40351
 30
0.0
 10
1.24852
 20
-8.40351
 30
0.0
 10
1.24852
 20
-8.93861
 30
0.0
 10
1.24852
 20
-8.93861
 30
0.0
 10
1.24852
 20
-8.93861
 30
0.0
 10
1.24852
 20
-8.93861
 30
0.0
 10
1.16809
 20
-8.93861
 30
0.0
 10
1.16809
 20
-8.93861
 30
0.0
  0
SPLINE
  5
52
330
1F
100
AcDbEntity
  8
Layer 1
 62
   250
100
AcDbSpline
210
0.0
220
0.0
230
1.0
 70
    11
 71
     3
 72
    52
 73
    48
 74
     0
 42
0.0000000001
 43
0.0000000001
 12
1.0
 22
0.0
 32
0.0
 13
1.0
 23
0.0
 33
0.0
 40
0.0
 40
0.0
 40
0.0
 40
0.0
 40
0.0769230769230769
 40
0.0769230769230769
 40
0.0769230769230769
 40
0.0769230769230769
 40
0.1538461538461539
 40
0.1538461538461539
 40
0.1538461538461539
 40
0.1538461538461539
 40
0.2307692307692308
 40
0.2307692307692308
 40
0.2307692307692308
 40
0.2307692307692308
 40
0.3076923076923077
 40
0.3076923076923077
 40
0.3076923076923077
 40
0.3076923076923077
 40
0.3846153846153846
 40
0.3846153846153846
 40
0.3846153846153846
 40
0.3846153846153846
 40
0.4615384615384616
 40
0.4615384615384616
 40
0.4615384615384616
 40
0.4615384615384616
 40
0.5384615384615384
 40
0.5384615384615384
 40
0.5384615384615384
 40
0.5384615384615384
 40
0.6153846153846154
 40
0.6153846153846154
 40
0.6153846153846154
 40
0.6153846153846154
 40
0.6923076923076923
 40
0.6923076923076923
 40
0.6923076923076923
 40
0.6923076923076923
 40
0.7692307692307693
 40
0.7692307692307693
 40
0.7692307692307693
 40
0.7692307692307693
 40
0.8461538461538461
 40
0.8461538461538461
 40
0.8461538461538461
 40
0.8461538461538461
 40
1.0
 40
1.0
 40
1.0
 40
1.0
 10
1.53286
 20
-8.93861
 30
0.0
 10
1.53286
 20
-8.93861
 30
0.0
 10
1.53286
 20
-8.33239
 30
0.0
 10
1.53286
 20
-8.33239
 30
0.0
 10
1.53286
 20
-8.33239
 30
0.0
 10
1.53286
 20
-8.33239
 30
0.0
 10
1.97059
 20
-8.33239
 30
0.0
 10
1.97059
 20
-8.33239
 30
0.0
 10
1.97059
 20
-8.33239
 30
0.0
 10
1.97059
 20
-8.33239
 30
0.0
 10
1.97059
 20
-8.40351
 30
0.0
 10
1.97059
 20
-8.40351
 30
0.0
 10
1.97059
 20
-8.40351
 30
0.0
 10
1.97059
 20
-8.40351
 30
0.0
 10
1.61329
 20
-8.40351
 30
0.0
 10
1.61329
 20
-8.40351
 30
0.0
 10
1.61329
 20
-8.40351
 30
0.0
 10
1.61329
 20
-8.40351
 30
0.0
 10
1.61329
 20
-8.58978
 30
0.0
 10
1.61329
 20
-8.58978
 30
0.0
 10
1.61329
 20
-8.58978
 30
0.0
 10
1.61329
 20
-8.58978
 30
0.0
 10
1.94773
 20
-8.58978
 30
0.0
 10
1.94773
 20
-8.58978
 30
0.0
 10
1.94773
 20
-8.58978
 30
0.0
 10
1.94773
 20
-8.58978
 30
0.0
 10
1.94773
 20
-8.6609
 30
0.0
 10
1.94773
 20
-8.6609
 30
0.0
 10
1.94773
 20
-8.6609
 30
0.0
 10
1.94773
 20
-8.6609
 30
0.0
 10
1.61329
 20
-8.6609
 30
0.0
 10
1.61329
 20
-8.6609
 30
0.0
 10
1.61329
 20
-8.6609
 30
0.0
 10
1.61329
 20
-8.6609
 30
0.0
 10
1.61329
 20
-8.86749
 30
0.0
 10
1.61329
 20
-8.86749
 30
0.0
 10
1.61329
 20
-8.86749
 30
0.0
 10
1.61329
 20
-8.86749
 30
0.0
 10
1.98498
 20
-8.86749
 30
0.0
 10
1.98498
 20
-8.86749
 30
0.0
 10
1.98498
 20
-8.86749
 30
0.0
 10
1.98498
 20
-8.86749
 30
0.0
 10
1.98498
 20
-8.93861
 30
0.0
 10
1.98498
 20
-8.93861
 30
0.0
 10
1.98498
 20
-8.93861
 30
0.0
 10
1.98498
 20
-8.93861
 30
0.0
 10
1.53286
 20
-8.93861
 30
0.0
 10
1.53286
 20
-8.93861
 30
0.0
  0
SPLINE
  5
53
330
1F
100
AcDbEntity
  8
Layer 1
 62
     3
370
     9
100
AcDbSpline
210
0.0
220
0.0
230
1.0
 70
    11
 71
     3
 72
    20
 73
    16
 74
     0
 42
0.0000000001
 43
0.0000000001
 12
1.0
 22
0.0
 32
0.0
 13
1.0
 23
0.0
 33
0.0
 40
0.0
 40
0.0
 40
0.0
 40
0.0
 40
0.2
 40
0.2
 40
0.2
 40
0.2
 40
0.4
 40
0.4
 40
0.4
 40
0.4
 40
0.6
 40
0.6
 40
0.6
 40
0.6
 40
1.0
 40
1.0
 40
1.0
 40
1.0
 10
-10.38777
 20
6.43726
 30
0.0
 10
-10.38777
 20
6.43726
 30
0.0
 10
-10.38777
 20
-7.04109
 30
0.0
 10
-10.38777
 20
-7.04109
 30
0.0
 10
-10.38777
 20
-7.04109
 30
0.0
 10
-10.38777
 20
-7.04109
 30
0.0
 10
8.00687
 20
-7.04109
 30
0.0
 10
8.00687
 20
-7.04109
 30
0.0
 10
8.00687
 20
-7.04109
 30
0.0
 10
8.00687
 20
-7.04109
 30
0.0
 10
8.00687
 20
6.43726
 30
0.0
 10
8.00687
 20
6.43726
 30
0.0
 10
8.00687
 20
6.43726
 30
0.0
 10
8.00687
 20
6.43726
 30
0.0
 10
-10.38777
 20
6.43726
 30
0.0
 10
-10.38777
 20
6.43726
 30
0.0
  0
SPLINE
  5
55
330
1F
100
AcDbEntity
  8
layer 2
 62
     1
370
     0
100
AcDbSpline
210
0.0
220
0.0
230
1.0
 70
    24
 71
     3
 72
     8
 73
     4
 74
     0
 42
0.0000000001
 43
0.0000000001
 12
1.0
 22
0.0
 32
0.0
 13
1.0
 23
0.0
 33
0.0
 40
0.0
 40
0.0
 40
0.0
 40
0.0
 40
1.0
 40
1.0
 40
1.0
 40
1.0
 10
-10.38777
 20
6.57536
 30
0.0
 10
-10.38777
 20
6.57536
 30
0.0
 10
-10.38777
 20
8.10267
 30
0.0
 10
-10.38777
 20
8.10267
 30
0.0
  0
SPLINE
  5
56
330
1F
100
AcDbEntity
  8
layer 2
 62
     1
370
     0
100
AcDbSpline
210
0.0
220
0.0
230
1.0
 70
    24
 71
     3
 72
     8
 73
     4
 74
     0
 42
0.0000000001
 43
0.0000000001
 12
1.0
 22
0.0
 32
0.0
 13
1.0
 23
0.0
 33
0.0
 40
0.0
 40
0.0
 40
0.0
 40
0.0
 40
1.0
 40
1.0
 40
1.0
 40
1.0
 10
8.00687
 20
6.57536
 30
0.0
 10
8.00687
 20
6.57536
 30
0.0
 10
8.00687
 20
8.10267
 30
0.0
 10
8.00687
 20
8.10267
 30
0.0
  0
SPLINE
  5
57
330
1F
100
AcDbEntity
  8
layer 2
 62
     1
370
     0
100
AcDbSpline
210
0.0
220
0.0
230
1.0
 70
    24
 71
     3
 72
     8
 73
     4
 74
     0
 42
0.0000000001
 43
0.0000000001
 12
1.0
 22
0.0
 32
0.0
 13
1.0
 23
0.0
 33
0.0
 40
0.0
 40
0.0
 40
0.0
 40
0.0
 40
1.0
 40
1.0
 40
1.0
 40
1.0
 10
-9.83537
 20
7.82648
 30
0.0
 10
-9.83537
 20
7.82648
 30
0.0
 10
7.45448
 20
7.82648
 30
0.0
 10
7.45448
 20
7.82648
 30
0.0
  0
SPLINE
  5
58
330
1F
100
AcDbEntity
  8
layer 2
 62
     1
100
AcDbSpline
210
0.0
220
0.0
230
1.0
 70
    27
 71
     3
 72
    12
 73
     8
 74
     0
 42
0.0000000001
 43
0.0000000001
 12
1.0
 22
0.0
 32
0.0
 13
1.0
 23
0.0
 33
0.0
 40
0.0
 40
0.0
 40
0.0
 40
0.0
 40
0.3333333333333333
 40
0.3333333333333333
 40
0.3333333333333333
 40
0.3333333333333333
 40
1.0
 40
1.0
 40
1.0
 40
1.0
 10
-9.83537
 20
7.91855
 30
0.0
 10
-9.83537
 20
7.91855
 30
0.0
 10
-10.38777
 20
7.82648
 30
0.0
 10
-10.38777
 20
7.82648
 30
0.0
 10
-10.38777
 20
7.82648
 30
0.0
 10
-10.38777
 20
7.82648
 30
0.0
 10
-9.83537
 20
7.91855
 30
0.0
 10
-9.83537
 20
7.91855
 30
0.0
  0
SPLINE
  5
59
330
1F
100
AcDbEntity
  8
layer 2
 62
     1
100
AcDbSpline
210
0.0
220
0.0
230
1.0
 70
     8
 71
     3
 72
    12
 73
     8
 74
     0
 42
0.0000000001
 43
0.0000000001
 12
1.0
 22
0.0
 32
0.0
 13
1.0
 23
0.0
 33
0.0
 40
0.0
 40
0.0
 40
0.0
 40
0.0
 40
0.3333333333333333
 40
0.3333333333333333
 40
0.3333333333333333
 40
0.3333333333333333
 40
1.0
 40
1.0
 40
1.0
 40
1.0
 10
-10.38777
 20
7.82648
 30
0.0
 10
-10.38777
 20
7.82648
 30
0.0
 10
-9.83537
 20
7.73442
 30
0.0
 10
-9.83537
 20
7.73442
 30
0.0
 10
-9.83537
 20
7.73442
 30
0.0
 10
-9.83537
 20
7.73442
 30
0.0
 10
-9.83537
 20
7.91855
 30
0.0
 10
-9.83537
 20
7.91855
 30
0.0
  0
SPLINE
  5
5A
330
1F
100
AcDbEntity
  8
layer 2
 62
     1
370
     9
100
AcDbSpline
210
0.0
220
0.0
230
1.0
 70
    24
 71
     3
 72
     8
 73
     4
 74
     0
 42
0.0000000001
 43
0.0000000001
 12
1.0
 22
0.0
 32
0.0
 13
1.0
 23
0.0
 33
0.0
 40
0.0
 40
0.0
 40
0.0
 40
0.0
 40
1.0
 40
1.0
 40
1.0
 40
1.0
 10
-9.83537
 20
7.91855
 30
0.0
 10
-9.83537
 20
7.91855
 30
0.0
 10
-10.38777
 20
7.82648
 30
0.0
 10
-10.38777
 20
7.82648
 30
0.0
  0
SPLINE
  5
5B
330
1F
100
AcDbEntity
  8
layer 2
 62
     1
370
     9
100
AcDbSpline
210
0.0
220
0.0
230
1.0
 70
     8
 71
     3
 72
    12
 73
     8
 74
     0
 42
0.0000000001
 43
0.0000000001
 12
1.0
 22
0.0
 32
0.0
 13
1.0
 23
0.0
 33
0.0
 40
0.0
 40
0.0
 40
0.0
 40
0.0
 40
0.3333333333333333
 40
0.3333333333333333
 40
0.3333333333333333
 40
0.3333333333333333
 40
1.0
 40
1.0
 40
1.0
 40
1.0
 10
-10.38777
 20
7.82648
 30
0.0
 10
-10.38777
 20
7.82648
 30
0.0
 10
-9.83537
 20
7.73442
 30
0.0
 10
-9.83537
 20
7.73442
 30
0.0
 10
-9.83537
 20
7.73442
 30
0.0
 10
-9.83537
 20
7.73442
 30
0.0
 10
-9.83537
 20
7.91855
 30
0.0
 10
-9.83537
 20
7.91855
 30
0.0
  0
SPLINE
  5
5C
330
1F
100
AcDbEntity
  8
layer 2
 62
     1
100
AcDbSpline
210
0.0
220
0.0
230
1.0
 70
    27
 71
     3
 72
    12
 73
     8
 74
     0
 42
0.0000000001
 43
0.0000000001
 12
1.0
 22
0.0
 32
0.0
 13
1.0
 23
0.0
 33
0.0
 40
0.0
 40
0.0
 40
0.0
 40
0.0
 40
0.3333333333333333
 40
0.3333333333333333
 40
0.3333333333333333
 40
0.3333333333333333
 40
1.0
 40
1.0
 40
1.0
 40
1.0
 10
7.45448
 20
7.91855
 30
0.0
 10
7.45448
 20
7.91855
 30
0.0
 10
8.00687
 20
7.82648
 30
0.0
 10
8.00687
 20
7.82648
 30
0.0
 10
8.00687
 20
7.82648
 30
0.0
 10
8.00687
 20
7.82648
 30
0.0
 10
7.45448
 20
7.91855
 30
0.0
 10
7.45448
 20
7.91855
 30
0.0
  0
SPLINE
  5
5D
330
1F
100
AcDbEntity
  8
layer 2
 62
     1
100
AcDbSpline
210
0.0
220
0.0
230
1.0
 70
     8
 71
     3
 72
    12
 73
     8
 74
     0
 42
0.0000000001
 43
0.0000000001
 12
1.0
 22
0.0
 32
0.0
 13
1.0
 23
0.0
 33
0.0
 40
0.0
 40
0.0
 40
0.0
 40
0.0
 40
0.3333333333333333
 40
0.3333333333333333
 40
0.3333333333333333
 40
0.3333333333333333
 40
1.0
 40
1.0
 40
1.0
 40
1.0
 10
8.00687
 20
7.82648
 30
0.0
 10
8.00687
 20
7.82648
 30
0.0
 10
7.45448
 20
7.73442
 30
0.0
 10
7.45448
 20
7.73442
 30
0.0
 10
7.45448
 20
7.73442
 30
0.0
 10
7.45448
 20
7.73442
 30
0.0
 10
7.45448
 20
7.91855
 30
0.0
 10
7.45448
 20
7.91855
 30
0.0
  0
SPLINE
  5
5E
330
1F
100
AcDbEntity
  8
layer 2
 62
     1
370
     9
100
AcDbSpline
210
0.0
220
0.0
230
1.0
 70
    24
 71
     3
 72
     8
 73
     4
 74
     0
 42
0.0000000001
 43
0.0000000001
 12
1.0
 22
0.0
 32
0.0
 13
1.0
 23
0.0
 33
0.0
 40
0.0
 40
0.0
 40
0.0
 40
0.0
 40
1.0
 40
1.0
 40
1.0
 40
1.0
 10
7.45448
 20
7.91855
 30
0.0
 10
7.45448
 20
7.91855
 30
0.0
 10
8.00687
 20
7.82648
 30
0.0
 10
8.00687
 20
7.82648
 30
0.0
  0
SPLINE
  5
5F
330
1F
100
AcDbEntity
  8
layer 2
 62
     1
370
     9
100
AcDbSpline
210
0.0
220
0.0
230
1.0
 70
     8
 71
     3
 72
    12
 73
     8
 74
     0
 42
0.0000000001
 43
0.0000000001
 12
1.0
 22
0.0
 32
0.0
 13
1.0
 23
0.0
 33
0.0
 40
0.0
 40
0.0
 40
0.0
 40
0.0
 40
0.3333333333333333
 40
0.3333333333333333
 40
0.3333333333333333
 40
0.3333333333333333
 40
1.0
 40
1.0
 40
1.0
 40
1.0
 10
8.00687
 20
7.82648
 30
0.0
 10
8.00687
 20
7.82648
 30
0.0
 10
7.45448
 20
7.73442
 30
0.0
 10
7.45448
 20
7.73442
 30
0.0
 10
7.45448
 20
7.73442
 30
0.0
 10
7.45448
 20
7.73442
 30
0.0
 10
7.45448
 20
7.91855
 30
0.0
 10
7.45448
 20
7.91855
 30
0.0
  0
SPLINE
  5
60
330
1F
100
AcDbEntity
  8
layer 2
 62
     1
100
AcDbSpline
210
0.0
220
0.0
230
1.0
 70
    11
 71
     3
 72
    92
 73
    88
 74
     0
 42
0.0000000001
 43
0.0000000001
 12
1.0
 22
0.0
 32
0.0
 13
1.0
 23
0.0
 33
0.0
 40
0.0
 40
0.0
 40
0.0
 40
0.0
 40
0.0434782608695652
 40
0.0434782608695652
 40
0.0434782608695652
 40
0.0434782608695652
 40
0.0869565217391304
 40
0.0869565217391304
 40
0.0869565217391304
 40
0.0869565217391304
 40
0.1304347826086956
 40
0.1304347826086956
 40
0.1304347826086956
 40
0.1304347826086956
 40
0.1739130434782609
 40
0.1739130434782609
 40
0.1739130434782609
 40
0.1739130434782609
 40
0.2173913043478261
 40
0.2173913043478261
 40
0.2173913043478261
 40
0.2173913043478261
 40
0.2608695652173913
 40
0.2608695652173913
 40
0.2608695652173913
 40
0.2608695652173913
 40
0.3043478260869565
 40
0.3043478260869565
 40
0.3043478260869565
 40
0.3043478260869565
 40
0.3478260869565217
 40
0.3478260869565217
 40
0.3478260869565217
 40
0.3478260869565217
 40
0.391304347826087
 40
0.391304347826087
 40
0.391304347826087
 40
0.391304347826087
 40
0.4347826086956522
 40
0.4347826086956522
 40
0.4347826086956522
 40
0.4347826086956522
 40
0.4782608695652174
 40
0.4782608695652174
 40
0.4782608695652174
 40
0.4782608695652174
 40
0.5217391304347826
 40
0.5217391304347826
 40
0.5217391304347826
 40
0.5217391304347826
 40
0.5652173913043478
 40
0.5652173913043478
 40
0.5652173913043478
 40
0.5652173913043478
 40
0.6086956521739131
 40
0.6086956521739131
 40
0.6086956521739131
 40
0.6086956521739131
 40
0.6521739130434783
 40
0.6521739130434783
 40
0.6521739130434783
 40
0.6521739130434783
 40
0.6956521739130435
 40
0.6956521739130435
 40
0.6956521739130435
 40
0.6956521739130435
 40
0.7391304347826086
 40
0.7391304347826086
 40
0.7391304347826086
 40
0.7391304347826086
 40
0.782608695652174
 40
0.782608695652174
 40
0.782608695652174
 40
0.782608695652174
 40
0.8260869565217391
 40
0.8260869565217391
 40
0.8260869565217391
 40
0.8260869565217391
 40
0.8695652173913043
 40
0.8695652173913043
 40
0.8695652173913043
 40
0.8695652173913043
 40
0.9130434782608695
 40
0.9130434782608695
 40
0.9130434782608695
 40
0.9130434782608695
 40
1.0
 40
1.0
 40
1.0
 40
1.0
 10
-1.51959
 20
8.10531
 30
0.0
 10
-1.51959
 20
8.10531
 30
0.0
 10
-1.51959
 20
8.06263
 30
0.0
 10
-1.51959
 20
8.06263
 30
0.0
 10
-1.51959
 20
8.06263
 30
0.0
 10
-1.51959
 20
8.06263
 30
0.0
 10
-1.76047
 20
8.06263
 30
0.0
 10
-1.76047
 20
8.06263
 30
0.0
 10
-1.76047
 20
8.06263
 30
0.0
 10
-1.76081
 20
8.07338
 30
0.0
 10
-1.75904
 20
8.08372
 30
0.0
 10
-1.75523
 20
8.09371
 30
0.0
 10
-1.75523
 20
8.09371
 30
0.0
 10
-1.74905
 20
8.11006
 30
0.0
 10
-1.73913
 20
8.12624
 30
0.0
 10
-1.72549
 20
8.14207
 30
0.0
 10
-1.72549
 20
8.14207
 30
0.0
 10
-1.71186
 20
8.15792
 30
0.0
 10
-1.69238
 20
8.17621
 30
0.0
 10
-1.66706
 20
8.19696
 30
0.0
 10
-1.66706
 20
8.19696
 30
0.0
 10
-1.62767
 20
8.2294
 30
0.0
 10
-1.6009
 20
8.25506
 30
0.0
 10
-1.58693
 20
8.27404
 30
0.0
 10
-1.58693
 20
8.27404
 30
0.0
 10
-1.57287
 20
8.29301
 30
0.0
 10
-1.56583
 20
8.31098
 30
0.0
 10
-1.56583
 20
8.32791
 30
0.0
 10
-1.56583
 20
8.32791
 30
0.0
 10
-1.56583
 20
8.34562
 30
0.0
 10
-1.57219
 20
8.36052
 30
0.0
 10
-1.58489
 20
8.37272
 30
0.0
 10
-1.58489
 20
8.37272
 30
0.0
 10
-1.5976
 20
8.38483
 30
0.0
 10
-1.6142
 20
8.39093
 30
0.0
 10
-1.63461
 20
8.39093
 30
0.0
 10
-1.63461
 20
8.39093
 30
0.0
 10
-1.65621
 20
8.39093
 30
0.0
 10
-1.67349
 20
8.38449
 30
0.0
 10
-1.68645
 20
8.37161
 30
0.0
 10
-1.68645
 20
8.37161
 30
0.0
 10
-1.6994
 20
8.35882
 30
0.0
 10
-1.70593
 20
8.34103
 30
0.0
 10
-1.7061
 20
8.31826
 30
0.0
 10
-1.7061
 20
8.31826
 30
0.0
 10
-1.7061
 20
8.31826
 30
0.0
 10
-1.75184
 20
8.32283
 30
0.0
 10
-1.75184
 20
8.32283
 30
0.0
 10
-1.75184
 20
8.32283
 30
0.0
 10
-1.74871
 20
8.35704
 30
0.0
 10
-1.73685
 20
8.38313
 30
0.0
 10
-1.71635
 20
8.40109
 30
0.0
 10
-1.71635
 20
8.40109
 30
0.0
 10
-1.69576
 20
8.41904
 30
0.0
 10
-1.66824
 20
8.42803
 30
0.0
 10
-1.6336
 20
8.42803
 30
0.0
 10
-1.6336
 20
8.42803
 30
0.0
 10
-1.5987
 20
8.42803
 30
0.0
 10
-1.571
 20
8.41837
 30
0.0
 10
-1.55068
 20
8.39897
 30
0.0
 10
-1.55068
 20
8.39897
 30
0.0
 10
-1.53026
 20
8.37957
 30
0.0
 10
-1.5201
 20
8.35552
 30
0.0
 10
-1.5201
 20
8.32689
 30
0.0
 10
-1.5201
 20
8.32689
 30
0.0
 10
-1.5201
 20
8.31232
 30
0.0
 10
-1.52307
 20
8.29801
 30
0.0
 10
-1.52907
 20
8.28394
 30
0.0
 10
-1.52907
 20
8.28394
 30
0.0
 10
-1.53501
 20
8.26981
 30
0.0
 10
-1.54492
 20
8.25498
 30
0.0
 10
-1.55872
 20
8.2394
 30
0.0
 10
-1.55872
 20
8.2394
 30
0.0
 10
-1.57261
 20
8.2239
 30
0.0
 10
-1.59556
 20
8.20247
 30
0.0
 10
-1.62758
 20
8.17536
 30
0.0
 10
-1.62758
 20
8.17536
 30
0.0
 10
-1.65443
 20
8.15284
 30
0.0
 10
-1.67171
 20
8.13759
 30
0.0
 10
-1.67933
 20
8.12954
 30
0.0
 10
-1.67933
 20
8.12954
 30
0.0
 10
-1.68695
 20
8.1215
 30
0.0
 10
-1.69323
 20
8.11345
 30
0.0
 10
-1.69822
 20
8.10531
 30
0.0
 10
-1.69822
 20
8.10531
 30
0.0
 10
-1.69822
 20
8.10531
 30
0.0
 10
-1.51959
 20
8.10531
 30
0.0
 10
-1.51959
 20
8.10531
 30
0.0
  0
SPLINE
  5
61
330
1F
100
AcDbEntity
  8
layer 2
 62
     1
100
AcDbSpline
210
0.0
220
0.0
230
1.0
 70
    11
 71
     3
 72
    80
 73
    76
 74
     0
 42
0.0000000001
 43
0.0000000001
 12
1.0
 22
0.0
 32
0.0
 13
1.0
 23
0.0
 33
0.0
 40
0.0
 40
0.0
 40
0.0
 40
0.0
 40
0.05
 40
0.05
 40
0.05
 40
0.05
 40
0.1
 40
0.1
 40
0.1
 40
0.1
 40
0.15
 40
0.15
 40
0.15
 40
0.15
 40
0.2
 40
0.2
 40
0.2
 40
0.2
 40
0.25
 40
0.25
 40
0.25
 40
0.25
 40
0.3
 40
0.3
 40
0.3
 40
0.3
 40
0.35
 40
0.35
 40
0.35
 40
0.35
 40
0.4
 40
0.4
 40
0.4
 40
0.4
 40
0.45
 40
0.45
 40
0.45
 40
0.45
 40
0.5
 40
0.5
 40
0.5
 40
0.5
 40
0.55
 40
0.55
 40
0.55
 40
0.55
 40
0.6
 40
0.6
 40
0.6
 40
0.6
 40
0.65
 40
0.65
 40
0.65
 40
0.65
 40
0.7
 40
0.7
 40
0.7
 40
0.7
 40
0.75
 40
0.75
 40
0.75
 40
0.75
 40
0.8
 40
0.8
 40
0.8
 40
0.8
 40
0.85
 40
0.85
 40
0.85
 40
0.85
 40
0.9
 40
0.9
 40
0.9
 40
0.9
 40
1.0
 40
1.0
 40
1.0
 40
1.0
 10
-1.23898
 20
8.33756
 30
0.0
 10
-1.23898
 20
8.33756
 30
0.0
 10
-1.28319
 20
8.334
 30
0.0
 10
-1.28319
 20
8.334
 30
0.0
 10
-1.28319
 20
8.334
 30
0.0
 10
-1.28717
 20
8.35154
 30
0.0
 10
-1.29285
 20
8.36433
 30
0.0
 10
-1.30022
 20
8.37229
 30
0.0
 10
-1.30022
 20
8.37229
 30
0.0
 10
-1.31233
 20
8.38509
 30
0.0
 10
-1.32732
 20
8.39143
 30
0.0
 10
-1.34511
 20
8.39143
 30
0.0
 10
-1.34511
 20
8.39143
 30
0.0
 10
-1.35942
 20
8.39143
 30
0.0
 10
-1.37213
 20
8.38745
 30
0.0
 10
-1.38306
 20
8.37949
 30
0.0
 10
-1.38306
 20
8.37949
 30
0.0
 10
-1.39711
 20
8.36924
 30
0.0
 10
-1.40812
 20
8.35433
 30
0.0
 10
-1.41634
 20
8.33469
 30
0.0
 10
-1.41634
 20
8.33469
 30
0.0
 10
-1.42447
 20
8.31495
 30
0.0
 10
-1.42871
 20
8.28691
 30
0.0
 10
-1.42904
 20
8.25058
 30
0.0
 10
-1.42904
 20
8.25058
 30
0.0
 10
-1.41829
 20
8.26692
 30
0.0
 10
-1.40507
 20
8.27913
 30
0.0
 10
-1.38949
 20
8.287
 30
0.0
 10
-1.38949
 20
8.287
 30
0.0
 10
-1.3739
 20
8.29496
 30
0.0
 10
-1.35764
 20
8.29894
 30
0.0
 10
-1.34054
 20
8.29894
 30
0.0
 10
-1.34054
 20
8.29894
 30
0.0
 10
-1.31072
 20
8.29894
 30
0.0
 10
-1.28531
 20
8.28793
 30
0.0
 10
-1.26431
 20
8.26599
 30
0.0
 10
-1.26431
 20
8.26599
 30
0.0
 10
-1.24339
 20
8.24405
 30
0.0
 10
-1.23288
 20
8.21577
 30
0.0
 10
-1.23288
 20
8.18095
 30
0.0
 10
-1.23288
 20
8.18095
 30
0.0
 10
-1.23288
 20
8.15808
 30
0.0
 10
-1.23779
 20
8.13691
 30
0.0
 10
-1.24762
 20
8.11726
 30
0.0
 10
-1.24762
 20
8.11726
 30
0.0
 10
-1.25752
 20
8.09761
 30
0.0
 10
-1.271
 20
8.08262
 30
0.0
 10
-1.28828
 20
8.0722
 30
0.0
 10
-1.28828
 20
8.0722
 30
0.0
 10
-1.30547
 20
8.06178
 30
0.0
 10
-1.32504
 20
8.05653
 30
0.0
 10
-1.34688
 20
8.05653
 30
0.0
 10
-1.34688
 20
8.05653
 30
0.0
 10
-1.38407
 20
8.05653
 30
0.0
 10
-1.41448
 20
8.07025
 30
0.0
 10
-1.43803
 20
8.09761
 30
0.0
 10
-1.43803
 20
8.09761
 30
0.0
 10
-1.46149
 20
8.12497
 30
0.0
 10
-1.47326
 20
8.17012
 30
0.0
 10
-1.47326
 20
8.23296
 30
0.0
 10
-1.47326
 20
8.23296
 30
0.0
 10
-1.47326
 20
8.30326
 30
0.0
 10
-1.46022
 20
8.35443
 30
0.0
 10
-1.43421
 20
8.38636
 30
0.0
 10
-1.43421
 20
8.38636
 30
0.0
 10
-1.41151
 20
8.41413
 30
0.0
 10
-1.38094
 20
8.42803
 30
0.0
 10
-1.3424
 20
8.42803
 30
0.0
 10
-1.3424
 20
8.42803
 30
0.0
 10
-1.31376
 20
8.42803
 30
0.0
 10
-1.29022
 20
8.41997
 30
0.0
 10
-1.27193
 20
8.40397
 30
0.0
 10
-1.27193
 20
8.40397
 30
0.0
 10
-1.25363
 20
8.38796
 30
0.0
 10
-1.24262
 20
8.36585
 30
0.0
 10
-1.23898
 20
8.33756
 30
0.0
  0
SPLINE
  5
62
330
1F
100
AcDbEntity
  8
layer 2
 62
     1
100
AcDbSpline
210
0.0
220
0.0
230
1.0
 70
    11
 71
     3
 72
    40
 73
    36
 74
     0
 42
0.0000000001
 43
0.0000000001
 12
1.0
 22
0.0
 32
0.0
 13
1.0
 23
0.0
 33
0.0
 40
0.0
 40
0.0
 40
0.0
 40
0.0
 40
0.1
 40
0.1
 40
0.1
 40
0.1
 40
0.2
 40
0.2
 40
0.2
 40
0.2
 40
0.3
 40
0.3
 40
0.3
 40
0.3
 40
0.4
 40
0.4
 40
0.4
 40
0.4
 40
0.5
 40
0.5
 40
0.5
 40
0.5
 40
0.6
 40
0.6
 40
0.6
 40
0.6
 40
0.7
 40
0.7
 40
0.7
 40
0.7
 40
0.8
 40
0.8
 40
0.8
 40
0.8
 40
1.0
 40
1.0
 40
1.0
 40
1.0
 10
-1.42193
 20
8.18053
 30
0.0
 10
-1.42193
 20
8.16511
 30
0.0
 10
-1.41863
 20
8.15038
 30
0.0
 10
-1.4121
 20
8.13631
 30
0.0
 10
-1.4121
 20
8.13631
 30
0.0
 10
-1.40558
 20
8.12226
 30
0.0
 10
-1.39644
 20
8.11158
 30
0.0
 10
-1.38483
 20
8.10422
 30
0.0
 10
-1.38483
 20
8.10422
 30
0.0
 10
-1.37314
 20
8.09684
 30
0.0
 10
-1.36077
 20
8.09312
 30
0.0
 10
-1.34765
 20
8.09312
 30
0.0
 10
-1.34765
 20
8.09312
 30
0.0
 10
-1.32859
 20
8.09312
 30
0.0
 10
-1.31233
 20
8.10074
 30
0.0
 10
-1.29886
 20
8.116
 30
0.0
 10
-1.29886
 20
8.116
 30
0.0
 10
-1.28539
 20
8.13124
 30
0.0
 10
-1.27862
 20
8.15191
 30
0.0
 10
-1.27862
 20
8.17808
 30
0.0
 10
-1.27862
 20
8.17808
 30
0.0
 10
-1.27862
 20
8.20323
 30
0.0
 10
-1.28531
 20
8.22305
 30
0.0
 10
-1.2986
 20
8.23754
 30
0.0
 10
-1.2986
 20
8.23754
 30
0.0
 10
-1.3119
 20
8.25201
 30
0.0
 10
-1.32884
 20
8.2593
 30
0.0
 10
-1.34943
 20
8.2593
 30
0.0
 10
-1.34943
 20
8.2593
 30
0.0
 10
-1.36958
 20
8.2593
 30
0.0
 10
-1.38678
 20
8.25201
 30
0.0
 10
-1.40084
 20
8.23754
 30
0.0
 10
-1.40084
 20
8.23754
 30
0.0
 10
-1.41491
 20
8.22305
 30
0.0
 10
-1.42193
 20
8.20407
 30
0.0
 10
-1.42193
 20
8.18053
 30
0.0
  0
SPLINE
  5
63
330
1F
100
AcDbEntity
  8
layer 2
 62
     1
100
AcDbSpline
210
0.0
220
0.0
230
1.0
 70
    11
 71
     3
 72
    20
 73
    16
 74
     0
 42
0.0000000001
 43
0.0000000001
 12
1.0
 22
0.0
 32
0.0
 13
1.0
 23
0.0
 33
0.0
 40
0.0
 40
0.0
 40
0.0
 40
0.0
 40
0.2
 40
0.2
 40
0.2
 40
0.2
 40
0.4
 40
0.4
 40
0.4
 40
0.4
 40
0.6
 40
0.6
 40
0.6
 40
0.6
 40
1.0
 40
1.0
 40
1.0
 40
1.0
 10
-1.16368
 20
8.06263
 30
0.0
 10
-1.16368
 20
8.06263
 30
0.0
 10
-1.16368
 20
8.11345
 30
0.0
 10
-1.16368
 20
8.11345
 30
0.0
 10
-1.16368
 20
8.11345
 30
0.0
 10
-1.16368
 20
8.11345
 30
0.0
 10
-1.11286
 20
8.11345
 30
0.0
 10
-1.11286
 20
8.11345
 30
0.0
 10
-1.11286
 20
8.11345
 30
0.0
 10
-1.11286
 20
8.11345
 30
0.0
 10
-1.11286
 20
8.06263
 30
0.0
 10
-1.11286
 20
8.06263
 30
0.0
 10
-1.11286
 20
8.06263
 30
0.0
 10
-1.11286
 20
8.06263
 30
0.0
 10
-1.16368
 20
8.06263
 30
0.0
 10
-1.16368
 20
8.06263
 30
0.0
  0
SPLINE
  5
64
330
1F
100
AcDbEntity
  8
layer 2
 62
     1
100
AcDbSpline
210
0.0
220
0.0
230
1.0
 70
    11
 71
     3
 72
    92
 73
    88
 74
     0
 42
0.0000000001
 43
0.0000000001
 12
1.0
 22
0.0
 32
0.0
 13
1.0
 23
0.0
 33
0.0
 40
0.0
 40
0.0
 40
0.0
 40
0.0
 40
0.0434782608695652
 40
0.0434782608695652
 40
0.0434782608695652
 40
0.0434782608695652
 40
0.0869565217391304
 40
0.0869565217391304
 40
0.0869565217391304
 40
0.0869565217391304
 40
0.1304347826086956
 40
0.1304347826086956
 40
0.1304347826086956
 40
0.1304347826086956
 40
0.1739130434782609
 40
0.1739130434782609
 40
0.1739130434782609
 40
0.1739130434782609
 40
0.2173913043478261
 40
0.2173913043478261
 40
0.2173913043478261
 40
0.2173913043478261
 40
0.2608695652173913
 40
0.2608695652173913
 40
0.2608695652173913
 40
0.2608695652173913
 40
0.3043478260869565
 40
0.3043478260869565
 40
0.3043478260869565
 40
0.3043478260869565
 40
0.3478260869565217
 40
0.3478260869565217
 40
0.3478260869565217
 40
0.3478260869565217
 40
0.391304347826087
 40
0.391304347826087
 40
0.391304347826087
 40
0.391304347826087
 40
0.4347826086956522
 40
0.4347826086956522
 40
0.4347826086956522
 40
0.4347826086956522
 40
0.4782608695652174
 40
0.4782608695652174
 40
0.4782608695652174
 40
0.4782608695652174
 40
0.5217391304347826
 40
0.5217391304347826
 40
0.5217391304347826
 40
0.5217391304347826
 40
0.5652173913043478
 40
0.5652173913043478
 40
0.5652173913043478
 40
0.5652173913043478
 40
0.6086956521739131
 40
0.6086956521739131
 40
0.6086956521739131
 40
0.6086956521739131
 40
0.6521739130434783
 40
0.6521739130434783
 40
0.6521739130434783
 40
0.6521739130434783
 40
0.6956521739130435
 40
0.6956521739130435
 40
0.6956521739130435
 40
0.6956521739130435
 40
0.7391304347826086
 40
0.7391304347826086
 40
0.7391304347826086
 40
0.7391304347826086
 40
0.782608695652174
 40
0.782608695652174
 40
0.782608695652174
 40
0.782608695652174
 40
0.8260869565217391
 40
0.8260869565217391
 40
0.8260869565217391
 40
0.8260869565217391
 40
0.8695652173913043
 40
0.8695652173913043
 40
0.8695652173913043
 40
0.8695652173913043
 40
0.9130434782608695
 40
0.9130434782608695
 40
0.9130434782608695
 40
0.9130434782608695
 40
1.0
 40
1.0
 40
1.0
 40
1.0
 10
-0.81311
 20
8.10531
 30
0.0
 10
-0.81311
 20
8.10531
 30
0.0
 10
-0.81311
 20
8.06263
 30
0.0
 10
-0.81311
 20
8.06263
 30
0.0
 10
-0.81311
 20
8.06263
 30
0.0
 10
-0.81311
 20
8.06263
 30
0.0
 10
-1.05399
 20
8.06263
 30
0.0
 10
-1.05399
 20
8.06263
 30
0.0
 10
-1.05399
 20
8.06263
 30
0.0
 10
-1.05433
 20
8.07338
 30
0.0
 10
-1.05255
 20
8.08372
 30
0.0
 10
-1.04874
 20
8.09371
 30
0.0
 10
-1.04874
 20
8.09371
 30
0.0
 10
-1.04255
 20
8.11006
 30
0.0
 10
-1.03265
 20
8.12624
 30
0.0
 10
-1.01901
 20
8.14207
 30
0.0
 10
-1.01901
 20
8.14207
 30
0.0
 10
-1.00537
 20
8.15792
 30
0.0
 10
-0.9859
 20
8.17621
 30
0.0
 10
-0.96058
 20
8.19696
 30
0.0
 10
-0.96058
 20
8.19696
 30
0.0
 10
-0.92119
 20
8.2294
 30
0.0
 10
-0.89442
 20
8.25506
 30
0.0
 10
-0.88045
 20
8.27404
 30
0.0
 10
-0.88045
 20
8.27404
 30
0.0
 10
-0.86638
 20
8.29301
 30
0.0
 10
-0.85935
 20
8.31098
 30
0.0
 10
-0.85935
 20
8.32791
 30
0.0
 10
-0.85935
 20
8.32791
 30
0.0
 10
-0.85935
 20
8.34562
 30
0.0
 10
-0.8657
 20
8.36052
 30
0.0
 10
-0.87841
 20
8.37272
 30
0.0
 10
-0.87841
 20
8.37272
 30
0.0
 10
-0.89112
 20
8.38483
 30
0.0
 10
-0.90771
 20
8.39093
 30
0.0
 10
-0.92813
 20
8.39093
 30
0.0
 10
-0.92813
 20
8.39093
 30
0.0
 10
-0.94973
 20
8.39093
 30
0.0
 10
-0.96701
 20
8.38449
 30
0.0
 10
-0.97996
 20
8.37161
 30
0.0
 10
-0.97996
 20
8.37161
 30
0.0
 10
-0.99292
 20
8.35882
 30
0.0
 10
-0.99944
 20
8.34103
 30
0.0
 10
-0.99962
 20
8.31826
 30
0.0
 10
-0.99962
 20
8.31826
 30
0.0
 10
-0.99962
 20
8.31826
 30
0.0
 10
-1.04536
 20
8.32283
 30
0.0
 10
-1.04536
 20
8.32283
 30
0.0
 10
-1.04536
 20
8.32283
 30
0.0
 10
-1.04222
 20
8.35704
 30
0.0
 10
-1.03036
 20
8.38313
 30
0.0
 10
-1.00987
 20
8.40109
 30
0.0
 10
-1.00987
 20
8.40109
 30
0.0
 10
-0.98928
 20
8.41904
 30
0.0
 10
-0.96175
 20
8.42803
 30
0.0
 10
-0.92711
 20
8.42803
 30
0.0
 10
-0.92711
 20
8.42803
 30
0.0
 10
-0.89221
 20
8.42803
 30
0.0
 10
-0.86452
 20
8.41837
 30
0.0
 10
-0.84419
 20
8.39897
 30
0.0
 10
-0.84419
 20
8.39897
 30
0.0
 10
-0.82378
 20
8.37957
 30
0.0
 10
-0.81362
 20
8.35552
 30
0.0
 10
-0.81362
 20
8.32689
 30
0.0
 10
-0.81362
 20
8.32689
 30
0.0
 10
-0.81362
 20
8.31232
 30
0.0
 10
-0.81657
 20
8.29801
 30
0.0
 10
-0.82259
 20
8.28394
 30
0.0
 10
-0.82259
 20
8.28394
 30
0.0
 10
-0.82852
 20
8.26981
 30
0.0
 10
-0.83843
 20
8.25498
 30
0.0
 10
-0.85224
 20
8.2394
 30
0.0
 10
-0.85224
 20
8.2394
 30
0.0
 10
-0.86612
 20
8.2239
 30
0.0
 10
-0.88908
 20
8.20247
 30
0.0
 10
-0.92109
 20
8.17536
 30
0.0
 10
-0.92109
 20
8.17536
 30
0.0
 10
-0.94795
 20
8.15284
 30
0.0
 10
-0.96523
 20
8.13759
 30
0.0
 10
-0.97285
 20
8.12954
 30
0.0
 10
-0.97285
 20
8.12954
 30
0.0
 10
-0.98047
 20
8.1215
 30
0.0
 10
-0.98675
 20
8.11345
 30
0.0
 10
-0.99174
 20
8.10531
 30
0.0
 10
-0.99174
 20
8.10531
 30
0.0
 10
-0.99174
 20
8.10531
 30
0.0
 10
-0.81311
 20
8.10531
 30
0.0
 10
-0.81311
 20
8.10531
 30
0.0
  0
SPLINE
  5
65
330
1F
100
AcDbEntity
  8
layer 2
 62
     1
100
AcDbSpline
210
0.0
220
0.0
230
1.0
 70
    11
 71
     3
 72
    28
 73
    24
 74
     0
 42
0.0000000001
 43
0.0000000001
 12
1.0
 22
0.0
 32
0.0
 13
1.0
 23
0.0
 33
0.0
 40
0.0
 40
0.0
 40
0.0
 40
0.0
 40
0.1428571428571428
 40
0.1428571428571428
 40
0.1428571428571428
 40
0.1428571428571428
 40
0.2857142857142857
 40
0.2857142857142857
 40
0.2857142857142857
 40
0.2857142857142857
 40
0.4285714285714285
 40
0.4285714285714285
 40
0.4285714285714285
 40
0.4285714285714285
 40
0.5714285714285714
 40
0.5714285714285714
 40
0.5714285714285714
 40
0.5714285714285714
 40
0.7142857142857143
 40
0.7142857142857143
 40
0.7142857142857143
 40
0.7142857142857143
 40
1.0
 40
1.0
 40
1.0
 40
1.0
 10
-0.75034
 20
8.29793
 30
0.0
 10
-0.75034
 20
8.29793
 30
0.0
 10
-0.76271
 20
8.36704
 30
0.0
 10
-0.76271
 20
8.36704
 30
0.0
 10
-0.76271
 20
8.36704
 30
0.0
 10
-0.76271
 20
8.36704
 30
0.0
 10
-0.76271
 20
8.4265
 30
0.0
 10
-0.76271
 20
8.4265
 30
0.0
 10
-0.76271
 20
8.4265
 30
0.0
 10
-0.76271
 20
8.4265
 30
0.0
 10
-0.71189
 20
8.4265
 30
0.0
 10
-0.71189
 20
8.4265
 30
0.0
 10
-0.71189
 20
8.4265
 30
0.0
 10
-0.71189
 20
8.4265
 30
0.0
 10
-0.71189
 20
8.36704
 30
0.0
 10
-0.71189
 20
8.36704
 30
0.0
 10
-0.71189
 20
8.36704
 30
0.0
 10
-0.71189
 20
8.36704
 30
0.0
 10
-0.72306
 20
8.29793
 30
0.0
 10
-0.72306
 20
8.29793
 30
0.0
 10
-0.72306
 20
8.29793
 30
0.0
 10
-0.72306
 20
8.29793
 30
0.0
 10
-0.75034
 20
8.29793
 30
0.0
 10
-0.75034
 20
8.29793
 30
0.0
  0
SPLINE
  5
66
330
1F
100
AcDbEntity
  8
layer 2
 62
     1
100
AcDbSpline
210
0.0
220
0.0
230
1.0
 70
    11
 71
     3
 72
    28
 73
    24
 74
     0
 42
0.0000000001
 43
0.0000000001
 12
1.0
 22
0.0
 32
0.0
 13
1.0
 23
0.0
 33
0.0
 40
0.0
 40
0.0
 40
0.0
 40
0.0
 40
0.1428571428571428
 40
0.1428571428571428
 40
0.1428571428571428
 40
0.1428571428571428
 40
0.2857142857142857
 40
0.2857142857142857
 40
0.2857142857142857
 40
0.2857142857142857
 40
0.4285714285714285
 40
0.4285714285714285
 40
0.4285714285714285
 40
0.4285714285714285
 40
0.5714285714285714
 40
0.5714285714285714
 40
0.5714285714285714
 40
0.5714285714285714
 40
0.7142857142857143
 40
0.7142857142857143
 40
0.7142857142857143
 40
0.7142857142857143
 40
1.0
 40
1.0
 40
1.0
 40
1.0
 10
-0.66827
 20
8.29793
 30
0.0
 10
-0.66827
 20
8.29793
 30
0.0
 10
-0.68038
 20
8.36704
 30
0.0
 10
-0.68038
 20
8.36704
 30
0.0
 10
-0.68038
 20
8.36704
 30
0.0
 10
-0.68038
 20
8.36704
 30
0.0
 10
-0.68038
 20
8.4265
 30
0.0
 10
-0.68038
 20
8.4265
 30
0.0
 10
-0.68038
 20
8.4265
 30
0.0
 10
-0.68038
 20
8.4265
 30
0.0
 10
-0.62957
 20
8.4265
 30
0.0
 10
-0.62957
 20
8.4265
 30
0.0
 10
-0.62957
 20
8.4265
 30
0.0
 10
-0.62957
 20
8.4265
 30
0.0
 10
-0.62957
 20
8.36704
 30
0.0
 10
-0.62957
 20
8.36704
 30
0.0
 10
-0.62957
 20
8.36704
 30
0.0
 10
-0.62957
 20
8.36704
 30
0.0
 10
-0.6415
 20
8.29793
 30
0.0
 10
-0.6415
 20
8.29793
 30
0.0
 10
-0.6415
 20
8.29793
 30
0.0
 10
-0.6415
 20
8.29793
 30
0.0
 10
-0.66827
 20
8.29793
 30
0.0
 10
-0.66827
 20
8.29793
 30
0.0
  0
SPLINE
  5
67
330
1F
100
AcDbEntity
  8
layer 2
 62
     1
370
     0
100
AcDbSpline
210
0.0
220
0.0
230
1.0
 70
    24
 71
     3
 72
     8
 73
     4
 74
     0
 42
0.0000000001
 43
0.0000000001
 12
1.0
 22
0.0
 32
0.0
 13
1.0
 23
0.0
 33
0.0
 40
0.0
 40
0.0
 40
0.0
 40
0.0
 40
1.0
 40
1.0
 40
1.0
 40
1.0
 10
8.14497
 20
6.43726
 30
0.0
 10
8.14497
 20
6.43726
 30
0.0
 10
9.94758
 20
6.43726
 30
0.0
 10
9.94758
 20
6.43726
 30
0.0
  0
SPLINE
  5
68
330
1F
100
AcDbEntity
  8
layer 2
 62
     1
370
     0
100
AcDbSpline
210
0.0
220
0.0
230
1.0
 70
    24
 71
     3
 72
     8
 73
     4
 74
     0
 42
0.0000000001
 43
0.0000000001
 12
1.0
 22
0.0
 32
0.0
 13
1.0
 23
0.0
 33
0.0
 40
0.0
 40
0.0
 40
0.0
 40
0.0
 40
1.0
 40
1.0
 40
1.0
 40
1.0
 10
8.14497
 20
-7.04109
 30
0.0
 10
8.14497
 20
-7.04109
 30
0.0
 10
9.94758
 20
-7.04109
 30
0.0
 10
9.94758
 20
-7.04109
 30
0.0
  0
SPLINE
  5
69
330
1F
100
AcDbEntity
  8
layer 2
 62
     1
370
     0
100
AcDbSpline
210
0.0
220
0.0
230
1.0
 70
    24
 71
     3
 72
     8
 73
     4
 74
     0
 42
0.0000000001
 43
0.0000000001
 12
1.0
 22
0.0
 32
0.0
 13
1.0
 23
0.0
 33
0.0
 40
0.0
 40
0.0
 40
0.0
 40
0.0
 40
1.0
 40
1.0
 40
1.0
 40
1.0
 10
9.67138
 20
5.88488
 30
0.0
 10
9.67138
 20
5.88488
 30
0.0
 10
9.67138
 20
-6.48869
 30
0.0
 10
9.67138
 20
-6.48869
 30
0.0
  0
SPLINE
  5
6A
330
1F
100
AcDbEntity
  8
layer 2
 62
     1
100
AcDbSpline
210
0.0
220
0.0
230
1.0
 70
    27
 71
     3
 72
    12
 73
     8
 74
     0
 42
0.0000000001
 43
0.0000000001
 12
1.0
 22
0.0
 32
0.0
 13
1.0
 23
0.0
 33
0.0
 40
0.0
 40
0.0
 40
0.0
 40
0.0
 40
0.3333333333333333
 40
0.3333333333333333
 40
0.3333333333333333
 40
0.3333333333333333
 40
1.0
 40
1.0
 40
1.0
 40
1.0
 10
9.57931
 20
5.88488
 30
0.0
 10
9.57931
 20
5.88488
 30
0.0
 10
9.67138
 20
6.43726
 30
0.0
 10
9.67138
 20
6.43726
 30
0.0
 10
9.67138
 20
6.43726
 30
0.0
 10
9.67138
 20
6.43726
 30
0.0
 10
9.57931
 20
5.88488
 30
0.0
 10
9.57931
 20
5.88488
 30
0.0
  0
SPLINE
  5
6B
330
1F
100
AcDbEntity
  8
layer 2
 62
     1
100
AcDbSpline
210
0.0
220
0.0
230
1.0
 70
     8
 71
     3
 72
    12
 73
     8
 74
     0
 42
0.0000000001
 43
0.0000000001
 12
1.0
 22
0.0
 32
0.0
 13
1.0
 23
0.0
 33
0.0
 40
0.0
 40
0.0
 40
0.0
 40
0.0
 40
0.3333333333333333
 40
0.3333333333333333
 40
0.3333333333333333
 40
0.3333333333333333
 40
1.0
 40
1.0
 40
1.0
 40
1.0
 10
9.67138
 20
6.43726
 30
0.0
 10
9.67138
 20
6.43726
 30
0.0
 10
9.76345
 20
5.88488
 30
0.0
 10
9.76345
 20
5.88488
 30
0.0
 10
9.76345
 20
5.88488
 30
0.0
 10
9.76345
 20
5.88488
 30
0.0
 10
9.57931
 20
5.88488
 30
0.0
 10
9.57931
 20
5.88488
 30
0.0
  0
SPLINE
  5
6C
330
1F
100
AcDbEntity
  8
layer 2
 62
     1
370
     9
100
AcDbSpline
210
0.0
220
0.0
230
1.0
 70
    24
 71
     3
 72
     8
 73
     4
 74
     0
 42
0.0000000001
 43
0.0000000001
 12
1.0
 22
0.0
 32
0.0
 13
1.0
 23
0.0
 33
0.0
 40
0.0
 40
0.0
 40
0.0
 40
0.0
 40
1.0
 40
1.0
 40
1.0
 40
1.0
 10
9.57931
 20
5.88488
 30
0.0
 10
9.57931
 20
5.88488
 30
0.0
 10
9.67138
 20
6.43726
 30
0.0
 10
9.67138
 20
6.43726
 30
0.0
  0
SPLINE
  5
6D
330
1F
100
AcDbEntity
  8
layer 2
 62
     1
370
     9
100
AcDbSpline
210
0.0
220
0.0
230
1.0
 70
     8
 71
     3
 72
    12
 73
     8
 74
     0
 42
0.0000000001
 43
0.0000000001
 12
1.0
 22
0.0
 32
0.0
 13
1.0
 23
0.0
 33
0.0
 40
0.0
 40
0.0
 40
0.0
 40
0.0
 40
0.3333333333333333
 40
0.3333333333333333
 40
0.3333333333333333
 40
0.3333333333333333
 40
1.0
 40
1.0
 40
1.0
 40
1.0
 10
9.67138
 20
6.43726
 30
0.0
 10
9.67138
 20
6.43726
 30
0.0
 10
9.76345
 20
5.88488
 30
0.0
 10
9.76345
 20
5.88488
 30
0.0
 10
9.76345
 20
5.88488
 30
0.0
 10
9.76345
 20
5.88488
 30
0.0
 10
9.57931
 20
5.88488
 30
0.0
 10
9.57931
 20
5.88488
 30
0.0
  0
SPLINE
  5
6E
330
1F
100
AcDbEntity
  8
layer 2
 62
     1
100
AcDbSpline
210
0.0
220
0.0
230
1.0
 70
    27
 71
     3
 72
    12
 73
     8
 74
     0
 42
0.0000000001
 43
0.0000000001
 12
1.0
 22
0.0
 32
0.0
 13
1.0
 23
0.0
 33
0.0
 40
0.0
 40
0.0
 40
0.0
 40
0.0
 40
0.3333333333333333
 40
0.3333333333333333
 40
0.3333333333333333
 40
0.3333333333333333
 40
1.0
 40
1.0
 40
1.0
 40
1.0
 10
9.57931
 20
-6.48869
 30
0.0
 10
9.57931
 20
-6.48869
 30
0.0
 10
9.67138
 20
-7.04109
 30
0.0
 10
9.67138
 20
-7.04109
 30
0.0
 10
9.67138
 20
-7.04109
 30
0.0
 10
9.67138
 20
-7.04109
 30
0.0
 10
9.57931
 20
-6.48869
 30
0.0
 10
9.57931
 20
-6.48869
 30
0.0
  0
SPLINE
  5
6F
330
1F
100
AcDbEntity
  8
layer 2
 62
     1
100
AcDbSpline
210
0.0
220
0.0
230
1.0
 70
     8
 71
     3
 72
    12
 73
     8
 74
     0
 42
0.0000000001
 43
0.0000000001
 12
1.0
 22
0.0
 32
0.0
 13
1.0
 23
0.0
 33
0.0
 40
0.0
 40
0.0
 40
0.0
 40
0.0
 40
0.3333333333333333
 40
0.3333333333333333
 40
0.3333333333333333
 40
0.3333333333333333
 40
1.0
 40
1.0
 40
1.0
 40
1.0
 10
9.67138
 20
-7.04109
 30
0.0
 10
9.67138
 20
-7.04109
 30
0.0
 10
9.76345
 20
-6.48869
 30
0.0
 10
9.76345
 20
-6.48869
 30
0.0
 10
9.76345
 20
-6.48869
 30
0.0
 10
9.76345
 20
-6.48869
 30
0.0
 10
9.57931
 20
-6.48869
 30
0.0
 10
9.57931
 20
-6.48869
 30
0.0
  0
SPLINE
  5
70
330
1F
100
AcDbEntity
  8
layer 2
 62
     1
370
     9
100
AcDbSpline
210
0.0
220
0.0
230
1.0
 70
    24
 71
     3
 72
     8
 73
     4
 74
     0
 42
0.0000000001
 43
0.0000000001
 12
1.0
 22
0.0
 32
0.0
 13
1.0
 23
0.0
 33
0.0
 40
0.0
 40
0.0
 40
0.0
 40
0.0
 40
1.0
 40
1.0
 40
1.0
 40
1.0
 10
9.57931
 20
-6.48869
 30
0.0
 10
9.57931
 20
-6.48869
 30
0.0
 10
9.67138
 20
-7.04109
 30
0.0
 10
9.67138
 20
-7.04109
 30
0.0
  0
SPLINE
  5
71
330
1F
100
AcDbEntity
  8
layer 2
 62
     1
370
     9
100
AcDbSpline
210
0.0
220
0.0
230
1.0
 70
     8
 71
     3
 72
    12
 73
     8
 74
     0
 42
0.0000000001
 43
0.0000000001
 12
1.0
 22
0.0
 32
0.0
 13
1.0
 23
0.0
 33
0.0
 40
0.0
 40
0.0
 40
0.0
 40
0.0
 40
0.3333333333333333
 40
0.3333333333333333
 40
0.3333333333333333
 40
0.3333333333333333
 40
1.0
 40
1.0
 40
1.0
 40
1.0
 10
9.67138
 20
-7.04109
 30
0.0
 10
9.67138
 20
-7.04109
 30
0.0
 10
9.76345
 20
-6.48869
 30
0.0
 10
9.76345
 20
-6.48869
 30
0.0
 10
9.76345
 20
-6.48869
 30
0.0
 10
9.76345
 20
-6.48869
 30
0.0
 10
9.57931
 20
-6.48869
 30
0.0
 10
9.57931
 20
-6.48869
 30
0.0
  0
SPLINE
  5
72
330
1F
100
AcDbEntity
  8
layer 2
 62
     1
100
AcDbSpline
210
0.0
220
0.0
230
1.0
 70
    11
 71
     3
 72
    40
 73
    36
 74
     0
 42
0.0000000001
 43
0.0000000001
 12
1.0
 22
0.0
 32
0.0
 13
1.0
 23
0.0
 33
0.0
 40
0.0
 40
0.0
 40
0.0
 40
0.0
 40
0.1
 40
0.1
 40
0.1
 40
0.1
 40
0.2
 40
0.2
 40
0.2
 40
0.2
 40
0.3
 40
0.3
 40
0.3
 40
0.3
 40
0.4
 40
0.4
 40
0.4
 40
0.4
 40
0.5
 40
0.5
 40
0.5
 40
0.5
 40
0.6
 40
0.6
 40
0.6
 40
0.6
 40
0.7
 40
0.7
 40
0.7
 40
0.7
 40
0.8
 40
0.8
 40
0.8
 40
0.8
 40
1.0
 40
1.0
 40
1.0
 40
1.0
 10
9.43524
 20
1.14157
 30
0.0
 10
9.43524
 20
1.14157
 30
0.0
 10
9.43524
 20
1.09685
 30
0.0
 10
9.43524
 20
1.09685
 30
0.0
 10
9.43524
 20
1.09685
 30
0.0
 10
9.43524
 20
1.09685
 30
0.0
 10
9.15047
 20
1.09685
 30
0.0
 10
9.15047
 20
1.09685
 30
0.0
 10
9.15047
 20
1.09685
 30
0.0
 10
9.1608
 20
1.08609
 30
0.0
 10
9.17106
 20
1.07195
 30
0.0
 10
9.18131
 20
1.0545
 30
0.0
 10
9.18131
 20
1.0545
 30
0.0
 10
9.19155
 20
1.03705
 30
0.0
 10
9.19926
 20
1.0213
 30
0.0
 10
9.20435
 20
1.0074
 30
0.0
 10
9.20435
 20
1.0074
 30
0.0
 10
9.20435
 20
1.0074
 30
0.0
 10
9.16114
 20
1.0074
 30
0.0
 10
9.16114
 20
1.0074
 30
0.0
 10
9.16114
 20
1.0074
 30
0.0
 10
9.14946
 20
1.0324
 30
0.0
 10
9.13523
 20
1.05424
 30
0.0
 10
9.11846
 20
1.07296
 30
0.0
 10
9.11846
 20
1.07296
 30
0.0
 10
9.10177
 20
1.09168
 30
0.0
 10
9.0856
 20
1.10497
 30
0.0
 10
9.06984
 20
1.11277
 30
0.0
 10
9.06984
 20
1.11277
 30
0.0
 10
9.06984
 20
1.11277
 30
0.0
 10
9.06984
 20
1.14157
 30
0.0
 10
9.06984
 20
1.14157
 30
0.0
 10
9.06984
 20
1.14157
 30
0.0
 10
9.06984
 20
1.14157
 30
0.0
 10
9.43524
 20
1.14157
 30
0.0
 10
9.43524
 20
1.14157
 30
0.0
  0
SPLINE
  5
73
330
1F
100
AcDbEntity
  8
layer 2
 62
     1
100
AcDbSpline
210
0.0
220
0.0
230
1.0
 70
    11
 71
     3
 72
    92
 73
    88
 74
     0
 42
0.0000000001
 43
0.0000000001
 12
1.0
 22
0.0
 32
0.0
 13
1.0
 23
0.0
 33
0.0
 40
0.0
 40
0.0
 40
0.0
 40
0.0
 40
0.0434782608695652
 40
0.0434782608695652
 40
0.0434782608695652
 40
0.0434782608695652
 40
0.0869565217391304
 40
0.0869565217391304
 40
0.0869565217391304
 40
0.0869565217391304
 40
0.1304347826086956
 40
0.1304347826086956
 40
0.1304347826086956
 40
0.1304347826086956
 40
0.1739130434782609
 40
0.1739130434782609
 40
0.1739130434782609
 40
0.1739130434782609
 40
0.2173913043478261
 40
0.2173913043478261
 40
0.2173913043478261
 40
0.2173913043478261
 40
0.2608695652173913
 40
0.2608695652173913
 40
0.2608695652173913
 40
0.2608695652173913
 40
0.3043478260869565
 40
0.3043478260869565
 40
0.3043478260869565
 40
0.3043478260869565
 40
0.3478260869565217
 40
0.3478260869565217
 40
0.3478260869565217
 40
0.3478260869565217
 40
0.391304347826087
 40
0.391304347826087
 40
0.391304347826087
 40
0.391304347826087
 40
0.4347826086956522
 40
0.4347826086956522
 40
0.4347826086956522
 40
0.4347826086956522
 40
0.4782608695652174
 40
0.4782608695652174
 40
0.4782608695652174
 40
0.4782608695652174
 40
0.5217391304347826
 40
0.5217391304347826
 40
0.5217391304347826
 40
0.5217391304347826
 40
0.5652173913043478
 40
0.5652173913043478
 40
0.5652173913043478
 40
0.5652173913043478
 40
0.6086956521739131
 40
0.6086956521739131
 40
0.6086956521739131
 40
0.6086956521739131
 40
0.6521739130434783
 40
0.6521739130434783
 40
0.6521739130434783
 40
0.6521739130434783
 40
0.6956521739130435
 40
0.6956521739130435
 40
0.6956521739130435
 40
0.6956521739130435
 40
0.7391304347826086
 40
0.7391304347826086
 40
0.7391304347826086
 40
0.7391304347826086
 40
0.782608695652174
 40
0.782608695652174
 40
0.782608695652174
 40
0.782608695652174
 40
0.8260869565217391
 40
0.8260869565217391
 40
0.8260869565217391
 40
0.8260869565217391
 40
0.8695652173913043
 40
0.8695652173913043
 40
0.8695652173913043
 40
0.8695652173913043
 40
0.9130434782608695
 40
0.9130434782608695
 40
0.9130434782608695
 40
0.9130434782608695
 40
1.0
 40
1.0
 40
1.0
 40
1.0
 10
9.35087
 20
1.26311
 30
0.0
 10
9.35087
 20
1.26311
 30
0.0
 10
9.34731
 20
1.30581
 30
0.0
 10
9.34731
 20
1.30581
 30
0.0
 10
9.34731
 20
1.30581
 30
0.0
 10
9.36748
 20
1.30945
 30
0.0
 10
9.38205
 20
1.31639
 30
0.0
 10
9.39111
 20
1.32664
 30
0.0
 10
9.39111
 20
1.32664
 30
0.0
 10
9.40017
 20
1.33689
 30
0.0
 10
9.40474
 20
1.35001
 30
0.0
 10
9.40474
 20
1.36611
 30
0.0
 10
9.40474
 20
1.36611
 30
0.0
 10
9.40474
 20
1.37984
 30
0.0
 10
9.40161
 20
1.39186
 30
0.0
 10
9.39525
 20
1.40227
 30
0.0
 10
9.39525
 20
1.40227
 30
0.0
 10
9.38898
 20
1.4127
 30
0.0
 10
9.3806
 20
1.42117
 30
0.0
 10
9.37002
 20
1.42769
 30
0.0
 10
9.37002
 20
1.42769
 30
0.0
 10
9.35952
 20
1.43421
 30
0.0
 10
9.34529
 20
1.43972
 30
0.0
 10
9.32741
 20
1.44421
 30
0.0
 10
9.32741
 20
1.44421
 30
0.0
 10
9.30954
 20
1.44869
 30
0.0
 10
9.29133
 20
1.4509
 30
0.0
 10
9.27278
 20
1.4509
 30
0.0
 10
9.27278
 20
1.4509
 30
0.0
 10
9.27084
 20
1.4509
 30
0.0
 10
9.26778
 20
1.45081
 30
0.0
 10
9.2638
 20
1.45064
 30
0.0
 10
9.2638
 20
1.45064
 30
0.0
 10
9.27803
 20
1.44174
 30
0.0
 10
9.28963
 20
1.42955
 30
0.0
 10
9.29844
 20
1.41414
 30
0.0
 10
9.29844
 20
1.41414
 30
0.0
 10
9.30734
 20
1.39872
 30
0.0
 10
9.31174
 20
1.38194
 30
0.0
 10
9.31174
 20
1.36399
 30
0.0
 10
9.31174
 20
1.36399
 30
0.0
 10
9.31174
 20
1.33392
 30
0.0
 10
9.30081
 20
1.30852
 30
0.0
 10
9.27896
 20
1.28768
 30
0.0
 10
9.27896
 20
1.28768
 30
0.0
 10
9.2572
 20
1.26693
 30
0.0
 10
9.2284
 20
1.2565
 30
0.0
 10
9.19265
 20
1.2565
 30
0.0
 10
9.19265
 20
1.2565
 30
0.0
 10
9.15572
 20
1.2565
 30
0.0
 10
9.12608
 20
1.26735
 30
0.0
 10
9.10355
 20
1.28912
 30
0.0
 10
9.10355
 20
1.28912
 30
0.0
 10
9.08111
 20
1.3108
 30
0.0
 10
9.06984
 20
1.33799
 30
0.0
 10
9.06984
 20
1.37077
 30
0.0
 10
9.06984
 20
1.37077
 30
0.0
 10
9.06984
 20
1.39431
 30
0.0
 10
9.0762
 20
1.41591
 30
0.0
 10
9.08898
 20
1.43556
 30
0.0
 10
9.08898
 20
1.43556
 30
0.0
 10
9.10169
 20
1.45514
 30
0.0
 10
9.11981
 20
1.46995
 30
0.0
 10
9.14344
 20
1.48012
 30
0.0
 10
9.14344
 20
1.48012
 30
0.0
 10
9.16698
 20
1.49028
 30
0.0
 10
9.20112
 20
1.49536
 30
0.0
 10
9.24576
 20
1.49536
 30
0.0
 10
9.24576
 20
1.49536
 30
0.0
 10
9.29226
 20
1.49536
 30
0.0
 10
9.32928
 20
1.49037
 30
0.0
 10
9.35681
 20
1.48028
 30
0.0
 10
9.35681
 20
1.48028
 30
0.0
 10
9.38441
 20
1.47021
 30
0.0
 10
9.40533
 20
1.45514
 30
0.0
 10
9.41974
 20
1.43523
 30
0.0
 10
9.41974
 20
1.43523
 30
0.0
 10
9.43413
 20
1.41532
 30
0.0
 10
9.44133
 20
1.39203
 30
0.0
 10
9.44133
 20
1.36527
 30
0.0
 10
9.44133
 20
1.36527
 30
0.0
 10
9.44133
 20
1.33681
 30
0.0
 10
9.43346
 20
1.31359
 30
0.0
 10
9.41762
 20
1.29555
 30
0.0
 10
9.41762
 20
1.29555
 30
0.0
 10
9.40178
 20
1.2776
 30
0.0
 10
9.3795
 20
1.26676
 30
0.0
 10
9.35087
 20
1.26311
 30
0.0
  0
SPLINE
  5
74
330
1F
100
AcDbEntity
  8
layer 2
 62
     1
100
AcDbSpline
210
0.0
220
0.0
230
1.0
 70
    11
 71
     3
 72
    36
 73
    32
 74
     0
 42
0.0000000001
 43
0.0000000001
 12
1.0
 22
0.0
 32
0.0
 13
1.0
 23
0.0
 33
0.0
 40
0.0
 40
0.0
 40
0.0
 40
0.0
 40
0.1111111111111111
 40
0.1111111111111111
 40
0.1111111111111111
 40
0.1111111111111111
 40
0.2222222222222222
 40
0.2222222222222222
 40
0.2222222222222222
 40
0.2222222222222222
 40
0.3333333333333333
 40
0.3333333333333333
 40
0.3333333333333333
 40
0.3333333333333333
 40
0.4444444444444444
 40
0.4444444444444444
 40
0.4444444444444444
 40
0.4444444444444444
 40
0.5555555555555556
 40
0.5555555555555556
 40
0.5555555555555556
 40
0.5555555555555556
 40
0.6666666666666666
 40
0.6666666666666666
 40
0.6666666666666666
 40
0.6666666666666666
 40
0.7777777777777778
 40
0.7777777777777778
 40
0.7777777777777778
 40
0.7777777777777778
 40
1.0
 40
1.0
 40
1.0
 40
1.0
 10
9.19037
 20
1.44556
 30
0.0
 10
9.16478
 20
1.44556
 30
0.0
 10
9.14445
 20
1.43879
 30
0.0
 10
9.12947
 20
1.42523
 30
0.0
 10
9.12947
 20
1.42523
 30
0.0
 10
9.11448
 20
1.41177
 30
0.0
 10
9.10694
 20
1.39534
 30
0.0
 10
9.10694
 20
1.37602
 30
0.0
 10
9.10694
 20
1.37602
 30
0.0
 10
9.10694
 20
1.35603
 30
0.0
 10
9.11498
 20
1.33875
 30
0.0
 10
9.13117
 20
1.32418
 30
0.0
 10
9.13117
 20
1.32418
 30
0.0
 10
9.14734
 20
1.30953
 30
0.0
 10
9.16834
 20
1.30225
 30
0.0
 10
9.1941
 20
1.30225
 30
0.0
 10
9.1941
 20
1.30225
 30
0.0
 10
9.21722
 20
1.30225
 30
0.0
 10
9.23602
 20
1.30919
 30
0.0
 10
9.25042
 20
1.32299
 30
0.0
 10
9.25042
 20
1.32299
 30
0.0
 10
9.2649
 20
1.33689
 30
0.0
 10
9.27211
 20
1.35417
 30
0.0
 10
9.27211
 20
1.37475
 30
0.0
 10
9.27211
 20
1.37475
 30
0.0
 10
9.27211
 20
1.39542
 30
0.0
 10
9.2649
 20
1.41236
 30
0.0
 10
9.25042
 20
1.42565
 30
0.0
 10
9.25042
 20
1.42565
 30
0.0
 10
9.23602
 20
1.43895
 30
0.0
 10
9.21595
 20
1.44556
 30
0.0
 10
9.19037
 20
1.44556
 30
0.0
  0
SPLINE
  5
75
330
1F
100
AcDbEntity
  8
layer 2
 62
     1
100
AcDbSpline
210
0.0
220
0.0
230
1.0
 70
    11
 71
     3
 72
    20
 73
    16
 74
     0
 42
0.0000000001
 43
0.0000000001
 12
1.0
 22
0.0
 32
0.0
 13
1.0
 23
0.0
 33
0.0
 40
0.0
 40
0.0
 40
0.0
 40
0.0
 40
0.2
 40
0.2
 40
0.2
 40
0.2
 40
0.4
 40
0.4
 40
0.4
 40
0.4
 40
0.6
 40
0.6
 40
0.6
 40
0.6
 40
1.0
 40
1.0
 40
1.0
 40
1.0
 10
9.43524
 20
1.56405
 30
0.0
 10
9.43524
 20
1.56405
 30
0.0
 10
9.38441
 20
1.56405
 30
0.0
 10
9.38441
 20
1.56405
 30
0.0
 10
9.38441
 20
1.56405
 30
0.0
 10
9.38441
 20
1.56405
 30
0.0
 10
9.38441
 20
1.61487
 30
0.0
 10
9.38441
 20
1.61487
 30
0.0
 10
9.38441
 20
1.61487
 30
0.0
 10
9.38441
 20
1.61487
 30
0.0
 10
9.43524
 20
1.61487
 30
0.0
 10
9.43524
 20
1.61487
 30
0.0
 10
9.43524
 20
1.61487
 30
0.0
 10
9.43524
 20
1.61487
 30
0.0
 10
9.43524
 20
1.56405
 30
0.0
 10
9.43524
 20
1.56405
 30
0.0
  0
SPLINE
  5
76
330
1F
100
AcDbEntity
  8
layer 2
 62
     1
100
AcDbSpline
210
0.0
220
0.0
230
1.0
 70
    11
 71
     3
 72
    92
 73
    88
 74
     0
 42
0.0000000001
 43
0.0000000001
 12
1.0
 22
0.0
 32
0.0
 13
1.0
 23
0.0
 33
0.0
 40
0.0
 40
0.0
 40
0.0
 40
0.0
 40
0.0434782608695652
 40
0.0434782608695652
 40
0.0434782608695652
 40
0.0434782608695652
 40
0.0869565217391304
 40
0.0869565217391304
 40
0.0869565217391304
 40
0.0869565217391304
 40
0.1304347826086956
 40
0.1304347826086956
 40
0.1304347826086956
 40
0.1304347826086956
 40
0.1739130434782609
 40
0.1739130434782609
 40
0.1739130434782609
 40
0.1739130434782609
 40
0.2173913043478261
 40
0.2173913043478261
 40
0.2173913043478261
 40
0.2173913043478261
 40
0.2608695652173913
 40
0.2608695652173913
 40
0.2608695652173913
 40
0.2608695652173913
 40
0.3043478260869565
 40
0.3043478260869565
 40
0.3043478260869565
 40
0.3043478260869565
 40
0.3478260869565217
 40
0.3478260869565217
 40
0.3478260869565217
 40
0.3478260869565217
 40
0.391304347826087
 40
0.391304347826087
 40
0.391304347826087
 40
0.391304347826087
 40
0.4347826086956522
 40
0.4347826086956522
 40
0.4347826086956522
 40
0.4347826086956522
 40
0.4782608695652174
 40
0.4782608695652174
 40
0.4782608695652174
 40
0.4782608695652174
 40
0.5217391304347826
 40
0.5217391304347826
 40
0.5217391304347826
 40
0.5217391304347826
 40
0.5652173913043478
 40
0.5652173913043478
 40
0.5652173913043478
 40
0.5652173913043478
 40
0.6086956521739131
 40
0.6086956521739131
 40
0.6086956521739131
 40
0.6086956521739131
 40
0.6521739130434783
 40
0.6521739130434783
 40
0.6521739130434783
 40
0.6521739130434783
 40
0.6956521739130435
 40
0.6956521739130435
 40
0.6956521739130435
 40
0.6956521739130435
 40
0.7391304347826086
 40
0.7391304347826086
 40
0.7391304347826086
 40
0.7391304347826086
 40
0.782608695652174
 40
0.782608695652174
 40
0.782608695652174
 40
0.782608695652174
 40
0.8260869565217391
 40
0.8260869565217391
 40
0.8260869565217391
 40
0.8260869565217391
 40
0.8695652173913043
 40
0.8695652173913043
 40
0.8695652173913043
 40
0.8695652173913043
 40
0.9130434782608695
 40
0.9130434782608695
 40
0.9130434782608695
 40
0.9130434782608695
 40
1.0
 40
1.0
 40
1.0
 40
1.0
 10
9.39254
 20
1.91462
 30
0.0
 10
9.39254
 20
1.91462
 30
0.0
 10
9.43524
 20
1.91462
 30
0.0
 10
9.43524
 20
1.91462
 30
0.0
 10
9.43524
 20
1.91462
 30
0.0
 10
9.43524
 20
1.91462
 30
0.0
 10
9.43524
 20
1.67374
 30
0.0
 10
9.43524
 20
1.67374
 30
0.0
 10
9.43524
 20
1.67374
 30
0.0
 10
9.42447
 20
1.6734
 30
0.0
 10
9.41414
 20
1.67518
 30
0.0
 10
9.40414
 20
1.679
 30
0.0
 10
9.40414
 20
1.679
 30
0.0
 10
9.38781
 20
1.68518
 30
0.0
 10
9.37162
 20
1.69509
 30
0.0
 10
9.35578
 20
1.70873
 30
0.0
 10
9.35578
 20
1.70873
 30
0.0
 10
9.33995
 20
1.72237
 30
0.0
 10
9.32165
 20
1.74183
 30
0.0
 10
9.30091
 20
1.76717
 30
0.0
 10
9.30091
 20
1.76717
 30
0.0
 10
9.26846
 20
1.80655
 30
0.0
 10
9.24279
 20
1.83332
 30
0.0
 10
9.22383
 20
1.84729
 30
0.0
 10
9.22383
 20
1.84729
 30
0.0
 10
9.20485
 20
1.86135
 30
0.0
 10
9.18689
 20
1.86838
 30
0.0
 10
9.16995
 20
1.86838
 30
0.0
 10
9.16995
 20
1.86838
 30
0.0
 10
9.15225
 20
1.86838
 30
0.0
 10
9.13734
 20
1.86203
 30
0.0
 10
9.12515
 20
1.84932
 30
0.0
 10
9.12515
 20
1.84932
 30
0.0
 10
9.11304
 20
1.83662
 30
0.0
 10
9.10694
 20
1.82002
 30
0.0
 10
9.10694
 20
1.79961
 30
0.0
 10
9.10694
 20
1.79961
 30
0.0
 10
9.10694
 20
1.77801
 30
0.0
 10
9.11337
 20
1.76073
 30
0.0
 10
9.12624
 20
1.74777
 30
0.0
 10
9.12624
 20
1.74777
 30
0.0
 10
9.13903
 20
1.73481
 30
0.0
 10
9.15683
 20
1.72829
 30
0.0
 10
9.17961
 20
1.72812
 30
0.0
 10
9.17961
 20
1.72812
 30
0.0
 10
9.17961
 20
1.72812
 30
0.0
 10
9.17504
 20
1.68238
 30
0.0
 10
9.17504
 20
1.68238
 30
0.0
 10
9.17504
 20
1.68238
 30
0.0
 10
9.14081
 20
1.68551
 30
0.0
 10
9.11472
 20
1.69737
 30
0.0
 10
9.09677
 20
1.71787
 30
0.0
 10
9.09677
 20
1.71787
 30
0.0
 10
9.07882
 20
1.73845
 30
0.0
 10
9.06984
 20
1.76598
 30
0.0
 10
9.06984
 20
1.80062
 30
0.0
 10
9.06984
 20
1.80062
 30
0.0
 10
9.06984
 20
1.83552
 30
0.0
 10
9.07949
 20
1.86321
 30
0.0
 10
9.09889
 20
1.88354
 30
0.0
 10
9.09889
 20
1.88354
 30
0.0
 10
9.11828
 20
1.90395
 30
0.0
 10
9.14234
 20
1.91412
 30
0.0
 10
9.17097
 20
1.91412
 30
0.0
 10
9.17097
 20
1.91412
 30
0.0
 10
9.18554
 20
1.91412
 30
0.0
 10
9.19985
 20
1.91116
 30
0.0
 10
9.21391
 20
1.90514
 30
0.0
 10
9.21391
 20
1.90514
 30
0.0
 10
9.22806
 20
1.89922
 30
0.0
 10
9.24289
 20
1.8893
 30
0.0
 10
9.25847
 20
1.8755
 30
0.0
 10
9.25847
 20
1.8755
 30
0.0
 10
9.27397
 20
1.86161
 30
0.0
 10
9.29539
 20
1.83865
 30
0.0
 10
9.3225
 20
1.80664
 30
0.0
 10
9.3225
 20
1.80664
 30
0.0
 10
9.34503
 20
1.77978
 30
0.0
 10
9.36027
 20
1.76251
 30
0.0
 10
9.36833
 20
1.75489
 30
0.0
 10
9.36833
 20
1.75489
 30
0.0
 10
9.37637
 20
1.74726
 30
0.0
 10
9.38441
 20
1.741
 30
0.0
 10
9.39254
 20
1.73599
 30
0.0
 10
9.39254
 20
1.73599
 30
0.0
 10
9.39254
 20
1.73599
 30
0.0
 10
9.39254
 20
1.91462
 30
0.0
 10
9.39254
 20
1.91462
 30
0.0
  0
SPLINE
  5
77
330
1F
100
AcDbEntity
  8
layer 2
 62
     1
100
AcDbSpline
210
0.0
220
0.0
230
1.0
 70
    11
 71
     3
 72
    28
 73
    24
 74
     0
 42
0.0000000001
 43
0.0000000001
 12
1.0
 22
0.0
 32
0.0
 13
1.0
 23
0.0
 33
0.0
 40
0.0
 40
0.0
 40
0.0
 40
0.0
 40
0.1428571428571428
 40
0.1428571428571428
 40
0.1428571428571428
 40
0.1428571428571428
 40
0.2857142857142857
 40
0.2857142857142857
 40
0.2857142857142857
 40
0.2857142857142857
 40
0.4285714285714285
 40
0.4285714285714285
 40
0.4285714285714285
 40
0.4285714285714285
 40
0.5714285714285714
 40
0.5714285714285714
 40
0.5714285714285714
 40
0.5714285714285714
 40
0.7142857142857143
 40
0.7142857142857143
 40
0.7142857142857143
 40
0.7142857142857143
 40
1.0
 40
1.0
 40
1.0
 40
1.0
 10
9.19994
 20
1.97739
 30
0.0
 10
9.19994
 20
1.97739
 30
0.0
 10
9.13083
 20
1.96502
 30
0.0
 10
9.13083
 20
1.96502
 30
0.0
 10
9.13083
 20
1.96502
 30
0.0
 10
9.13083
 20
1.96502
 30
0.0
 10
9.07137
 20
1.96502
 30
0.0
 10
9.07137
 20
1.96502
 30
0.0
 10
9.07137
 20
1.96502
 30
0.0
 10
9.07137
 20
1.96502
 30
0.0
 10
9.07137
 20
2.01585
 30
0.0
 10
9.07137
 20
2.01585
 30
0.0
 10
9.07137
 20
2.01585
 30
0.0
 10
9.07137
 20
2.01585
 30
0.0
 10
9.13083
 20
2.01585
 30
0.0
 10
9.13083
 20
2.01585
 30
0.0
 10
9.13083
 20
2.01585
 30
0.0
 10
9.13083
 20
2.01585
 30
0.0
 10
9.19994
 20
2.00467
 30
0.0
 10
9.19994
 20
2.00467
 30
0.0
 10
9.19994
 20
2.00467
 30
0.0
 10
9.19994
 20
2.00467
 30
0.0
 10
9.19994
 20
1.97739
 30
0.0
 10
9.19994
 20
1.97739
 30
0.0
  0
SPLINE
  5
78
330
1F
100
AcDbEntity
  8
layer 2
 62
     1
100
AcDbSpline
210
0.0
220
0.0
230
1.0
 70
    11
 71
     3
 72
    28
 73
    24
 74
     0
 42
0.0000000001
 43
0.0000000001
 12
1.0
 22
0.0
 32
0.0
 13
1.0
 23
0.0
 33
0.0
 40
0.0
 40
0.0
 40
0.0
 40
0.0
 40
0.1428571428571428
 40
0.1428571428571428
 40
0.1428571428571428
 40
0.1428571428571428
 40
0.2857142857142857
 40
0.2857142857142857
 40
0.2857142857142857
 40
0.2857142857142857
 40
0.4285714285714285
 40
0.4285714285714285
 40
0.4285714285714285
 40
0.4285714285714285
 40
0.5714285714285714
 40
0.5714285714285714
 40
0.5714285714285714
 40
0.5714285714285714
 40
0.7142857142857143
 40
0.7142857142857143
 40
0.7142857142857143
 40
0.7142857142857143
 40
1.0
 40
1.0
 40
1.0
 40
1.0
 10
9.19994
 20
2.05946
 30
0.0
 10
9.19994
 20
2.05946
 30
0.0
 10
9.13083
 20
2.04736
 30
0.0
 10
9.13083
 20
2.04736
 30
0.0
 10
9.13083
 20
2.04736
 30
0.0
 10
9.13083
 20
2.04736
 30
0.0
 10
9.07137
 20
2.04736
 30
0.0
 10
9.07137
 20
2.04736
 30
0.0
 10
9.07137
 20
2.04736
 30
0.0
 10
9.07137
 20
2.04736
 30
0.0
 10
9.07137
 20
2.09818
 30
0.0
 10
9.07137
 20
2.09818
 30
0.0
 10
9.07137
 20
2.09818
 30
0.0
 10
9.07137
 20
2.09818
 30
0.0
 10
9.13083
 20
2.09818
 30
0.0
 10
9.13083
 20
2.09818
 30
0.0
 10
9.13083
 20
2.09818
 30
0.0
 10
9.13083
 20
2.09818
 30
0.0
 10
9.19994
 20
2.08624
 30
0.0
 10
9.19994
 20
2.08624
 30
0.0
 10
9.19994
 20
2.08624
 30
0.0
 10
9.19994
 20
2.08624
 30
0.0
 10
9.19994
 20
2.05946
 30
0.0
 10
9.19994
 20
2.05946
 30
0.0
  0
ENDSEC
  0
SECTION
  2
OBJECTS
  0
DICTIONARY
  5
C
330
0
100
AcDbDictionary
281
     1
  3
ACAD_GROUP
350
D
  3
ACAD_LAYOUT
350
1A
  3
ACAD_MATERIAL
350
3B
  3
ACAD_MLEADERSTYLE
350
9A
  3
ACAD_MLINESTYLE
350
17
  3
ACAD_PLOTSETTINGS
350
19
  3
ACAD_PLOTSTYLENAME
350
E
  3
ACAD_TABLESTYLE
350
99
  3
ACAD_VISUALSTYLE
350
2A
  0
DICTIONARY
  5
D
102
{ACAD_REACTORS
330
C
102
}
330
C
100
AcDbDictionary
281
     1
  0
DICTIONARY
  5
1A
102
{ACAD_REACTORS
330
C
102
}
330
C
100
AcDbDictionary
281
     1
  3
Layout1
350
1E
  3
Layout2
350
26
  3
Model
350
22
  0
DICTIONARY
  5
3B
102
{ACAD_REACTORS
330
C
102
}
330
C
100
AcDbDictionary
281
     1
  3
ByBlock
350
3D
  3
ByLayer
350
3C
  3
Global
350
3E
  0
DICTIONARY
  5
9A
102
{ACAD_REACTORS
330
C
102
}
330
C
100
AcDbDictionary
281
     1
  0
DICTIONARY
  5
17
102
{ACAD_REACTORS
330
C
102
}
330
C
100
AcDbDictionary
281
     1
  3
Standard
350
18
  0
DICTIONARY
  5
19
102
{ACAD_REACTORS
330
C
102
}
330
C
100
AcDbDictionary
281
     1
  0
ACDBDICTIONARYWDFLT
  5
E
102
{ACAD_REACTORS
330
C
102
}
330
C
100
AcDbDictionary
281
     1
  3
Normal
350
F
100
AcDbDictionaryWithDefault
340
F
  0
DICTIONARY
  5
99
102
{ACAD_REACTORS
330
C
102
}
330
C
100
AcDbDictionary
281
     1
  0
DICTIONARY
  5
2A
102
{ACAD_REACTORS
330
C
102
}
330
C
100
AcDbDictionary
281
     1
  3
2dWireframe
350
2F
  3
3D Hidden
350
31
  3
3dWireframe
350
30
  3
Basic
350
32
  3
Brighten
350
36
  3
ColorChange
350
3A
  3
Conceptual
350
34
  3
Dim
350
35
  3
Facepattern
350
39
  3
Flat
350
2B
  3
FlatWithEdges
350
2C
  3
Gouraud
350
2D
  3
GouraudWithEdges
350
2E
  3
Linepattern
350
38
  3
Realistic
350
33
  3
Thicken
350
37
  0
LAYOUT
  5
1E
102
{ACAD_REACTORS
330
1A
102
}
330
1A
100
AcDbPlotSettings
  1

  2
none_device
  4

  6

 40
0.0
 41
0.0
 42
0.0
 43
0.0
 44
0.0
 45
0.0
 46
0.0
 47
0.0
 48
0.0
 49
0.0
140
0.0
141
0.0
142
1.0
143
1.0
 70
   688
 72
     0
 73
     0
 74
     5
  7

 75
    16
 76
     0
 77
     2
 78
   300
147
1.0
148
0.0
149
0.0
100
AcDbLayout
  1
Layout1
 70
     1
 71
     1
 10
0.0
 20
0.0
 11
12.0
 21
9.0
 12
0.0
 22
0.0
 32
0.0
 14
1.000000000000000E+20
 24
1.000000000000000E+20
 34
1.000000000000000E+20
 15
-1.000000000000000E+20
 25
-1.000000000000000E+20
 35
-1.000000000000000E+20
146
0.0
 13
0.0
 23
0.0
 33
0.0
 16
1.0
 26
0.0
 36
0.0
 17
0.0
 27
1.0
 37
0.0
 76
     0
330
1B
  0
LAYOUT
  5
26
102
{ACAD_REACTORS
330
1A
102
}
330
1A
100
AcDbPlotSettings
  1

  2
none_device
  4

  6

 40
0.0
 41
0.0
 42
0.0
 43
0.0
 44
0.0
 45
0.0
 46
0.0
 47
0.0
 48
0.0
 49
0.0
140
0.0
141
0.0
142
1.0
143
1.0
 70
   688
 72
     0
 73
     0
 74
     5
  7

 75
    16
 76
     0
 77
     2
 78
   300
147
1.0
148
0.0
149
0.0
100
AcDbLayout
  1
Layout2
 70
     1
 71
     2
 10
0.0
 20
0.0
 11
0.0
 21
0.0
 12
0.0
 22
0.0
 32
0.0
 14
0.0
 24
0.0
 34
0.0
 15
0.0
 25
0.0
 35
0.0
146
0.0
 13
0.0
 23
0.0
 33
0.0
 16
1.0
 26
0.0
 36
0.0
 17
0.0
 27
1.0
 37
0.0
 76
     0
330
23
  0
LAYOUT
  5
22
102
{ACAD_REACTORS
330
1A
102
}
330
1A
100
AcDbPlotSettings
  1

  2
none_device
  4

  6

 40
0.0
 41
0.0
 42
0.0
 43
0.0
 44
0.0
 45
0.0
 46
0.0
 47
0.0
 48
0.0
 49
0.0
140
0.0
141
0.0
142
1.0
143
1.0
 70
  1712
 72
     0
 73
     0
 74
     0
  7

 75
     0
 76
     0
 77
     2
 78
   300
147
1.0
148
0.0
149
0.0
100
AcDbLayout
  1
Model
 70
     1
 71
     0
 10
0.0
 20
0.0
 11
12.0
 21
9.0
 12
0.0
 22
0.0
 32
0.0
 14
-10.39158
 24
-8.94877
 34
0.0
 15
9.94758
 25
8.42803
 35
0.0
146
0.0
 13
0.0
 23
0.0
 33
0.0
 16
1.0
 26
0.0
 36
0.0
 17
0.0
 27
1.0
 37
0.0
 76
     0
330
1F
331
29
  0
MATERIAL
  5
3D
102
{ACAD_REACTORS
330
3B
102
}
330
3B
100
AcDbMaterial
  1
ByBlock
 72
     1
 94
      127
  0
MATERIAL
  5
3C
102
{ACAD_REACTORS
330
3B
102
}
330
3B
100
AcDbMaterial
  1
ByLayer
 72
     1
 94
      127
  0
MATERIAL
  5
3E
102
{ACAD_REACTORS
330
3B
102
}
330
3B
100
AcDbMaterial
  1
Global
 72
     1
 94
      127
  0
MLINESTYLE
  5
18
102
{ACAD_REACTORS
330
17
102
}
330
17
100
AcDbMlineStyle
  2
Standard
 70
     0
  3

 62
   256
 51
90.0
 52
90.0
 71
     2
 49
0.5
 62
   256
  6
BYLAYER
 49
-0.5
 62
   256
  6
BYLAYER
  0
ACDBPLACEHOLDER
  5
F
102
{ACAD_REACTORS
330
E
102
}
330
E
  0
VISUALSTYLE
  5
2F
102
{ACAD_REACTORS
330
2A
102
}
102
{ACAD_XDICTIONARY
360
81
102
}
330
2A
100
AcDbVisualStyle
  2
2dWireframe
 70
     4
 71
     0
 72
     2
 73
     0
 90
        0
 40
-0.6
 41
-30.0
 62
     5
 63
     7
421
 16777215
 74
     1
 91
        4
 64
     7
 65
   257
 75
     1
175
     1
 42
1.0
 92
        0
 66
   257
 43
1.0
 76
     1
 77
     6
 78
     2
 67
     7
 79
     5
170
     0
171
     0
290
     0
174
     0
 93
        1
 44
0.0
173
     0
291
     0
 45
0.0
  0
VISUALSTYLE
  5
31
102
{ACAD_REACTORS
330
2A
102
}
102
{ACAD_XDICTIONARY
360
85
102
}
330
2A
100
AcDbVisualStyle
  2
3D Hidden
 70
     6
 71
     1
 72
     2
 73
     2
 90
        0
 40
-0.6
 41
-30.0
 62
     5
 63
     7
421
 16777215
 74
     2
 91
        2
 64
     7
 65
   257
 75
     2
175
     1
 42
40.0
 92
        0
 66
   257
 43
1.0
 76
     1
 77
     6
 78
     2
 67
     7
 79
     3
170
     0
171
     0
290
     0
174
     0
 93
        1
 44
0.0
173
     0
291
     0
 45
0.0
  0
VISUALSTYLE
  5
30
102
{ACAD_REACTORS
330
2A
102
}
102
{ACAD_XDICTIONARY
360
83
102
}
330
2A
100
AcDbVisualStyle
  2
3dWireframe
 70
     5
 71
     0
 72
     2
 73
     0
 90
        0
 40
-0.6
 41
-30.0
 62
     5
 63
     7
421
 16777215
 74
     1
 91
        4
 64
     7
 65
   257
 75
     1
175
     1
 42
1.0
 92
        0
 66
   257
 43
1.0
 76
     1
 77
     6
 78
     2
 67
     7
 79
     5
170
     0
171
     0
290
     0
174
     0
 93
        1
 44
0.0
173
     0
291
     0
 45
0.0
  0
VISUALSTYLE
  5
32
102
{ACAD_REACTORS
330
2A
102
}
102
{ACAD_XDICTIONARY
360
87
102
}
330
2A
100
AcDbVisualStyle
  2
Basic
 70
     7
 71
     1
 72
     0
 73
     1
 90
        0
 40
-0.6
 41
-30.0
 62
     5
 63
     7
421
 16777215
 74
     0
 91
        4
 64
     7
 65
   257
 75
     1
175
     1
 42
1.0
 92
        8
 66
     7
 43
1.0
 76
     1
 77
     6
 78
     2
 67
     7
 79
     5
170
     0
171
     0
290
     0
174
     0
 93
        1
 44
0.0
173
     0
291
     1
 45
0.0
  0
VISUALSTYLE
  5
36
102
{ACAD_REACTORS
330
2A
102
}
102
{ACAD_XDICTIONARY
360
8F
102
}
330
2A
100
AcDbVisualStyle
  2
Brighten
 70
    12
 71
     2
 72
     2
 73
     0
 90
        0
 40
-0.6
 41
-30.0
 62
     5
 63
     7
421
 16777215
 74
     1
 91
        4
 64
     7
 65
   257
 75
     1
175
     1
 42
1.0
 92
        8
 66
     7
 43
1.0
 76
     1
 77
     6
 78
     2
 67
     7
 79
     5
170
     0
171
     0
290
     0
174
     0
 93
        1
 44
50.0
173
     0
291
     1
 45
0.0
  0
VISUALSTYLE
  5
3A
102
{ACAD_REACTORS
330
2A
102
}
102
{ACAD_XDICTIONARY
360
97
102
}
330
2A
100
AcDbVisualStyle
  2
ColorChange
 70
    16
 71
     2
 72
     2
 73
     3
 90
        0
 40
-0.6
 41
-30.0
 62
     5
 63
     8
421
  8421504
 74
     1
 91
        4
 64
     7
 65
   257
 75
     1
175
     1
 42
1.0
 92
        8
 66
     8
424
  8421504
 43
1.0
 76
     1
 77
     6
 78
     2
 67
     7
 79
     5
170
     0
171
     0
290
     0
174
     0
 93
        1
 44
0.0
173
     0
291
     1
 45
0.0
  0
VISUALSTYLE
  5
34
102
{ACAD_REACTORS
330
2A
102
}
102
{ACAD_XDICTIONARY
360
8B
102
}
330
2A
100
AcDbVisualStyle
  2
Conceptual
 70
     9
 71
     3
 72
     2
 73
     0
 90
        0
 40
-0.6
 41
-30.0
 62
     5
 63
     7
421
 16777215
 74
     2
 91
        2
 64
     7
 65
   257
 75
     1
175
     1
 42
40.0
 92
        8
 66
     7
 43
1.0
 76
     1
 77
     6
 78
     2
 67
     7
 79
     3
170
     0
171
     0
290
     0
174
     0
 93
        1
 44
0.0
173
     0
291
     0
 45
0.0
  0
VISUALSTYLE
  5
35
102
{ACAD_REACTORS
330
2A
102
}
102
{ACAD_XDICTIONARY
360
8D
102
}
330
2A
100
AcDbVisualStyle
  2
Dim
 70
    11
 71
     2
 72
     2
 73
     0
 90
        0
 40
-0.6
 41
-30.0
 62
     5
 63
     7
421
 16777215
 74
     1
 91
        4
 64
     7
 65
   257
 75
     1
175
     1
 42
1.0
 92
        8
 66
     7
 43
1.0
 76
     1
 77
     6
 78
     2
 67
     7
 79
     5
170
     0
171
     0
290
     0
174
     0
 93
        1
 44
-50.0
173
     0
291
     1
 45
0.0
  0
VISUALSTYLE
  5
39
102
{ACAD_REACTORS
330
2A
102
}
102
{ACAD_XDICTIONARY
360
95
102
}
330
2A
100
AcDbVisualStyle
  2
Facepattern
 70
    15
 71
     2
 72
     2
 73
     0
 90
        0
 40
-0.6
 41
-30.0
 62
     5
 63
     7
421
 16777215
 74
     1
 91
        4
 64
     7
 65
   257
 75
     1
175
     1
 42
1.0
 92
        8
 66
     7
 43
1.0
 76
     1
 77
     6
 78
     2
 67
     7
 79
     5
170
     0
171
     0
290
     0
174
     0
 93
        1
 44
0.0
173
     0
291
     1
 45
0.0
  0
VISUALSTYLE
  5
2B
102
{ACAD_REACTORS
330
2A
102
}
102
{ACAD_XDICTIONARY
360
79
102
}
330
2A
100
AcDbVisualStyle
  2
Flat
 70
     0
 71
     2
 72
     1
 73
     1
 90
        2
 40
-0.6
 41
30.0
 62
     5
 63
     7
421
 16777215
 74
     0
 91
        4
 64
     7
 65
   257
 75
     1
175
     1
 42
1.0
 92
        8
 66
     7
 43
1.0
 76
     1
 77
     6
 78
     2
 67
     7
 79
     5
170
     0
171
     0
290
     0
174
     0
 93
       13
 44
0.0
173
     0
291
     1
 45
0.0
  0
VISUALSTYLE
  5
2C
102
{ACAD_REACTORS
330
2A
102
}
102
{ACAD_XDICTIONARY
360
7B
102
}
330
2A
100
AcDbVisualStyle
  2
FlatWithEdges
 70
     1
 71
     2
 72
     1
 73
     1
 90
        2
 40
-0.6
 41
30.0
 62
     5
 63
     7
421
 16777215
 74
     1
 91
        4
 64
     7
 65
   257
 75
     1
175
     1
 42
1.0
 92
        0
 66
   257
 43
1.0
 76
     1
 77
     6
 78
     2
 67
     7
 79
     5
170
     0
171
     0
290
     0
174
     0
 93
       13
 44
0.0
173
     0
291
     1
 45
0.0
  0
VISUALSTYLE
  5
2D
102
{ACAD_REACTORS
330
2A
102
}
102
{ACAD_XDICTIONARY
360
7D
102
}
330
2A
100
AcDbVisualStyle
  2
Gouraud
 70
     2
 71
     2
 72
     2
 73
     1
 90
        2
 40
-0.6
 41
30.0
 62
     5
 63
     7
421
 16777215
 74
     0
 91
        4
 64
     7
 65
   257
 75
     1
175
     1
 42
1.0
 92
        0
 66
     7
 43
1.0
 76
     1
 77
     6
 78
     2
 67
     7
 79
     5
170
     0
171
     0
290
     0
174
     0
 93
       13
 44
0.0
173
     0
291
     1
 45
0.0
  0
VISUALSTYLE
  5
2E
102
{ACAD_REACTORS
330
2A
102
}
102
{ACAD_XDICTIONARY
360
7F
102
}
330
2A
100
AcDbVisualStyle
  2
GouraudWithEdges
 70
     3
 71
     2
 72
     2
 73
     1
 90
        2
 40
-0.6
 41
30.0
 62
     5
 63
     7
421
 16777215
 74
     1
 91
        4
 64
     7
 65
   257
 75
     1
175
     1
 42
1.0
 92
        0
 66
   257
 43
1.0
 76
     1
 77
     6
 78
     2
 67
     7
 79
     5
170
     0
171
     0
290
     0
174
     0
 93
       13
 44
0.0
173
     0
291
     1
 45
0.0
  0
VISUALSTYLE
  5
38
102
{ACAD_REACTORS
330
2A
102
}
102
{ACAD_XDICTIONARY
360
93
102
}
330
2A
100
AcDbVisualStyle
  2
Linepattern
 70
    14
 71
     2
 72
     2
 73
     0
 90
        0
 40
-0.6
 41
-30.0
 62
     5
 63
     7
421
 16777215
 74
     1
 91
        4
 64
     7
 65
   257
 75
     7
175
     7
 42
1.0
 92
        8
 66
     7
 43
1.0
 76
     1
 77
     6
 78
     2
 67
     7
 79
     5
170
     0
171
     0
290
     0
174
     0
 93
        1
 44
0.0
173
     0
291
     1
 45
0.0
  0
VISUALSTYLE
  5
33
102
{ACAD_REACTORS
330
2A
102
}
102
{ACAD_XDICTIONARY
360
89
102
}
330
2A
100
AcDbVisualStyle
  2
Realistic
 70
     8
 71
     2
 72
     2
 73
     0
 90
        0
 40
-0.6
 41
-30.0
 62
     5
 63
     7
421
 16777215
 74
     1
 91
        0
 64
     7
 65
   257
 75
     1
175
     1
 42
1.0
 92
        8
 66
     8
424
  7895160
 43
1.0
 76
     1
 77
     6
 78
     2
 67
     7
 79
     5
170
     0
171
     0
290
     0
174
     0
 93
       13
 44
0.0
173
     0
291
     0
 45
0.0
  0
VISUALSTYLE
  5
37
102
{ACAD_REACTORS
330
2A
102
}
102
{ACAD_XDICTIONARY
360
91
102
}
330
2A
100
AcDbVisualStyle
  2
Thicken
 70
    13
 71
     2
 72
     2
 73
     0
 90
        0
 40
-0.6
 41
-30.0
 62
     5
 63
     7
421
 16777215
 74
     1
 91
        4
 64
     7
 65
   257
 75
     1
175
     1
 42
1.0
 92
       12
 66
     7
 43
1.0
 76
     1
 77
     6
 78
     2
 67
     7
 79
     5
170
     0
171
     0
290
     0
174
     0
 93
        1
 44
0.0
173
     0
291
     1
 45
0.0
  0
DICTIONARY
  5
81
330
2F
100
AcDbDictionary
280
     1
281
     1
  3
ACAD_XREC_ROUNDTRIP
360
82
  0
DICTIONARY
  5
85
330
31
100
AcDbDictionary
280
     1
281
     1
  3
ACAD_XREC_ROUNDTRIP
360
86
  0
DICTIONARY
  5
83
330
30
100
AcDbDictionary
280
     1
281
     1
  3
ACAD_XREC_ROUNDTRIP
360
84
  0
DICTIONARY
  5
87
330
32
100
AcDbDictionary
280
     1
281
     1
  3
ACAD_XREC_ROUNDTRIP
360
88
  0
DICTIONARY
  5
8F
330
36
100
AcDbDictionary
280
     1
281
     1
  3
ACAD_XREC_ROUNDTRIP
360
90
  0
DICTIONARY
  5
97
330
3A
100
AcDbDictionary
280
     1
281
     1
  3
ACAD_XREC_ROUNDTRIP
360
98
  0
DICTIONARY
  5
8B
330
34
100
AcDbDictionary
280
     1
281
     1
  3
ACAD_XREC_ROUNDTRIP
360
8C
  0
DICTIONARY
  5
8D
330
35
100
AcDbDictionary
280
     1
281
     1
  3
ACAD_XREC_ROUNDTRIP
360
8E
  0
DICTIONARY
  5
95
330
39
100
AcDbDictionary
280
     1
281
     1
  3
ACAD_XREC_ROUNDTRIP
360
96
  0
DICTIONARY
  5
79
330
2B
100
AcDbDictionary
280
     1
281
     1
  3
ACAD_XREC_ROUNDTRIP
360
7A
  0
DICTIONARY
  5
7B
330
2C
100
AcDbDictionary
280
     1
281
     1
  3
ACAD_XREC_ROUNDTRIP
360
7C
  0
DICTIONARY
  5
7D
330
2D
100
AcDbDictionary
280
     1
281
     1
  3
ACAD_XREC_ROUNDTRIP
360
7E
  0
DICTIONARY
  5
7F
330
2E
100
AcDbDictionary
280
     1
281
     1
  3
ACAD_XREC_ROUNDTRIP
360
80
  0
DICTIONARY
  5
93
330
38
100
AcDbDictionary
280
     1
281
     1
  3
ACAD_XREC_ROUNDTRIP
360
94
  0
DICTIONARY
  5
89
330
33
100
AcDbDictionary
280
     1
281
     1
  3
ACAD_XREC_ROUNDTRIP
360
8A
  0
DICTIONARY
  5
91
330
37
100
AcDbDictionary
280
     1
281
     1
  3
ACAD_XREC_ROUNDTRIP
360
92
  0
XRECORD
  5
82
102
{ACAD_REACTORS
330
81
102
}
330
81
100
AcDbXrecord
280
     1
102
RTVSPropertyOp0
 70
     1
102
RTVSPropertyOp1
 70
     1
102
RTVSPropertyOp2
 70
     1
102
RTVSPropertyOp3
 70
     1
102
RTVSPropertyOp4
 70
     1
102
RTVSPropertyOp5
 70
     1
102
RTVSPropertyOp6
 70
     1
102
RTVSPropertyOp7
 70
     1
102
RTVSPropertyOp8
 70
     1
102
RTVSPropertyOp9
 70
     1
102
RTVSPropertyOp10
 70
     1
102
RTVSPropertyOp11
 70
     1
102
RTVSPropertyOp12
 70
     1
102
RTVSPropertyOp13
 70
     1
102
RTVSPropertyOp14
 70
     1
102
RTVSPropertyOp15
 70
     1
102
RTVSPropertyOp16
 70
     1
102
RTVSPropertyOp17
 70
     1
102
RTVSPropertyOp18
 70
     1
102
RTVSPropertyOp19
 70
     1
102
RTVSPropertyOp20
 70
     1
102
RTVSPropertyOp21
 70
     1
102
RTVSPropertyOp22
 70
     1
102
RTVSPropertyOp23
 70
     1
102
RTVSPropertyOp24
 70
     1
102
RTVSPropertyOp25
 70
     1
102
RTVSPropertyOp26
 70
     1
102
RTVSPropertyOp27
 70
     1
102
RTVSPropertyOp28
 70
     1
102
RTVSPropertyOp29
 70
     1
102
RTVSPropertyOp30
 70
     1
102
RTVSPropertyOp31
 70
     1
102
RTVSPropertyOp32
 70
     1
  0
XRECORD
  5
86
102
{ACAD_REACTORS
330
85
102
}
330
85
100
AcDbXrecord
280
     1
102
RTVSPropertyOp0
 70
     1
102
RTVSPropertyOp1
 70
     1
102
RTVSPropertyOp2
 70
     1
102
RTVSPropertyOp3
 70
     1
102
RTVSPropertyOp4
 70
     1
102
RTVSPropertyOp5
 70
     1
102
RTVSPropertyOp6
 70
     1
102
RTVSPropertyOp7
 70
     1
102
RTVSPropertyOp8
 70
     1
102
RTVSPropertyOp9
 70
     1
102
RTVSPropertyOp10
 70
     1
102
RTVSPropertyOp11
 70
     1
102
RTVSPropertyOp12
 70
     1
102
RTVSPropertyOp13
 70
     1
102
RTVSPropertyOp14
 70
     1
102
RTVSPropertyOp15
 70
     1
102
RTVSPropertyOp16
 70
     1
102
RTVSPropertyOp17
 70
     1
102
RTVSPropertyOp18
 70
     1
102
RTVSPropertyOp19
 70
     1
102
RTVSPropertyOp20
 70
     1
102
RTVSPropertyOp21
 70
     1
102
RTVSPropertyOp22
 70
     1
102
RTVSPropertyOp23
 70
     1
102
RTVSPropertyOp24
 70
     1
102
RTVSPropertyOp25
 70
     1
102
RTVSPropertyOp26
 70
     1
102
RTVSPropertyOp27
 70
     1
102
RTVSPropertyOp28
 70
     1
102
RTVSPropertyOp29
 70
     1
102
RTVSPropertyOp30
 70
     1
102
RTVSPropertyOp31
 70
     1
102
RTVSPropertyOp32
 70
     1
  0
XRECORD
  5
84
102
{ACAD_REACTORS
330
83
102
}
330
83
100
AcDbXrecord
280
     1
102
RTVSPropertyOp0
 70
     1
102
RTVSPropertyOp1
 70
     1
102
RTVSPropertyOp2
 70
     1
102
RTVSPropertyOp3
 70
     1
102
RTVSPropertyOp4
 70
     1
102
RTVSPropertyOp5
 70
     1
102
RTVSPropertyOp6
 70
     1
102
RTVSPropertyOp7
 70
     1
102
RTVSPropertyOp8
 70
     1
102
RTVSPropertyOp9
 70
     1
102
RTVSPropertyOp10
 70
     1
102
RTVSPropertyOp11
 70
     1
102
RTVSPropertyOp12
 70
     1
102
RTVSPropertyOp13
 70
     1
102
RTVSPropertyOp14
 70
     1
102
RTVSPropertyOp15
 70
     1
102
RTVSPropertyOp16
 70
     1
102
RTVSPropertyOp17
 70
     1
102
RTVSPropertyOp18
 70
     1
102
RTVSPropertyOp19
 70
     1
102
RTVSPropertyOp20
 70
     1
102
RTVSPropertyOp21
 70
     1
102
RTVSPropertyOp22
 70
     1
102
RTVSPropertyOp23
 70
     1
102
RTVSPropertyOp24
 70
     1
102
RTVSPropertyOp25
 70
     1
102
RTVSPropertyOp26
 70
     1
102
RTVSPropertyOp27
 70
     1
102
RTVSPropertyOp28
 70
     1
102
RTVSPropertyOp29
 70
     1
102
RTVSPropertyOp30
 70
     1
102
RTVSPropertyOp31
 70
     1
102
RTVSPropertyOp32
 70
     1
  0
XRECORD
  5
88
102
{ACAD_REACTORS
330
87
102
}
330
87
100
AcDbXrecord
280
     1
102
RTVSPropertyOp0
 70
     1
102
RTVSPropertyOp1
 70
     1
102
RTVSPropertyOp2
 70
     1
102
RTVSPropertyOp3
 70
     1
102
RTVSPropertyOp4
 70
     1
102
RTVSPropertyOp5
 70
     1
102
RTVSPropertyOp6
 70
     1
102
RTVSPropertyOp7
 70
     1
102
RTVSPropertyOp8
 70
     1
102
RTVSPropertyOp9
 70
     1
102
RTVSPropertyOp10
 70
     1
102
RTVSPropertyOp11
 70
     1
102
RTVSPropertyOp12
 70
     1
102
RTVSPropertyOp13
 70
     1
102
RTVSPropertyOp14
 70
     1
102
RTVSPropertyOp15
 70
     1
102
RTVSPropertyOp16
 70
     1
102
RTVSPropertyOp17
 70
     1
102
RTVSPropertyOp18
 70
     1
102
RTVSPropertyOp19
 70
     1
102
RTVSPropertyOp20
 70
     1
102
RTVSPropertyOp21
 70
     1
102
RTVSPropertyOp22
 70
     1
102
RTVSPropertyOp23
 70
     1
102
RTVSPropertyOp24
 70
     1
102
RTVSPropertyOp25
 70
     1
102
RTVSPropertyOp26
 70
     1
102
RTVSPropertyOp27
 70
     1
102
RTVSPropertyOp28
 70
     1
102
RTVSPropertyOp29
 70
     1
102
RTVSPropertyOp30
 70
     1
102
RTVSPropertyOp31
 70
     1
102
RTVSPropertyOp32
 70
     1
  0
XRECORD
  5
90
102
{ACAD_REACTORS
330
8F
102
}
330
8F
100
AcDbXrecord
280
     1
102
RTVSPropertyOp0
 70
     1
102
RTVSPropertyOp1
 70
     1
102
RTVSPropertyOp2
 70
     1
102
RTVSPropertyOp3
 70
     1
102
RTVSPropertyOp4
 70
     1
102
RTVSPropertyOp5
 70
     1
102
RTVSPropertyOp6
 70
     1
102
RTVSPropertyOp7
 70
     1
102
RTVSPropertyOp8
 70
     1
102
RTVSPropertyOp9
 70
     1
102
RTVSPropertyOp10
 70
     1
102
RTVSPropertyOp11
 70
     1
102
RTVSPropertyOp12
 70
     1
102
RTVSPropertyOp13
 70
     1
102
RTVSPropertyOp14
 70
     1
102
RTVSPropertyOp15
 70
     1
102
RTVSPropertyOp16
 70
     1
102
RTVSPropertyOp17
 70
     1
102
RTVSPropertyOp18
 70
     1
102
RTVSPropertyOp19
 70
     1
102
RTVSPropertyOp20
 70
     1
102
RTVSPropertyOp21
 70
     1
102
RTVSPropertyOp22
 70
     1
102
RTVSPropertyOp23
 70
     1
102
RTVSPropertyOp24
 70
     1
102
RTVSPropertyOp25
 70
     1
102
RTVSPropertyOp26
 70
     1
102
RTVSPropertyOp27
 70
     1
102
RTVSPropertyOp28
 70
     1
102
RTVSPropertyOp29
 70
     1
102
RTVSPropertyOp30
 70
     1
102
RTVSPropertyOp31
 70
     1
102
RTVSPropertyOp32
 70
     1
  0
XRECORD
  5
98
102
{ACAD_REACTORS
330
97
102
}
330
97
100
AcDbXrecord
280
     1
102
RTVSPropertyOp0
 70
     1
102
RTVSPropertyOp1
 70
     1
102
RTVSPropertyOp2
 70
     1
102
RTVSPropertyOp3
 70
     1
102
RTVSPropertyOp4
 70
     1
102
RTVSPropertyOp5
 70
     1
102
RTVSPropertyOp6
 70
     1
102
RTVSPropertyOp7
 70
     1
102
RTVSPropertyOp8
 70
     1
102
RTVSPropertyOp9
 70
     1
102
RTVSPropertyOp10
 70
     1
102
RTVSPropertyOp11
 70
     1
102
RTVSPropertyOp12
 70
     1
102
RTVSPropertyOp13
 70
     1
102
RTVSPropertyOp14
 70
     1
102
RTVSPropertyOp15
 70
     1
102
RTVSPropertyOp16
 70
     1
102
RTVSPropertyOp17
 70
     1
102
RTVSPropertyOp18
 70
     1
102
RTVSPropertyOp19
 70
     1
102
RTVSPropertyOp20
 70
     1
102
RTVSPropertyOp21
 70
     1
102
RTVSPropertyOp22
 70
     1
102
RTVSPropertyOp23
 70
     1
102
RTVSPropertyOp24
 70
     1
102
RTVSPropertyOp25
 70
     1
102
RTVSPropertyOp26
 70
     1
102
RTVSPropertyOp27
 70
     1
102
RTVSPropertyOp28
 70
     1
102
RTVSPropertyOp29
 70
     1
102
RTVSPropertyOp30
 70
     1
102
RTVSPropertyOp31
 70
     1
102
RTVSPropertyOp32
 70
     1
  0
XRECORD
  5
8C
102
{ACAD_REACTORS
330
8B
102
}
330
8B
100
AcDbXrecord
280
     1
102
RTVSPropertyOp0
 70
     1
102
RTVSPropertyOp1
 70
     1
102
RTVSPropertyOp2
 70
     1
102
RTVSPropertyOp3
 70
     1
102
RTVSPropertyOp4
 70
     1
102
RTVSPropertyOp5
 70
     1
102
RTVSPropertyOp6
 70
     1
102
RTVSPropertyOp7
 70
     1
102
RTVSPropertyOp8
 70
     1
102
RTVSPropertyOp9
 70
     1
102
RTVSPropertyOp10
 70
     1
102
RTVSPropertyOp11
 70
     1
102
RTVSPropertyOp12
 70
     1
102
RTVSPropertyOp13
 70
     1
102
RTVSPropertyOp14
 70
     1
102
RTVSPropertyOp15
 70
     1
102
RTVSPropertyOp16
 70
     1
102
RTVSPropertyOp17
 70
     1
102
RTVSPropertyOp18
 70
     1
102
RTVSPropertyOp19
 70
     1
102
RTVSPropertyOp20
 70
     1
102
RTVSPropertyOp21
 70
     1
102
RTVSPropertyOp22
 70
     1
102
RTVSPropertyOp23
 70
     1
102
RTVSPropertyOp24
 70
     1
102
RTVSPropertyOp25
 70
     1
102
RTVSPropertyOp26
 70
     1
102
RTVSPropertyOp27
 70
     1
102
RTVSPropertyOp28
 70
     1
102
RTVSPropertyOp29
 70
     1
102
RTVSPropertyOp30
 70
     1
102
RTVSPropertyOp31
 70
     1
102
RTVSPropertyOp32
 70
     1
  0
XRECORD
  5
8E
102
{ACAD_REACTORS
330
8D
102
}
330
8D
100
AcDbXrecord
280
     1
102
RTVSPropertyOp0
 70
     1
102
RTVSPropertyOp1
 70
     1
102
RTVSPropertyOp2
 70
     1
102
RTVSPropertyOp3
 70
     1
102
RTVSPropertyOp4
 70
     1
102
RTVSPropertyOp5
 70
     1
102
RTVSPropertyOp6
 70
     1
102
RTVSPropertyOp7
 70
     1
102
RTVSPropertyOp8
 70
     1
102
RTVSPropertyOp9
 70
     1
102
RTVSPropertyOp10
 70
     1
102
RTVSPropertyOp11
 70
     1
102
RTVSPropertyOp12
 70
     1
102
RTVSPropertyOp13
 70
     1
102
RTVSPropertyOp14
 70
     1
102
RTVSPropertyOp15
 70
     1
102
RTVSPropertyOp16
 70
     1
102
RTVSPropertyOp17
 70
     1
102
RTVSPropertyOp18
 70
     1
102
RTVSPropertyOp19
 70
     1
102
RTVSPropertyOp20
 70
     1
102
RTVSPropertyOp21
 70
     1
102
RTVSPropertyOp22
 70
     1
102
RTVSPropertyOp23
 70
     1
102
RTVSPropertyOp24
 70
     1
102
RTVSPropertyOp25
 70
     1
102
RTVSPropertyOp26
 70
     1
102
RTVSPropertyOp27
 70
     1
102
RTVSPropertyOp28
 70
     1
102
RTVSPropertyOp29
 70
     1
102
RTVSPropertyOp30
 70
     1
102
RTVSPropertyOp31
 70
     1
102
RTVSPropertyOp32
 70
     1
  0
XRECORD
  5
96
102
{ACAD_REACTORS
330
95
102
}
330
95
100
AcDbXrecord
280
     1
102
RTVSPropertyOp0
 70
     1
102
RTVSPropertyOp1
 70
     1
102
RTVSPropertyOp2
 70
     1
102
RTVSPropertyOp3
 70
     1
102
RTVSPropertyOp4
 70
     1
102
RTVSPropertyOp5
 70
     1
102
RTVSPropertyOp6
 70
     1
102
RTVSPropertyOp7
 70
     1
102
RTVSPropertyOp8
 70
     1
102
RTVSPropertyOp9
 70
     1
102
RTVSPropertyOp10
 70
     1
102
RTVSPropertyOp11
 70
     1
102
RTVSPropertyOp12
 70
     1
102
RTVSPropertyOp13
 70
     1
102
RTVSPropertyOp14
 70
     1
102
RTVSPropertyOp15
 70
     1
102
RTVSPropertyOp16
 70
     1
102
RTVSPropertyOp17
 70
     1
102
RTVSPropertyOp18
 70
     1
102
RTVSPropertyOp19
 70
     1
102
RTVSPropertyOp20
 70
     1
102
RTVSPropertyOp21
 70
     1
102
RTVSPropertyOp22
 70
     1
102
RTVSPropertyOp23
 70
     1
102
RTVSPropertyOp24
 70
     1
102
RTVSPropertyOp25
 70
     1
102
RTVSPropertyOp26
 70
     1
102
RTVSPropertyOp27
 70
     1
102
RTVSPropertyOp28
 70
     1
102
RTVSPropertyOp29
 70
     1
102
RTVSPropertyOp30
 70
     1
102
RTVSPropertyOp31
 70
     1
102
RTVSPropertyOp32
 70
     1
  0
XRECORD
  5
7A
102
{ACAD_REACTORS
330
79
102
}
330
79
100
AcDbXrecord
280
     1
102
RTVSPropertyOp0
 70
     1
102
RTVSPropertyOp1
 70
     1
102
RTVSPropertyOp2
 70
     1
102
RTVSPropertyOp3
 70
     1
102
RTVSPropertyOp4
 70
     1
102
RTVSPropertyOp5
 70
     1
102
RTVSPropertyOp6
 70
     1
102
RTVSPropertyOp7
 70
     1
102
RTVSPropertyOp8
 70
     1
102
RTVSPropertyOp9
 70
     1
102
RTVSPropertyOp10
 70
     1
102
RTVSPropertyOp11
 70
     1
102
RTVSPropertyOp12
 70
     1
102
RTVSPropertyOp13
 70
     1
102
RTVSPropertyOp14
 70
     1
102
RTVSPropertyOp15
 70
     1
102
RTVSPropertyOp16
 70
     1
102
RTVSPropertyOp17
 70
     1
102
RTVSPropertyOp18
 70
     1
102
RTVSPropertyOp19
 70
     1
102
RTVSPropertyOp20
 70
     1
102
RTVSPropertyOp21
 70
     1
102
RTVSPropertyOp22
 70
     1
102
RTVSPropertyOp23
 70
     1
102
RTVSPropertyOp24
 70
     1
102
RTVSPropertyOp25
 70
     1
102
RTVSPropertyOp26
 70
     1
102
RTVSPropertyOp27
 70
     1
102
RTVSPropertyOp28
 70
     1
102
RTVSPropertyOp29
 70
     1
102
RTVSPropertyOp30
 70
     1
102
RTVSPropertyOp31
 70
     1
102
RTVSPropertyOp32
 70
     1
  0
XRECORD
  5
7C
102
{ACAD_REACTORS
330
7B
102
}
330
7B
100
AcDbXrecord
280
     1
102
RTVSPropertyOp0
 70
     1
102
RTVSPropertyOp1
 70
     1
102
RTVSPropertyOp2
 70
     1
102
RTVSPropertyOp3
 70
     1
102
RTVSPropertyOp4
 70
     1
102
RTVSPropertyOp5
 70
     1
102
RTVSPropertyOp6
 70
     1
102
RTVSPropertyOp7
 70
     1
102
RTVSPropertyOp8
 70
     1
102
RTVSPropertyOp9
 70
     1
102
RTVSPropertyOp10
 70
     1
102
RTVSPropertyOp11
 70
     1
102
RTVSPropertyOp12
 70
     1
102
RTVSPropertyOp13
 70
     1
102
RTVSPropertyOp14
 70
     1
102
RTVSPropertyOp15
 70
     1
102
RTVSPropertyOp16
 70
     1
102
RTVSPropertyOp17
 70
     1
102
RTVSPropertyOp18
 70
     1
102
RTVSPropertyOp19
 70
     1
102
RTVSPropertyOp20
 70
     1
102
RTVSPropertyOp21
 70
     1
102
RTVSPropertyOp22
 70
     1
102
RTVSPropertyOp23
 70
     1
102
RTVSPropertyOp24
 70
     1
102
RTVSPropertyOp25
 70
     1
102
RTVSPropertyOp26
 70
     1
102
RTVSPropertyOp27
 70
     1
102
RTVSPropertyOp28
 70
     1
102
RTVSPropertyOp29
 70
     1
102
RTVSPropertyOp30
 70
     1
102
RTVSPropertyOp31
 70
     1
102
RTVSPropertyOp32
 70
     1
  0
XRECORD
  5
7E
102
{ACAD_REACTORS
330
7D
102
}
330
7D
100
AcDbXrecord
280
     1
102
RTVSPropertyOp0
 70
     1
102
RTVSPropertyOp1
 70
     1
102
RTVSPropertyOp2
 70
     1
102
RTVSPropertyOp3
 70
     1
102
RTVSPropertyOp4
 70
     1
102
RTVSPropertyOp5
 70
     1
102
RTVSPropertyOp6
 70
     1
102
RTVSPropertyOp7
 70
     1
102
RTVSPropertyOp8
 70
     1
102
RTVSPropertyOp9
 70
     1
102
RTVSPropertyOp10
 70
     1
102
RTVSPropertyOp11
 70
     1
102
RTVSPropertyOp12
 70
     1
102
RTVSPropertyOp13
 70
     1
102
RTVSPropertyOp14
 70
     1
102
RTVSPropertyOp15
 70
     1
102
RTVSPropertyOp16
 70
     1
102
RTVSPropertyOp17
 70
     1
102
RTVSPropertyOp18
 70
     1
102
RTVSPropertyOp19
 70
     1
102
RTVSPropertyOp20
 70
     1
102
RTVSPropertyOp21
 70
     1
102
RTVSPropertyOp22
 70
     1
102
RTVSPropertyOp23
 70
     1
102
RTVSPropertyOp24
 70
     1
102
RTVSPropertyOp25
 70
     1
102
RTVSPropertyOp26
 70
     1
102
RTVSPropertyOp27
 70
     1
102
RTVSPropertyOp28
 70
     1
102
RTVSPropertyOp29
 70
     1
102
RTVSPropertyOp30
 70
     1
102
RTVSPropertyOp31
 70
     1
102
RTVSPropertyOp32
 70
     1
  0
XRECORD
  5
80
102
{ACAD_REACTORS
330
7F
102
}
330
7F
100
AcDbXrecord
280
     1
102
RTVSPropertyOp0
 70
     1
102
RTVSPropertyOp1
 70
     1
102
RTVSPropertyOp2
 70
     1
102
RTVSPropertyOp3
 70
     1
102
RTVSPropertyOp4
 70
     1
102
RTVSPropertyOp5
 70
     1
102
RTVSPropertyOp6
 70
     1
102
RTVSPropertyOp7
 70
     1
102
RTVSPropertyOp8
 70
     1
102
RTVSPropertyOp9
 70
     1
102
RTVSPropertyOp10
 70
     1
102
RTVSPropertyOp11
 70
     1
102
RTVSPropertyOp12
 70
     1
102
RTVSPropertyOp13
 70
     1
102
RTVSPropertyOp14
 70
     1
102
RTVSPropertyOp15
 70
     1
102
RTVSPropertyOp16
 70
     1
102
RTVSPropertyOp17
 70
     1
102
RTVSPropertyOp18
 70
     1
102
RTVSPropertyOp19
 70
     1
102
RTVSPropertyOp20
 70
     1
102
RTVSPropertyOp21
 70
     1
102
RTVSPropertyOp22
 70
     1
102
RTVSPropertyOp23
 70
     1
102
RTVSPropertyOp24
 70
     1
102
RTVSPropertyOp25
 70
     1
102
RTVSPropertyOp26
 70
     1
102
RTVSPropertyOp27
 70
     1
102
RTVSPropertyOp28
 70
     1
102
RTVSPropertyOp29
 70
     1
102
RTVSPropertyOp30
 70
     1
102
RTVSPropertyOp31
 70
     1
102
RTVSPropertyOp32
 70
     1
  0
XRECORD
  5
94
102
{ACAD_REACTORS
330
93
102
}
330
93
100
AcDbXrecord
280
     1
102
RTVSPropertyOp0
 70
     1
102
RTVSPropertyOp1
 70
     1
102
RTVSPropertyOp2
 70
     1
102
RTVSPropertyOp3
 70
     1
102
RTVSPropertyOp4
 70
     1
102
RTVSPropertyOp5
 70
     1
102
RTVSPropertyOp6
 70
     1
102
RTVSPropertyOp7
 70
     1
102
RTVSPropertyOp8
 70
     1
102
RTVSPropertyOp9
 70
     1
102
RTVSPropertyOp10
 70
     1
102
RTVSPropertyOp11
 70
     1
102
RTVSPropertyOp12
 70
     1
102
RTVSPropertyOp13
 70
     1
102
RTVSPropertyOp14
 70
     1
102
RTVSPropertyOp15
 70
     1
102
RTVSPropertyOp16
 70
     1
102
RTVSPropertyOp17
 70
     1
102
RTVSPropertyOp18
 70
     1
102
RTVSPropertyOp19
 70
     1
102
RTVSPropertyOp20
 70
     1
102
RTVSPropertyOp21
 70
     1
102
RTVSPropertyOp22
 70
     1
102
RTVSPropertyOp23
 70
     1
102
RTVSPropertyOp24
 70
     1
102
RTVSPropertyOp25
 70
     1
102
RTVSPropertyOp26
 70
     1
102
RTVSPropertyOp27
 70
     1
102
RTVSPropertyOp28
 70
     1
102
RTVSPropertyOp29
 70
     1
102
RTVSPropertyOp30
 70
     1
102
RTVSPropertyOp31
 70
     1
102
RTVSPropertyOp32
 70
     1
  0
XRECORD
  5
8A
102
{ACAD_REACTORS
330
89
102
}
330
89
100
AcDbXrecord
280
     1
102
RTVSPropertyOp0
 70
     1
102
RTVSPropertyOp1
 70
     1
102
RTVSPropertyOp2
 70
     1
102
RTVSPropertyOp3
 70
     1
102
RTVSPropertyOp4
 70
     1
102
RTVSPropertyOp5
 70
     1
102
RTVSPropertyOp6
 70
     1
102
RTVSPropertyOp7
 70
     1
102
RTVSPropertyOp8
 70
     1
102
RTVSPropertyOp9
 70
     1
102
RTVSPropertyOp10
 70
     1
102
RTVSPropertyOp11
 70
     1
102
RTVSPropertyOp12
 70
     1
102
RTVSPropertyOp13
 70
     1
102
RTVSPropertyOp14
 70
     1
102
RTVSPropertyOp15
 70
     1
102
RTVSPropertyOp16
 70
     1
102
RTVSPropertyOp17
 70
     1
102
RTVSPropertyOp18
 70
     1
102
RTVSPropertyOp19
 70
     1
102
RTVSPropertyOp20
 70
     1
102
RTVSPropertyOp21
 70
     1
102
RTVSPropertyOp22
 70
     1
102
RTVSPropertyOp23
 70
     1
102
RTVSPropertyOp24
 70
     1
102
RTVSPropertyOp25
 70
     1
102
RTVSPropertyOp26
 70
     1
102
RTVSPropertyOp27
 70
     1
102
RTVSPropertyOp28
 70
     1
102
RTVSPropertyOp29
 70
     1
102
RTVSPropertyOp30
 70
     1
102
RTVSPropertyOp31
 70
     1
102
RTVSPropertyOp32
 70
     1
  0
XRECORD
  5
92
102
{ACAD_REACTORS
330
91
102
}
330
91
100
AcDbXrecord
280
     1
102
RTVSPropertyOp0
 70
     1
102
RTVSPropertyOp1
 70
     1
102
RTVSPropertyOp2
 70
     1
102
RTVSPropertyOp3
 70
     1
102
RTVSPropertyOp4
 70
     1
102
RTVSPropertyOp5
 70
     1
102
RTVSPropertyOp6
 70
     1
102
RTVSPropertyOp7
 70
     1
102
RTVSPropertyOp8
 70
     1
102
RTVSPropertyOp9
 70
     1
102
RTVSPropertyOp10
 70
     1
102
RTVSPropertyOp11
 70
     1
102
RTVSPropertyOp12
 70
     1
102
RTVSPropertyOp13
 70
     1
102
RTVSPropertyOp14
 70
     1
102
RTVSPropertyOp15
 70
     1
102
RTVSPropertyOp16
 70
     1
102
RTVSPropertyOp17
 70
     1
102
RTVSPropertyOp18
 70
     1
102
RTVSPropertyOp19
 70
     1
102
RTVSPropertyOp20
 70
     1
102
RTVSPropertyOp21
 70
     1
102
RTVSPropertyOp22
 70
     1
102
RTVSPropertyOp23
 70
     1
102
RTVSPropertyOp24
 70
     1
102
RTVSPropertyOp25
 70
     1
102
RTVSPropertyOp26
 70
     1
102
RTVSPropertyOp27
 70
     1
102
RTVSPropertyOp28
 70
     1
102
RTVSPropertyOp29
 70
     1
102
RTVSPropertyOp30
 70
     1
102
RTVSPropertyOp31
 70
     1
102
RTVSPropertyOp32
 70
     1
  0
ENDSEC
  0
EOF
