  0
SECTION
  2
HEADER
  9
$ACADVER
  1
AC1024
  9
$ACADMAINTVER
 70
     6
  9
$DWGCODEPAGE
  3
UNDEFINED
  9
$INSBASE
 10
0.0
 20
0.0
 30
0.0
  9
$EXTMIN
 10
1.000000000000000E+20
 20
1.000000000000000E+20
 30
1.000000000000000E+20
  9
$EXTMAX
 10
-1.000000000000000E+20
 20
-1.000000000000000E+20
 30
-1.000000000000000E+20
  9
$LIMMIN
 10
0.0
 20
0.0
  9
$LIMMAX
 10
12.0
 20
9.0
  9
$ORTHOMODE
 70
     0
  9
$REGENMODE
 70
     1
  9
$FILLMODE
 70
     1
  9
$QTEXTMODE
 70
     0
  9
$MIRRTEXT
 70
     1
  9
$LTSCALE
 40
1.0
  9
$ATTMODE
 70
     1
  9
$TEXTSIZE
 40
0.2
  9
$TRACEWID
 40
0.05
  9
$TEXTSTYLE
  7
Standard
  9
$CLAYER
  8
0
  9
$CELTYPE
  6
ByLayer
  9
$CECOLOR
 62
   256
  9
$CELTSCALE
 40
1.0
  9
$DISPSILH
 70
     0
  9
$DIMSCALE
 40
1.0
  9
$DIMASZ
 40
0.18
  9
$DIMEXO
 40
0.0625
  9
$DIMDLI
 40
0.38
  9
$DIMRND
 40
0.0
  9
$DIMDLE
 40
0.0
  9
$DIMEXE
 40
0.18
  9
$DIMTP
 40
0.0
  9
$DIMTM
 40
0.0
  9
$DIMTXT
 40
0.18
  9
$DIMCEN
 40
0.09
  9
$DIMTSZ
 40
0.0
  9
$DIMTOL
 70
     0
  9
$DIMLIM
 70
     0
  9
$DIMTIH
 70
     1
  9
$DIMTOH
 70
     1
  9
$DIMSE1
 70
     0
  9
$DIMSE2
 70
     0
  9
$DIMTAD
 70
     0
  9
$DIMZIN
 70
     0
  9
$DIMBLK
  1

  9
$DIMASO
 70
     1
  9
$DIMSHO
 70
     1
  9
$DIMPOST
  1

  9
$DIMAPOST
  1

  9
$DIMALT
 70
     0
  9
$DIMALTD
 70
     2
  9
$DIMALTF
 40
25.4
  9
$DIMLFAC
 40
1.0
  9
$DIMTOFL
 70
     0
  9
$DIMTVP
 40
0.0
  9
$DIMTIX
 70
     0
  9
$DIMSOXD
 70
     0
  9
$DIMSAH
 70
     0
  9
$DIMBLK1
  1

  9
$DIMBLK2
  1

  9
$DIMSTYLE
  2
Standard
  9
$DIMCLRD
 70
     0
  9
$DIMCLRE
 70
     0
  9
$DIMCLRT
 70
     0
  9
$DIMTFAC
 40
1.0
  9
$DIMGAP
 40
0.09
  9
$DIMJUST
 70
     0
  9
$DIMSD1
 70
     0
  9
$DIMSD2
 70
     0
  9
$DIMTOLJ
 70
     1
  9
$DIMTZIN
 70
     0
  9
$DIMALTZ
 70
     0
  9
$DIMALTTZ
 70
     0
  9
$DIMUPT
 70
     0
  9
$DIMDEC
 70
     4
  9
$DIMTDEC
 70
     4
  9
$DIMALTU
 70
     2
  9
$DIMALTTD
 70
     2
  9
$DIMTXSTY
  7
Standard
  9
$DIMAUNIT
 70
     0
  9
$DIMADEC
 70
     0
  9
$DIMALTRND
 40
0.0
  9
$DIMAZIN
 70
     0
  9
$DIMDSEP
 70
    46
  9
$DIMATFIT
 70
     3
  9
$DIMFRAC
 70
     0
  9
$DIMLDRBLK
  1

  9
$DIMLUNIT
 70
     2
  9
$DIMLWD
 70
    -2
  9
$DIMLWE
 70
    -2
  9
$DIMTMOVE
 70
     0
  9
$DIMFXL
 40
1.0
  9
$DIMFXLON
 70
     0
  9
$DIMJOGANG
 40
0.7853981633974483
  9
$DIMTFILL
 70
     0
  9
$DIMTFILLCLR
 70
     0
  9
$DIMARCSYM
 70
     0
  9
$DIMLTYPE
  6

  9
$DIMLTEX1
  6

  9
$DIMLTEX2
  6

  9
$DIMTXTDIRECTION
 70
     0
  9
$LUNITS
 70
     2
  9
$LUPREC
 70
     4
  9
$SKETCHINC
 40
0.1
  9
$FILLETRAD
 40
0.5
  9
$AUNITS
 70
     0
  9
$AUPREC
 70
     0
  9
$MENU
  1
.
  9
$ELEVATION
 40
0.0
  9
$PELEVATION
 40
0.0
  9
$THICKNESS
 40
0.0
  9
$LIMCHECK
 70
     0
  9
$CHAMFERA
 40
0.5
  9
$CHAMFERB
 40
0.5
  9
$CHAMFERC
 40
1.0
  9
$CHAMFERD
 40
0.0
  9
$SKPOLY
 70
     0
  9
$TDCREATE
 40
2457442.558194445
  9
$TDUCREATE
 40
2457442.766527778
  9
$TDUPDATE
 40
2457442.558194445
  9
$TDUUPDATE
 40
2457442.766527778
  9
$TDINDWG
 40
0.0000000116
  9
$TDUSRTIMER
 40
0.0000000116
  9
$USRTIMER
 70
     1
  9
$ANGBASE
 50
0.0
  9
$ANGDIR
 70
     0
  9
$PDMODE
 70
     0
  9
$PDSIZE
 40
0.0
  9
$PLINEWID
 40
0.0
  9
$SPLFRAME
 70
     0
  9
$SPLINETYPE
 70
     6
  9
$SPLINESEGS
 70
     8
  9
$HANDSEED
  5
390
  9
$SURFTAB1
 70
     6
  9
$SURFTAB2
 70
     6
  9
$SURFTYPE
 70
     6
  9
$SURFU
 70
     6
  9
$SURFV
 70
     6
  9
$UCSBASE
  2

  9
$UCSNAME
  2

  9
$UCSORG
 10
0.0
 20
0.0
 30
0.0
  9
$UCSXDIR
 10
1.0
 20
0.0
 30
0.0
  9
$UCSYDIR
 10
0.0
 20
1.0
 30
0.0
  9
$UCSORTHOREF
  2

  9
$UCSORTHOVIEW
 70
     0
  9
$UCSORGTOP
 10
0.0
 20
0.0
 30
0.0
  9
$UCSORGBOTTOM
 10
0.0
 20
0.0
 30
0.0
  9
$UCSORGLEFT
 10
0.0
 20
0.0
 30
0.0
  9
$UCSORGRIGHT
 10
0.0
 20
0.0
 30
0.0
  9
$UCSORGFRONT
 10
0.0
 20
0.0
 30
0.0
  9
$UCSORGBACK
 10
0.0
 20
0.0
 30
0.0
  9
$PUCSBASE
  2

  9
$PUCSNAME
  2

  9
$PUCSORG
 10
0.0
 20
0.0
 30
0.0
  9
$PUCSXDIR
 10
1.0
 20
0.0
 30
0.0
  9
$PUCSYDIR
 10
0.0
 20
1.0
 30
0.0
  9
$PUCSORTHOREF
  2

  9
$PUCSORTHOVIEW
 70
     0
  9
$PUCSORGTOP
 10
0.0
 20
0.0
 30
0.0
  9
$PUCSORGBOTTOM
 10
0.0
 20
0.0
 30
0.0
  9
$PUCSORGLEFT
 10
0.0
 20
0.0
 30
0.0
  9
$PUCSORGRIGHT
 10
0.0
 20
0.0
 30
0.0
  9
$PUCSORGFRONT
 10
0.0
 20
0.0
 30
0.0
  9
$PUCSORGBACK
 10
0.0
 20
0.0
 30
0.0
  9
$USERI1
 70
     0
  9
$USERI2
 70
     0
  9
$USERI3
 70
     0
  9
$USERI4
 70
     0
  9
$USERI5
 70
     0
  9
$USERR1
 40
0.0
  9
$USERR2
 40
0.0
  9
$USERR3
 40
0.0
  9
$USERR4
 40
0.0
  9
$USERR5
 40
0.0
  9
$WORLDVIEW
 70
     1
  9
$SHADEDGE
 70
     3
  9
$SHADEDIF
 70
    70
  9
$TILEMODE
 70
     1
  9
$MAXACTVP
 70
    64
  9
$PINSBASE
 10
0.0
 20
0.0
 30
0.0
  9
$PLIMCHECK
 70
     0
  9
$PEXTMIN
 10
1.000000000000000E+20
 20
1.000000000000000E+20
 30
1.000000000000000E+20
  9
$PEXTMAX
 10
-1.000000000000000E+20
 20
-1.000000000000000E+20
 30
-1.000000000000000E+20
  9
$PLIMMIN
 10
0.0
 20
0.0
  9
$PLIMMAX
 10
12.0
 20
9.0
  9
$UNITMODE
 70
     0
  9
$VISRETAIN
 70
     1
  9
$PLINEGEN
 70
     0
  9
$PSLTSCALE
 70
     1
  9
$TREEDEPTH
 70
  3020
  9
$CMLSTYLE
  2
Standard
  9
$CMLJUST
 70
     0
  9
$CMLSCALE
 40
1.0
  9
$PROXYGRAPHICS
 70
     1
  9
$MEASUREMENT
 70
     0
  9
$CELWEIGHT
370
    -1
  9
$ENDCAPS
280
     0
  9
$JOINSTYLE
280
     0
  9
$LWDISPLAY
290
     1
  9
$INSUNITS
 70
     1
  9
$HYPERLINKBASE
  1

  9
$STYLESHEET
  1

  9
$XEDIT
290
     1
  9
$CEPSNTYPE
380
     0
  9
$PSTYLEMODE
290
     1
  9
$FINGERPRINTGUID
  2
{19F6CEC1-48A2-AD1C-6E1E-97687ED7B7BE}
  9
$VERSIONGUID
  2
{FAEB1C32-E019-11D5-929B-00C0DF256EC4}
  9
$EXTNAMES
290
     1
  9
$PSVPSCALE
 40
0.0
  9
$OLESTARTUP
290
     0
  9
$SORTENTS
280
   127
  9
$INDEXCTL
280
     0
  9
$HIDETEXT
280
     1
  9
$XCLIPFRAME
280
     2
  9
$HALOGAP
280
     0
  9
$OBSCOLOR
 70
   257
  9
$OBSLTYPE
280
     0
  9
$INTERSECTIONDISPLAY
280
     0
  9
$INTERSECTIONCOLOR
 70
   257
  9
$DIMASSOC
280
     2
  9
$PROJECTNAME
  1

  9
$CAMERADISPLAY
290
     0
  9
$LENSLENGTH
 40
50.0
  9
$CAMERAHEIGHT
 40
0.0
  9
$STEPSPERSEC
 40
2.0
  9
$STEPSIZE
 40
6.0
  9
$3DDWFPREC
 40
2.0
  9
$PSOLWIDTH
 40
0.25
  9
$PSOLHEIGHT
 40
4.0
  9
$LOFTANG1
 40
1.570796326794897
  9
$LOFTANG2
 40
1.570796326794897
  9
$LOFTMAG1
 40
0.0
  9
$LOFTMAG2
 40
0.0
  9
$LOFTPARAM
 70
     7
  9
$LOFTNORMALS
280
     1
  9
$LATITUDE
 40
37.795
  9
$LONGITUDE
 40
-122.394
  9
$NORTHDIRECTION
 40
0.0
  9
$TIMEZONE
 70
 -8000
  9
$LIGHTGLYPHDISPLAY
280
     1
  9
$TILEMODELIGHTSYNCH
280
     1
  9
$CMATERIAL
347
3C
  9
$SOLIDHIST
280
     1
  9
$SHOWHIST
280
     1
  9
$DWFFRAME
280
     2
  9
$DGNFRAME
280
     2
  9
$REALWORLDSCALE
290
     1
  9
$INTERFERECOLOR
 62
   256
  9
$CSHADOW
280
     0
  9
$SHADOWPLANELOCATION
 40
0.0
  0
ENDSEC
  0
SECTION
  2
CLASSES
  0
CLASS
  1
ACDBDICTIONARYWDFLT
  2
AcDbDictionaryWithDefault
  3
ObjectDBX Classes
 90
        0
 91
        4
280
     0
281
     0
  0
CLASS
  1
VISUALSTYLE
  2
AcDbVisualStyle
  3
ObjectDBX Classes
 90
     4095
 91
        4
280
     0
281
     0
  0
CLASS
  1
MATERIAL
  2
AcDbMaterial
  3
ObjectDBX Classes
 90
     1153
 91
        4
280
     0
281
     0
  0
CLASS
  1
SUN
  2
AcDbSun
  3
SCENEOE
 90
     1024
 91
        4
280
     0
281
     0
  0
ENDSEC
  0
SECTION
  2
TABLES
  0
TABLE
  2
VPORT
  5
8
330
0
100
AcDbSymbolTable
 70
     1
  0
VPORT
  5
29
330
8
100
AcDbSymbolTableRecord
100
AcDbViewportTableRecord
  2
*Active
 70
     0
 10
0.0
 20
0.0
 11
1.0
 21
1.0
 12
0.0
 22
0.0
 13
0.0
 23
0.0
 14
0.5
 24
0.5
 15
0.5
 25
0.5
 16
0.0
 26
0.0
 36
1.0
 17
4.25
 27
5.5
 37
0.0
 40
11.0
 41
0.7727272727272727
 42
50.0
 43
0.0
 44
0.0
 50
0.0
 51
0.0
 71
     0
 72
   100
 73
     1
 74
     3
 75
     0
 76
     0
 77
     0
 78
     0
281
     0
 65
     1
110
0.0
120
0.0
130
0.0
111
1.0
121
0.0
131
0.0
112
0.0
122
1.0
132
0.0
 79
     0
146
0.0
 60
     3
 61
     5
292
     1
282
     1
141
0.0
142
0.0
 63
   250
361
3F
  0
ENDTAB
  0
TABLE
  2
LTYPE
  5
5
330
0
100
AcDbSymbolTable
 70
     9
  0
LTYPE
  5
14
330
5
100
AcDbSymbolTableRecord
100
AcDbLinetypeTableRecord
  2
ByBlock
 70
     0
  3

 72
    65
 73
     0
 40
0.0
  0
LTYPE
  5
15
330
5
100
AcDbSymbolTableRecord
100
AcDbLinetypeTableRecord
  2
ByLayer
 70
     0
  3

 72
    65
 73
     0
 40
0.0
  0
LTYPE
  5
16
330
5
100
AcDbSymbolTableRecord
100
AcDbLinetypeTableRecord
  2
Continuous
 70
     0
  3
Solid line
 72
    65
 73
     0
 40
0.0
  0
LTYPE
  5
14C
330
5
100
AcDbSymbolTableRecord
100
AcDbLinetypeTableRecord
  2
AI-Linetype-1
 70
     0
  3
Adobe Illustrator Linetype No. 1
 72
    65
 73
     2
 40
0.0992989639441172
 49
0.0661993092960781
 74
     0
 49
-0.0330996546480391
 74
     0
  0
LTYPE
  5
152
330
5
100
AcDbSymbolTableRecord
100
AcDbLinetypeTableRecord
  2
AI-Linetype-2
 70
     0
  3
Adobe Illustrator Linetype No. 2
 72
    65
 73
     2
 40
0.0992989639441172
 49
0.0661993092960781
 74
     0
 49
-0.0330996546480391
 74
     0
  0
LTYPE
  5
158
330
5
100
AcDbSymbolTableRecord
100
AcDbLinetypeTableRecord
  2
AI-Linetype-3
 70
     0
  3
Adobe Illustrator Linetype No. 3
 72
    65
 73
     2
 40
0.0992989639441172
 49
0.0661993092960781
 74
     0
 49
-0.0330996546480391
 74
     0
  0
LTYPE
  5
15E
330
5
100
AcDbSymbolTableRecord
100
AcDbLinetypeTableRecord
  2
AI-Linetype-4
 70
     0
  3
Adobe Illustrator Linetype No. 4
 72
    65
 73
     2
 40
0.0992989639441172
 49
0.0661993092960781
 74
     0
 49
-0.0330996546480391
 74
     0
  0
LTYPE
  5
164
330
5
100
AcDbSymbolTableRecord
100
AcDbLinetypeTableRecord
  2
AI-Linetype-5
 70
     0
  3
Adobe Illustrator Linetype No. 5
 72
    65
 73
     2
 40
0.0992989639441172
 49
0.0661993092960781
 74
     0
 49
-0.0330996546480391
 74
     0
  0
LTYPE
  5
16A
330
5
100
AcDbSymbolTableRecord
100
AcDbLinetypeTableRecord
  2
AI-Linetype-6
 70
     0
  3
Adobe Illustrator Linetype No. 6
 72
    65
 73
     2
 40
0.0992989639441172
 49
0.0661993092960781
 74
     0
 49
-0.0330996546480391
 74
     0
  0
LTYPE
  5
170
330
5
100
AcDbSymbolTableRecord
100
AcDbLinetypeTableRecord
  2
AI-Linetype-7
 70
     0
  3
Adobe Illustrator Linetype No. 7
 72
    65
 73
     2
 40
0.0992989639441172
 49
0.0661993092960781
 74
     0
 49
-0.0330996546480391
 74
     0
  0
LTYPE
  5
176
330
5
100
AcDbSymbolTableRecord
100
AcDbLinetypeTableRecord
  2
AI-Linetype-8
 70
     0
  3
Adobe Illustrator Linetype No. 8
 72
    65
 73
     2
 40
0.0992989639441172
 49
0.0661993092960781
 74
     0
 49
-0.0330996546480391
 74
     0
  0
ENDTAB
  0
TABLE
  2
LAYER
  5
2
330
0
100
AcDbSymbolTable
 70
     5
  0
LAYER
  5
10
330
2
100
AcDbSymbolTableRecord
100
AcDbLayerTableRecord
  2
0
 70
     0
 62
     7
  6
Continuous
370
    -3
390
F
347
3E
  0
LAYER
  5
40
330
2
100
AcDbSymbolTableRecord
100
AcDbLayerTableRecord
  2
2
 70
     0
 62
     7
  6
Continuous
370
    -3
390
F
347
3E
  0
LAYER
  5
146
330
2
100
AcDbSymbolTableRecord
100
AcDbLayerTableRecord
  2
1
 70
     0
 62
     7
  6
Continuous
370
    -3
390
F
347
3E
  0
LAYER
  5
177
330
2
100
AcDbSymbolTableRecord
100
AcDbLayerTableRecord
  2
3
 70
     0
 62
     7
  6
Continuous
370
    -3
390
F
347
3E
  0
LAYER
  5
2FD
330
2
100
AcDbSymbolTableRecord
100
AcDbLayerTableRecord
  2
Defpoints
 70
     0
 62
     7
  6
Continuous
290
     0
370
    -3
390
F
347
3E
  0
ENDTAB
  0
TABLE
  2
STYLE
  5
3
330
0
100
AcDbSymbolTable
 70
     1
  0
STYLE
  5
11
330
3
100
AcDbSymbolTableRecord
100
AcDbTextStyleTableRecord
  2
Standard
 70
     0
 40
0.0
 41
1.0
 50
0.0
 71
     0
 42
0.2
  3
txt
  4

  0
ENDTAB
  0
TABLE
  2
VIEW
  5
6
330
0
100
AcDbSymbolTable
 70
     0
  0
ENDTAB
  0
TABLE
  2
UCS
  5
7
330
0
100
AcDbSymbolTable
 70
     0
  0
ENDTAB
  0
TABLE
  2
APPID
  5
9
330
0
100
AcDbSymbolTable
 70
     1
  0
APPID
  5
12
330
9
100
AcDbSymbolTableRecord
100
AcDbRegAppTableRecord
  2
ACAD
 70
     0
  0
ENDTAB
  0
TABLE
  2
DIMSTYLE
  5
A
330
0
100
AcDbSymbolTable
 70
     1
100
AcDbDimStyleTable
  0
DIMSTYLE
105
27
330
A
100
AcDbSymbolTableRecord
100
AcDbDimStyleTableRecord
  2
Standard
 70
     0
178
     0
340
11
  0
ENDTAB
  0
TABLE
  2
BLOCK_RECORD
  5
1
330
0
100
AcDbSymbolTable
 70
   101
  0
BLOCK_RECORD
  5
1F
330
1
100
AcDbSymbolTableRecord
100
AcDbBlockTableRecord
  2
*Model_Space
340
22
 70
     0
280
     1
281
     0
  0
BLOCK_RECORD
  5
1B
330
1
100
AcDbSymbolTableRecord
100
AcDbBlockTableRecord
  2
*Paper_Space
340
1E
 70
     0
280
     1
281
     0
  0
BLOCK_RECORD
  5
23
330
1
100
AcDbSymbolTableRecord
100
AcDbBlockTableRecord
  2
*Paper_Space0
340
26
 70
     0
280
     1
281
     0
  0
BLOCK_RECORD
  5
41
330
1
100
AcDbSymbolTableRecord
100
AcDbBlockTableRecord
  2
block 2
340
0
102
{BLKREFS
331
42
102
}
 70
     0
280
     1
281
     0
  0
BLOCK_RECORD
  5
46
330
1
100
AcDbSymbolTableRecord
100
AcDbBlockTableRecord
  2
block 3
340
0
102
{BLKREFS
331
47
102
}
 70
     0
280
     1
281
     0
  0
BLOCK_RECORD
  5
4B
330
1
100
AcDbSymbolTableRecord
100
AcDbBlockTableRecord
  2
block 4
340
0
102
{BLKREFS
331
4C
102
}
 70
     0
280
     1
281
     0
  0
BLOCK_RECORD
  5
50
330
1
100
AcDbSymbolTableRecord
100
AcDbBlockTableRecord
  2
block 5
340
0
102
{BLKREFS
331
51
102
}
 70
     0
280
     1
281
     0
  0
BLOCK_RECORD
  5
55
330
1
100
AcDbSymbolTableRecord
100
AcDbBlockTableRecord
  2
block 6
340
0
102
{BLKREFS
331
56
102
}
 70
     0
280
     1
281
     0
  0
BLOCK_RECORD
  5
5A
330
1
100
AcDbSymbolTableRecord
100
AcDbBlockTableRecord
  2
block 7
340
0
102
{BLKREFS
331
5B
102
}
 70
     0
280
     1
281
     0
  0
BLOCK_RECORD
  5
5F
330
1
100
AcDbSymbolTableRecord
100
AcDbBlockTableRecord
  2
block 8
340
0
102
{BLKREFS
331
60
102
}
 70
     0
280
     1
281
     0
  0
BLOCK_RECORD
  5
64
330
1
100
AcDbSymbolTableRecord
100
AcDbBlockTableRecord
  2
block 9
340
0
102
{BLKREFS
331
65
102
}
 70
     0
280
     1
281
     0
  0
BLOCK_RECORD
  5
69
330
1
100
AcDbSymbolTableRecord
100
AcDbBlockTableRecord
  2
block 10
340
0
102
{BLKREFS
331
6A
102
}
 70
     0
280
     1
281
     0
  0
BLOCK_RECORD
  5
A2
330
1
100
AcDbSymbolTableRecord
100
AcDbBlockTableRecord
  2
block 11
340
0
102
{BLKREFS
331
A3
102
}
 70
     0
280
     1
281
     0
  0
BLOCK_RECORD
  5
AA
330
1
100
AcDbSymbolTableRecord
100
AcDbBlockTableRecord
  2
block 12
340
0
102
{BLKREFS
331
AB
102
}
 70
     0
280
     1
281
     0
  0
BLOCK_RECORD
  5
AF
330
1
100
AcDbSymbolTableRecord
100
AcDbBlockTableRecord
  2
block 13
340
0
102
{BLKREFS
331
B0
102
}
 70
     0
280
     1
281
     0
  0
BLOCK_RECORD
  5
B4
330
1
100
AcDbSymbolTableRecord
100
AcDbBlockTableRecord
  2
block 14
340
0
102
{BLKREFS
331
B5
102
}
 70
     0
280
     1
281
     0
  0
BLOCK_RECORD
  5
BC
330
1
100
AcDbSymbolTableRecord
100
AcDbBlockTableRecord
  2
block 15
340
0
102
{BLKREFS
331
BD
102
}
 70
     0
280
     1
281
     0
  0
BLOCK_RECORD
  5
C1
330
1
100
AcDbSymbolTableRecord
100
AcDbBlockTableRecord
  2
block 16
340
0
102
{BLKREFS
331
C2
102
}
 70
     0
280
     1
281
     0
  0
BLOCK_RECORD
  5
C6
330
1
100
AcDbSymbolTableRecord
100
AcDbBlockTableRecord
  2
block 17
340
0
102
{BLKREFS
331
C7
102
}
 70
     0
280
     1
281
     0
  0
BLOCK_RECORD
  5
CE
330
1
100
AcDbSymbolTableRecord
100
AcDbBlockTableRecord
  2
block 18
340
0
102
{BLKREFS
331
CF
102
}
 70
     0
280
     1
281
     0
  0
BLOCK_RECORD
  5
D6
330
1
100
AcDbSymbolTableRecord
100
AcDbBlockTableRecord
  2
block 19
340
0
102
{BLKREFS
331
D7
102
}
 70
     0
280
     1
281
     0
  0
BLOCK_RECORD
  5
DB
330
1
100
AcDbSymbolTableRecord
100
AcDbBlockTableRecord
  2
block 20
340
0
102
{BLKREFS
331
DC
102
}
 70
     0
280
     1
281
     0
  0
BLOCK_RECORD
  5
E0
330
1
100
AcDbSymbolTableRecord
100
AcDbBlockTableRecord
  2
block 21
340
0
102
{BLKREFS
331
E1
102
}
 70
     0
280
     1
281
     0
  0
BLOCK_RECORD
  5
10D
330
1
100
AcDbSymbolTableRecord
100
AcDbBlockTableRecord
  2
block 22
340
0
102
{BLKREFS
331
10E
102
}
 70
     0
280
     1
281
     0
  0
BLOCK_RECORD
  5
115
330
1
100
AcDbSymbolTableRecord
100
AcDbBlockTableRecord
  2
block 23
340
0
102
{BLKREFS
331
116
102
}
 70
     0
280
     1
281
     0
  0
BLOCK_RECORD
  5
11D
330
1
100
AcDbSymbolTableRecord
100
AcDbBlockTableRecord
  2
block 24
340
0
102
{BLKREFS
331
11E
102
}
 70
     0
280
     1
281
     0
  0
BLOCK_RECORD
  5
122
330
1
100
AcDbSymbolTableRecord
100
AcDbBlockTableRecord
  2
block 25
340
0
102
{BLKREFS
331
123
102
}
 70
     0
280
     1
281
     0
  0
BLOCK_RECORD
  5
12A
330
1
100
AcDbSymbolTableRecord
100
AcDbBlockTableRecord
  2
block 26
340
0
102
{BLKREFS
331
12B
102
}
 70
     0
280
     1
281
     0
  0
BLOCK_RECORD
  5
12F
330
1
100
AcDbSymbolTableRecord
100
AcDbBlockTableRecord
  2
block 27
340
0
102
{BLKREFS
331
130
102
}
 70
     0
280
     1
281
     0
  0
BLOCK_RECORD
  5
134
330
1
100
AcDbSymbolTableRecord
100
AcDbBlockTableRecord
  2
block 28
340
0
102
{BLKREFS
331
135
102
}
 70
     0
280
     1
281
     0
  0
BLOCK_RECORD
  5
13C
330
1
100
AcDbSymbolTableRecord
100
AcDbBlockTableRecord
  2
block 29
340
0
102
{BLKREFS
331
13D
102
}
 70
     0
280
     1
281
     0
  0
BLOCK_RECORD
  5
141
330
1
100
AcDbSymbolTableRecord
100
AcDbBlockTableRecord
  2
block 30
340
0
102
{BLKREFS
331
142
102
}
 70
     0
280
     1
281
     0
  0
BLOCK_RECORD
  5
147
330
1
100
AcDbSymbolTableRecord
100
AcDbBlockTableRecord
  2
block 31
340
0
102
{BLKREFS
331
148
102
}
 70
     0
280
     1
281
     0
  0
BLOCK_RECORD
  5
14D
330
1
100
AcDbSymbolTableRecord
100
AcDbBlockTableRecord
  2
block 32
340
0
102
{BLKREFS
331
14E
102
}
 70
     0
280
     1
281
     0
  0
BLOCK_RECORD
  5
153
330
1
100
AcDbSymbolTableRecord
100
AcDbBlockTableRecord
  2
block 33
340
0
102
{BLKREFS
331
154
102
}
 70
     0
280
     1
281
     0
  0
BLOCK_RECORD
  5
159
330
1
100
AcDbSymbolTableRecord
100
AcDbBlockTableRecord
  2
block 34
340
0
102
{BLKREFS
331
15A
102
}
 70
     0
280
     1
281
     0
  0
BLOCK_RECORD
  5
15F
330
1
100
AcDbSymbolTableRecord
100
AcDbBlockTableRecord
  2
block 35
340
0
102
{BLKREFS
331
160
102
}
 70
     0
280
     1
281
     0
  0
BLOCK_RECORD
  5
165
330
1
100
AcDbSymbolTableRecord
100
AcDbBlockTableRecord
  2
block 36
340
0
102
{BLKREFS
331
166
102
}
 70
     0
280
     1
281
     0
  0
BLOCK_RECORD
  5
16B
330
1
100
AcDbSymbolTableRecord
100
AcDbBlockTableRecord
  2
block 37
340
0
102
{BLKREFS
331
16C
102
}
 70
     0
280
     1
281
     0
  0
BLOCK_RECORD
  5
171
330
1
100
AcDbSymbolTableRecord
100
AcDbBlockTableRecord
  2
block 38
340
0
102
{BLKREFS
331
172
102
}
 70
     0
280
     1
281
     0
  0
BLOCK_RECORD
  5
178
330
1
100
AcDbSymbolTableRecord
100
AcDbBlockTableRecord
  2
block 39
340
0
102
{BLKREFS
331
179
102
}
 70
     0
280
     1
281
     0
  0
BLOCK_RECORD
  5
180
330
1
100
AcDbSymbolTableRecord
100
AcDbBlockTableRecord
  2
block 40
340
0
102
{BLKREFS
331
181
102
}
 70
     0
280
     1
281
     0
  0
BLOCK_RECORD
  5
188
330
1
100
AcDbSymbolTableRecord
100
AcDbBlockTableRecord
  2
block 41
340
0
102
{BLKREFS
331
189
102
}
 70
     0
280
     1
281
     0
  0
BLOCK_RECORD
  5
190
330
1
100
AcDbSymbolTableRecord
100
AcDbBlockTableRecord
  2
block 42
340
0
102
{BLKREFS
331
191
102
}
 70
     0
280
     1
281
     0
  0
BLOCK_RECORD
  5
19B
330
1
100
AcDbSymbolTableRecord
100
AcDbBlockTableRecord
  2
block 43
340
0
102
{BLKREFS
331
19C
102
}
 70
     0
280
     1
281
     0
  0
BLOCK_RECORD
  5
1A6
330
1
100
AcDbSymbolTableRecord
100
AcDbBlockTableRecord
  2
block 44
340
0
102
{BLKREFS
331
1A7
102
}
 70
     0
280
     1
281
     0
  0
BLOCK_RECORD
  5
1AB
330
1
100
AcDbSymbolTableRecord
100
AcDbBlockTableRecord
  2
block 45
340
0
102
{BLKREFS
331
1AC
102
}
 70
     0
280
     1
281
     0
  0
BLOCK_RECORD
  5
1B3
330
1
100
AcDbSymbolTableRecord
100
AcDbBlockTableRecord
  2
block 46
340
0
102
{BLKREFS
331
1B4
102
}
 70
     0
280
     1
281
     0
  0
BLOCK_RECORD
  5
1BB
330
1
100
AcDbSymbolTableRecord
100
AcDbBlockTableRecord
  2
block 47
340
0
102
{BLKREFS
331
1BC
102
}
 70
     0
280
     1
281
     0
  0
BLOCK_RECORD
  5
1C3
330
1
100
AcDbSymbolTableRecord
100
AcDbBlockTableRecord
  2
block 48
340
0
102
{BLKREFS
331
1C4
102
}
 70
     0
280
     1
281
     0
  0
BLOCK_RECORD
  5
1CE
330
1
100
AcDbSymbolTableRecord
100
AcDbBlockTableRecord
  2
block 49
340
0
102
{BLKREFS
331
1CF
102
}
 70
     0
280
     1
281
     0
  0
BLOCK_RECORD
  5
1D9
330
1
100
AcDbSymbolTableRecord
100
AcDbBlockTableRecord
  2
block 50
340
0
102
{BLKREFS
331
1DA
102
}
 70
     0
280
     1
281
     0
  0
BLOCK_RECORD
  5
1DE
330
1
100
AcDbSymbolTableRecord
100
AcDbBlockTableRecord
  2
block 51
340
0
102
{BLKREFS
331
1DF
102
}
 70
     0
280
     1
281
     0
  0
BLOCK_RECORD
  5
1E3
330
1
100
AcDbSymbolTableRecord
100
AcDbBlockTableRecord
  2
block 52
340
0
102
{BLKREFS
331
1E4
102
}
 70
     0
280
     1
281
     0
  0
BLOCK_RECORD
  5
1EB
330
1
100
AcDbSymbolTableRecord
100
AcDbBlockTableRecord
  2
block 53
340
0
102
{BLKREFS
331
1EC
102
}
 70
     0
280
     1
281
     0
  0
BLOCK_RECORD
  5
1F3
330
1
100
AcDbSymbolTableRecord
100
AcDbBlockTableRecord
  2
block 54
340
0
102
{BLKREFS
331
1F4
102
}
 70
     0
280
     1
281
     0
  0
BLOCK_RECORD
  5
1FB
330
1
100
AcDbSymbolTableRecord
100
AcDbBlockTableRecord
  2
block 55
340
0
102
{BLKREFS
331
1FC
102
}
 70
     0
280
     1
281
     0
  0
BLOCK_RECORD
  5
203
330
1
100
AcDbSymbolTableRecord
100
AcDbBlockTableRecord
  2
block 56
340
0
102
{BLKREFS
331
204
102
}
 70
     0
280
     1
281
     0
  0
BLOCK_RECORD
  5
20B
330
1
100
AcDbSymbolTableRecord
100
AcDbBlockTableRecord
  2
block 57
340
0
102
{BLKREFS
331
20C
102
}
 70
     0
280
     1
281
     0
  0
BLOCK_RECORD
  5
216
330
1
100
AcDbSymbolTableRecord
100
AcDbBlockTableRecord
  2
block 58
340
0
102
{BLKREFS
331
217
102
}
 70
     0
280
     1
281
     0
  0
BLOCK_RECORD
  5
221
330
1
100
AcDbSymbolTableRecord
100
AcDbBlockTableRecord
  2
block 59
340
0
102
{BLKREFS
331
222
102
}
 70
     0
280
     1
281
     0
  0
BLOCK_RECORD
  5
226
330
1
100
AcDbSymbolTableRecord
100
AcDbBlockTableRecord
  2
block 60
340
0
102
{BLKREFS
331
227
102
}
 70
     0
280
     1
281
     0
  0
BLOCK_RECORD
  5
22E
330
1
100
AcDbSymbolTableRecord
100
AcDbBlockTableRecord
  2
block 61
340
0
102
{BLKREFS
331
22F
102
}
 70
     0
280
     1
281
     0
  0
BLOCK_RECORD
  5
236
330
1
100
AcDbSymbolTableRecord
100
AcDbBlockTableRecord
  2
block 62
340
0
102
{BLKREFS
331
237
102
}
 70
     0
280
     1
281
     0
  0
BLOCK_RECORD
  5
23E
330
1
100
AcDbSymbolTableRecord
100
AcDbBlockTableRecord
  2
block 63
340
0
102
{BLKREFS
331
23F
102
}
 70
     0
280
     1
281
     0
  0
BLOCK_RECORD
  5
246
330
1
100
AcDbSymbolTableRecord
100
AcDbBlockTableRecord
  2
block 64
340
0
102
{BLKREFS
331
247
102
}
 70
     0
280
     1
281
     0
  0
BLOCK_RECORD
  5
24E
330
1
100
AcDbSymbolTableRecord
100
AcDbBlockTableRecord
  2
block 65
340
0
102
{BLKREFS
331
24F
102
}
 70
     0
280
     1
281
     0
  0
BLOCK_RECORD
  5
259
330
1
100
AcDbSymbolTableRecord
100
AcDbBlockTableRecord
  2
block 66
340
0
102
{BLKREFS
331
25A
102
}
 70
     0
280
     1
281
     0
  0
BLOCK_RECORD
  5
264
330
1
100
AcDbSymbolTableRecord
100
AcDbBlockTableRecord
  2
block 67
340
0
102
{BLKREFS
331
265
102
}
 70
     0
280
     1
281
     0
  0
BLOCK_RECORD
  5
269
330
1
100
AcDbSymbolTableRecord
100
AcDbBlockTableRecord
  2
block 68
340
0
102
{BLKREFS
331
26A
102
}
 70
     0
280
     1
281
     0
  0
BLOCK_RECORD
  5
278
330
1
100
AcDbSymbolTableRecord
100
AcDbBlockTableRecord
  2
block 69
340
0
102
{BLKREFS
331
279
102
}
 70
     0
280
     1
281
     0
  0
BLOCK_RECORD
  5
287
330
1
100
AcDbSymbolTableRecord
100
AcDbBlockTableRecord
  2
block 70
340
0
102
{BLKREFS
331
288
102
}
 70
     0
280
     1
281
     0
  0
BLOCK_RECORD
  5
28C
330
1
100
AcDbSymbolTableRecord
100
AcDbBlockTableRecord
  2
block 71
340
0
102
{BLKREFS
331
28D
102
}
 70
     0
280
     1
281
     0
  0
BLOCK_RECORD
  5
294
330
1
100
AcDbSymbolTableRecord
100
AcDbBlockTableRecord
  2
block 72
340
0
102
{BLKREFS
331
295
102
}
 70
     0
280
     1
281
     0
  0
BLOCK_RECORD
  5
29C
330
1
100
AcDbSymbolTableRecord
100
AcDbBlockTableRecord
  2
block 73
340
0
102
{BLKREFS
331
29D
102
}
 70
     0
280
     1
281
     0
  0
BLOCK_RECORD
  5
2A4
330
1
100
AcDbSymbolTableRecord
100
AcDbBlockTableRecord
  2
block 74
340
0
102
{BLKREFS
331
2A5
102
}
 70
     0
280
     1
281
     0
  0
BLOCK_RECORD
  5
2AF
330
1
100
AcDbSymbolTableRecord
100
AcDbBlockTableRecord
  2
block 75
340
0
102
{BLKREFS
331
2B0
102
}
 70
     0
280
     1
281
     0
  0
BLOCK_RECORD
  5
2BA
330
1
100
AcDbSymbolTableRecord
100
AcDbBlockTableRecord
  2
block 76
340
0
102
{BLKREFS
331
2BB
102
}
 70
     0
280
     1
281
     0
  0
BLOCK_RECORD
  5
2BF
330
1
100
AcDbSymbolTableRecord
100
AcDbBlockTableRecord
  2
block 77
340
0
102
{BLKREFS
331
2C0
102
}
 70
     0
280
     1
281
     0
  0
BLOCK_RECORD
  5
2C7
330
1
100
AcDbSymbolTableRecord
100
AcDbBlockTableRecord
  2
block 78
340
0
102
{BLKREFS
331
2C8
102
}
 70
     0
280
     1
281
     0
  0
BLOCK_RECORD
  5
2CF
330
1
100
AcDbSymbolTableRecord
100
AcDbBlockTableRecord
  2
block 79
340
0
102
{BLKREFS
331
2D0
102
}
 70
     0
280
     1
281
     0
  0
BLOCK_RECORD
  5
2D7
330
1
100
AcDbSymbolTableRecord
100
AcDbBlockTableRecord
  2
block 80
340
0
102
{BLKREFS
331
2D8
102
}
 70
     0
280
     1
281
     0
  0
BLOCK_RECORD
  5
2E2
330
1
100
AcDbSymbolTableRecord
100
AcDbBlockTableRecord
  2
block 81
340
0
102
{BLKREFS
331
2E3
102
}
 70
     0
280
     1
281
     0
  0
BLOCK_RECORD
  5
2ED
330
1
100
AcDbSymbolTableRecord
100
AcDbBlockTableRecord
  2
block 82
340
0
102
{BLKREFS
331
2EE
102
}
 70
     0
280
     1
281
     0
  0
BLOCK_RECORD
  5
2F2
330
1
100
AcDbSymbolTableRecord
100
AcDbBlockTableRecord
  2
block 83
340
0
102
{BLKREFS
331
2F3
102
}
 70
     0
280
     1
281
     0
  0
BLOCK_RECORD
  5
2FE
330
1
100
AcDbSymbolTableRecord
100
AcDbBlockTableRecord
  2
block 84
340
0
102
{BLKREFS
331
2FF
102
}
 70
     0
280
     1
281
     0
  0
BLOCK_RECORD
  5
306
330
1
100
AcDbSymbolTableRecord
100
AcDbBlockTableRecord
  2
block 85
340
0
102
{BLKREFS
331
307
102
}
 70
     0
280
     1
281
     0
  0
BLOCK_RECORD
  5
30E
330
1
100
AcDbSymbolTableRecord
100
AcDbBlockTableRecord
  2
block 86
340
0
102
{BLKREFS
331
30F
102
}
 70
     0
280
     1
281
     0
  0
BLOCK_RECORD
  5
316
330
1
100
AcDbSymbolTableRecord
100
AcDbBlockTableRecord
  2
block 87
340
0
102
{BLKREFS
331
317
102
}
 70
     0
280
     1
281
     0
  0
BLOCK_RECORD
  5
31E
330
1
100
AcDbSymbolTableRecord
100
AcDbBlockTableRecord
  2
block 88
340
0
102
{BLKREFS
331
31F
102
}
 70
     0
280
     1
281
     0
  0
BLOCK_RECORD
  5
326
330
1
100
AcDbSymbolTableRecord
100
AcDbBlockTableRecord
  2
block 89
340
0
102
{BLKREFS
331
327
102
}
 70
     0
280
     1
281
     0
  0
BLOCK_RECORD
  5
32E
330
1
100
AcDbSymbolTableRecord
100
AcDbBlockTableRecord
  2
block 90
340
0
102
{BLKREFS
331
32F
102
}
 70
     0
280
     1
281
     0
  0
BLOCK_RECORD
  5
336
330
1
100
AcDbSymbolTableRecord
100
AcDbBlockTableRecord
  2
block 91
340
0
102
{BLKREFS
331
337
102
}
 70
     0
280
     1
281
     0
  0
BLOCK_RECORD
  5
33E
330
1
100
AcDbSymbolTableRecord
100
AcDbBlockTableRecord
  2
block 92
340
0
102
{BLKREFS
331
33F
102
}
 70
     0
280
     1
281
     0
  0
BLOCK_RECORD
  5
346
330
1
100
AcDbSymbolTableRecord
100
AcDbBlockTableRecord
  2
block 93
340
0
102
{BLKREFS
331
347
102
}
 70
     0
280
     1
281
     0
  0
BLOCK_RECORD
  5
34E
330
1
100
AcDbSymbolTableRecord
100
AcDbBlockTableRecord
  2
block 94
340
0
102
{BLKREFS
331
34F
102
}
 70
     0
280
     1
281
     0
  0
BLOCK_RECORD
  5
356
330
1
100
AcDbSymbolTableRecord
100
AcDbBlockTableRecord
  2
block 95
340
0
102
{BLKREFS
331
357
102
}
 70
     0
280
     1
281
     0
  0
BLOCK_RECORD
  5
35E
330
1
100
AcDbSymbolTableRecord
100
AcDbBlockTableRecord
  2
block 96
340
0
102
{BLKREFS
331
35F
102
}
 70
     0
280
     1
281
     0
  0
BLOCK_RECORD
  5
366
330
1
100
AcDbSymbolTableRecord
100
AcDbBlockTableRecord
  2
block 97
340
0
102
{BLKREFS
331
367
102
}
 70
     0
280
     1
281
     0
  0
BLOCK_RECORD
  5
36E
330
1
100
AcDbSymbolTableRecord
100
AcDbBlockTableRecord
  2
block 98
340
0
102
{BLKREFS
331
36F
102
}
 70
     0
280
     1
281
     0
  0
BLOCK_RECORD
  5
376
330
1
100
AcDbSymbolTableRecord
100
AcDbBlockTableRecord
  2
block 99
340
0
102
{BLKREFS
331
377
102
}
 70
     0
280
     1
281
     0
  0
BLOCK_RECORD
  5
37E
330
1
100
AcDbSymbolTableRecord
100
AcDbBlockTableRecord
  2
block 100
340
0
102
{BLKREFS
331
37F
102
}
 70
     0
280
     1
281
     0
  0
BLOCK_RECORD
  5
386
330
1
100
AcDbSymbolTableRecord
100
AcDbBlockTableRecord
  2
block 101
340
0
102
{BLKREFS
331
387
102
}
 70
     0
280
     1
281
     0
  0
ENDTAB
  0
ENDSEC
  0
SECTION
  2
BLOCKS
  0
BLOCK
  5
20
330
1F
100
AcDbEntity
  8
0
100
AcDbBlockBegin
  2
*Model_Space
 70
     0
 10
0.0
 20
0.0
 30
0.0
  3
*Model_Space
  1

  0
ENDBLK
  5
21
330
1F
100
AcDbEntity
  8
0
100
AcDbBlockEnd
  0
BLOCK
  5
1C
330
1B
100
AcDbEntity
 67
     1
  8
0
100
AcDbBlockBegin
  2
*Paper_Space
 70
     0
 10
0.0
 20
0.0
 30
0.0
  3
*Paper_Space
  1

  0
ENDBLK
  5
1D
330
1B
100
AcDbEntity
 67
     1
  8
0
100
AcDbBlockEnd
  0
BLOCK
  5
24
330
23
100
AcDbEntity
  8
0
100
AcDbBlockBegin
  2
*Paper_Space0
 70
     0
 10
0.0
 20
0.0
 30
0.0
  3
*Paper_Space0
  1

  0
ENDBLK
  5
25
330
23
100
AcDbEntity
  8
0
100
AcDbBlockEnd
  0
BLOCK
  5
43
330
41
100
AcDbEntity
  8
0
100
AcDbBlockBegin
  2
block 2
 70
     0
 10
0.0
 20
0.0
 30
0.0
  3
block 2
  1

  0
SPLINE
  5
45
330
41
100
AcDbEntity
  8
2
 62
     4
420
    65535
370
    30
100
AcDbSpline
210
0.0
220
0.0
230
1.0
 70
     8
 71
     3
 72
     8
 73
     4
 74
     0
 42
0.0000000001
 43
0.0000000001
 12
1.0
 22
0.0
 32
0.0
 13
1.0
 23
0.0
 33
0.0
 40
0.0
 40
0.0
 40
0.0
 40
0.0
 40
1.0
 40
1.0
 40
1.0
 40
1.0
 10
5.953136866637806
 20
4.751952184995717
 30
0.0
 10
5.972922297014015
 20
5.140939500742257
 30
0.0
 10
5.972922297014015
 20
5.530681102760481
 30
0.0
 10
5.953136866637806
 20
5.91966841850702
 30
0.0
  0
ENDBLK
  5
44
330
41
100
AcDbEntity
  8
0
100
AcDbBlockEnd
  0
BLOCK
  5
48
330
46
100
AcDbEntity
  8
0
100
AcDbBlockBegin
  2
block 3
 70
     0
 10
0.0
 20
0.0
 30
0.0
  3
block 3
  1

  0
SPLINE
  5
4A
330
46
100
AcDbEntity
  8
2
 62
     4
420
    65535
370
    30
100
AcDbSpline
210
0.0
220
0.0
230
1.0
 70
     8
 71
     3
 72
     8
 73
     4
 74
     0
 42
0.0000000001
 43
0.0000000001
 12
1.0
 22
0.0
 32
0.0
 13
1.0
 23
0.0
 33
0.0
 40
0.0
 40
0.0
 40
0.0
 40
0.0
 40
1.0
 40
1.0
 40
1.0
 40
1.0
 10
5.45348732163355
 20
4.257597061373821
 30
0.0
 10
5.72279883735233
 20
4.268420464765212
 30
0.0
 10
5.939445261453935
 20
4.482771244906669
 30
0.0
 10
5.953136866637806
 20
4.751952184995717
 30
0.0
  0
ENDBLK
  5
49
330
46
100
AcDbEntity
  8
0
100
AcDbBlockEnd
  0
BLOCK
  5
4D
330
4B
100
AcDbEntity
  8
0
100
AcDbBlockBegin
  2
block 4
 70
     0
 10
0.0
 20
0.0
 30
0.0
  3
block 4
  1

  0
SPLINE
  5
4F
330
4B
100
AcDbEntity
  8
2
 62
     4
420
    65535
370
    30
100
AcDbSpline
210
0.0
220
0.0
230
1.0
 70
     8
 71
     3
 72
     8
 73
     4
 74
     0
 42
0.0000000001
 43
0.0000000001
 12
1.0
 22
0.0
 32
0.0
 13
1.0
 23
0.0
 33
0.0
 40
0.0
 40
0.0
 40
0.0
 40
0.0
 40
1.0
 40
1.0
 40
1.0
 40
1.0
 10
2.02128159216127
 20
5.919668418507045
 30
0.0
 10
2.001496161785073
 20
5.530681102760481
 30
0.0
 10
2.001496161785073
 20
5.140939500742282
 30
0.0
 10
2.02128159216127
 20
4.751952184995717
 30
0.0
  0
ENDBLK
  5
4E
330
4B
100
AcDbEntity
  8
0
100
AcDbBlockEnd
  0
BLOCK
  5
52
330
50
100
AcDbEntity
  8
0
100
AcDbBlockBegin
  2
block 5
 70
     0
 10
0.0
 20
0.0
 30
0.0
  3
block 5
  1

  0
SPLINE
  5
54
330
50
100
AcDbEntity
  8
2
 62
     4
420
    65535
370
    30
100
AcDbSpline
210
0.0
220
0.0
230
1.0
 70
     8
 71
     3
 72
     8
 73
     4
 74
     0
 42
0.0000000001
 43
0.0000000001
 12
1.0
 22
0.0
 32
0.0
 13
1.0
 23
0.0
 33
0.0
 40
0.0
 40
0.0
 40
0.0
 40
0.0
 40
1.0
 40
1.0
 40
1.0
 40
1.0
 10
2.021281592161282
 20
4.751952184995717
 30
0.0
 10
2.03497319734514
 20
4.482771244906695
 30
0.0
 10
2.25161962144672
 20
4.268420464765237
 30
0.0
 10
2.5209311371655
 20
4.257597061373821
 30
0.0
  0
ENDBLK
  5
53
330
50
100
AcDbEntity
  8
0
100
AcDbBlockEnd
  0
BLOCK
  5
57
330
55
100
AcDbEntity
  8
0
100
AcDbBlockBegin
  2
block 6
 70
     0
 10
0.0
 20
0.0
 30
0.0
  3
block 6
  1

  0
SPLINE
  5
59
330
55
100
AcDbEntity
  8
2
 62
     4
420
    65535
370
    30
100
AcDbSpline
210
0.0
220
0.0
230
1.0
 70
     8
 71
     3
 72
     8
 73
     4
 74
     0
 42
0.0000000001
 43
0.0000000001
 12
1.0
 22
0.0
 32
0.0
 13
1.0
 23
0.0
 33
0.0
 40
0.0
 40
0.0
 40
0.0
 40
0.0
 40
1.0
 40
1.0
 40
1.0
 40
1.0
 10
5.453487321633575
 20
6.414023542128941
 30
0.0
 10
4.476362989403393
 20
6.45329334751793
 30
0.0
 10
3.498055469395695
 20
6.45329334751793
 30
0.0
 10
2.520931137165512
 20
6.414023542128941
 30
0.0
  0
ENDBLK
  5
58
330
55
100
AcDbEntity
  8
0
100
AcDbBlockEnd
  0
BLOCK
  5
5C
330
5A
100
AcDbEntity
  8
0
100
AcDbBlockBegin
  2
block 7
 70
     0
 10
0.0
 20
0.0
 30
0.0
  3
block 7
  1

  0
SPLINE
  5
5E
330
5A
100
AcDbEntity
  8
2
 62
     4
420
    65535
370
    30
100
AcDbSpline
210
0.0
220
0.0
230
1.0
 70
     8
 71
     3
 72
     8
 73
     4
 74
     0
 42
0.0000000001
 43
0.0000000001
 12
1.0
 22
0.0
 32
0.0
 13
1.0
 23
0.0
 33
0.0
 40
0.0
 40
0.0
 40
0.0
 40
0.0
 40
1.0
 40
1.0
 40
1.0
 40
1.0
 10
2.520931137165512
 20
6.414023542128929
 30
0.0
 10
2.251619621446733
 20
6.403200138737512
 30
0.0
 10
2.03497319734514
 20
6.188849358596055
 30
0.0
 10
2.021281592161282
 20
5.919668418507032
 30
0.0
  0
ENDBLK
  5
5D
330
5A
100
AcDbEntity
  8
0
100
AcDbBlockEnd
  0
BLOCK
  5
61
330
5F
100
AcDbEntity
  8
0
100
AcDbBlockBegin
  2
block 8
 70
     0
 10
0.0
 20
0.0
 30
0.0
  3
block 8
  1

  0
SPLINE
  5
63
330
5F
100
AcDbEntity
  8
2
 62
     4
420
    65535
370
    30
100
AcDbSpline
210
0.0
220
0.0
230
1.0
 70
     8
 71
     3
 72
     8
 73
     4
 74
     0
 42
0.0000000001
 43
0.0000000001
 12
1.0
 22
0.0
 32
0.0
 13
1.0
 23
0.0
 33
0.0
 40
0.0
 40
0.0
 40
0.0
 40
0.0
 40
1.0
 40
1.0
 40
1.0
 40
1.0
 10
5.953136866637806
 20
5.919668418507032
 30
0.0
 10
5.939445261453935
 20
6.188849358596068
 30
0.0
 10
5.722798837352356
 20
6.403200138737525
 30
0.0
 10
5.453487321633575
 20
6.414023542128929
 30
0.0
  0
ENDBLK
  5
62
330
5F
100
AcDbEntity
  8
0
100
AcDbBlockEnd
  0
BLOCK
  5
66
330
64
100
AcDbEntity
  8
0
100
AcDbBlockBegin
  2
block 9
 70
     0
 10
0.0
 20
0.0
 30
0.0
  3
block 9
  1

  0
SPLINE
  5
68
330
64
100
AcDbEntity
  8
2
 62
     4
420
    65535
370
    30
100
AcDbSpline
210
0.0
220
0.0
230
1.0
 70
     8
 71
     3
 72
     8
 73
     4
 74
     0
 42
0.0000000001
 43
0.0000000001
 12
1.0
 22
0.0
 32
0.0
 13
1.0
 23
0.0
 33
0.0
 40
0.0
 40
0.0
 40
0.0
 40
0.0
 40
1.0
 40
1.0
 40
1.0
 40
1.0
 10
2.520931137165551
 20
4.257597061373821
 30
0.0
 10
3.498055469395695
 20
4.218327255984806
 30
0.0
 10
4.476362989403419
 20
4.218327255984806
 30
0.0
 10
5.453487321633575
 20
4.257597061373821
 30
0.0
  0
ENDBLK
  5
67
330
64
100
AcDbEntity
  8
0
100
AcDbBlockEnd
  0
BLOCK
  5
6B
330
69
100
AcDbEntity
  8
0
100
AcDbBlockBegin
  2
block 10
 70
     0
 10
0.0
 20
0.0
 30
0.0
  3
block 10
  1

  0
SPLINE
  5
6D
330
69
100
AcDbEntity
  8
2
370
     0
100
AcDbSpline
210
0.0
220
0.0
230
1.0
 70
    11
 71
     3
 72
    20
 73
    16
 74
     0
 42
0.0000000001
 43
0.0000000001
 12
1.0
 22
0.0
 32
0.0
 13
1.0
 23
0.0
 33
0.0
 40
0.0
 40
0.0
 40
0.0
 40
0.0
 40
1.0
 40
1.0
 40
1.0
 40
2.0
 40
2.0
 40
2.0
 40
3.0
 40
3.0
 40
3.0
 40
4.0
 40
4.0
 40
4.0
 40
5.0
 40
5.0
 40
5.0
 40
5.0
 10
7.350593979817277
 20
5.798023410472271
 30
0.0
 10
7.355756881614853
 20
5.810934947542036
 30
0.0
 10
7.360919783412454
 20
5.823846484611787
 30
0.0
 10
7.356352687086377
 20
5.83461295741928
 30
0.0
 10
7.351991935459308
 20
5.844892993236625
 30
0.0
 10
7.338760540524365
 20
5.853217417171891
 30
0.0
 10
7.335290849003968
 20
5.863023961218624
 30
0.0
 10
7.331157796955899
 20
5.874705390740005
 30
0.0
 10
7.340875888386588
 20
5.888489840343532
 30
0.0
 10
7.350593979817277
 20
5.902274289947033
 30
0.0
 10
7.350593979817277
 20
5.902274289947033
 30
0.0
 10
6.843682810215391
 20
5.902274289947033
 30
0.0
 10
6.843682810215391
 20
5.902274289947033
 30
0.0
 10
6.843682810215391
 20
5.902274289947033
 30
0.0
 10
7.350593979817277
 20
5.798023410472271
 30
0.0
 10
7.350593979817277
 20
5.798023410472271
 30
0.0
  0
POLYLINE
  5
6E
330
69
100
AcDbEntity
  8
2
370
     0
100
AcDb2dPolyline
 66
     1
 10
0.0
 20
0.0
 30
0.0
  0
VERTEX
  5
6F
330
6E
100
AcDbEntity
  8
2
370
     0
100
AcDbVertex
100
AcDb2dVertex
 10
6.801982458425477
 20
5.839045224666013
 30
0.0
  0
VERTEX
  5
70
330
6E
100
AcDbEntity
  8
2
370
     0
100
AcDbVertex
100
AcDb2dVertex
 10
6.865211523706496
 20
5.902274289947033
 30
0.0
  0
SEQEND
  5
71
330
6E
100
AcDbEntity
  8
2
370
     0
  0
POLYLINE
  5
72
330
69
100
AcDbEntity
  8
2
370
     0
100
AcDb2dPolyline
 66
     1
 10
0.0
 20
0.0
 30
0.0
  0
VERTEX
  5
73
330
72
100
AcDbEntity
  8
2
370
     0
100
AcDbVertex
100
AcDb2dVertex
 10
6.810655466013763
 20
5.800908252327809
 30
0.0
  0
VERTEX
  5
74
330
72
100
AcDbEntity
  8
2
370
     0
100
AcDbVertex
100
AcDb2dVertex
 10
6.912021503633014
 20
5.902274289947033
 30
0.0
  0
SEQEND
  5
75
330
72
100
AcDbEntity
  8
2
370
     0
  0
POLYLINE
  5
76
330
69
100
AcDbEntity
  8
2
370
     0
100
AcDb2dPolyline
 66
     1
 10
0.0
 20
0.0
 30
0.0
  0
VERTEX
  5
77
330
76
100
AcDbEntity
  8
2
370
     0
100
AcDbVertex
100
AcDb2dVertex
 10
6.854580604084756
 20
5.798023410472271
 30
0.0
  0
VERTEX
  5
78
330
76
100
AcDbEntity
  8
2
370
     0
100
AcDbVertex
100
AcDb2dVertex
 10
6.958831483559505
 20
5.902274289947033
 30
0.0
  0
SEQEND
  5
79
330
76
100
AcDbEntity
  8
2
370
     0
  0
POLYLINE
  5
7A
330
69
100
AcDbEntity
  8
2
370
     0
100
AcDb2dPolyline
 66
     1
 10
0.0
 20
0.0
 30
0.0
  0
VERTEX
  5
7B
330
7A
100
AcDbEntity
  8
2
370
     0
100
AcDbVertex
100
AcDb2dVertex
 10
6.901390584011247
 20
5.798023410472271
 30
0.0
  0
VERTEX
  5
7C
330
7A
100
AcDbEntity
  8
2
370
     0
100
AcDbVertex
100
AcDb2dVertex
 10
7.005641463485997
 20
5.902274289947033
 30
0.0
  0
SEQEND
  5
7D
330
7A
100
AcDbEntity
  8
2
370
     0
  0
POLYLINE
  5
7E
330
69
100
AcDbEntity
  8
2
370
     0
100
AcDb2dPolyline
 66
     1
 10
0.0
 20
0.0
 30
0.0
  0
VERTEX
  5
7F
330
7E
100
AcDbEntity
  8
2
370
     0
100
AcDbVertex
100
AcDb2dVertex
 10
6.948200563937765
 20
5.798023410472271
 30
0.0
  0
VERTEX
  5
80
330
7E
100
AcDbEntity
  8
2
370
     0
100
AcDbVertex
100
AcDb2dVertex
 10
7.052451443412514
 20
5.902274289947033
 30
0.0
  0
SEQEND
  5
81
330
7E
100
AcDbEntity
  8
2
370
     0
  0
POLYLINE
  5
82
330
69
100
AcDbEntity
  8
2
370
     0
100
AcDb2dPolyline
 66
     1
 10
0.0
 20
0.0
 30
0.0
  0
VERTEX
  5
83
330
82
100
AcDbEntity
  8
2
370
     0
100
AcDbVertex
100
AcDb2dVertex
 10
6.995010543864256
 20
5.798023410472271
 30
0.0
  0
VERTEX
  5
84
330
82
100
AcDbEntity
  8
2
370
     0
100
AcDbVertex
100
AcDb2dVertex
 10
7.099261423339006
 20
5.902274289947033
 30
0.0
  0
SEQEND
  5
85
330
82
100
AcDbEntity
  8
2
370
     0
  0
POLYLINE
  5
86
330
69
100
AcDbEntity
  8
2
370
     0
100
AcDb2dPolyline
 66
     1
 10
0.0
 20
0.0
 30
0.0
  0
VERTEX
  5
87
330
86
100
AcDbEntity
  8
2
370
     0
100
AcDbVertex
100
AcDb2dVertex
 10
7.041820523790748
 20
5.798023410472271
 30
0.0
  0
VERTEX
  5
88
330
86
100
AcDbEntity
  8
2
370
     0
100
AcDbVertex
100
AcDb2dVertex
 10
7.146071403265523
 20
5.902274289947033
 30
0.0
  0
SEQEND
  5
89
330
86
100
AcDbEntity
  8
2
370
     0
  0
POLYLINE
  5
8A
330
69
100
AcDbEntity
  8
2
370
     0
100
AcDb2dPolyline
 66
     1
 10
0.0
 20
0.0
 30
0.0
  0
VERTEX
  5
8B
330
8A
100
AcDbEntity
  8
2
370
     0
100
AcDbVertex
100
AcDb2dVertex
 10
7.088630503717265
 20
5.798023410472271
 30
0.0
  0
VERTEX
  5
8C
330
8A
100
AcDbEntity
  8
2
370
     0
100
AcDbVertex
100
AcDb2dVertex
 10
7.192881383192015
 20
5.902274289947033
 30
0.0
  0
SEQEND
  5
8D
330
8A
100
AcDbEntity
  8
2
370
     0
  0
POLYLINE
  5
8E
330
69
100
AcDbEntity
  8
2
370
     0
100
AcDb2dPolyline
 66
     1
 10
0.0
 20
0.0
 30
0.0
  0
VERTEX
  5
8F
330
8E
100
AcDbEntity
  8
2
370
     0
100
AcDbVertex
100
AcDb2dVertex
 10
7.135440483643757
 20
5.798023410472271
 30
0.0
  0
VERTEX
  5
90
330
8E
100
AcDbEntity
  8
2
370
     0
100
AcDbVertex
100
AcDb2dVertex
 10
7.239691363118506
 20
5.902274289947033
 30
0.0
  0
SEQEND
  5
91
330
8E
100
AcDbEntity
  8
2
370
     0
  0
POLYLINE
  5
92
330
69
100
AcDbEntity
  8
2
370
     0
100
AcDb2dPolyline
 66
     1
 10
0.0
 20
0.0
 30
0.0
  0
VERTEX
  5
93
330
92
100
AcDbEntity
  8
2
370
     0
100
AcDbVertex
100
AcDb2dVertex
 10
7.182250463570249
 20
5.798023410472271
 30
0.0
  0
VERTEX
  5
94
330
92
100
AcDbEntity
  8
2
370
     0
100
AcDbVertex
100
AcDb2dVertex
 10
7.286501343045024
 20
5.902274289947033
 30
0.0
  0
SEQEND
  5
95
330
92
100
AcDbEntity
  8
2
370
     0
  0
POLYLINE
  5
96
330
69
100
AcDbEntity
  8
2
370
     0
100
AcDb2dPolyline
 66
     1
 10
0.0
 20
0.0
 30
0.0
  0
VERTEX
  5
97
330
96
100
AcDbEntity
  8
2
370
     0
100
AcDbVertex
100
AcDb2dVertex
 10
7.229060443496766
 20
5.798023410472271
 30
0.0
  0
VERTEX
  5
98
330
96
100
AcDbEntity
  8
2
370
     0
100
AcDbVertex
100
AcDb2dVertex
 10
7.333311322971515
 20
5.902274289947033
 30
0.0
  0
SEQEND
  5
99
330
96
100
AcDbEntity
  8
2
370
     0
  0
POLYLINE
  5
9A
330
69
100
AcDbEntity
  8
2
370
     0
100
AcDb2dPolyline
 66
     1
 10
0.0
 20
0.0
 30
0.0
  0
VERTEX
  5
9B
330
9A
100
AcDbEntity
  8
2
370
     0
100
AcDbVertex
100
AcDb2dVertex
 10
7.275870423423258
 20
5.798023410472271
 30
0.0
  0
VERTEX
  5
9C
330
9A
100
AcDbEntity
  8
2
370
     0
100
AcDbVertex
100
AcDb2dVertex
 10
7.337479881362267
 20
5.859632868411293
 30
0.0
  0
SEQEND
  5
9D
330
9A
100
AcDbEntity
  8
2
370
     0
  0
POLYLINE
  5
9E
330
69
100
AcDbEntity
  8
2
370
     0
100
AcDb2dPolyline
 66
     1
 10
0.0
 20
0.0
 30
0.0
  0
VERTEX
  5
9F
330
9E
100
AcDbEntity
  8
2
370
     0
100
AcDbVertex
100
AcDb2dVertex
 10
7.322680403349775
 20
5.798023410472271
 30
0.0
  0
VERTEX
  5
A0
330
9E
100
AcDbEntity
  8
2
370
     0
100
AcDbVertex
100
AcDb2dVertex
 10
7.356364936762525
 20
5.831707943885034
 30
0.0
  0
SEQEND
  5
A1
330
9E
100
AcDbEntity
  8
2
370
     0
  0
ENDBLK
  5
6C
330
69
100
AcDbEntity
  8
0
100
AcDbBlockEnd
  0
BLOCK
  5
A4
330
A2
100
AcDbEntity
  8
0
100
AcDbBlockBegin
  2
block 11
 70
     0
 10
0.0
 20
0.0
 30
0.0
  3
block 11
  1

  0
POLYLINE
  5
A6
330
A2
100
AcDbEntity
  8
2
 62
     4
420
    65535
370
    30
100
AcDb2dPolyline
 66
     1
 10
0.0
 20
0.0
 30
0.0
  0
VERTEX
  5
A7
330
A6
100
AcDbEntity
  8
2
 62
     4
420
    65535
370
    30
100
AcDbVertex
100
AcDb2dVertex
 10
6.843682810215391
 20
5.902274289947033
 30
0.0
  0
VERTEX
  5
A8
330
A6
100
AcDbEntity
  8
2
 62
     4
420
    65535
370
    30
100
AcDbVertex
100
AcDb2dVertex
 10
7.350593979817277
 20
5.902274289947033
 30
0.0
  0
SEQEND
  5
A9
330
A6
100
AcDbEntity
  8
2
 62
     4
420
    65535
370
    30
  0
ENDBLK
  5
A5
330
A2
100
AcDbEntity
  8
0
100
AcDbBlockEnd
  0
BLOCK
  5
AC
330
AA
100
AcDbEntity
  8
0
100
AcDbBlockBegin
  2
block 12
 70
     0
 10
0.0
 20
0.0
 30
0.0
  3
block 12
  1

  0
SPLINE
  5
AE
330
AA
100
AcDbEntity
  8
2
 62
     4
420
    65535
370
    30
100
AcDbSpline
210
0.0
220
0.0
230
1.0
 70
     8
 71
     3
 72
     8
 73
     4
 74
     0
 42
0.0000000001
 43
0.0000000001
 12
1.0
 22
0.0
 32
0.0
 13
1.0
 23
0.0
 33
0.0
 40
0.0
 40
0.0
 40
0.0
 40
0.0
 40
1.0
 40
1.0
 40
1.0
 40
1.0
 10
6.843682810215391
 20
5.902274289947033
 30
0.0
 10
6.820652341859234
 20
5.902274289947033
 30
0.0
 10
6.801982458425477
 20
5.883604406513276
 30
0.0
 10
6.801982458425477
 20
5.860573938157131
 30
0.0
  0
ENDBLK
  5
AD
330
AA
100
AcDbEntity
  8
0
100
AcDbBlockEnd
  0
BLOCK
  5
B1
330
AF
100
AcDbEntity
  8
0
100
AcDbBlockBegin
  2
block 13
 70
     0
 10
0.0
 20
0.0
 30
0.0
  3
block 13
  1

  0
SPLINE
  5
B3
330
AF
100
AcDbEntity
  8
2
 62
     4
420
    65535
370
    30
100
AcDbSpline
210
0.0
220
0.0
230
1.0
 70
     8
 71
     3
 72
     8
 73
     4
 74
     0
 42
0.0000000001
 43
0.0000000001
 12
1.0
 22
0.0
 32
0.0
 13
1.0
 23
0.0
 33
0.0
 40
0.0
 40
0.0
 40
0.0
 40
0.0
 40
1.0
 40
1.0
 40
1.0
 40
1.0
 10
6.854072180111087
 20
5.798023410472271
 30
0.0
 10
6.840208218930203
 20
5.798023410472271
 30
0.0
 10
6.828770761959882
 20
5.787169669074109
 30
0.0
 10
6.828045178294182
 20
5.773324707970207
 30
0.0
  0
ENDBLK
  5
B2
330
AF
100
AcDbEntity
  8
0
100
AcDbBlockEnd
  0
BLOCK
  5
B6
330
B4
100
AcDbEntity
  8
0
100
AcDbBlockBegin
  2
block 14
 70
     0
 10
0.0
 20
0.0
 30
0.0
  3
block 14
  1

  0
POLYLINE
  5
B8
330
B4
100
AcDbEntity
  8
2
 62
     4
420
    65535
370
    30
100
AcDb2dPolyline
 66
     1
 10
0.0
 20
0.0
 30
0.0
  0
VERTEX
  5
B9
330
B8
100
AcDbEntity
  8
2
 62
     4
420
    65535
370
    30
100
AcDbVertex
100
AcDb2dVertex
 10
6.828045178294182
 20
5.773324707970207
 30
0.0
  0
VERTEX
  5
BA
330
B8
100
AcDbEntity
  8
2
 62
     4
420
    65535
370
    30
100
AcDbVertex
100
AcDb2dVertex
 10
6.798056290891559
 20
5.201102648328288
 30
0.0
  0
SEQEND
  5
BB
330
B8
100
AcDbEntity
  8
2
 62
     4
420
    65535
370
    30
  0
ENDBLK
  5
B7
330
B4
100
AcDbEntity
  8
0
100
AcDbBlockEnd
  0
BLOCK
  5
BE
330
BC
100
AcDbEntity
  8
0
100
AcDbBlockBegin
  2
block 15
 70
     0
 10
0.0
 20
0.0
 30
0.0
  3
block 15
  1

  0
SPLINE
  5
C0
330
BC
100
AcDbEntity
  8
2
 62
     4
420
    65535
370
    30
100
AcDbSpline
210
0.0
220
0.0
230
1.0
 70
     8
 71
     3
 72
     8
 73
     4
 74
     0
 42
0.0000000001
 43
0.0000000001
 12
1.0
 22
0.0
 32
0.0
 13
1.0
 23
0.0
 33
0.0
 40
0.0
 40
0.0
 40
0.0
 40
0.0
 40
1.0
 40
1.0
 40
1.0
 40
1.0
 10
6.150254351779924
 20
4.98414988519663
 30
0.0
 10
6.301303616699392
 20
4.987760399878501
 30
0.0
 10
6.452266774514706
 20
4.994355807834532
 30
0.0
 10
6.603055395065843
 20
5.003932245652069
 30
0.0
  0
ENDBLK
  5
BF
330
BC
100
AcDbEntity
  8
0
100
AcDbBlockEnd
  0
BLOCK
  5
C3
330
C1
100
AcDbEntity
  8
0
100
AcDbBlockBegin
  2
block 16
 70
     0
 10
0.0
 20
0.0
 30
0.0
  3
block 16
  1

  0
SPLINE
  5
C5
330
C1
100
AcDbEntity
  8
2
 62
     4
420
    65535
370
    30
100
AcDbSpline
210
0.0
220
0.0
230
1.0
 70
     8
 71
     3
 72
     8
 73
     4
 74
     0
 42
0.0000000001
 43
0.0000000001
 12
1.0
 22
0.0
 32
0.0
 13
1.0
 23
0.0
 33
0.0
 40
0.0
 40
0.0
 40
0.0
 40
0.0
 40
1.0
 40
1.0
 40
1.0
 40
1.0
 10
6.603055395065843
 20
5.003932245652044
 30
0.0
 10
6.708676380957058
 20
5.010640131166989
 30
0.0
 10
6.792517378960913
 20
5.095413912678067
 30
0.0
 10
6.798056290891559
 20
5.201102648328288
 30
0.0
  0
ENDBLK
  5
C4
330
C1
100
AcDbEntity
  8
0
100
AcDbBlockEnd
  0
BLOCK
  5
C8
330
C6
100
AcDbEntity
  8
0
100
AcDbBlockBegin
  2
block 17
 70
     0
 10
0.0
 20
0.0
 30
0.0
  3
block 17
  1

  0
POLYLINE
  5
CA
330
C6
100
AcDbEntity
  8
2
 62
     4
420
    65535
370
    30
100
AcDb2dPolyline
 66
     1
 10
0.0
 20
0.0
 30
0.0
  0
VERTEX
  5
CB
330
CA
100
AcDbEntity
  8
2
 62
     4
420
    65535
370
    30
100
AcDbVertex
100
AcDb2dVertex
 10
6.801982458425477
 20
5.813661042393492
 30
0.0
  0
VERTEX
  5
CC
330
CA
100
AcDbEntity
  8
2
 62
     4
420
    65535
370
    30
100
AcDbVertex
100
AcDb2dVertex
 10
6.801982458425477
 20
5.860573938157131
 30
0.0
  0
SEQEND
  5
CD
330
CA
100
AcDbEntity
  8
2
 62
     4
420
    65535
370
    30
  0
ENDBLK
  5
C9
330
C6
100
AcDbEntity
  8
0
100
AcDbBlockEnd
  0
BLOCK
  5
D0
330
CE
100
AcDbEntity
  8
0
100
AcDbBlockBegin
  2
block 18
 70
     0
 10
0.0
 20
0.0
 30
0.0
  3
block 18
  1

  0
POLYLINE
  5
D2
330
CE
100
AcDbEntity
  8
2
 62
     4
420
    65535
370
    30
100
AcDb2dPolyline
 66
     1
 10
0.0
 20
0.0
 30
0.0
  0
VERTEX
  5
D3
330
D2
100
AcDbEntity
  8
2
 62
     4
420
    65535
370
    30
100
AcDbVertex
100
AcDb2dVertex
 10
7.350593979817277
 20
5.798023410472271
 30
0.0
  0
VERTEX
  5
D4
330
D2
100
AcDbEntity
  8
2
 62
     4
420
    65535
370
    30
100
AcDbVertex
100
AcDb2dVertex
 10
6.817620090346685
 20
5.798023410472271
 30
0.0
  0
SEQEND
  5
D5
330
D2
100
AcDbEntity
  8
2
 62
     4
420
    65535
370
    30
  0
ENDBLK
  5
D1
330
CE
100
AcDbEntity
  8
0
100
AcDbBlockEnd
  0
BLOCK
  5
D8
330
D6
100
AcDbEntity
  8
0
100
AcDbBlockBegin
  2
block 19
 70
     0
 10
0.0
 20
0.0
 30
0.0
  3
block 19
  1

  0
SPLINE
  5
DA
330
D6
100
AcDbEntity
  8
2
 62
     4
420
    65535
370
    30
100
AcDbSpline
210
0.0
220
0.0
230
1.0
 70
     8
 71
     3
 72
     8
 73
     4
 74
     0
 42
0.0000000001
 43
0.0000000001
 12
1.0
 22
0.0
 32
0.0
 13
1.0
 23
0.0
 33
0.0
 40
0.0
 40
0.0
 40
0.0
 40
0.0
 40
1.0
 40
1.0
 40
1.0
 40
1.0
 10
6.801982458425477
 20
5.813661042393492
 30
0.0
 10
6.801982458425477
 20
5.80502461675994
 30
0.0
 10
6.808983664713145
 20
5.798023410472271
 30
0.0
 10
6.817620090346685
 20
5.798023410472271
 30
0.0
  0
ENDBLK
  5
D9
330
D6
100
AcDbEntity
  8
0
100
AcDbBlockEnd
  0
BLOCK
  5
DD
330
DB
100
AcDbEntity
  8
0
100
AcDbBlockBegin
  2
block 20
 70
     0
 10
0.0
 20
0.0
 30
0.0
  3
block 20
  1

  0
SPLINE
  5
DF
330
DB
100
AcDbEntity
  8
2
 62
     4
420
    65535
370
    30
100
AcDbSpline
210
0.0
220
0.0
230
1.0
 70
     8
 71
     3
 72
    14
 73
    10
 74
     0
 42
0.0000000001
 43
0.0000000001
 12
1.0
 22
0.0
 32
0.0
 13
1.0
 23
0.0
 33
0.0
 40
0.0
 40
0.0
 40
0.0
 40
0.0
 40
1.0
 40
1.0
 40
1.0
 40
2.0
 40
2.0
 40
2.0
 40
3.0
 40
3.0
 40
3.0
 40
3.0
 10
7.350593979817277
 20
5.902274289947033
 30
0.0
 10
7.340875888386588
 20
5.888489840343519
 30
0.0
 10
7.331157796955924
 20
5.874705390740019
 30
0.0
 10
7.335290849003968
 20
5.863023961218624
 30
0.0
 10
7.338760540524365
 20
5.853217417171891
 30
0.0
 10
7.351991935459308
 20
5.844892993236613
 30
0.0
 10
7.356352687086377
 20
5.83461295741928
 30
0.0
 10
7.360919783412454
 20
5.823846484611787
 30
0.0
 10
7.355756881614853
 20
5.810934947542036
 30
0.0
 10
7.350593979817277
 20
5.798023410472271
 30
0.0
  0
ENDBLK
  5
DE
330
DB
100
AcDbEntity
  8
0
100
AcDbBlockEnd
  0
BLOCK
  5
E2
330
E0
100
AcDbEntity
  8
0
100
AcDbBlockBegin
  2
block 21
 70
     0
 10
0.0
 20
0.0
 30
0.0
  3
block 21
  1

  0
SPLINE
  5
E4
330
E0
100
AcDbEntity
  8
2
370
     0
100
AcDbSpline
210
0.0
220
0.0
230
1.0
 70
    11
 71
     3
 72
    20
 73
    16
 74
     0
 42
0.0000000001
 43
0.0000000001
 12
1.0
 22
0.0
 32
0.0
 13
1.0
 23
0.0
 33
0.0
 40
0.0
 40
0.0
 40
0.0
 40
0.0
 40
1.0
 40
1.0
 40
1.0
 40
2.0
 40
2.0
 40
2.0
 40
3.0
 40
3.0
 40
3.0
 40
4.0
 40
4.0
 40
4.0
 40
5.0
 40
5.0
 40
5.0
 40
5.0
 10
0.6689383477140356
 20
5.910780709265938
 30
0.0
 10
0.6753504269165407
 20
5.899164912213475
 30
0.0
 10
0.6817625061190711
 20
5.887549115161025
 30
0.0
 10
0.6802466420466164
 20
5.876402713142915
 30
0.0
 10
0.6787613051015012
 20
5.865480782197134
 30
0.0
 10
0.6696641223644645
 20
5.855009530890811
 30
0.0
 10
0.6663879553713438
 20
5.843761626690252
 30
0.0
 10
0.6629401564821111
 20
5.831924467079564
 30
0.0
 10
0.665939252098067
 20
5.819227148435377
 30
0.0
 10
0.6689383477140356
 20
5.806529829791176
 30
0.0
 10
0.6689383477140356
 20
5.806529829791176
 30
0.0
 10
1.165460147420226
 20
5.806529829791176
 30
0.0
 10
1.165460147420226
 20
5.806529829791176
 30
0.0
 10
1.165460147420226
 20
5.806529829791176
 30
0.0
 10
0.6689383477140356
 20
5.910780709265938
 30
0.0
 10
0.6689383477140356
 20
5.910780709265938
 30
0.0
  0
POLYLINE
  5
E5
330
E0
100
AcDbEntity
  8
2
370
     0
100
AcDb2dPolyline
 66
     1
 10
0.0
 20
0.0
 30
0.0
  0
VERTEX
  5
E6
330
E5
100
AcDbEntity
  8
2
370
     0
100
AcDbVertex
100
AcDb2dVertex
 10
0.6794477974428648
 20
5.886529995999719
 30
0.0
  0
VERTEX
  5
E7
330
E5
100
AcDbEntity
  8
2
370
     0
100
AcDbVertex
100
AcDb2dVertex
 10
0.7036985107090837
 20
5.910780709265938
 30
0.0
  0
SEQEND
  5
E8
330
E5
100
AcDbEntity
  8
2
370
     0
  0
POLYLINE
  5
E9
330
E0
100
AcDbEntity
  8
2
370
     0
100
AcDb2dPolyline
 66
     1
 10
0.0
 20
0.0
 30
0.0
  0
VERTEX
  5
EA
330
E9
100
AcDbEntity
  8
2
370
     0
100
AcDbVertex
100
AcDb2dVertex
 10
0.6675247968190408
 20
5.816094520467762
 30
0.0
  0
VERTEX
  5
EB
330
E9
100
AcDbEntity
  8
2
370
     0
100
AcDbVertex
100
AcDb2dVertex
 10
0.7622109856172048
 20
5.910780709265938
 30
0.0
  0
SEQEND
  5
EC
330
E9
100
AcDbEntity
  8
2
370
     0
  0
POLYLINE
  5
ED
330
E0
100
AcDbEntity
  8
2
370
     0
100
AcDb2dPolyline
 66
     1
 10
0.0
 20
0.0
 30
0.0
  0
VERTEX
  5
EE
330
ED
100
AcDbEntity
  8
2
370
     0
100
AcDbVertex
100
AcDb2dVertex
 10
0.7164725810505767
 20
5.806529829791176
 30
0.0
  0
VERTEX
  5
EF
330
ED
100
AcDbEntity
  8
2
370
     0
100
AcDbVertex
100
AcDb2dVertex
 10
0.8207234605253385
 20
5.910780709265938
 30
0.0
  0
SEQEND
  5
F0
330
ED
100
AcDbEntity
  8
2
370
     0
  0
POLYLINE
  5
F1
330
E0
100
AcDbEntity
  8
2
370
     0
100
AcDb2dPolyline
 66
     1
 10
0.0
 20
0.0
 30
0.0
  0
VERTEX
  5
F2
330
F1
100
AcDbEntity
  8
2
370
     0
100
AcDbVertex
100
AcDb2dVertex
 10
0.7749850559586977
 20
5.806529829791176
 30
0.0
  0
VERTEX
  5
F3
330
F1
100
AcDbEntity
  8
2
370
     0
100
AcDbVertex
100
AcDb2dVertex
 10
0.8792359354334596
 20
5.910780709265938
 30
0.0
  0
SEQEND
  5
F4
330
F1
100
AcDbEntity
  8
2
370
     0
  0
POLYLINE
  5
F5
330
E0
100
AcDbEntity
  8
2
370
     0
100
AcDb2dPolyline
 66
     1
 10
0.0
 20
0.0
 30
0.0
  0
VERTEX
  5
F6
330
F5
100
AcDbEntity
  8
2
370
     0
100
AcDbVertex
100
AcDb2dVertex
 10
0.8334975308668314
 20
5.806529829791176
 30
0.0
  0
VERTEX
  5
F7
330
F5
100
AcDbEntity
  8
2
370
     0
100
AcDbVertex
100
AcDb2dVertex
 10
0.9377484103415933
 20
5.910780709265938
 30
0.0
  0
SEQEND
  5
F8
330
F5
100
AcDbEntity
  8
2
370
     0
  0
POLYLINE
  5
F9
330
E0
100
AcDbEntity
  8
2
370
     0
100
AcDb2dPolyline
 66
     1
 10
0.0
 20
0.0
 30
0.0
  0
VERTEX
  5
FA
330
F9
100
AcDbEntity
  8
2
370
     0
100
AcDbVertex
100
AcDb2dVertex
 10
0.8920100057749651
 20
5.806529829791176
 30
0.0
  0
VERTEX
  5
FB
330
F9
100
AcDbEntity
  8
2
370
     0
100
AcDbVertex
100
AcDb2dVertex
 10
0.9962608852497143
 20
5.910780709265938
 30
0.0
  0
SEQEND
  5
FC
330
F9
100
AcDbEntity
  8
2
370
     0
  0
POLYLINE
  5
FD
330
E0
100
AcDbEntity
  8
2
370
     0
100
AcDb2dPolyline
 66
     1
 10
0.0
 20
0.0
 30
0.0
  0
VERTEX
  5
FE
330
FD
100
AcDbEntity
  8
2
370
     0
100
AcDbVertex
100
AcDb2dVertex
 10
0.9505224806830862
 20
5.806529829791176
 30
0.0
  0
VERTEX
  5
FF
330
FD
100
AcDbEntity
  8
2
370
     0
100
AcDbVertex
100
AcDb2dVertex
 10
1.054773360157848
 20
5.910780709265938
 30
0.0
  0
SEQEND
  5
100
330
FD
100
AcDbEntity
  8
2
370
     0
  0
POLYLINE
  5
101
330
E0
100
AcDbEntity
  8
2
370
     0
100
AcDb2dPolyline
 66
     1
 10
0.0
 20
0.0
 30
0.0
  0
VERTEX
  5
102
330
101
100
AcDbEntity
  8
2
370
     0
100
AcDbVertex
100
AcDb2dVertex
 10
1.00903495559122
 20
5.806529829791176
 30
0.0
  0
VERTEX
  5
103
330
101
100
AcDbEntity
  8
2
370
     0
100
AcDbVertex
100
AcDb2dVertex
 10
1.113285835065969
 20
5.910780709265938
 30
0.0
  0
SEQEND
  5
104
330
101
100
AcDbEntity
  8
2
370
     0
  0
POLYLINE
  5
105
330
E0
100
AcDbEntity
  8
2
370
     0
100
AcDb2dPolyline
 66
     1
 10
0.0
 20
0.0
 30
0.0
  0
VERTEX
  5
106
330
105
100
AcDbEntity
  8
2
370
     0
100
AcDbVertex
100
AcDb2dVertex
 10
1.067547430499341
 20
5.806529829791176
 30
0.0
  0
VERTEX
  5
107
330
105
100
AcDbEntity
  8
2
370
     0
100
AcDbVertex
100
AcDb2dVertex
 10
1.155102801990589
 20
5.894085201282425
 30
0.0
  0
SEQEND
  5
108
330
105
100
AcDbEntity
  8
2
370
     0
  0
POLYLINE
  5
109
330
E0
100
AcDbEntity
  8
2
370
     0
100
AcDb2dPolyline
 66
     1
 10
0.0
 20
0.0
 30
0.0
  0
VERTEX
  5
10A
330
109
100
AcDbEntity
  8
2
370
     0
100
AcDbVertex
100
AcDb2dVertex
 10
1.126059905407475
 20
5.806529829791176
 30
0.0
  0
VERTEX
  5
10B
330
109
100
AcDbEntity
  8
2
370
     0
100
AcDbVertex
100
AcDb2dVertex
 10
1.165460147420213
 20
5.845930071803928
 30
0.0
  0
SEQEND
  5
10C
330
109
100
AcDbEntity
  8
2
370
     0
  0
ENDBLK
  5
E3
330
E0
100
AcDbEntity
  8
0
100
AcDbBlockEnd
  0
BLOCK
  5
10F
330
10D
100
AcDbEntity
  8
0
100
AcDbBlockBegin
  2
block 22
 70
     0
 10
0.0
 20
0.0
 30
0.0
  3
block 22
  1

  0
POLYLINE
  5
111
330
10D
100
AcDbEntity
  8
2
 62
     4
420
    65535
370
    30
100
AcDb2dPolyline
 66
     1
 10
0.0
 20
0.0
 30
0.0
  0
VERTEX
  5
112
330
111
100
AcDbEntity
  8
2
 62
     4
420
    65535
370
    30
100
AcDbVertex
100
AcDb2dVertex
 10
1.165460147420213
 20
5.806529829791176
 30
0.0
  0
VERTEX
  5
113
330
111
100
AcDbEntity
  8
2
 62
     4
420
    65535
370
    30
100
AcDbVertex
100
AcDb2dVertex
 10
0.6689383477140229
 20
5.806529829791176
 30
0.0
  0
SEQEND
  5
114
330
111
100
AcDbEntity
  8
2
 62
     4
420
    65535
370
    30
  0
ENDBLK
  5
110
330
10D
100
AcDbEntity
  8
0
100
AcDbBlockEnd
  0
BLOCK
  5
117
330
115
100
AcDbEntity
  8
0
100
AcDbBlockBegin
  2
block 23
 70
     0
 10
0.0
 20
0.0
 30
0.0
  3
block 23
  1

  0
POLYLINE
  5
119
330
115
100
AcDbEntity
  8
2
 62
     4
420
    65535
370
    30
100
AcDb2dPolyline
 66
     1
 10
0.0
 20
0.0
 30
0.0
  0
VERTEX
  5
11A
330
119
100
AcDbEntity
  8
2
 62
     4
420
    65535
370
    30
100
AcDbVertex
100
AcDb2dVertex
 10
1.123759795630311
 20
5.910780709265938
 30
0.0
  0
VERTEX
  5
11B
330
119
100
AcDbEntity
  8
2
 62
     4
420
    65535
370
    30
100
AcDbVertex
100
AcDb2dVertex
 10
0.6689383477140229
 20
5.910780709265938
 30
0.0
  0
SEQEND
  5
11C
330
119
100
AcDbEntity
  8
2
 62
     4
420
    65535
370
    30
  0
ENDBLK
  5
118
330
115
100
AcDbEntity
  8
0
100
AcDbBlockEnd
  0
BLOCK
  5
11F
330
11D
100
AcDbEntity
  8
0
100
AcDbBlockBegin
  2
block 24
 70
     0
 10
0.0
 20
0.0
 30
0.0
  3
block 24
  1

  0
SPLINE
  5
121
330
11D
100
AcDbEntity
  8
2
 62
     4
420
    65535
370
    30
100
AcDbSpline
210
0.0
220
0.0
230
1.0
 70
     8
 71
     3
 72
     8
 73
     4
 74
     0
 42
0.0000000001
 43
0.0000000001
 12
1.0
 22
0.0
 32
0.0
 13
1.0
 23
0.0
 33
0.0
 40
0.0
 40
0.0
 40
0.0
 40
0.0
 40
1.0
 40
1.0
 40
1.0
 40
1.0
 10
1.19148714923713
 20
5.7818311272891
 30
0.0
 10
1.190761565571405
 20
5.795676088393015
 30
0.0
 10
1.179324108601084
 20
5.806529829791176
 30
0.0
 10
1.165460147420213
 20
5.806529829791176
 30
0.0
  0
ENDBLK
  5
120
330
11D
100
AcDbEntity
  8
0
100
AcDbBlockEnd
  0
BLOCK
  5
124
330
122
100
AcDbEntity
  8
0
100
AcDbBlockBegin
  2
block 25
 70
     0
 10
0.0
 20
0.0
 30
0.0
  3
block 25
  1

  0
POLYLINE
  5
126
330
122
100
AcDbEntity
  8
2
 62
     4
420
    65535
370
    30
100
AcDb2dPolyline
 66
     1
 10
0.0
 20
0.0
 30
0.0
  0
VERTEX
  5
127
330
126
100
AcDbEntity
  8
2
 62
     4
420
    65535
370
    30
100
AcDbVertex
100
AcDb2dVertex
 10
1.19148714923713
 20
5.7818311272891
 30
0.0
  0
VERTEX
  5
128
330
126
100
AcDbEntity
  8
2
 62
     4
420
    65535
370
    30
100
AcDbVertex
100
AcDb2dVertex
 10
1.221476036639729
 20
5.20960906764718
 30
0.0
  0
SEQEND
  5
129
330
126
100
AcDbEntity
  8
2
 62
     4
420
    65535
370
    30
  0
ENDBLK
  5
125
330
122
100
AcDbEntity
  8
0
100
AcDbBlockEnd
  0
BLOCK
  5
12C
330
12A
100
AcDbEntity
  8
0
100
AcDbBlockBegin
  2
block 26
 70
     0
 10
0.0
 20
0.0
 30
0.0
  3
block 26
  1

  0
SPLINE
  5
12E
330
12A
100
AcDbEntity
  8
2
 62
     4
420
    65535
370
    30
100
AcDbSpline
210
0.0
220
0.0
230
1.0
 70
     8
 71
     3
 72
     8
 73
     4
 74
     0
 42
0.0000000001
 43
0.0000000001
 12
1.0
 22
0.0
 32
0.0
 13
1.0
 23
0.0
 33
0.0
 40
0.0
 40
0.0
 40
0.0
 40
0.0
 40
1.0
 40
1.0
 40
1.0
 40
1.0
 10
1.416476932465457
 20
5.012438664970962
 30
0.0
 10
1.567265553016606
 20
5.002862227153451
 30
0.0
 10
1.718228710831896
 20
4.996266819197394
 30
0.0
 10
1.869277975751402
 20
4.992656304515523
 30
0.0
  0
ENDBLK
  5
12D
330
12A
100
AcDbEntity
  8
0
100
AcDbBlockEnd
  0
BLOCK
  5
131
330
12F
100
AcDbEntity
  8
0
100
AcDbBlockBegin
  2
block 27
 70
     0
 10
0.0
 20
0.0
 30
0.0
  3
block 27
  1

  0
SPLINE
  5
133
330
12F
100
AcDbEntity
  8
2
 62
     4
420
    65535
370
    30
100
AcDbSpline
210
0.0
220
0.0
230
1.0
 70
     8
 71
     3
 72
     8
 73
     4
 74
     0
 42
0.0000000001
 43
0.0000000001
 12
1.0
 22
0.0
 32
0.0
 13
1.0
 23
0.0
 33
0.0
 40
0.0
 40
0.0
 40
0.0
 40
0.0
 40
1.0
 40
1.0
 40
1.0
 40
1.0
 10
1.221476036639729
 20
5.20960906764718
 30
0.0
 10
1.227014948570387
 20
5.103920331996985
 30
0.0
 10
1.310855946574242
 20
5.019146550485882
 30
0.0
 10
1.416476932465457
 20
5.012438664970962
 30
0.0
  0
ENDBLK
  5
132
330
12F
100
AcDbEntity
  8
0
100
AcDbBlockEnd
  0
BLOCK
  5
136
330
134
100
AcDbEntity
  8
0
100
AcDbBlockBegin
  2
block 28
 70
     0
 10
0.0
 20
0.0
 30
0.0
  3
block 28
  1

  0
POLYLINE
  5
138
330
134
100
AcDbEntity
  8
2
 62
     4
420
    65535
370
    30
100
AcDb2dPolyline
 66
     1
 10
0.0
 20
0.0
 30
0.0
  0
VERTEX
  5
139
330
138
100
AcDbEntity
  8
2
 62
     4
420
    65535
370
    30
100
AcDbVertex
100
AcDb2dVertex
 10
1.165460147420213
 20
5.806529829791176
 30
0.0
  0
VERTEX
  5
13A
330
138
100
AcDbEntity
  8
2
 62
     4
420
    65535
370
    30
100
AcDbVertex
100
AcDb2dVertex
 10
1.165460147420213
 20
5.869080357476037
 30
0.0
  0
SEQEND
  5
13B
330
138
100
AcDbEntity
  8
2
 62
     4
420
    65535
370
    30
  0
ENDBLK
  5
137
330
134
100
AcDbEntity
  8
0
100
AcDbBlockEnd
  0
BLOCK
  5
13E
330
13C
100
AcDbEntity
  8
0
100
AcDbBlockBegin
  2
block 29
 70
     0
 10
0.0
 20
0.0
 30
0.0
  3
block 29
  1

  0
SPLINE
  5
140
330
13C
100
AcDbEntity
  8
2
 62
     4
420
    65535
370
    30
100
AcDbSpline
210
0.0
220
0.0
230
1.0
 70
     8
 71
     3
 72
     8
 73
     4
 74
     0
 42
0.0000000001
 43
0.0000000001
 12
1.0
 22
0.0
 32
0.0
 13
1.0
 23
0.0
 33
0.0
 40
0.0
 40
0.0
 40
0.0
 40
0.0
 40
1.0
 40
1.0
 40
1.0
 40
1.0
 10
1.165460147420213
 20
5.869080357476037
 30
0.0
 10
1.165460147420213
 20
5.892110825832169
 30
0.0
 10
1.146790263986456
 20
5.910780709265938
 30
0.0
 10
1.123759795630311
 20
5.910780709265938
 30
0.0
  0
ENDBLK
  5
13F
330
13C
100
AcDbEntity
  8
0
100
AcDbBlockEnd
  0
BLOCK
  5
143
330
141
100
AcDbEntity
  8
0
100
AcDbBlockBegin
  2
block 30
 70
     0
 10
0.0
 20
0.0
 30
0.0
  3
block 30
  1

  0
SPLINE
  5
145
330
141
100
AcDbEntity
  8
2
 62
     4
420
    65535
370
    30
100
AcDbSpline
210
0.0
220
0.0
230
1.0
 70
     8
 71
     3
 72
    14
 73
    10
 74
     0
 42
0.0000000001
 43
0.0000000001
 12
1.0
 22
0.0
 32
0.0
 13
1.0
 23
0.0
 33
0.0
 40
0.0
 40
0.0
 40
0.0
 40
0.0
 40
1.0
 40
1.0
 40
1.0
 40
2.0
 40
2.0
 40
2.0
 40
3.0
 40
3.0
 40
3.0
 40
3.0
 10
0.6689383477140229
 20
5.910780709265938
 30
0.0
 10
0.6753504269165533
 20
5.899164912213475
 30
0.0
 10
0.6817625061190711
 20
5.887549115161025
 30
0.0
 10
0.6802466420466164
 20
5.876402713142915
 30
0.0
 10
0.6787613051015012
 20
5.865480782197121
 30
0.0
 10
0.6696641223644645
 20
5.855009530890811
 30
0.0
 10
0.6663879553713438
 20
5.843761626690265
 30
0.0
 10
0.6629401564821111
 20
5.831924467079564
 30
0.0
 10
0.665939252098067
 20
5.819227148435377
 30
0.0
 10
0.6689383477140229
 20
5.806529829791176
 30
0.0
  0
ENDBLK
  5
144
330
141
100
AcDbEntity
  8
0
100
AcDbBlockEnd
  0
BLOCK
  5
149
330
147
100
AcDbEntity
  8
0
100
AcDbBlockBegin
  2
block 31
 70
     0
 10
0.0
 20
0.0
 30
0.0
  3
block 31
  1

  0
SPLINE
  5
14B
330
147
100
AcDbEntity
  8
1
  6
AI-Linetype-1
 62
     6
420
 16711935
370
    25
100
AcDbSpline
210
0.0
220
0.0
230
1.0
 70
     8
 71
     3
 72
     8
 73
     4
 74
     0
 42
0.0000000001
 43
0.0000000001
 12
1.0
 22
0.0
 32
0.0
 13
1.0
 23
0.0
 33
0.0
 40
0.0
 40
0.0
 40
0.0
 40
0.0
 40
1.0
 40
1.0
 40
1.0
 40
1.0
 10
5.90107872428267
 20
4.754600067611388
 30
0.0
 10
5.920774424815893
 20
5.141823268547291
 30
0.0
 10
5.920774424815893
 20
5.529797334955447
 30
0.0
 10
5.90107872428267
 20
5.917020535891348
 30
0.0
  0
ENDBLK
  5
14A
330
147
100
AcDbEntity
  8
0
100
AcDbBlockEnd
  0
BLOCK
  5
14F
330
14D
100
AcDbEntity
  8
0
100
AcDbBlockBegin
  2
block 32
 70
     0
 10
0.0
 20
0.0
 30
0.0
  3
block 32
  1

  0
SPLINE
  5
151
330
14D
100
AcDbEntity
  8
1
  6
AI-Linetype-2
 62
     6
420
 16711935
370
    25
100
AcDbSpline
210
0.0
220
0.0
230
1.0
 70
     8
 71
     3
 72
     8
 73
     4
 74
     0
 42
0.0000000001
 43
0.0000000001
 12
1.0
 22
0.0
 32
0.0
 13
1.0
 23
0.0
 33
0.0
 40
0.0
 40
0.0
 40
0.0
 40
0.0
 40
1.0
 40
1.0
 40
1.0
 40
1.0
 10
5.451394133778826
 20
4.30968045635167
 30
0.0
 10
5.693774497925738
 20
4.319421519403932
 30
0.0
 10
5.88875627961718
 20
4.512337221531248
 30
0.0
 10
5.901078724282645
 20
4.754600067611388
 30
0.0
  0
ENDBLK
  5
150
330
14D
100
AcDbEntity
  8
0
100
AcDbBlockEnd
  0
BLOCK
  5
155
330
153
100
AcDbEntity
  8
0
100
AcDbBlockBegin
  2
block 33
 70
     0
 10
0.0
 20
0.0
 30
0.0
  3
block 33
  1

  0
SPLINE
  5
157
330
153
100
AcDbEntity
  8
1
  6
AI-Linetype-3
 62
     6
420
 16711935
370
    25
100
AcDbSpline
210
0.0
220
0.0
230
1.0
 70
     8
 71
     3
 72
     8
 73
     4
 74
     0
 42
0.0000000001
 43
0.0000000001
 12
1.0
 22
0.0
 32
0.0
 13
1.0
 23
0.0
 33
0.0
 40
0.0
 40
0.0
 40
0.0
 40
0.0
 40
1.0
 40
1.0
 40
1.0
 40
1.0
 10
2.073339734516417
 20
5.917020535891374
 30
0.0
 10
2.053644033983194
 20
5.529797334955459
 30
0.0
 10
2.053644033983194
 20
5.141823268547316
 30
0.0
 10
2.073339734516417
 20
4.754600067611388
 30
0.0
  0
ENDBLK
  5
156
330
153
100
AcDbEntity
  8
0
100
AcDbBlockEnd
  0
BLOCK
  5
15B
330
159
100
AcDbEntity
  8
0
100
AcDbBlockBegin
  2
block 34
 70
     0
 10
0.0
 20
0.0
 30
0.0
  3
block 34
  1

  0
SPLINE
  5
15D
330
159
100
AcDbEntity
  8
1
  6
AI-Linetype-4
 62
     6
420
 16711935
370
    25
100
AcDbSpline
210
0.0
220
0.0
230
1.0
 70
     8
 71
     3
 72
     8
 73
     4
 74
     0
 42
0.0000000001
 43
0.0000000001
 12
1.0
 22
0.0
 32
0.0
 13
1.0
 23
0.0
 33
0.0
 40
0.0
 40
0.0
 40
0.0
 40
0.0
 40
1.0
 40
1.0
 40
1.0
 40
1.0
 10
2.07333973451643
 20
4.754600067611388
 30
0.0
 10
2.085662179181895
 20
4.512337221531273
 30
0.0
 10
2.280643960873324
 20
4.319421519403956
 30
0.0
 10
2.523024325020224
 20
4.30968045635167
 30
0.0
  0
ENDBLK
  5
15C
330
159
100
AcDbEntity
  8
0
100
AcDbBlockEnd
  0
BLOCK
  5
161
330
15F
100
AcDbEntity
  8
0
100
AcDbBlockBegin
  2
block 35
 70
     0
 10
0.0
 20
0.0
 30
0.0
  3
block 35
  1

  0
SPLINE
  5
163
330
15F
100
AcDbEntity
  8
1
  6
AI-Linetype-5
 62
     6
420
 16711935
370
    25
100
AcDbSpline
210
0.0
220
0.0
230
1.0
 70
     8
 71
     3
 72
     8
 73
     4
 74
     0
 42
0.0000000001
 43
0.0000000001
 12
1.0
 22
0.0
 32
0.0
 13
1.0
 23
0.0
 33
0.0
 40
0.0
 40
0.0
 40
0.0
 40
0.0
 40
1.0
 40
1.0
 40
1.0
 40
1.0
 10
5.451394133778851
 20
6.361940147151067
 30
0.0
 10
4.475664697097904
 20
6.401153892860722
 30
0.0
 10
3.498753761701197
 20
6.401153892860722
 30
0.0
 10
2.523024325020237
 20
6.361940147151067
 30
0.0
  0
ENDBLK
  5
162
330
15F
100
AcDbEntity
  8
0
100
AcDbBlockEnd
  0
BLOCK
  5
167
330
165
100
AcDbEntity
  8
0
100
AcDbBlockBegin
  2
block 36
 70
     0
 10
0.0
 20
0.0
 30
0.0
  3
block 36
  1

  0
SPLINE
  5
169
330
165
100
AcDbEntity
  8
1
  6
AI-Linetype-6
 62
     6
420
 16711935
370
    25
100
AcDbSpline
210
0.0
220
0.0
230
1.0
 70
     8
 71
     3
 72
     8
 73
     4
 74
     0
 42
0.0000000001
 43
0.0000000001
 12
1.0
 22
0.0
 32
0.0
 13
1.0
 23
0.0
 33
0.0
 40
0.0
 40
0.0
 40
0.0
 40
0.0
 40
1.0
 40
1.0
 40
1.0
 40
1.0
 10
2.523024325020237
 20
6.361940147151067
 30
0.0
 10
2.280643960873324
 20
6.352199084098793
 30
0.0
 10
2.085662179181908
 20
6.159283381971477
 30
0.0
 10
2.07333973451643
 20
5.917020535891348
 30
0.0
  0
ENDBLK
  5
168
330
165
100
AcDbEntity
  8
0
100
AcDbBlockEnd
  0
BLOCK
  5
16D
330
16B
100
AcDbEntity
  8
0
100
AcDbBlockBegin
  2
block 37
 70
     0
 10
0.0
 20
0.0
 30
0.0
  3
block 37
  1

  0
SPLINE
  5
16F
330
16B
100
AcDbEntity
  8
1
  6
AI-Linetype-7
 62
     6
420
 16711935
370
    25
100
AcDbSpline
210
0.0
220
0.0
230
1.0
 70
     8
 71
     3
 72
     8
 73
     4
 74
     0
 42
0.0000000001
 43
0.0000000001
 12
1.0
 22
0.0
 32
0.0
 13
1.0
 23
0.0
 33
0.0
 40
0.0
 40
0.0
 40
0.0
 40
0.0
 40
1.0
 40
1.0
 40
1.0
 40
1.0
 10
5.901078724282645
 20
5.917020535891361
 30
0.0
 10
5.88875627961718
 20
6.159283381971489
 30
0.0
 10
5.693774497925763
 20
6.352199084098793
 30
0.0
 10
5.451394133778851
 20
6.361940147151067
 30
0.0
  0
ENDBLK
  5
16E
330
16B
100
AcDbEntity
  8
0
100
AcDbBlockEnd
  0
BLOCK
  5
173
330
171
100
AcDbEntity
  8
0
100
AcDbBlockBegin
  2
block 38
 70
     0
 10
0.0
 20
0.0
 30
0.0
  3
block 38
  1

  0
SPLINE
  5
175
330
171
100
AcDbEntity
  8
1
  6
AI-Linetype-8
 62
     6
420
 16711935
370
    25
100
AcDbSpline
210
0.0
220
0.0
230
1.0
 70
     8
 71
     3
 72
     8
 73
     4
 74
     0
 42
0.0000000001
 43
0.0000000001
 12
1.0
 22
0.0
 32
0.0
 13
1.0
 23
0.0
 33
0.0
 40
0.0
 40
0.0
 40
0.0
 40
0.0
 40
1.0
 40
1.0
 40
1.0
 40
1.0
 10
2.523024325020275
 20
4.309680456351694
 30
0.0
 10
3.498753761701197
 20
4.27046671064204
 30
0.0
 10
4.475664697097929
 20
4.27046671064204
 30
0.0
 10
5.451394133778851
 20
4.309680456351694
 30
0.0
  0
ENDBLK
  5
174
330
171
100
AcDbEntity
  8
0
100
AcDbBlockEnd
  0
BLOCK
  5
17A
330
178
100
AcDbEntity
  8
0
100
AcDbBlockBegin
  2
block 39
 70
     0
 10
0.0
 20
0.0
 30
0.0
  3
block 39
  1

  0
POLYLINE
  5
17C
330
178
100
AcDbEntity
  8
3
 62
     3
420
    65280
370
    18
100
AcDb2dPolyline
 66
     1
 10
0.0
 20
0.0
 30
0.0
  0
VERTEX
  5
17D
330
17C
100
AcDbEntity
  8
3
 62
     3
420
    65280
370
    18
100
AcDbVertex
100
AcDb2dVertex
 10
2.058567959116506
 20
5.351447933672589
 30
0.0
  0
VERTEX
  5
17E
330
17C
100
AcDbEntity
  8
3
 62
     3
420
    65280
370
    18
100
AcDbVertex
100
AcDb2dVertex
 10
2.058567959116506
 20
6.619173873829418
 30
0.0
  0
SEQEND
  5
17F
330
17C
100
AcDbEntity
  8
3
 62
     3
420
    65280
370
    18
  0
ENDBLK
  5
17B
330
178
100
AcDbEntity
  8
0
100
AcDbBlockEnd
  0
BLOCK
  5
182
330
180
100
AcDbEntity
  8
0
100
AcDbBlockBegin
  2
block 40
 70
     0
 10
0.0
 20
0.0
 30
0.0
  3
block 40
  1

  0
POLYLINE
  5
184
330
180
100
AcDbEntity
  8
3
 62
     3
420
    65280
370
    18
100
AcDb2dPolyline
 66
     1
 10
0.0
 20
0.0
 30
0.0
  0
VERTEX
  5
185
330
184
100
AcDbEntity
  8
3
 62
     3
420
    65280
370
    18
100
AcDbVertex
100
AcDb2dVertex
 10
5.915850499682569
 20
5.351447933672589
 30
0.0
  0
VERTEX
  5
186
330
184
100
AcDbEntity
  8
3
 62
     3
420
    65280
370
    18
100
AcDbVertex
100
AcDb2dVertex
 10
5.915850499682569
 20
6.619173873829418
 30
0.0
  0
SEQEND
  5
187
330
184
100
AcDbEntity
  8
3
 62
     3
420
    65280
370
    18
  0
ENDBLK
  5
183
330
180
100
AcDbEntity
  8
0
100
AcDbBlockEnd
  0
BLOCK
  5
18A
330
188
100
AcDbEntity
  8
0
100
AcDbBlockBegin
  2
block 41
 70
     0
 10
0.0
 20
0.0
 30
0.0
  3
block 41
  1

  0
POLYLINE
  5
18C
330
188
100
AcDbEntity
  8
3
 62
     3
420
    65280
370
    18
100
AcDb2dPolyline
 66
     1
 10
0.0
 20
0.0
 30
0.0
  0
VERTEX
  5
18D
330
18C
100
AcDbEntity
  8
3
 62
     3
420
    65280
370
    18
100
AcDbVertex
100
AcDb2dVertex
 10
2.121118486801354
 20
6.612658193862242
 30
0.0
  0
VERTEX
  5
18E
330
18C
100
AcDbEntity
  8
3
 62
     3
420
    65280
370
    18
100
AcDbVertex
100
AcDb2dVertex
 10
5.853299971997735
 20
6.612658193862242
 30
0.0
  0
SEQEND
  5
18F
330
18C
100
AcDbEntity
  8
3
 62
     3
420
    65280
370
    18
  0
ENDBLK
  5
18B
330
188
100
AcDbEntity
  8
0
100
AcDbBlockEnd
  0
BLOCK
  5
192
330
190
100
AcDbEntity
  8
0
100
AcDbBlockBegin
  2
block 42
 70
     0
 10
0.0
 20
0.0
 30
0.0
  3
block 42
  1

  0
POLYLINE
  5
194
330
190
100
AcDbEntity
  8
3
370
     0
100
AcDb2dPolyline
 66
     1
 10
0.0
 20
0.0
 30
0.0
  0
VERTEX
  5
195
330
194
100
AcDbEntity
  8
3
370
     0
100
AcDbVertex
100
AcDb2dVertex
 10
2.121118486801354
 20
6.623083281809727
 30
0.0
  0
VERTEX
  5
196
330
194
100
AcDbEntity
  8
3
370
     0
100
AcDbVertex
100
AcDb2dVertex
 10
2.058567959116506
 20
6.612658193862242
 30
0.0
  0
VERTEX
  5
197
330
194
100
AcDbEntity
  8
3
370
     0
100
AcDbVertex
100
AcDb2dVertex
 10
2.121118486801354
 20
6.602233105914769
 30
0.0
  0
VERTEX
  5
198
330
194
100
AcDbEntity
  8
3
370
     0
100
AcDbVertex
100
AcDb2dVertex
 10
2.121118486801354
 20
6.623083281809727
 30
0.0
  0
SEQEND
  5
19A
330
194
100
AcDbEntity
  8
3
370
     0
  0
HATCH
  5
199
330
190
100
AcDbEntity
  8
3
 62
     3
420
    65280
100
AcDbHatch
 10
0.0
 20
0.0
 30
0.0
210
0.0
220
0.0
230
1.0
  2
SOLID
 70
     1
 71
     0
 91
        1
 92
        1
 93
        3
 72
     1
 10
2.121118486801354
 20
6.623083281809727
 11
2.058567959116506
 21
6.612658193862242
 72
     1
 10
2.058567959116506
 20
6.612658193862242
 11
2.121118486801354
 21
6.602233105914769
 72
     1
 10
2.121118486801354
 20
6.602233105914769
 11
2.121118486801354
 21
6.623083281809727
 97
        0
 75
     2
 76
     1
 98
        0
  0
ENDBLK
  5
193
330
190
100
AcDbEntity
  8
0
100
AcDbBlockEnd
  0
BLOCK
  5
19D
330
19B
100
AcDbEntity
  8
0
100
AcDbBlockBegin
  2
block 43
 70
     0
 10
0.0
 20
0.0
 30
0.0
  3
block 43
  1

  0
POLYLINE
  5
19F
330
19B
100
AcDbEntity
  8
3
370
     0
100
AcDb2dPolyline
 66
     1
 10
0.0
 20
0.0
 30
0.0
  0
VERTEX
  5
1A0
330
19F
100
AcDbEntity
  8
3
370
     0
100
AcDbVertex
100
AcDb2dVertex
 10
5.853299971997735
 20
6.623083281809727
 30
0.0
  0
VERTEX
  5
1A1
330
19F
100
AcDbEntity
  8
3
370
     0
100
AcDbVertex
100
AcDb2dVertex
 10
5.915850499682569
 20
6.612658193862242
 30
0.0
  0
VERTEX
  5
1A2
330
19F
100
AcDbEntity
  8
3
370
     0
100
AcDbVertex
100
AcDb2dVertex
 10
5.853299971997735
 20
6.602233105914769
 30
0.0
  0
VERTEX
  5
1A3
330
19F
100
AcDbEntity
  8
3
370
     0
100
AcDbVertex
100
AcDb2dVertex
 10
5.853299971997735
 20
6.623083281809727
 30
0.0
  0
SEQEND
  5
1A5
330
19F
100
AcDbEntity
  8
3
370
     0
  0
HATCH
  5
1A4
330
19B
100
AcDbEntity
  8
3
 62
     3
420
    65280
100
AcDbHatch
 10
0.0
 20
0.0
 30
0.0
210
0.0
220
0.0
230
1.0
  2
SOLID
 70
     1
 71
     0
 91
        1
 92
        1
 93
        3
 72
     1
 10
5.853299971997735
 20
6.623083281809727
 11
5.915850499682569
 21
6.612658193862242
 72
     1
 10
5.915850499682569
 20
6.612658193862242
 11
5.853299971997735
 21
6.602233105914769
 72
     1
 10
5.853299971997735
 20
6.602233105914769
 11
5.853299971997735
 21
6.623083281809727
 97
        0
 75
     2
 76
     1
 98
        0
  0
ENDBLK
  5
19E
330
19B
100
AcDbEntity
  8
0
100
AcDbBlockEnd
  0
BLOCK
  5
1A8
330
1A6
100
AcDbEntity
  8
0
100
AcDbBlockBegin
  2
block 44
 70
     0
 10
0.0
 20
0.0
 30
0.0
  3
block 44
  1

  0
MTEXT
  5
1AA
330
1A6
100
AcDbEntity
  8
3
 62
     3
420
    65280
100
AcDbMText
 10
3.64318127102322
 20
6.643188900417751
 30
0.0
 40
0.0625505278905233
 41
0.0
 46
0.0
 71
     7
 72
     1
  1
\fMyriad Pro|b0|i0|c0|p34;\W1;740 [29 1/8]
 73
     1
 44
1.0
  0
ENDBLK
  5
1A9
330
1A6
100
AcDbEntity
  8
0
100
AcDbBlockEnd
  0
BLOCK
  5
1AD
330
1AB
100
AcDbEntity
  8
0
100
AcDbBlockBegin
  2
block 45
 70
     0
 10
0.0
 20
0.0
 30
0.0
  3
block 45
  1

  0
POLYLINE
  5
1AF
330
1AB
100
AcDbEntity
  8
3
 62
     3
420
    65280
370
    18
100
AcDb2dPolyline
 66
     1
 10
0.0
 20
0.0
 30
0.0
  0
VERTEX
  5
1B0
330
1AF
100
AcDbEntity
  8
3
 62
     3
420
    65280
370
    18
100
AcDbVertex
100
AcDb2dVertex
 10
2.006442519379132
 20
5.351447933672589
 30
0.0
  0
VERTEX
  5
1B1
330
1AF
100
AcDbEntity
  8
3
 62
     3
420
    65280
370
    18
100
AcDbVertex
100
AcDb2dVertex
 10
2.006442519379132
 20
6.827031132366338
 30
0.0
  0
SEQEND
  5
1B2
330
1AF
100
AcDbEntity
  8
3
 62
     3
420
    65280
370
    18
  0
ENDBLK
  5
1AE
330
1AB
100
AcDbEntity
  8
0
100
AcDbBlockEnd
  0
BLOCK
  5
1B5
330
1B3
100
AcDbEntity
  8
0
100
AcDbBlockBegin
  2
block 46
 70
     0
 10
0.0
 20
0.0
 30
0.0
  3
block 46
  1

  0
POLYLINE
  5
1B7
330
1B3
100
AcDbEntity
  8
3
 62
     3
420
    65280
370
    18
100
AcDb2dPolyline
 66
     1
 10
0.0
 20
0.0
 30
0.0
  0
VERTEX
  5
1B8
330
1B7
100
AcDbEntity
  8
3
 62
     3
420
    65280
370
    18
100
AcDbVertex
100
AcDb2dVertex
 10
5.967975939419956
 20
5.351447933672589
 30
0.0
  0
VERTEX
  5
1B9
330
1B7
100
AcDbEntity
  8
3
 62
     3
420
    65280
370
    18
100
AcDbVertex
100
AcDb2dVertex
 10
5.967975939419956
 20
6.827031132366338
 30
0.0
  0
SEQEND
  5
1BA
330
1B7
100
AcDbEntity
  8
3
 62
     3
420
    65280
370
    18
  0
ENDBLK
  5
1B6
330
1B3
100
AcDbEntity
  8
0
100
AcDbBlockEnd
  0
BLOCK
  5
1BD
330
1BB
100
AcDbEntity
  8
0
100
AcDbBlockBegin
  2
block 47
 70
     0
 10
0.0
 20
0.0
 30
0.0
  3
block 47
  1

  0
POLYLINE
  5
1BF
330
1BB
100
AcDbEntity
  8
3
 62
     3
420
    65280
370
    18
100
AcDb2dPolyline
 66
     1
 10
0.0
 20
0.0
 30
0.0
  0
VERTEX
  5
1C0
330
1BF
100
AcDbEntity
  8
3
 62
     3
420
    65280
370
    18
100
AcDbVertex
100
AcDb2dVertex
 10
2.068993047063979
 20
6.820515452399162
 30
0.0
  0
VERTEX
  5
1C1
330
1BF
100
AcDbEntity
  8
3
 62
     3
420
    65280
370
    18
100
AcDbVertex
100
AcDb2dVertex
 10
5.905425411735096
 20
6.820515452399162
 30
0.0
  0
SEQEND
  5
1C2
330
1BF
100
AcDbEntity
  8
3
 62
     3
420
    65280
370
    18
  0
ENDBLK
  5
1BE
330
1BB
100
AcDbEntity
  8
0
100
AcDbBlockEnd
  0
BLOCK
  5
1C5
330
1C3
100
AcDbEntity
  8
0
100
AcDbBlockBegin
  2
block 48
 70
     0
 10
0.0
 20
0.0
 30
0.0
  3
block 48
  1

  0
POLYLINE
  5
1C7
330
1C3
100
AcDbEntity
  8
3
370
     0
100
AcDb2dPolyline
 66
     1
 10
0.0
 20
0.0
 30
0.0
  0
VERTEX
  5
1C8
330
1C7
100
AcDbEntity
  8
3
370
     0
100
AcDbVertex
100
AcDb2dVertex
 10
2.068993047063979
 20
6.830940540346634
 30
0.0
  0
VERTEX
  5
1C9
330
1C7
100
AcDbEntity
  8
3
370
     0
100
AcDbVertex
100
AcDb2dVertex
 10
2.006442519379132
 20
6.820515452399162
 30
0.0
  0
VERTEX
  5
1CA
330
1C7
100
AcDbEntity
  8
3
370
     0
100
AcDbVertex
100
AcDb2dVertex
 10
2.068993047063979
 20
6.810090364451677
 30
0.0
  0
VERTEX
  5
1CB
330
1C7
100
AcDbEntity
  8
3
370
     0
100
AcDbVertex
100
AcDb2dVertex
 10
2.068993047063979
 20
6.830940540346634
 30
0.0
  0
SEQEND
  5
1CD
330
1C7
100
AcDbEntity
  8
3
370
     0
  0
HATCH
  5
1CC
330
1C3
100
AcDbEntity
  8
3
 62
     3
420
    65280
100
AcDbHatch
 10
0.0
 20
0.0
 30
0.0
210
0.0
220
0.0
230
1.0
  2
SOLID
 70
     1
 71
     0
 91
        1
 92
        1
 93
        3
 72
     1
 10
2.068993047063979
 20
6.830940540346634
 11
2.006442519379132
 21
6.820515452399162
 72
     1
 10
2.006442519379132
 20
6.820515452399162
 11
2.068993047063979
 21
6.810090364451677
 72
     1
 10
2.068993047063979
 20
6.810090364451677
 11
2.068993047063979
 21
6.830940540346634
 97
        0
 75
     2
 76
     1
 98
        0
  0
ENDBLK
  5
1C6
330
1C3
100
AcDbEntity
  8
0
100
AcDbBlockEnd
  0
BLOCK
  5
1D0
330
1CE
100
AcDbEntity
  8
0
100
AcDbBlockBegin
  2
block 49
 70
     0
 10
0.0
 20
0.0
 30
0.0
  3
block 49
  1

  0
POLYLINE
  5
1D2
330
1CE
100
AcDbEntity
  8
3
370
     0
100
AcDb2dPolyline
 66
     1
 10
0.0
 20
0.0
 30
0.0
  0
VERTEX
  5
1D3
330
1D2
100
AcDbEntity
  8
3
370
     0
100
AcDbVertex
100
AcDb2dVertex
 10
5.905425411735096
 20
6.830940540346634
 30
0.0
  0
VERTEX
  5
1D4
330
1D2
100
AcDbEntity
  8
3
370
     0
100
AcDbVertex
100
AcDb2dVertex
 10
5.967975939419956
 20
6.820515452399162
 30
0.0
  0
VERTEX
  5
1D5
330
1D2
100
AcDbEntity
  8
3
370
     0
100
AcDbVertex
100
AcDb2dVertex
 10
5.905425411735096
 20
6.810090364451677
 30
0.0
  0
VERTEX
  5
1D6
330
1D2
100
AcDbEntity
  8
3
370
     0
100
AcDbVertex
100
AcDb2dVertex
 10
5.905425411735096
 20
6.830940540346634
 30
0.0
  0
SEQEND
  5
1D8
330
1D2
100
AcDbEntity
  8
3
370
     0
  0
HATCH
  5
1D7
330
1CE
100
AcDbEntity
  8
3
 62
     3
420
    65280
100
AcDbHatch
 10
0.0
 20
0.0
 30
0.0
210
0.0
220
0.0
230
1.0
  2
SOLID
 70
     1
 71
     0
 91
        1
 92
        1
 93
        3
 72
     1
 10
5.905425411735096
 20
6.830940540346634
 11
5.967975939419956
 21
6.820515452399162
 72
     1
 10
5.967975939419956
 20
6.820515452399162
 11
5.905425411735096
 21
6.810090364451677
 72
     1
 10
5.905425411735096
 20
6.810090364451677
 11
5.905425411735096
 21
6.830940540346634
 97
        0
 75
     2
 76
     1
 98
        0
  0
ENDBLK
  5
1D1
330
1CE
100
AcDbEntity
  8
0
100
AcDbBlockEnd
  0
BLOCK
  5
1DB
330
1D9
100
AcDbEntity
  8
0
100
AcDbBlockBegin
  2
block 50
 70
     0
 10
0.0
 20
0.0
 30
0.0
  3
block 50
  1

  0
MTEXT
  5
1DD
330
1D9
100
AcDbEntity
  8
3
 62
     3
420
    65280
100
AcDbMText
 10
3.64318127102322
 20
6.851046244303385
 30
0.0
 40
0.0625505278905233
 41
0.0
 46
0.0
 71
     7
 72
     1
  1
\fMyriad Pro|b0|i0|c0|p34;\W1;760 [29 7/8]
 73
     1
 44
1.0
  0
ENDBLK
  5
1DC
330
1D9
100
AcDbEntity
  8
0
100
AcDbBlockEnd
  0
BLOCK
  5
1E0
330
1DE
100
AcDbEntity
  8
0
100
AcDbBlockBegin
  2
block 51
 70
     0
 10
0.0
 20
0.0
 30
0.0
  3
block 51
  1

  0
MTEXT
  5
1E2
330
1DE
100
AcDbEntity
  8
3
 62
     3
420
    65280
100
AcDbMText
 10
3.478702121310764
 20
3.749721103244358
 30
0.0
 40
0.0938257918357849
 41
0.0
 46
0.0
 71
     7
 72
     1
  1
\fMyriad Pro|b0|i0|c0|p34;\W1;HU207009
 73
     1
 44
1.0
  0
ENDBLK
  5
1E1
330
1DE
100
AcDbEntity
  8
0
100
AcDbBlockEnd
  0
BLOCK
  5
1E5
330
1E3
100
AcDbEntity
  8
0
100
AcDbBlockBegin
  2
block 52
 70
     0
 10
0.0
 20
0.0
 30
0.0
  3
block 52
  1

  0
POLYLINE
  5
1E7
330
1E3
100
AcDbEntity
  8
3
 62
     3
420
    65280
370
    18
100
AcDb2dPolyline
 66
     1
 10
0.0
 20
0.0
 30
0.0
  0
VERTEX
  5
1E8
330
1E7
100
AcDbEntity
  8
3
 62
     3
420
    65280
370
    18
100
AcDbVertex
100
AcDb2dVertex
 10
6.828045178294182
 20
5.794174883865152
 30
0.0
  0
VERTEX
  5
1E9
330
1E7
100
AcDbEntity
  8
3
 62
     3
420
    65280
370
    18
100
AcDbVertex
100
AcDb2dVertex
 10
6.828045178294182
 20
6.086113972240607
 30
0.0
  0
SEQEND
  5
1EA
330
1E7
100
AcDbEntity
  8
3
 62
     3
420
    65280
370
    18
  0
ENDBLK
  5
1E6
330
1E3
100
AcDbEntity
  8
0
100
AcDbBlockEnd
  0
BLOCK
  5
1ED
330
1EB
100
AcDbEntity
  8
0
100
AcDbBlockBegin
  2
block 53
 70
     0
 10
0.0
 20
0.0
 30
0.0
  3
block 53
  1

  0
POLYLINE
  5
1EF
330
1EB
100
AcDbEntity
  8
3
 62
     3
420
    65280
370
    18
100
AcDb2dPolyline
 66
     1
 10
0.0
 20
0.0
 30
0.0
  0
VERTEX
  5
1F0
330
1EF
100
AcDbEntity
  8
3
 62
     3
420
    65280
370
    18
100
AcDbVertex
100
AcDb2dVertex
 10
6.801982458425477
 20
5.881424114052075
 30
0.0
  0
VERTEX
  5
1F1
330
1EF
100
AcDbEntity
  8
3
 62
     3
420
    65280
370
    18
100
AcDbVertex
100
AcDb2dVertex
 10
6.801982458425477
 20
6.086113972240607
 30
0.0
  0
SEQEND
  5
1F2
330
1EF
100
AcDbEntity
  8
3
 62
     3
420
    65280
370
    18
  0
ENDBLK
  5
1EE
330
1EB
100
AcDbEntity
  8
0
100
AcDbBlockEnd
  0
BLOCK
  5
1F5
330
1F3
100
AcDbEntity
  8
0
100
AcDbBlockBegin
  2
block 54
 70
     0
 10
0.0
 20
0.0
 30
0.0
  3
block 54
  1

  0
POLYLINE
  5
1F7
330
1F3
100
AcDbEntity
  8
3
 62
     3
420
    65280
370
    18
100
AcDb2dPolyline
 66
     1
 10
0.0
 20
0.0
 30
0.0
  0
VERTEX
  5
1F8
330
1F7
100
AcDbEntity
  8
3
 62
     3
420
    65280
370
    18
100
AcDbVertex
100
AcDb2dVertex
 10
6.734219386766881
 20
6.079598292273444
 30
0.0
  0
VERTEX
  5
1F9
330
1F7
100
AcDbEntity
  8
3
 62
     3
420
    65280
370
    18
100
AcDbVertex
100
AcDb2dVertex
 10
6.666456315108285
 20
6.079598292273444
 30
0.0
  0
SEQEND
  5
1FA
330
1F7
100
AcDbEntity
  8
3
 62
     3
420
    65280
370
    18
  0
ENDBLK
  5
1F6
330
1F3
100
AcDbEntity
  8
0
100
AcDbBlockEnd
  0
BLOCK
  5
1FD
330
1FB
100
AcDbEntity
  8
0
100
AcDbBlockBegin
  2
block 55
 70
     0
 10
0.0
 20
0.0
 30
0.0
  3
block 55
  1

  0
POLYLINE
  5
1FF
330
1FB
100
AcDbEntity
  8
3
 62
     3
420
    65280
370
    18
100
AcDb2dPolyline
 66
     1
 10
0.0
 20
0.0
 30
0.0
  0
VERTEX
  5
200
330
1FF
100
AcDbEntity
  8
3
 62
     3
420
    65280
370
    18
100
AcDbVertex
100
AcDb2dVertex
 10
6.895808249952753
 20
6.079598292273444
 30
0.0
  0
VERTEX
  5
201
330
1FF
100
AcDbEntity
  8
3
 62
     3
420
    65280
370
    18
100
AcDbVertex
100
AcDb2dVertex
 10
7.378837324852484
 20
6.079598292273444
 30
0.0
  0
SEQEND
  5
202
330
1FF
100
AcDbEntity
  8
3
 62
     3
420
    65280
370
    18
  0
ENDBLK
  5
1FE
330
1FB
100
AcDbEntity
  8
0
100
AcDbBlockEnd
  0
BLOCK
  5
205
330
203
100
AcDbEntity
  8
0
100
AcDbBlockBegin
  2
block 56
 70
     0
 10
0.0
 20
0.0
 30
0.0
  3
block 56
  1

  0
POLYLINE
  5
207
330
203
100
AcDbEntity
  8
3
 62
     3
420
    65280
370
    18
100
AcDb2dPolyline
 66
     1
 10
0.0
 20
0.0
 30
0.0
  0
VERTEX
  5
208
330
207
100
AcDbEntity
  8
3
 62
     3
420
    65280
370
    18
100
AcDbVertex
100
AcDb2dVertex
 10
6.801982458425477
 20
6.079598292273444
 30
0.0
  0
VERTEX
  5
209
330
207
100
AcDbEntity
  8
3
 62
     3
420
    65280
370
    18
100
AcDbVertex
100
AcDb2dVertex
 10
6.828045178294182
 20
6.079598292273444
 30
0.0
  0
SEQEND
  5
20A
330
207
100
AcDbEntity
  8
3
 62
     3
420
    65280
370
    18
  0
ENDBLK
  5
206
330
203
100
AcDbEntity
  8
0
100
AcDbBlockEnd
  0
BLOCK
  5
20D
330
20B
100
AcDbEntity
  8
0
100
AcDbBlockBegin
  2
block 57
 70
     0
 10
0.0
 20
0.0
 30
0.0
  3
block 57
  1

  0
POLYLINE
  5
20F
330
20B
100
AcDbEntity
  8
3
370
     0
100
AcDb2dPolyline
 66
     1
 10
0.0
 20
0.0
 30
0.0
  0
VERTEX
  5
210
330
20F
100
AcDbEntity
  8
3
370
     0
100
AcDbVertex
100
AcDb2dVertex
 10
6.734219386766881
 20
6.090892137549872
 30
0.0
  0
VERTEX
  5
211
330
20F
100
AcDbEntity
  8
3
370
     0
100
AcDbVertex
100
AcDb2dVertex
 10
6.801982458425477
 20
6.079598292273444
 30
0.0
  0
VERTEX
  5
212
330
20F
100
AcDbEntity
  8
3
370
     0
100
AcDbVertex
100
AcDb2dVertex
 10
6.734219386766881
 20
6.068304446997015
 30
0.0
  0
VERTEX
  5
213
330
20F
100
AcDbEntity
  8
3
370
     0
100
AcDbVertex
100
AcDb2dVertex
 10
6.734219386766881
 20
6.090892137549872
 30
0.0
  0
SEQEND
  5
215
330
20F
100
AcDbEntity
  8
3
370
     0
  0
HATCH
  5
214
330
20B
100
AcDbEntity
  8
3
 62
     3
420
    65280
100
AcDbHatch
 10
0.0
 20
0.0
 30
0.0
210
0.0
220
0.0
230
1.0
  2
SOLID
 70
     1
 71
     0
 91
        1
 92
        1
 93
        3
 72
     1
 10
6.734219386766881
 20
6.090892137549872
 11
6.801982458425477
 21
6.079598292273444
 72
     1
 10
6.801982458425477
 20
6.079598292273444
 11
6.734219386766881
 21
6.068304446997015
 72
     1
 10
6.734219386766881
 20
6.068304446997015
 11
6.734219386766881
 21
6.090892137549872
 97
        0
 75
     2
 76
     1
 98
        0
  0
ENDBLK
  5
20E
330
20B
100
AcDbEntity
  8
0
100
AcDbBlockEnd
  0
BLOCK
  5
218
330
216
100
AcDbEntity
  8
0
100
AcDbBlockBegin
  2
block 58
 70
     0
 10
0.0
 20
0.0
 30
0.0
  3
block 58
  1

  0
POLYLINE
  5
21A
330
216
100
AcDbEntity
  8
3
370
     0
100
AcDb2dPolyline
 66
     1
 10
0.0
 20
0.0
 30
0.0
  0
VERTEX
  5
21B
330
21A
100
AcDbEntity
  8
3
370
     0
100
AcDbVertex
100
AcDb2dVertex
 10
6.895808249952753
 20
6.090892137549872
 30
0.0
  0
VERTEX
  5
21C
330
21A
100
AcDbEntity
  8
3
370
     0
100
AcDbVertex
100
AcDb2dVertex
 10
6.828045178294182
 20
6.079598292273444
 30
0.0
  0
VERTEX
  5
21D
330
21A
100
AcDbEntity
  8
3
370
     0
100
AcDbVertex
100
AcDb2dVertex
 10
6.895808249952753
 20
6.068304446997015
 30
0.0
  0
VERTEX
  5
21E
330
21A
100
AcDbEntity
  8
3
370
     0
100
AcDbVertex
100
AcDb2dVertex
 10
6.895808249952753
 20
6.090892137549872
 30
0.0
  0
SEQEND
  5
220
330
21A
100
AcDbEntity
  8
3
370
     0
  0
HATCH
  5
21F
330
216
100
AcDbEntity
  8
3
 62
     3
420
    65280
100
AcDbHatch
 10
0.0
 20
0.0
 30
0.0
210
0.0
220
0.0
230
1.0
  2
SOLID
 70
     1
 71
     0
 91
        1
 92
        1
 93
        3
 72
     1
 10
6.895808249952753
 20
6.090892137549872
 11
6.828045178294182
 21
6.079598292273444
 72
     1
 10
6.828045178294182
 20
6.079598292273444
 11
6.895808249952753
 21
6.068304446997015
 72
     1
 10
6.895808249952753
 20
6.068304446997015
 11
6.895808249952753
 21
6.090892137549872
 97
        0
 75
     2
 76
     1
 98
        0
  0
ENDBLK
  5
219
330
216
100
AcDbEntity
  8
0
100
AcDbBlockEnd
  0
BLOCK
  5
223
330
221
100
AcDbEntity
  8
0
100
AcDbBlockBegin
  2
block 59
 70
     0
 10
0.0
 20
0.0
 30
0.0
  3
block 59
  1

  0
MTEXT
  5
225
330
221
100
AcDbEntity
  8
3
 62
     3
420
    65280
100
AcDbMText
 10
6.961461385091146
 20
6.100076039632161
 30
0.0
 40
0.0677630734443664
 41
0.0
 46
0.0
 71
     7
 72
     1
  1
\fMyriad Pro|b0|i0|c0|p34;\W1;5 [1/4]
 73
     1
 44
1.0
  0
ENDBLK
  5
224
330
221
100
AcDbEntity
  8
0
100
AcDbBlockEnd
  0
BLOCK
  5
228
330
226
100
AcDbEntity
  8
0
100
AcDbBlockBegin
  2
block 60
 70
     0
 10
0.0
 20
0.0
 30
0.0
  3
block 60
  1

  0
POLYLINE
  5
22A
330
226
100
AcDbEntity
  8
3
 62
     3
420
    65280
370
    18
100
AcDb2dPolyline
 66
     1
 10
0.0
 20
0.0
 30
0.0
  0
VERTEX
  5
22B
330
22A
100
AcDbEntity
  8
3
 62
     3
420
    65280
370
    18
100
AcDbVertex
100
AcDb2dVertex
 10
1.19148714923713
 20
5.807893847157794
 30
0.0
  0
VERTEX
  5
22C
330
22A
100
AcDbEntity
  8
3
 62
     3
420
    65280
370
    18
100
AcDbVertex
100
AcDb2dVertex
 10
1.19148714923713
 20
6.055338451917085
 30
0.0
  0
SEQEND
  5
22D
330
22A
100
AcDbEntity
  8
3
 62
     3
420
    65280
370
    18
  0
ENDBLK
  5
229
330
226
100
AcDbEntity
  8
0
100
AcDbBlockEnd
  0
BLOCK
  5
230
330
22E
100
AcDbEntity
  8
0
100
AcDbBlockBegin
  2
block 61
 70
     0
 10
0.0
 20
0.0
 30
0.0
  3
block 61
  1

  0
POLYLINE
  5
232
330
22E
100
AcDbEntity
  8
3
 62
     3
420
    65280
370
    18
100
AcDb2dPolyline
 66
     1
 10
0.0
 20
0.0
 30
0.0
  0
VERTEX
  5
233
330
232
100
AcDbEntity
  8
3
 62
     3
420
    65280
370
    18
100
AcDbVertex
100
AcDb2dVertex
 10
1.165460147420213
 20
5.863867813502288
 30
0.0
  0
VERTEX
  5
234
330
232
100
AcDbEntity
  8
3
 62
     3
420
    65280
370
    18
100
AcDbVertex
100
AcDb2dVertex
 10
1.165460147420213
 20
6.055338451917085
 30
0.0
  0
SEQEND
  5
235
330
232
100
AcDbEntity
  8
3
 62
     3
420
    65280
370
    18
  0
ENDBLK
  5
231
330
22E
100
AcDbEntity
  8
0
100
AcDbBlockEnd
  0
BLOCK
  5
238
330
236
100
AcDbEntity
  8
0
100
AcDbBlockBegin
  2
block 62
 70
     0
 10
0.0
 20
0.0
 30
0.0
  3
block 62
  1

  0
POLYLINE
  5
23A
330
236
100
AcDbEntity
  8
3
 62
     3
420
    65280
370
    18
100
AcDb2dPolyline
 66
     1
 10
0.0
 20
0.0
 30
0.0
  0
VERTEX
  5
23B
330
23A
100
AcDbEntity
  8
3
 62
     3
420
    65280
370
    18
100
AcDbVertex
100
AcDb2dVertex
 10
1.259250220895726
 20
6.048822771949921
 30
0.0
  0
VERTEX
  5
23C
330
23A
100
AcDbEntity
  8
3
 62
     3
420
    65280
370
    18
100
AcDbVertex
100
AcDb2dVertex
 10
1.327013292554309
 20
6.048822771949921
 30
0.0
  0
SEQEND
  5
23D
330
23A
100
AcDbEntity
  8
3
 62
     3
420
    65280
370
    18
  0
ENDBLK
  5
239
330
236
100
AcDbEntity
  8
0
100
AcDbBlockEnd
  0
BLOCK
  5
240
330
23E
100
AcDbEntity
  8
0
100
AcDbBlockBegin
  2
block 63
 70
     0
 10
0.0
 20
0.0
 30
0.0
  3
block 63
  1

  0
POLYLINE
  5
242
330
23E
100
AcDbEntity
  8
3
 62
     3
420
    65280
370
    18
100
AcDb2dPolyline
 66
     1
 10
0.0
 20
0.0
 30
0.0
  0
VERTEX
  5
243
330
242
100
AcDbEntity
  8
3
 62
     3
420
    65280
370
    18
100
AcDbVertex
100
AcDb2dVertex
 10
1.09769707576163
 20
6.048822771949921
 30
0.0
  0
VERTEX
  5
244
330
242
100
AcDbEntity
  8
3
 62
     3
420
    65280
370
    18
100
AcDbVertex
100
AcDb2dVertex
 10
0.6146680008619114
 20
6.048822771949921
 30
0.0
  0
SEQEND
  5
245
330
242
100
AcDbEntity
  8
3
 62
     3
420
    65280
370
    18
  0
ENDBLK
  5
241
330
23E
100
AcDbEntity
  8
0
100
AcDbBlockEnd
  0
BLOCK
  5
248
330
246
100
AcDbEntity
  8
0
100
AcDbBlockBegin
  2
block 64
 70
     0
 10
0.0
 20
0.0
 30
0.0
  3
block 64
  1

  0
POLYLINE
  5
24A
330
246
100
AcDbEntity
  8
3
 62
     3
420
    65280
370
    18
100
AcDb2dPolyline
 66
     1
 10
0.0
 20
0.0
 30
0.0
  0
VERTEX
  5
24B
330
24A
100
AcDbEntity
  8
3
 62
     3
420
    65280
370
    18
100
AcDbVertex
100
AcDb2dVertex
 10
1.19148714923713
 20
6.048822771949921
 30
0.0
  0
VERTEX
  5
24C
330
24A
100
AcDbEntity
  8
3
 62
     3
420
    65280
370
    18
100
AcDbVertex
100
AcDb2dVertex
 10
1.165460147420213
 20
6.048822771949921
 30
0.0
  0
SEQEND
  5
24D
330
24A
100
AcDbEntity
  8
3
 62
     3
420
    65280
370
    18
  0
ENDBLK
  5
249
330
246
100
AcDbEntity
  8
0
100
AcDbBlockEnd
  0
BLOCK
  5
250
330
24E
100
AcDbEntity
  8
0
100
AcDbBlockBegin
  2
block 65
 70
     0
 10
0.0
 20
0.0
 30
0.0
  3
block 65
  1

  0
POLYLINE
  5
252
330
24E
100
AcDbEntity
  8
3
370
     0
100
AcDb2dPolyline
 66
     1
 10
0.0
 20
0.0
 30
0.0
  0
VERTEX
  5
253
330
252
100
AcDbEntity
  8
3
370
     0
100
AcDbVertex
100
AcDb2dVertex
 10
1.259250220895726
 20
6.06011661722635
 30
0.0
  0
VERTEX
  5
254
330
252
100
AcDbEntity
  8
3
370
     0
100
AcDbVertex
100
AcDb2dVertex
 10
1.19148714923713
 20
6.048822771949921
 30
0.0
  0
VERTEX
  5
255
330
252
100
AcDbEntity
  8
3
370
     0
100
AcDbVertex
100
AcDb2dVertex
 10
1.259250220895726
 20
6.03752892667348
 30
0.0
  0
VERTEX
  5
256
330
252
100
AcDbEntity
  8
3
370
     0
100
AcDbVertex
100
AcDb2dVertex
 10
1.259250220895726
 20
6.06011661722635
 30
0.0
  0
SEQEND
  5
258
330
252
100
AcDbEntity
  8
3
370
     0
  0
HATCH
  5
257
330
24E
100
AcDbEntity
  8
3
 62
     3
420
    65280
100
AcDbHatch
 10
0.0
 20
0.0
 30
0.0
210
0.0
220
0.0
230
1.0
  2
SOLID
 70
     1
 71
     0
 91
        1
 92
        1
 93
        3
 72
     1
 10
1.259250220895726
 20
6.06011661722635
 11
1.19148714923713
 21
6.048822771949921
 72
     1
 10
1.19148714923713
 20
6.048822771949921
 11
1.259250220895726
 21
6.03752892667348
 72
     1
 10
1.259250220895726
 20
6.03752892667348
 11
1.259250220895726
 21
6.06011661722635
 97
        0
 75
     2
 76
     1
 98
        0
  0
ENDBLK
  5
251
330
24E
100
AcDbEntity
  8
0
100
AcDbBlockEnd
  0
BLOCK
  5
25B
330
259
100
AcDbEntity
  8
0
100
AcDbBlockBegin
  2
block 66
 70
     0
 10
0.0
 20
0.0
 30
0.0
  3
block 66
  1

  0
POLYLINE
  5
25D
330
259
100
AcDbEntity
  8
3
370
     0
100
AcDb2dPolyline
 66
     1
 10
0.0
 20
0.0
 30
0.0
  0
VERTEX
  5
25E
330
25D
100
AcDbEntity
  8
3
370
     0
100
AcDbVertex
100
AcDb2dVertex
 10
1.09769707576163
 20
6.06011661722635
 30
0.0
  0
VERTEX
  5
25F
330
25D
100
AcDbEntity
  8
3
370
     0
100
AcDbVertex
100
AcDb2dVertex
 10
1.165460147420213
 20
6.048822771949921
 30
0.0
  0
VERTEX
  5
260
330
25D
100
AcDbEntity
  8
3
370
     0
100
AcDbVertex
100
AcDb2dVertex
 10
1.09769707576163
 20
6.03752892667348
 30
0.0
  0
VERTEX
  5
261
330
25D
100
AcDbEntity
  8
3
370
     0
100
AcDbVertex
100
AcDb2dVertex
 10
1.09769707576163
 20
6.06011661722635
 30
0.0
  0
SEQEND
  5
263
330
25D
100
AcDbEntity
  8
3
370
     0
  0
HATCH
  5
262
330
259
100
AcDbEntity
  8
3
 62
     3
420
    65280
100
AcDbHatch
 10
0.0
 20
0.0
 30
0.0
210
0.0
220
0.0
230
1.0
  2
SOLID
 70
     1
 71
     0
 91
        1
 92
        1
 93
        3
 72
     1
 10
1.09769707576163
 20
6.06011661722635
 11
1.165460147420213
 21
6.048822771949921
 72
     1
 10
1.165460147420213
 20
6.048822771949921
 11
1.09769707576163
 21
6.03752892667348
 72
     1
 10
1.09769707576163
 20
6.03752892667348
 11
1.09769707576163
 21
6.06011661722635
 97
        0
 75
     2
 76
     1
 98
        0
  0
ENDBLK
  5
25C
330
259
100
AcDbEntity
  8
0
100
AcDbBlockEnd
  0
BLOCK
  5
266
330
264
100
AcDbEntity
  8
0
100
AcDbBlockBegin
  2
block 67
 70
     0
 10
0.0
 20
0.0
 30
0.0
  3
block 67
  1

  0
MTEXT
  5
268
330
264
100
AcDbEntity
  8
3
 62
     3
420
    65280
100
AcDbMText
 10
0.6125581529405382
 20
6.069300757514106
 30
0.0
 40
0.0677630734443664
 41
0.0
 46
0.0
 71
     7
 72
     1
  1
\fMyriad Pro|b0|i0|c0|p34;\W1;5 [1/4]
 73
     1
 44
1.0
  0
ENDBLK
  5
267
330
264
100
AcDbEntity
  8
0
100
AcDbBlockEnd
  0
BLOCK
  5
26B
330
269
100
AcDbEntity
  8
0
100
AcDbBlockBegin
  2
block 68
 70
     0
 10
0.0
 20
0.0
 30
0.0
  3
block 68
  1

  0
POLYLINE
  5
26D
330
269
100
AcDbEntity
  8
3
370
     0
100
AcDb2dPolyline
 66
     1
 10
0.0
 20
0.0
 30
0.0
  0
VERTEX
  5
26E
330
26D
100
AcDbEntity
  8
3
370
     0
100
AcDbVertex
100
AcDb2dVertex
 10
5.978401027367428
 20
5.341022845725117
 30
0.0
  0
VERTEX
  5
26F
330
26D
100
AcDbEntity
  8
3
370
     0
100
AcDbVertex
100
AcDb2dVertex
 10
5.915850499682569
 20
5.351447933672589
 30
0.0
  0
VERTEX
  5
270
330
26D
100
AcDbEntity
  8
3
370
     0
100
AcDbVertex
100
AcDb2dVertex
 10
5.978401027367428
 20
5.361873021620062
 30
0.0
  0
VERTEX
  5
271
330
26D
100
AcDbEntity
  8
3
370
     0
100
AcDbVertex
100
AcDb2dVertex
 10
5.978401027367428
 20
5.341022845725117
 30
0.0
  0
SEQEND
  5
273
330
26D
100
AcDbEntity
  8
3
370
     0
  0
HATCH
  5
272
330
269
100
AcDbEntity
  8
3
 62
     3
420
    65280
100
AcDbHatch
 10
0.0
 20
0.0
 30
0.0
210
0.0
220
0.0
230
1.0
  2
SOLID
 70
     1
 71
     0
 91
        1
 92
        1
 93
        3
 72
     1
 10
5.978401027367428
 20
5.341022845725117
 11
5.915850499682569
 21
5.351447933672589
 72
     1
 10
5.915850499682569
 20
5.351447933672589
 11
5.978401027367428
 21
5.361873021620062
 72
     1
 10
5.978401027367428
 20
5.361873021620062
 11
5.978401027367428
 21
5.341022845725117
 97
        0
 75
     2
 76
     1
 98
        0
  0
POLYLINE
  5
274
330
269
100
AcDbEntity
  8
3
 62
     3
420
    65280
370
    18
100
AcDb2dPolyline
 66
     1
 10
0.0
 20
0.0
 30
0.0
  0
VERTEX
  5
275
330
274
100
AcDbEntity
  8
3
 62
     3
420
    65280
370
    18
100
AcDbVertex
100
AcDb2dVertex
 10
5.978401027367428
 20
5.351447933672589
 30
0.0
  0
VERTEX
  5
276
330
274
100
AcDbEntity
  8
3
 62
     3
420
    65280
370
    18
100
AcDbVertex
100
AcDb2dVertex
 10
6.683414267275439
 20
5.351447933672589
 30
0.0
  0
SEQEND
  5
277
330
274
100
AcDbEntity
  8
3
 62
     3
420
    65280
370
    18
  0
ENDBLK
  5
26C
330
269
100
AcDbEntity
  8
0
100
AcDbBlockEnd
  0
BLOCK
  5
27A
330
278
100
AcDbEntity
  8
0
100
AcDbBlockBegin
  2
block 69
 70
     0
 10
0.0
 20
0.0
 30
0.0
  3
block 69
  1

  0
POLYLINE
  5
27C
330
278
100
AcDbEntity
  8
3
370
     0
100
AcDb2dPolyline
 66
     1
 10
0.0
 20
0.0
 30
0.0
  0
VERTEX
  5
27D
330
27C
100
AcDbEntity
  8
3
370
     0
100
AcDbVertex
100
AcDb2dVertex
 10
1.943891991694272
 20
5.346235389698854
 30
0.0
  0
VERTEX
  5
27E
330
27C
100
AcDbEntity
  8
3
370
     0
100
AcDbVertex
100
AcDb2dVertex
 10
2.006442519379132
 20
5.335810301751381
 30
0.0
  0
VERTEX
  5
27F
330
27C
100
AcDbEntity
  8
3
370
     0
100
AcDbVertex
100
AcDb2dVertex
 10
1.943891991694272
 20
5.325385213803909
 30
0.0
  0
VERTEX
  5
280
330
27C
100
AcDbEntity
  8
3
370
     0
100
AcDbVertex
100
AcDb2dVertex
 10
1.943891991694272
 20
5.346235389698854
 30
0.0
  0
SEQEND
  5
282
330
27C
100
AcDbEntity
  8
3
370
     0
  0
HATCH
  5
281
330
278
100
AcDbEntity
  8
3
 62
     3
420
    65280
100
AcDbHatch
 10
0.0
 20
0.0
 30
0.0
210
0.0
220
0.0
230
1.0
  2
SOLID
 70
     1
 71
     0
 91
        1
 92
        1
 93
        3
 72
     1
 10
1.943891991694272
 20
5.346235389698854
 11
2.006442519379132
 21
5.335810301751381
 72
     1
 10
2.006442519379132
 20
5.335810301751381
 11
1.943891991694272
 21
5.325385213803909
 72
     1
 10
1.943891991694272
 20
5.325385213803909
 11
1.943891991694272
 21
5.346235389698854
 97
        0
 75
     2
 76
     1
 98
        0
  0
POLYLINE
  5
283
330
278
100
AcDbEntity
  8
3
 62
     3
420
    65280
370
    18
100
AcDb2dPolyline
 66
     1
 10
0.0
 20
0.0
 30
0.0
  0
VERTEX
  5
284
330
283
100
AcDbEntity
  8
3
 62
     3
420
    65280
370
    18
100
AcDbVertex
100
AcDb2dVertex
 10
1.943891991694272
 20
5.335810301751381
 30
0.0
  0
VERTEX
  5
285
330
283
100
AcDbEntity
  8
3
 62
     3
420
    65280
370
    18
100
AcDbVertex
100
AcDb2dVertex
 10
1.36515105148294
 20
5.335810301751381
 30
0.0
  0
SEQEND
  5
286
330
283
100
AcDbEntity
  8
3
 62
     3
420
    65280
370
    18
  0
ENDBLK
  5
27B
330
278
100
AcDbEntity
  8
0
100
AcDbBlockEnd
  0
BLOCK
  5
289
330
287
100
AcDbEntity
  8
0
100
AcDbBlockBegin
  2
block 70
 70
     0
 10
0.0
 20
0.0
 30
0.0
  3
block 70
  1

  0
MTEXT
  5
28B
330
287
100
AcDbEntity
  8
3
 62
     3
420
    65280
100
AcDbMText
 10
6.101317935519748
 20
5.444573296440972
 30
0.0
 40
0.0677630734443664
 41
0.0
 46
0.0
 71
     7
 72
     1
  1
\fMyriad Pro|b0|i0|c0|p34;\W1;Cut-Out
 73
     1
 44
1.0
  0
ENDBLK
  5
28A
330
287
100
AcDbEntity
  8
0
100
AcDbBlockEnd
  0
BLOCK
  5
28E
330
28C
100
AcDbEntity
  8
0
100
AcDbBlockBegin
  2
block 71
 70
     0
 10
0.0
 20
0.0
 30
0.0
  3
block 71
  1

  0
POLYLINE
  5
290
330
28C
100
AcDbEntity
  8
3
 62
     3
420
    65280
370
    18
100
AcDb2dPolyline
 66
     1
 10
0.0
 20
0.0
 30
0.0
  0
VERTEX
  5
291
330
290
100
AcDbEntity
  8
3
 62
     3
420
    65280
370
    18
100
AcDbVertex
100
AcDb2dVertex
 10
4.00284686132074
 20
6.391350456433302
 30
0.0
  0
VERTEX
  5
292
330
290
100
AcDbEntity
  8
3
 62
     3
420
    65280
370
    18
100
AcDbVertex
100
AcDb2dVertex
 10
7.491312029904115
 20
6.391350456433302
 30
0.0
  0
SEQEND
  5
293
330
290
100
AcDbEntity
  8
3
 62
     3
420
    65280
370
    18
  0
ENDBLK
  5
28F
330
28C
100
AcDbEntity
  8
0
100
AcDbBlockEnd
  0
BLOCK
  5
296
330
294
100
AcDbEntity
  8
0
100
AcDbBlockBegin
  2
block 72
 70
     0
 10
0.0
 20
0.0
 30
0.0
  3
block 72
  1

  0
POLYLINE
  5
298
330
294
100
AcDbEntity
  8
3
 62
     3
420
    65280
370
    18
100
AcDb2dPolyline
 66
     1
 10
0.0
 20
0.0
 30
0.0
  0
VERTEX
  5
299
330
298
100
AcDbEntity
  8
3
 62
     3
420
    65280
370
    18
100
AcDbVertex
100
AcDb2dVertex
 10
4.00284686132074
 20
4.280270147069435
 30
0.0
  0
VERTEX
  5
29A
330
298
100
AcDbEntity
  8
3
 62
     3
420
    65280
370
    18
100
AcDbVertex
100
AcDb2dVertex
 10
7.491312029904115
 20
4.280270147069435
 30
0.0
  0
SEQEND
  5
29B
330
298
100
AcDbEntity
  8
3
 62
     3
420
    65280
370
    18
  0
ENDBLK
  5
297
330
294
100
AcDbEntity
  8
0
100
AcDbBlockEnd
  0
BLOCK
  5
29E
330
29C
100
AcDbEntity
  8
0
100
AcDbBlockBegin
  2
block 73
 70
     0
 10
0.0
 20
0.0
 30
0.0
  3
block 73
  1

  0
POLYLINE
  5
2A0
330
29C
100
AcDbEntity
  8
3
 62
     3
420
    65280
370
    18
100
AcDb2dPolyline
 66
     1
 10
0.0
 20
0.0
 30
0.0
  0
VERTEX
  5
2A1
330
2A0
100
AcDbEntity
  8
3
 62
     3
420
    65280
370
    18
100
AcDbVertex
100
AcDb2dVertex
 10
7.484796349936939
 20
6.328799928748443
 30
0.0
  0
VERTEX
  5
2A2
330
2A0
100
AcDbEntity
  8
3
 62
     3
420
    65280
370
    18
100
AcDbVertex
100
AcDb2dVertex
 10
7.484796349936939
 20
4.342820674754295
 30
0.0
  0
SEQEND
  5
2A3
330
2A0
100
AcDbEntity
  8
3
 62
     3
420
    65280
370
    18
  0
ENDBLK
  5
29F
330
29C
100
AcDbEntity
  8
0
100
AcDbBlockEnd
  0
BLOCK
  5
2A6
330
2A4
100
AcDbEntity
  8
0
100
AcDbBlockBegin
  2
block 74
 70
     0
 10
0.0
 20
0.0
 30
0.0
  3
block 74
  1

  0
POLYLINE
  5
2A8
330
2A4
100
AcDbEntity
  8
3
370
     0
100
AcDb2dPolyline
 66
     1
 10
0.0
 20
0.0
 30
0.0
  0
VERTEX
  5
2A9
330
2A8
100
AcDbEntity
  8
3
370
     0
100
AcDbVertex
100
AcDb2dVertex
 10
7.474371261989467
 20
6.328799928748443
 30
0.0
  0
VERTEX
  5
2AA
330
2A8
100
AcDbEntity
  8
3
370
     0
100
AcDbVertex
100
AcDb2dVertex
 10
7.484796349936939
 20
6.391350456433302
 30
0.0
  0
VERTEX
  5
2AB
330
2A8
100
AcDbEntity
  8
3
370
     0
100
AcDbVertex
100
AcDb2dVertex
 10
7.495221437884411
 20
6.328799928748443
 30
0.0
  0
VERTEX
  5
2AC
330
2A8
100
AcDbEntity
  8
3
370
     0
100
AcDbVertex
100
AcDb2dVertex
 10
7.474371261989467
 20
6.328799928748443
 30
0.0
  0
SEQEND
  5
2AE
330
2A8
100
AcDbEntity
  8
3
370
     0
  0
HATCH
  5
2AD
330
2A4
100
AcDbEntity
  8
3
 62
     3
420
    65280
100
AcDbHatch
 10
0.0
 20
0.0
 30
0.0
210
0.0
220
0.0
230
1.0
  2
SOLID
 70
     1
 71
     0
 91
        1
 92
        1
 93
        3
 72
     1
 10
7.474371261989467
 20
6.328799928748443
 11
7.484796349936939
 21
6.391350456433302
 72
     1
 10
7.484796349936939
 20
6.391350456433302
 11
7.495221437884411
 21
6.328799928748443
 72
     1
 10
7.495221437884411
 20
6.328799928748443
 11
7.474371261989467
 21
6.328799928748443
 97
        0
 75
     2
 76
     1
 98
        0
  0
ENDBLK
  5
2A7
330
2A4
100
AcDbEntity
  8
0
100
AcDbBlockEnd
  0
BLOCK
  5
2B1
330
2AF
100
AcDbEntity
  8
0
100
AcDbBlockBegin
  2
block 75
 70
     0
 10
0.0
 20
0.0
 30
0.0
  3
block 75
  1

  0
POLYLINE
  5
2B3
330
2AF
100
AcDbEntity
  8
3
370
     0
100
AcDb2dPolyline
 66
     1
 10
0.0
 20
0.0
 30
0.0
  0
VERTEX
  5
2B4
330
2B3
100
AcDbEntity
  8
3
370
     0
100
AcDbVertex
100
AcDb2dVertex
 10
7.474371261989467
 20
4.342820674754295
 30
0.0
  0
VERTEX
  5
2B5
330
2B3
100
AcDbEntity
  8
3
370
     0
100
AcDbVertex
100
AcDb2dVertex
 10
7.484796349936939
 20
4.280270147069435
 30
0.0
  0
VERTEX
  5
2B6
330
2B3
100
AcDbEntity
  8
3
370
     0
100
AcDbVertex
100
AcDb2dVertex
 10
7.495221437884411
 20
4.342820674754295
 30
0.0
  0
VERTEX
  5
2B7
330
2B3
100
AcDbEntity
  8
3
370
     0
100
AcDbVertex
100
AcDb2dVertex
 10
7.474371261989467
 20
4.342820674754295
 30
0.0
  0
SEQEND
  5
2B9
330
2B3
100
AcDbEntity
  8
3
370
     0
  0
HATCH
  5
2B8
330
2AF
100
AcDbEntity
  8
3
 62
     3
420
    65280
100
AcDbHatch
 10
0.0
 20
0.0
 30
0.0
210
0.0
220
0.0
230
1.0
  2
SOLID
 70
     1
 71
     0
 91
        1
 92
        1
 93
        3
 72
     1
 10
7.474371261989467
 20
4.342820674754295
 11
7.484796349936939
 21
4.280270147069435
 72
     1
 10
7.484796349936939
 20
4.280270147069435
 11
7.495221437884411
 21
4.342820674754295
 72
     1
 10
7.495221437884411
 20
4.342820674754295
 11
7.474371261989467
 21
4.342820674754295
 97
        0
 75
     2
 76
     1
 98
        0
  0
ENDBLK
  5
2B2
330
2AF
100
AcDbEntity
  8
0
100
AcDbBlockEnd
  0
BLOCK
  5
2BC
330
2BA
100
AcDbEntity
  8
0
100
AcDbBlockBegin
  2
block 76
 70
     0
 10
0.0
 20
0.0
 30
0.0
  3
block 76
  1

  0
MTEXT
  5
2BE
330
2BA
100
AcDbEntity
  8
3
 62
     3
420
    65280
100
AcDbMText
 10
7.454265806410048
 20
5.115397135416666
 30
0.0
 40
0.0625505278905233
 41
0.0
 46
0.0
 71
     7
 72
     1
  1
\fMyriad Pro|b0|i0|c0|p34;\W1;405 [16]
 11
6.123233995736766E-17
 21
1.0
 31
0.0
 73
     1
 44
1.0
  0
ENDBLK
  5
2BD
330
2BA
100
AcDbEntity
  8
0
100
AcDbBlockEnd
  0
BLOCK
  5
2C1
330
2BF
100
AcDbEntity
  8
0
100
AcDbBlockBegin
  2
block 77
 70
     0
 10
0.0
 20
0.0
 30
0.0
  3
block 77
  1

  0
POLYLINE
  5
2C3
330
2BF
100
AcDbEntity
  8
3
 62
     3
420
    65280
370
    18
100
AcDb2dPolyline
 66
     1
 10
0.0
 20
0.0
 30
0.0
  0
VERTEX
  5
2C4
330
2C3
100
AcDbEntity
  8
3
 62
     3
420
    65280
370
    18
100
AcDbVertex
100
AcDb2dVertex
 10
4.00284686132074
 20
6.443475896170689
 30
0.0
  0
VERTEX
  5
2C5
330
2C3
100
AcDbEntity
  8
3
 62
     3
420
    65280
370
    18
100
AcDbVertex
100
AcDb2dVertex
 10
7.720278404289729
 20
6.443475896170677
 30
0.0
  0
SEQEND
  5
2C6
330
2C3
100
AcDbEntity
  8
3
 62
     3
420
    65280
370
    18
  0
ENDBLK
  5
2C2
330
2BF
100
AcDbEntity
  8
0
100
AcDbBlockEnd
  0
BLOCK
  5
2C9
330
2C7
100
AcDbEntity
  8
0
100
AcDbBlockBegin
  2
block 78
 70
     0
 10
0.0
 20
0.0
 30
0.0
  3
block 78
  1

  0
POLYLINE
  5
2CB
330
2C7
100
AcDbEntity
  8
3
 62
     3
420
    65280
370
    18
100
AcDb2dPolyline
 66
     1
 10
0.0
 20
0.0
 30
0.0
  0
VERTEX
  5
2CC
330
2CB
100
AcDbEntity
  8
3
 62
     3
420
    65280
370
    18
100
AcDbVertex
100
AcDb2dVertex
 10
4.00284686132074
 20
4.228144707332072
 30
0.0
  0
VERTEX
  5
2CD
330
2CB
100
AcDbEntity
  8
3
 62
     3
420
    65280
370
    18
100
AcDbVertex
100
AcDb2dVertex
 10
7.720278404289729
 20
4.228144707332048
 30
0.0
  0
SEQEND
  5
2CE
330
2CB
100
AcDbEntity
  8
3
 62
     3
420
    65280
370
    18
  0
ENDBLK
  5
2CA
330
2C7
100
AcDbEntity
  8
0
100
AcDbBlockEnd
  0
BLOCK
  5
2D1
330
2CF
100
AcDbEntity
  8
0
100
AcDbBlockBegin
  2
block 79
 70
     0
 10
0.0
 20
0.0
 30
0.0
  3
block 79
  1

  0
POLYLINE
  5
2D3
330
2CF
100
AcDbEntity
  8
3
 62
     3
420
    65280
370
    18
100
AcDb2dPolyline
 66
     1
 10
0.0
 20
0.0
 30
0.0
  0
VERTEX
  5
2D4
330
2D3
100
AcDbEntity
  8
3
 62
     3
420
    65280
370
    18
100
AcDbVertex
100
AcDb2dVertex
 10
7.713762724322552
 20
6.38092536848583
 30
0.0
  0
VERTEX
  5
2D5
330
2D3
100
AcDbEntity
  8
3
 62
     3
420
    65280
370
    18
100
AcDbVertex
100
AcDb2dVertex
 10
7.713762724322552
 20
4.290695235016907
 30
0.0
  0
SEQEND
  5
2D6
330
2D3
100
AcDbEntity
  8
3
 62
     3
420
    65280
370
    18
  0
ENDBLK
  5
2D2
330
2CF
100
AcDbEntity
  8
0
100
AcDbBlockEnd
  0
BLOCK
  5
2D9
330
2D7
100
AcDbEntity
  8
0
100
AcDbBlockBegin
  2
block 80
 70
     0
 10
0.0
 20
0.0
 30
0.0
  3
block 80
  1

  0
POLYLINE
  5
2DB
330
2D7
100
AcDbEntity
  8
3
370
     0
100
AcDb2dPolyline
 66
     1
 10
0.0
 20
0.0
 30
0.0
  0
VERTEX
  5
2DC
330
2DB
100
AcDbEntity
  8
3
370
     0
100
AcDbVertex
100
AcDb2dVertex
 10
7.70333763637508
 20
6.38092536848583
 30
0.0
  0
VERTEX
  5
2DD
330
2DB
100
AcDbEntity
  8
3
370
     0
100
AcDbVertex
100
AcDb2dVertex
 10
7.713762724322552
 20
6.443475896170677
 30
0.0
  0
VERTEX
  5
2DE
330
2DB
100
AcDbEntity
  8
3
370
     0
100
AcDbVertex
100
AcDb2dVertex
 10
7.724187812270024
 20
6.38092536848583
 30
0.0
  0
VERTEX
  5
2DF
330
2DB
100
AcDbEntity
  8
3
370
     0
100
AcDbVertex
100
AcDb2dVertex
 10
7.70333763637508
 20
6.38092536848583
 30
0.0
  0
SEQEND
  5
2E1
330
2DB
100
AcDbEntity
  8
3
370
     0
  0
HATCH
  5
2E0
330
2D7
100
AcDbEntity
  8
3
 62
     3
420
    65280
100
AcDbHatch
 10
0.0
 20
0.0
 30
0.0
210
0.0
220
0.0
230
1.0
  2
SOLID
 70
     1
 71
     0
 91
        1
 92
        1
 93
        3
 72
     1
 10
7.70333763637508
 20
6.38092536848583
 11
7.713762724322552
 21
6.443475896170677
 72
     1
 10
7.713762724322552
 20
6.443475896170677
 11
7.724187812270024
 21
6.38092536848583
 72
     1
 10
7.724187812270024
 20
6.38092536848583
 11
7.70333763637508
 21
6.38092536848583
 97
        0
 75
     2
 76
     1
 98
        0
  0
ENDBLK
  5
2DA
330
2D7
100
AcDbEntity
  8
0
100
AcDbBlockEnd
  0
BLOCK
  5
2E4
330
2E2
100
AcDbEntity
  8
0
100
AcDbBlockBegin
  2
block 81
 70
     0
 10
0.0
 20
0.0
 30
0.0
  3
block 81
  1

  0
POLYLINE
  5
2E6
330
2E2
100
AcDbEntity
  8
3
370
     0
100
AcDb2dPolyline
 66
     1
 10
0.0
 20
0.0
 30
0.0
  0
VERTEX
  5
2E7
330
2E6
100
AcDbEntity
  8
3
370
     0
100
AcDbVertex
100
AcDb2dVertex
 10
7.70333763637508
 20
4.290695235016907
 30
0.0
  0
VERTEX
  5
2E8
330
2E6
100
AcDbEntity
  8
3
370
     0
100
AcDbVertex
100
AcDb2dVertex
 10
7.713762724322552
 20
4.228144707332048
 30
0.0
  0
VERTEX
  5
2E9
330
2E6
100
AcDbEntity
  8
3
370
     0
100
AcDbVertex
100
AcDb2dVertex
 10
7.724187812270024
 20
4.290695235016907
 30
0.0
  0
VERTEX
  5
2EA
330
2E6
100
AcDbEntity
  8
3
370
     0
100
AcDbVertex
100
AcDb2dVertex
 10
7.70333763637508
 20
4.290695235016907
 30
0.0
  0
SEQEND
  5
2EC
330
2E6
100
AcDbEntity
  8
3
370
     0
  0
HATCH
  5
2EB
330
2E2
100
AcDbEntity
  8
3
 62
     3
420
    65280
100
AcDbHatch
 10
0.0
 20
0.0
 30
0.0
210
0.0
220
0.0
230
1.0
  2
SOLID
 70
     1
 71
     0
 91
        1
 92
        1
 93
        3
 72
     1
 10
7.70333763637508
 20
4.290695235016907
 11
7.713762724322552
 21
4.228144707332048
 72
     1
 10
7.713762724322552
 20
4.228144707332048
 11
7.724187812270024
 21
4.290695235016907
 72
     1
 10
7.724187812270024
 20
4.290695235016907
 11
7.70333763637508
 21
4.290695235016907
 97
        0
 75
     2
 76
     1
 98
        0
  0
ENDBLK
  5
2E5
330
2E2
100
AcDbEntity
  8
0
100
AcDbBlockEnd
  0
BLOCK
  5
2EF
330
2ED
100
AcDbEntity
  8
0
100
AcDbBlockBegin
  2
block 82
 70
     0
 10
0.0
 20
0.0
 30
0.0
  3
block 82
  1

  0
MTEXT
  5
2F1
330
2ED
100
AcDbEntity
  8
3
 62
     3
420
    65280
100
AcDbMText
 10
7.683232201470268
 20
4.991780598958333
 30
0.0
 40
0.0625505278905233
 41
0.0
 46
0.0
 71
     7
 72
     1
  1
\fMyriad Pro|b0|i0|c0|p34;\W1;425 [16 3/4]
 11
6.123233995736766E-17
 21
1.0
 31
0.0
 73
     1
 44
1.0
  0
ENDBLK
  5
2F0
330
2ED
100
AcDbEntity
  8
0
100
AcDbBlockEnd
  0
BLOCK
  5
2F4
330
2F2
100
AcDbEntity
  8
0
100
AcDbBlockBegin
  2
block 83
 70
     0
 10
0.0
 20
0.0
 30
0.0
  3
block 83
  1

  0
POLYLINE
  5
2F6
330
2F2
100
AcDbEntity
  8
3
 62
     3
420
    65280
370
    18
100
AcDb2dPolyline
 66
     1
 10
0.0
 20
0.0
 30
0.0
  0
VERTEX
  5
2F7
330
2F6
100
AcDbEntity
  8
3
 62
     3
420
    65280
370
    18
100
AcDbVertex
100
AcDb2dVertex
 10
8.498366013071896
 20
2.671796064471714
 30
0.0
  0
VERTEX
  5
2F8
330
2F6
100
AcDbEntity
  8
3
 62
     3
420
    65280
370
    18
100
AcDbVertex
100
AcDb2dVertex
 10
0.0016339869281031
 20
2.671796064471714
 30
0.0
  0
VERTEX
  5
2F9
330
2F6
100
AcDbEntity
  8
3
 62
     3
420
    65280
370
    18
100
AcDbVertex
100
AcDb2dVertex
 10
0.0016339869281031
 20
8.328203935528284
 30
0.0
  0
VERTEX
  5
2FA
330
2F6
100
AcDbEntity
  8
3
 62
     3
420
    65280
370
    18
100
AcDbVertex
100
AcDb2dVertex
 10
8.498366013071896
 20
8.328203935528284
 30
0.0
  0
VERTEX
  5
2FB
330
2F6
100
AcDbEntity
  8
3
 62
     3
420
    65280
370
    18
100
AcDbVertex
100
AcDb2dVertex
 10
8.498366013071896
 20
2.671796064471714
 30
0.0
  0
SEQEND
  5
2FC
330
2F6
100
AcDbEntity
  8
3
 62
     3
420
    65280
370
    18
  0
ENDBLK
  5
2F5
330
2F2
100
AcDbEntity
  8
0
100
AcDbBlockEnd
  0
BLOCK
  5
300
330
2FE
100
AcDbEntity
  8
0
100
AcDbBlockBegin
  2
block 84
 70
     0
 10
0.0
 20
0.0
 30
0.0
  3
block 84
  1

  0
POLYLINE
  5
302
330
2FE
100
AcDbEntity
  8
Defpoints
370
     0
100
AcDb2dPolyline
 66
     1
 10
0.0
 20
0.0
 30
0.0
  0
VERTEX
  5
303
330
302
100
AcDbEntity
  8
Defpoints
370
     0
100
AcDbVertex
100
AcDb2dVertex
 10
2.058567959116506
 20
5.335810301751381
 30
0.0
  0
VERTEX
  5
304
330
302
100
AcDbEntity
  8
Defpoints
370
     0
100
AcDbVertex
100
AcDb2dVertex
 10
2.058567959116506
 20
5.335810301751381
 30
0.0
  0
SEQEND
  5
305
330
302
100
AcDbEntity
  8
Defpoints
370
     0
  0
ENDBLK
  5
301
330
2FE
100
AcDbEntity
  8
0
100
AcDbBlockEnd
  0
BLOCK
  5
308
330
306
100
AcDbEntity
  8
0
100
AcDbBlockBegin
  2
block 85
 70
     0
 10
0.0
 20
0.0
 30
0.0
  3
block 85
  1

  0
POLYLINE
  5
30A
330
306
100
AcDbEntity
  8
Defpoints
370
     0
100
AcDb2dPolyline
 66
     1
 10
0.0
 20
0.0
 30
0.0
  0
VERTEX
  5
30B
330
30A
100
AcDbEntity
  8
Defpoints
370
     0
100
AcDbVertex
100
AcDb2dVertex
 10
5.915850499682569
 20
5.335810301751381
 30
0.0
  0
VERTEX
  5
30C
330
30A
100
AcDbEntity
  8
Defpoints
370
     0
100
AcDbVertex
100
AcDb2dVertex
 10
5.915850499682569
 20
5.335810301751381
 30
0.0
  0
SEQEND
  5
30D
330
30A
100
AcDbEntity
  8
Defpoints
370
     0
  0
ENDBLK
  5
309
330
306
100
AcDbEntity
  8
0
100
AcDbBlockEnd
  0
BLOCK
  5
310
330
30E
100
AcDbEntity
  8
0
100
AcDbBlockBegin
  2
block 86
 70
     0
 10
0.0
 20
0.0
 30
0.0
  3
block 86
  1

  0
POLYLINE
  5
312
330
30E
100
AcDbEntity
  8
Defpoints
370
     0
100
AcDb2dPolyline
 66
     1
 10
0.0
 20
0.0
 30
0.0
  0
VERTEX
  5
313
330
312
100
AcDbEntity
  8
Defpoints
370
     0
100
AcDbVertex
100
AcDb2dVertex
 10
5.915850499682569
 20
6.612658193862242
 30
0.0
  0
VERTEX
  5
314
330
312
100
AcDbEntity
  8
Defpoints
370
     0
100
AcDbVertex
100
AcDb2dVertex
 10
5.915850499682569
 20
6.612658193862242
 30
0.0
  0
SEQEND
  5
315
330
312
100
AcDbEntity
  8
Defpoints
370
     0
  0
ENDBLK
  5
311
330
30E
100
AcDbEntity
  8
0
100
AcDbBlockEnd
  0
BLOCK
  5
318
330
316
100
AcDbEntity
  8
0
100
AcDbBlockBegin
  2
block 87
 70
     0
 10
0.0
 20
0.0
 30
0.0
  3
block 87
  1

  0
POLYLINE
  5
31A
330
316
100
AcDbEntity
  8
Defpoints
370
     0
100
AcDb2dPolyline
 66
     1
 10
0.0
 20
0.0
 30
0.0
  0
VERTEX
  5
31B
330
31A
100
AcDbEntity
  8
Defpoints
370
     0
100
AcDbVertex
100
AcDb2dVertex
 10
2.006442519379132
 20
5.335810301751381
 30
0.0
  0
VERTEX
  5
31C
330
31A
100
AcDbEntity
  8
Defpoints
370
     0
100
AcDbVertex
100
AcDb2dVertex
 10
2.006442519379132
 20
5.335810301751381
 30
0.0
  0
SEQEND
  5
31D
330
31A
100
AcDbEntity
  8
Defpoints
370
     0
  0
ENDBLK
  5
319
330
316
100
AcDbEntity
  8
0
100
AcDbBlockEnd
  0
BLOCK
  5
320
330
31E
100
AcDbEntity
  8
0
100
AcDbBlockBegin
  2
block 88
 70
     0
 10
0.0
 20
0.0
 30
0.0
  3
block 88
  1

  0
POLYLINE
  5
322
330
31E
100
AcDbEntity
  8
Defpoints
370
     0
100
AcDb2dPolyline
 66
     1
 10
0.0
 20
0.0
 30
0.0
  0
VERTEX
  5
323
330
322
100
AcDbEntity
  8
Defpoints
370
     0
100
AcDbVertex
100
AcDb2dVertex
 10
5.967975939419956
 20
5.335810301751381
 30
0.0
  0
VERTEX
  5
324
330
322
100
AcDbEntity
  8
Defpoints
370
     0
100
AcDbVertex
100
AcDb2dVertex
 10
5.967975939419956
 20
5.335810301751381
 30
0.0
  0
SEQEND
  5
325
330
322
100
AcDbEntity
  8
Defpoints
370
     0
  0
ENDBLK
  5
321
330
31E
100
AcDbEntity
  8
0
100
AcDbBlockEnd
  0
BLOCK
  5
328
330
326
100
AcDbEntity
  8
0
100
AcDbBlockBegin
  2
block 89
 70
     0
 10
0.0
 20
0.0
 30
0.0
  3
block 89
  1

  0
POLYLINE
  5
32A
330
326
100
AcDbEntity
  8
Defpoints
370
     0
100
AcDb2dPolyline
 66
     1
 10
0.0
 20
0.0
 30
0.0
  0
VERTEX
  5
32B
330
32A
100
AcDbEntity
  8
Defpoints
370
     0
100
AcDbVertex
100
AcDb2dVertex
 10
5.967975939419956
 20
6.820515452399162
 30
0.0
  0
VERTEX
  5
32C
330
32A
100
AcDbEntity
  8
Defpoints
370
     0
100
AcDbVertex
100
AcDb2dVertex
 10
5.967975939419956
 20
6.820515452399162
 30
0.0
  0
SEQEND
  5
32D
330
32A
100
AcDbEntity
  8
Defpoints
370
     0
  0
ENDBLK
  5
329
330
326
100
AcDbEntity
  8
0
100
AcDbBlockEnd
  0
BLOCK
  5
330
330
32E
100
AcDbEntity
  8
0
100
AcDbBlockBegin
  2
block 90
 70
     0
 10
0.0
 20
0.0
 30
0.0
  3
block 90
  1

  0
POLYLINE
  5
332
330
32E
100
AcDbEntity
  8
Defpoints
370
     0
100
AcDb2dPolyline
 66
     1
 10
0.0
 20
0.0
 30
0.0
  0
VERTEX
  5
333
330
332
100
AcDbEntity
  8
Defpoints
370
     0
100
AcDbVertex
100
AcDb2dVertex
 10
6.828045178294182
 20
5.773324707970207
 30
0.0
  0
VERTEX
  5
334
330
332
100
AcDbEntity
  8
Defpoints
370
     0
100
AcDbVertex
100
AcDb2dVertex
 10
6.828045178294182
 20
5.773324707970207
 30
0.0
  0
SEQEND
  5
335
330
332
100
AcDbEntity
  8
Defpoints
370
     0
  0
ENDBLK
  5
331
330
32E
100
AcDbEntity
  8
0
100
AcDbBlockEnd
  0
BLOCK
  5
338
330
336
100
AcDbEntity
  8
0
100
AcDbBlockBegin
  2
block 91
 70
     0
 10
0.0
 20
0.0
 30
0.0
  3
block 91
  1

  0
POLYLINE
  5
33A
330
336
100
AcDbEntity
  8
Defpoints
370
     0
100
AcDb2dPolyline
 66
     1
 10
0.0
 20
0.0
 30
0.0
  0
VERTEX
  5
33B
330
33A
100
AcDbEntity
  8
Defpoints
370
     0
100
AcDbVertex
100
AcDb2dVertex
 10
6.801982458425477
 20
5.860573938157131
 30
0.0
  0
VERTEX
  5
33C
330
33A
100
AcDbEntity
  8
Defpoints
370
     0
100
AcDbVertex
100
AcDb2dVertex
 10
6.801982458425477
 20
5.860573938157131
 30
0.0
  0
SEQEND
  5
33D
330
33A
100
AcDbEntity
  8
Defpoints
370
     0
  0
ENDBLK
  5
339
330
336
100
AcDbEntity
  8
0
100
AcDbBlockEnd
  0
BLOCK
  5
340
330
33E
100
AcDbEntity
  8
0
100
AcDbBlockBegin
  2
block 92
 70
     0
 10
0.0
 20
0.0
 30
0.0
  3
block 92
  1

  0
POLYLINE
  5
342
330
33E
100
AcDbEntity
  8
Defpoints
370
     0
100
AcDb2dPolyline
 66
     1
 10
0.0
 20
0.0
 30
0.0
  0
VERTEX
  5
343
330
342
100
AcDbEntity
  8
Defpoints
370
     0
100
AcDbVertex
100
AcDb2dVertex
 10
6.801982458425477
 20
6.079598292273444
 30
0.0
  0
VERTEX
  5
344
330
342
100
AcDbEntity
  8
Defpoints
370
     0
100
AcDbVertex
100
AcDb2dVertex
 10
6.801982458425477
 20
6.079598292273444
 30
0.0
  0
SEQEND
  5
345
330
342
100
AcDbEntity
  8
Defpoints
370
     0
  0
ENDBLK
  5
341
330
33E
100
AcDbEntity
  8
0
100
AcDbBlockEnd
  0
BLOCK
  5
348
330
346
100
AcDbEntity
  8
0
100
AcDbBlockBegin
  2
block 93
 70
     0
 10
0.0
 20
0.0
 30
0.0
  3
block 93
  1

  0
POLYLINE
  5
34A
330
346
100
AcDbEntity
  8
Defpoints
370
     0
100
AcDb2dPolyline
 66
     1
 10
0.0
 20
0.0
 30
0.0
  0
VERTEX
  5
34B
330
34A
100
AcDbEntity
  8
Defpoints
370
     0
100
AcDbVertex
100
AcDb2dVertex
 10
1.19148714923713
 20
5.7818311272891
 30
0.0
  0
VERTEX
  5
34C
330
34A
100
AcDbEntity
  8
Defpoints
370
     0
100
AcDbVertex
100
AcDb2dVertex
 10
1.19148714923713
 20
5.7818311272891
 30
0.0
  0
SEQEND
  5
34D
330
34A
100
AcDbEntity
  8
Defpoints
370
     0
  0
ENDBLK
  5
349
330
346
100
AcDbEntity
  8
0
100
AcDbBlockEnd
  0
BLOCK
  5
350
330
34E
100
AcDbEntity
  8
0
100
AcDbBlockBegin
  2
block 94
 70
     0
 10
0.0
 20
0.0
 30
0.0
  3
block 94
  1

  0
POLYLINE
  5
352
330
34E
100
AcDbEntity
  8
Defpoints
370
     0
100
AcDb2dPolyline
 66
     1
 10
0.0
 20
0.0
 30
0.0
  0
VERTEX
  5
353
330
352
100
AcDbEntity
  8
Defpoints
370
     0
100
AcDbVertex
100
AcDb2dVertex
 10
1.165460147420213
 20
5.837805093633606
 30
0.0
  0
VERTEX
  5
354
330
352
100
AcDbEntity
  8
Defpoints
370
     0
100
AcDbVertex
100
AcDb2dVertex
 10
1.165460147420213
 20
5.837805093633606
 30
0.0
  0
SEQEND
  5
355
330
352
100
AcDbEntity
  8
Defpoints
370
     0
  0
ENDBLK
  5
351
330
34E
100
AcDbEntity
  8
0
100
AcDbBlockEnd
  0
BLOCK
  5
358
330
356
100
AcDbEntity
  8
0
100
AcDbBlockBegin
  2
block 95
 70
     0
 10
0.0
 20
0.0
 30
0.0
  3
block 95
  1

  0
POLYLINE
  5
35A
330
356
100
AcDbEntity
  8
Defpoints
370
     0
100
AcDb2dPolyline
 66
     1
 10
0.0
 20
0.0
 30
0.0
  0
VERTEX
  5
35B
330
35A
100
AcDbEntity
  8
Defpoints
370
     0
100
AcDbVertex
100
AcDb2dVertex
 10
1.165460147420213
 20
6.048822771949921
 30
0.0
  0
VERTEX
  5
35C
330
35A
100
AcDbEntity
  8
Defpoints
370
     0
100
AcDbVertex
100
AcDb2dVertex
 10
1.165460147420213
 20
6.048822771949921
 30
0.0
  0
SEQEND
  5
35D
330
35A
100
AcDbEntity
  8
Defpoints
370
     0
  0
ENDBLK
  5
359
330
356
100
AcDbEntity
  8
0
100
AcDbBlockEnd
  0
BLOCK
  5
360
330
35E
100
AcDbEntity
  8
0
100
AcDbBlockBegin
  2
block 96
 70
     0
 10
0.0
 20
0.0
 30
0.0
  3
block 96
  1

  0
POLYLINE
  5
362
330
35E
100
AcDbEntity
  8
Defpoints
370
     0
100
AcDb2dPolyline
 66
     1
 10
0.0
 20
0.0
 30
0.0
  0
VERTEX
  5
363
330
362
100
AcDbEntity
  8
Defpoints
370
     0
100
AcDbVertex
100
AcDb2dVertex
 10
3.987209229399531
 20
6.391350456433302
 30
0.0
  0
VERTEX
  5
364
330
362
100
AcDbEntity
  8
Defpoints
370
     0
100
AcDbVertex
100
AcDb2dVertex
 10
3.987209229399531
 20
6.391350456433302
 30
0.0
  0
SEQEND
  5
365
330
362
100
AcDbEntity
  8
Defpoints
370
     0
  0
ENDBLK
  5
361
330
35E
100
AcDbEntity
  8
0
100
AcDbBlockEnd
  0
BLOCK
  5
368
330
366
100
AcDbEntity
  8
0
100
AcDbBlockBegin
  2
block 97
 70
     0
 10
0.0
 20
0.0
 30
0.0
  3
block 97
  1

  0
POLYLINE
  5
36A
330
366
100
AcDbEntity
  8
Defpoints
370
     0
100
AcDb2dPolyline
 66
     1
 10
0.0
 20
0.0
 30
0.0
  0
VERTEX
  5
36B
330
36A
100
AcDbEntity
  8
Defpoints
370
     0
100
AcDbVertex
100
AcDb2dVertex
 10
3.987209229399531
 20
4.280270147069435
 30
0.0
  0
VERTEX
  5
36C
330
36A
100
AcDbEntity
  8
Defpoints
370
     0
100
AcDbVertex
100
AcDb2dVertex
 10
3.987209229399531
 20
4.280270147069435
 30
0.0
  0
SEQEND
  5
36D
330
36A
100
AcDbEntity
  8
Defpoints
370
     0
  0
ENDBLK
  5
369
330
366
100
AcDbEntity
  8
0
100
AcDbBlockEnd
  0
BLOCK
  5
370
330
36E
100
AcDbEntity
  8
0
100
AcDbBlockBegin
  2
block 98
 70
     0
 10
0.0
 20
0.0
 30
0.0
  3
block 98
  1

  0
POLYLINE
  5
372
330
36E
100
AcDbEntity
  8
Defpoints
370
     0
100
AcDb2dPolyline
 66
     1
 10
0.0
 20
0.0
 30
0.0
  0
VERTEX
  5
373
330
372
100
AcDbEntity
  8
Defpoints
370
     0
100
AcDbVertex
100
AcDb2dVertex
 10
7.484796349936939
 20
4.280270147069435
 30
0.0
  0
VERTEX
  5
374
330
372
100
AcDbEntity
  8
Defpoints
370
     0
100
AcDbVertex
100
AcDb2dVertex
 10
7.484796349936939
 20
4.280270147069435
 30
0.0
  0
SEQEND
  5
375
330
372
100
AcDbEntity
  8
Defpoints
370
     0
  0
ENDBLK
  5
371
330
36E
100
AcDbEntity
  8
0
100
AcDbBlockEnd
  0
BLOCK
  5
378
330
376
100
AcDbEntity
  8
0
100
AcDbBlockBegin
  2
block 99
 70
     0
 10
0.0
 20
0.0
 30
0.0
  3
block 99
  1

  0
POLYLINE
  5
37A
330
376
100
AcDbEntity
  8
Defpoints
370
     0
100
AcDb2dPolyline
 66
     1
 10
0.0
 20
0.0
 30
0.0
  0
VERTEX
  5
37B
330
37A
100
AcDbEntity
  8
Defpoints
370
     0
100
AcDbVertex
100
AcDb2dVertex
 10
3.987209229399531
 20
6.443475896170689
 30
0.0
  0
VERTEX
  5
37C
330
37A
100
AcDbEntity
  8
Defpoints
370
     0
100
AcDbVertex
100
AcDb2dVertex
 10
3.987209229399531
 20
6.443475896170689
 30
0.0
  0
SEQEND
  5
37D
330
37A
100
AcDbEntity
  8
Defpoints
370
     0
  0
ENDBLK
  5
379
330
376
100
AcDbEntity
  8
0
100
AcDbBlockEnd
  0
BLOCK
  5
380
330
37E
100
AcDbEntity
  8
0
100
AcDbBlockBegin
  2
block 100
 70
     0
 10
0.0
 20
0.0
 30
0.0
  3
block 100
  1

  0
POLYLINE
  5
382
330
37E
100
AcDbEntity
  8
Defpoints
370
     0
100
AcDb2dPolyline
 66
     1
 10
0.0
 20
0.0
 30
0.0
  0
VERTEX
  5
383
330
382
100
AcDbEntity
  8
Defpoints
370
     0
100
AcDbVertex
100
AcDb2dVertex
 10
3.987209229399531
 20
4.228144707332072
 30
0.0
  0
VERTEX
  5
384
330
382
100
AcDbEntity
  8
Defpoints
370
     0
100
AcDbVertex
100
AcDb2dVertex
 10
3.987209229399531
 20
4.228144707332072
 30
0.0
  0
SEQEND
  5
385
330
382
100
AcDbEntity
  8
Defpoints
370
     0
  0
ENDBLK
  5
381
330
37E
100
AcDbEntity
  8
0
100
AcDbBlockEnd
  0
BLOCK
  5
388
330
386
100
AcDbEntity
  8
0
100
AcDbBlockBegin
  2
block 101
 70
     0
 10
0.0
 20
0.0
 30
0.0
  3
block 101
  1

  0
POLYLINE
  5
38A
330
386
100
AcDbEntity
  8
Defpoints
370
     0
100
AcDb2dPolyline
 66
     1
 10
0.0
 20
0.0
 30
0.0
  0
VERTEX
  5
38B
330
38A
100
AcDbEntity
  8
Defpoints
370
     0
100
AcDbVertex
100
AcDb2dVertex
 10
7.713762724322552
 20
4.228144707332048
 30
0.0
  0
VERTEX
  5
38C
330
38A
100
AcDbEntity
  8
Defpoints
370
     0
100
AcDbVertex
100
AcDb2dVertex
 10
7.713762724322552
 20
4.228144707332048
 30
0.0
  0
SEQEND
  5
38D
330
38A
100
AcDbEntity
  8
Defpoints
370
     0
  0
ENDBLK
  5
389
330
386
100
AcDbEntity
  8
0
100
AcDbBlockEnd
  0
ENDSEC
  0
SECTION
  2
ENTITIES
  0
INSERT
  5
42
330
1F
100
AcDbEntity
  8
2
100
AcDbBlockReference
  2
block 2
 10
0.0
 20
0.0
 30
0.0
  0
INSERT
  5
47
330
1F
100
AcDbEntity
  8
2
100
AcDbBlockReference
  2
block 3
 10
0.0
 20
0.0
 30
0.0
  0
INSERT
  5
4C
330
1F
100
AcDbEntity
  8
2
100
AcDbBlockReference
  2
block 4
 10
0.0
 20
0.0
 30
0.0
  0
INSERT
  5
51
330
1F
100
AcDbEntity
  8
2
100
AcDbBlockReference
  2
block 5
 10
0.0
 20
0.0
 30
0.0
  0
INSERT
  5
56
330
1F
100
AcDbEntity
  8
2
100
AcDbBlockReference
  2
block 6
 10
0.0
 20
0.0
 30
0.0
  0
INSERT
  5
5B
330
1F
100
AcDbEntity
  8
2
100
AcDbBlockReference
  2
block 7
 10
0.0
 20
0.0
 30
0.0
  0
INSERT
  5
60
330
1F
100
AcDbEntity
  8
2
100
AcDbBlockReference
  2
block 8
 10
0.0
 20
0.0
 30
0.0
  0
INSERT
  5
65
330
1F
100
AcDbEntity
  8
2
100
AcDbBlockReference
  2
block 9
 10
0.0
 20
0.0
 30
0.0
  0
INSERT
  5
6A
330
1F
100
AcDbEntity
  8
2
100
AcDbBlockReference
  2
block 10
 10
0.0
 20
0.0
 30
0.0
  0
INSERT
  5
A3
330
1F
100
AcDbEntity
  8
2
100
AcDbBlockReference
  2
block 11
 10
0.0
 20
0.0
 30
0.0
  0
INSERT
  5
AB
330
1F
100
AcDbEntity
  8
2
100
AcDbBlockReference
  2
block 12
 10
0.0
 20
0.0
 30
0.0
  0
INSERT
  5
B0
330
1F
100
AcDbEntity
  8
2
100
AcDbBlockReference
  2
block 13
 10
0.0
 20
0.0
 30
0.0
  0
INSERT
  5
B5
330
1F
100
AcDbEntity
  8
2
100
AcDbBlockReference
  2
block 14
 10
0.0
 20
0.0
 30
0.0
  0
INSERT
  5
BD
330
1F
100
AcDbEntity
  8
2
100
AcDbBlockReference
  2
block 15
 10
0.0
 20
0.0
 30
0.0
  0
INSERT
  5
C2
330
1F
100
AcDbEntity
  8
2
100
AcDbBlockReference
  2
block 16
 10
0.0
 20
0.0
 30
0.0
  0
INSERT
  5
C7
330
1F
100
AcDbEntity
  8
2
100
AcDbBlockReference
  2
block 17
 10
0.0
 20
0.0
 30
0.0
  0
INSERT
  5
CF
330
1F
100
AcDbEntity
  8
2
100
AcDbBlockReference
  2
block 18
 10
0.0
 20
0.0
 30
0.0
  0
INSERT
  5
D7
330
1F
100
AcDbEntity
  8
2
100
AcDbBlockReference
  2
block 19
 10
0.0
 20
0.0
 30
0.0
  0
INSERT
  5
DC
330
1F
100
AcDbEntity
  8
2
100
AcDbBlockReference
  2
block 20
 10
0.0
 20
0.0
 30
0.0
  0
INSERT
  5
E1
330
1F
100
AcDbEntity
  8
2
100
AcDbBlockReference
  2
block 21
 10
0.0
 20
0.0
 30
0.0
  0
INSERT
  5
10E
330
1F
100
AcDbEntity
  8
2
100
AcDbBlockReference
  2
block 22
 10
0.0
 20
0.0
 30
0.0
  0
INSERT
  5
116
330
1F
100
AcDbEntity
  8
2
100
AcDbBlockReference
  2
block 23
 10
0.0
 20
0.0
 30
0.0
  0
INSERT
  5
11E
330
1F
100
AcDbEntity
  8
2
100
AcDbBlockReference
  2
block 24
 10
0.0
 20
0.0
 30
0.0
  0
INSERT
  5
123
330
1F
100
AcDbEntity
  8
2
100
AcDbBlockReference
  2
block 25
 10
0.0
 20
0.0
 30
0.0
  0
INSERT
  5
12B
330
1F
100
AcDbEntity
  8
2
100
AcDbBlockReference
  2
block 26
 10
0.0
 20
0.0
 30
0.0
  0
INSERT
  5
130
330
1F
100
AcDbEntity
  8
2
100
AcDbBlockReference
  2
block 27
 10
0.0
 20
0.0
 30
0.0
  0
INSERT
  5
135
330
1F
100
AcDbEntity
  8
2
100
AcDbBlockReference
  2
block 28
 10
0.0
 20
0.0
 30
0.0
  0
INSERT
  5
13D
330
1F
100
AcDbEntity
  8
2
100
AcDbBlockReference
  2
block 29
 10
0.0
 20
0.0
 30
0.0
  0
INSERT
  5
142
330
1F
100
AcDbEntity
  8
2
100
AcDbBlockReference
  2
block 30
 10
0.0
 20
0.0
 30
0.0
  0
INSERT
  5
148
330
1F
100
AcDbEntity
  8
1
100
AcDbBlockReference
  2
block 31
 10
0.0
 20
0.0
 30
0.0
  0
INSERT
  5
14E
330
1F
100
AcDbEntity
  8
1
100
AcDbBlockReference
  2
block 32
 10
0.0
 20
0.0
 30
0.0
  0
INSERT
  5
154
330
1F
100
AcDbEntity
  8
1
100
AcDbBlockReference
  2
block 33
 10
0.0
 20
0.0
 30
0.0
  0
INSERT
  5
15A
330
1F
100
AcDbEntity
  8
1
100
AcDbBlockReference
  2
block 34
 10
0.0
 20
0.0
 30
0.0
  0
INSERT
  5
160
330
1F
100
AcDbEntity
  8
1
100
AcDbBlockReference
  2
block 35
 10
0.0
 20
0.0
 30
0.0
  0
INSERT
  5
166
330
1F
100
AcDbEntity
  8
1
100
AcDbBlockReference
  2
block 36
 10
0.0
 20
0.0
 30
0.0
  0
INSERT
  5
16C
330
1F
100
AcDbEntity
  8
1
100
AcDbBlockReference
  2
block 37
 10
0.0
 20
0.0
 30
0.0
  0
INSERT
  5
172
330
1F
100
AcDbEntity
  8
1
100
AcDbBlockReference
  2
block 38
 10
0.0
 20
0.0
 30
0.0
  0
INSERT
  5
179
330
1F
100
AcDbEntity
  8
3
100
AcDbBlockReference
  2
block 39
 10
0.0
 20
0.0
 30
0.0
  0
INSERT
  5
181
330
1F
100
AcDbEntity
  8
3
100
AcDbBlockReference
  2
block 40
 10
0.0
 20
0.0
 30
0.0
  0
INSERT
  5
189
330
1F
100
AcDbEntity
  8
3
100
AcDbBlockReference
  2
block 41
 10
0.0
 20
0.0
 30
0.0
  0
INSERT
  5
191
330
1F
100
AcDbEntity
  8
3
100
AcDbBlockReference
  2
block 42
 10
0.0
 20
0.0
 30
0.0
  0
INSERT
  5
19C
330
1F
100
AcDbEntity
  8
3
100
AcDbBlockReference
  2
block 43
 10
0.0
 20
0.0
 30
0.0
  0
INSERT
  5
1A7
330
1F
100
AcDbEntity
  8
3
100
AcDbBlockReference
  2
block 44
 10
0.0
 20
0.0
 30
0.0
  0
INSERT
  5
1AC
330
1F
100
AcDbEntity
  8
3
100
AcDbBlockReference
  2
block 45
 10
0.0
 20
0.0
 30
0.0
  0
INSERT
  5
1B4
330
1F
100
AcDbEntity
  8
3
100
AcDbBlockReference
  2
block 46
 10
0.0
 20
0.0
 30
0.0
  0
INSERT
  5
1BC
330
1F
100
AcDbEntity
  8
3
100
AcDbBlockReference
  2
block 47
 10
0.0
 20
0.0
 30
0.0
  0
INSERT
  5
1C4
330
1F
100
AcDbEntity
  8
3
100
AcDbBlockReference
  2
block 48
 10
0.0
 20
0.0
 30
0.0
  0
INSERT
  5
1CF
330
1F
100
AcDbEntity
  8
3
100
AcDbBlockReference
  2
block 49
 10
0.0
 20
0.0
 30
0.0
  0
INSERT
  5
1DA
330
1F
100
AcDbEntity
  8
3
100
AcDbBlockReference
  2
block 50
 10
0.0
 20
0.0
 30
0.0
  0
INSERT
  5
1DF
330
1F
100
AcDbEntity
  8
3
100
AcDbBlockReference
  2
block 51
 10
0.0
 20
0.0
 30
0.0
  0
INSERT
  5
1E4
330
1F
100
AcDbEntity
  8
3
100
AcDbBlockReference
  2
block 52
 10
0.0
 20
0.0
 30
0.0
  0
INSERT
  5
1EC
330
1F
100
AcDbEntity
  8
3
100
AcDbBlockReference
  2
block 53
 10
0.0
 20
0.0
 30
0.0
  0
INSERT
  5
1F4
330
1F
100
AcDbEntity
  8
3
100
AcDbBlockReference
  2
block 54
 10
0.0
 20
0.0
 30
0.0
  0
INSERT
  5
1FC
330
1F
100
AcDbEntity
  8
3
100
AcDbBlockReference
  2
block 55
 10
0.0
 20
0.0
 30
0.0
  0
INSERT
  5
204
330
1F
100
AcDbEntity
  8
3
100
AcDbBlockReference
  2
block 56
 10
0.0
 20
0.0
 30
0.0
  0
INSERT
  5
20C
330
1F
100
AcDbEntity
  8
3
100
AcDbBlockReference
  2
block 57
 10
0.0
 20
0.0
 30
0.0
  0
INSERT
  5
217
330
1F
100
AcDbEntity
  8
3
100
AcDbBlockReference
  2
block 58
 10
0.0
 20
0.0
 30
0.0
  0
INSERT
  5
222
330
1F
100
AcDbEntity
  8
3
100
AcDbBlockReference
  2
block 59
 10
0.0
 20
0.0
 30
0.0
  0
INSERT
  5
227
330
1F
100
AcDbEntity
  8
3
100
AcDbBlockReference
  2
block 60
 10
0.0
 20
0.0
 30
0.0
  0
INSERT
  5
22F
330
1F
100
AcDbEntity
  8
3
100
AcDbBlockReference
  2
block 61
 10
0.0
 20
0.0
 30
0.0
  0
INSERT
  5
237
330
1F
100
AcDbEntity
  8
3
100
AcDbBlockReference
  2
block 62
 10
0.0
 20
0.0
 30
0.0
  0
INSERT
  5
23F
330
1F
100
AcDbEntity
  8
3
100
AcDbBlockReference
  2
block 63
 10
0.0
 20
0.0
 30
0.0
  0
INSERT
  5
247
330
1F
100
AcDbEntity
  8
3
100
AcDbBlockReference
  2
block 64
 10
0.0
 20
0.0
 30
0.0
  0
INSERT
  5
24F
330
1F
100
AcDbEntity
  8
3
100
AcDbBlockReference
  2
block 65
 10
0.0
 20
0.0
 30
0.0
  0
INSERT
  5
25A
330
1F
100
AcDbEntity
  8
3
100
AcDbBlockReference
  2
block 66
 10
0.0
 20
0.0
 30
0.0
  0
INSERT
  5
265
330
1F
100
AcDbEntity
  8
3
100
AcDbBlockReference
  2
block 67
 10
0.0
 20
0.0
 30
0.0
  0
INSERT
  5
26A
330
1F
100
AcDbEntity
  8
3
100
AcDbBlockReference
  2
block 68
 10
0.0
 20
0.0
 30
0.0
  0
INSERT
  5
279
330
1F
100
AcDbEntity
  8
3
100
AcDbBlockReference
  2
block 69
 10
0.0
 20
0.0
 30
0.0
  0
INSERT
  5
288
330
1F
100
AcDbEntity
  8
3
100
AcDbBlockReference
  2
block 70
 10
0.0
 20
0.0
 30
0.0
  0
INSERT
  5
28D
330
1F
100
AcDbEntity
  8
3
100
AcDbBlockReference
  2
block 71
 10
0.0
 20
0.0
 30
0.0
  0
INSERT
  5
295
330
1F
100
AcDbEntity
  8
3
100
AcDbBlockReference
  2
block 72
 10
0.0
 20
0.0
 30
0.0
  0
INSERT
  5
29D
330
1F
100
AcDbEntity
  8
3
100
AcDbBlockReference
  2
block 73
 10
0.0
 20
0.0
 30
0.0
  0
INSERT
  5
2A5
330
1F
100
AcDbEntity
  8
3
100
AcDbBlockReference
  2
block 74
 10
0.0
 20
0.0
 30
0.0
  0
INSERT
  5
2B0
330
1F
100
AcDbEntity
  8
3
100
AcDbBlockReference
  2
block 75
 10
0.0
 20
0.0
 30
0.0
  0
INSERT
  5
2BB
330
1F
100
AcDbEntity
  8
3
100
AcDbBlockReference
  2
block 76
 10
0.0
 20
0.0
 30
0.0
  0
INSERT
  5
2C0
330
1F
100
AcDbEntity
  8
3
100
AcDbBlockReference
  2
block 77
 10
0.0
 20
0.0
 30
0.0
  0
INSERT
  5
2C8
330
1F
100
AcDbEntity
  8
3
100
AcDbBlockReference
  2
block 78
 10
0.0
 20
0.0
 30
0.0
  0
INSERT
  5
2D0
330
1F
100
AcDbEntity
  8
3
100
AcDbBlockReference
  2
block 79
 10
0.0
 20
0.0
 30
0.0
  0
INSERT
  5
2D8
330
1F
100
AcDbEntity
  8
3
100
AcDbBlockReference
  2
block 80
 10
0.0
 20
0.0
 30
0.0
  0
INSERT
  5
2E3
330
1F
100
AcDbEntity
  8
3
100
AcDbBlockReference
  2
block 81
 10
0.0
 20
0.0
 30
0.0
  0
INSERT
  5
2EE
330
1F
100
AcDbEntity
  8
3
100
AcDbBlockReference
  2
block 82
 10
0.0
 20
0.0
 30
0.0
  0
INSERT
  5
2F3
330
1F
100
AcDbEntity
  8
3
100
AcDbBlockReference
  2
block 83
 10
0.0
 20
0.0
 30
0.0
  0
INSERT
  5
2FF
330
1F
100
AcDbEntity
  8
Defpoints
100
AcDbBlockReference
  2
block 84
 10
0.0
 20
0.0
 30
0.0
  0
INSERT
  5
307
330
1F
100
AcDbEntity
  8
Defpoints
100
AcDbBlockReference
  2
block 85
 10
0.0
 20
0.0
 30
0.0
  0
INSERT
  5
30F
330
1F
100
AcDbEntity
  8
Defpoints
100
AcDbBlockReference
  2
block 86
 10
0.0
 20
0.0
 30
0.0
  0
INSERT
  5
317
330
1F
100
AcDbEntity
  8
Defpoints
100
AcDbBlockReference
  2
block 87
 10
0.0
 20
0.0
 30
0.0
  0
INSERT
  5
31F
330
1F
100
AcDbEntity
  8
Defpoints
100
AcDbBlockReference
  2
block 88
 10
0.0
 20
0.0
 30
0.0
  0
INSERT
  5
327
330
1F
100
AcDbEntity
  8
Defpoints
100
AcDbBlockReference
  2
block 89
 10
0.0
 20
0.0
 30
0.0
  0
INSERT
  5
32F
330
1F
100
AcDbEntity
  8
Defpoints
100
AcDbBlockReference
  2
block 90
 10
0.0
 20
0.0
 30
0.0
  0
INSERT
  5
337
330
1F
100
AcDbEntity
  8
Defpoints
100
AcDbBlockReference
  2
block 91
 10
0.0
 20
0.0
 30
0.0
  0
INSERT
  5
33F
330
1F
100
AcDbEntity
  8
Defpoints
100
AcDbBlockReference
  2
block 92
 10
0.0
 20
0.0
 30
0.0
  0
INSERT
  5
347
330
1F
100
AcDbEntity
  8
Defpoints
100
AcDbBlockReference
  2
block 93
 10
0.0
 20
0.0
 30
0.0
  0
INSERT
  5
34F
330
1F
100
AcDbEntity
  8
Defpoints
100
AcDbBlockReference
  2
block 94
 10
0.0
 20
0.0
 30
0.0
  0
INSERT
  5
357
330
1F
100
AcDbEntity
  8
Defpoints
100
AcDbBlockReference
  2
block 95
 10
0.0
 20
0.0
 30
0.0
  0
INSERT
  5
35F
330
1F
100
AcDbEntity
  8
Defpoints
100
AcDbBlockReference
  2
block 96
 10
0.0
 20
0.0
 30
0.0
  0
INSERT
  5
367
330
1F
100
AcDbEntity
  8
Defpoints
100
AcDbBlockReference
  2
block 97
 10
0.0
 20
0.0
 30
0.0
  0
INSERT
  5
36F
330
1F
100
AcDbEntity
  8
Defpoints
100
AcDbBlockReference
  2
block 98
 10
0.0
 20
0.0
 30
0.0
  0
INSERT
  5
377
330
1F
100
AcDbEntity
  8
Defpoints
100
AcDbBlockReference
  2
block 99
 10
0.0
 20
0.0
 30
0.0
  0
INSERT
  5
37F
330
1F
100
AcDbEntity
  8
Defpoints
100
AcDbBlockReference
  2
block 100
 10
0.0
 20
0.0
 30
0.0
  0
INSERT
  5
387
330
1F
100
AcDbEntity
  8
Defpoints
100
AcDbBlockReference
  2
block 101
 10
0.0
 20
0.0
 30
0.0
  0
ENDSEC
  0
SECTION
  2
OBJECTS
  0
DICTIONARY
  5
C
330
0
100
AcDbDictionary
281
     1
  3
ACAD_GROUP
350
D
  3
ACAD_LAYOUT
350
1A
  3
ACAD_MATERIAL
350
3B
  3
ACAD_MLEADERSTYLE
350
38F
  3
ACAD_MLINESTYLE
350
17
  3
ACAD_PLOTSETTINGS
350
19
  3
ACAD_PLOTSTYLENAME
350
E
  3
ACAD_TABLESTYLE
350
38E
  3
ACAD_VISUALSTYLE
350
2A
  0
SUN
  5
3F
330
29
100
AcDbSun
 90
        1
290
     0
 63
     7
421
 16777215
 40
1.0
291
     1
 91
  2455826
 92
 54000000
292
     0
 70
     2
 71
   256
280
     1
  0
DICTIONARY
  5
D
102
{ACAD_REACTORS
330
C
102
}
330
C
100
AcDbDictionary
281
     1
  0
DICTIONARY
  5
1A
102
{ACAD_REACTORS
330
C
102
}
330
C
100
AcDbDictionary
281
     1
  3
Layout1
350
1E
  3
Layout2
350
26
  3
Model
350
22
  0
DICTIONARY
  5
3B
102
{ACAD_REACTORS
330
C
102
}
330
C
100
AcDbDictionary
281
     1
  3
ByBlock
350
3D
  3
ByLayer
350
3C
  3
Global
350
3E
  0
DICTIONARY
  5
38F
102
{ACAD_REACTORS
330
C
102
}
330
C
100
AcDbDictionary
281
     1
  0
DICTIONARY
  5
17
102
{ACAD_REACTORS
330
C
102
}
330
C
100
AcDbDictionary
281
     1
  3
Standard
350
18
  0
DICTIONARY
  5
19
102
{ACAD_REACTORS
330
C
102
}
330
C
100
AcDbDictionary
281
     1
  0
ACDBDICTIONARYWDFLT
  5
E
102
{ACAD_REACTORS
330
C
102
}
330
C
100
AcDbDictionary
281
     1
  3
Normal
350
F
100
AcDbDictionaryWithDefault
340
F
  0
DICTIONARY
  5
38E
102
{ACAD_REACTORS
330
C
102
}
330
C
100
AcDbDictionary
281
     1
  0
DICTIONARY
  5
2A
102
{ACAD_REACTORS
330
C
102
}
330
C
100
AcDbDictionary
281
     1
  3
2dWireframe
350
2F
  3
3D Hidden
350
31
  3
3dWireframe
350
30
  3
Basic
350
32
  3
Brighten
350
36
  3
ColorChange
350
3A
  3
Conceptual
350
34
  3
Dim
350
35
  3
Facepattern
350
39
  3
Flat
350
2B
  3
FlatWithEdges
350
2C
  3
Gouraud
350
2D
  3
GouraudWithEdges
350
2E
  3
Linepattern
350
38
  3
Realistic
350
33
  3
Thicken
350
37
  0
LAYOUT
  5
1E
102
{ACAD_REACTORS
330
1A
102
}
330
1A
100
AcDbPlotSettings
  1

  2
none_device
  4

  6

 40
0.0
 41
0.0
 42
0.0
 43
0.0
 44
0.0
 45
0.0
 46
0.0
 47
0.0
 48
0.0
 49
0.0
140
0.0
141
0.0
142
1.0
143
1.0
 70
   688
 72
     0
 73
     0
 74
     5
  7

 75
    16
 76
     0
 77
     2
 78
   300
147
1.0
148
0.0
149
0.0
100
AcDbLayout
  1
Layout1
 70
     1
 71
     1
 10
0.0
 20
0.0
 11
12.0
 21
9.0
 12
0.0
 22
0.0
 32
0.0
 14
1.000000000000000E+20
 24
1.000000000000000E+20
 34
1.000000000000000E+20
 15
-1.000000000000000E+20
 25
-1.000000000000000E+20
 35
-1.000000000000000E+20
146
0.0
 13
0.0
 23
0.0
 33
0.0
 16
1.0
 26
0.0
 36
0.0
 17
0.0
 27
1.0
 37
0.0
 76
     0
330
1B
  0
LAYOUT
  5
26
102
{ACAD_REACTORS
330
1A
102
}
330
1A
100
AcDbPlotSettings
  1

  2
none_device
  4

  6

 40
0.0
 41
0.0
 42
0.0
 43
0.0
 44
0.0
 45
0.0
 46
0.0
 47
0.0
 48
0.0
 49
0.0
140
0.0
141
0.0
142
1.0
143
1.0
 70
   688
 72
     0
 73
     0
 74
     5
  7

 75
    16
 76
     0
 77
     2
 78
   300
147
1.0
148
0.0
149
0.0
100
AcDbLayout
  1
Layout2
 70
     1
 71
     2
 10
0.0
 20
0.0
 11
0.0
 21
0.0
 12
0.0
 22
0.0
 32
0.0
 14
0.0
 24
0.0
 34
0.0
 15
0.0
 25
0.0
 35
0.0
146
0.0
 13
0.0
 23
0.0
 33
0.0
 16
1.0
 26
0.0
 36
0.0
 17
0.0
 27
1.0
 37
0.0
 76
     0
330
23
  0
LAYOUT
  5
22
102
{ACAD_REACTORS
330
1A
102
}
330
1A
100
AcDbPlotSettings
  1

  2
none_device
  4

  6

 40
0.0
 41
0.0
 42
0.0
 43
0.0
 44
0.0
 45
0.0
 46
0.0
 47
0.0
 48
0.0
 49
0.0
140
0.0
141
0.0
142
1.0
143
1.0
 70
  1712
 72
     0
 73
     0
 74
     0
  7

 75
     0
 76
     0
 77
     2
 78
   300
147
1.0
148
0.0
149
0.0
100
AcDbLayout
  1
Model
 70
     1
 71
     0
 10
0.0
 20
0.0
 11
12.0
 21
9.0
 12
0.0
 22
0.0
 32
0.0
 14
1.000000000000000E+20
 24
1.000000000000000E+20
 34
1.000000000000000E+20
 15
-1.000000000000000E+20
 25
-1.000000000000000E+20
 35
-1.000000000000000E+20
146
0.0
 13
0.0
 23
0.0
 33
0.0
 16
1.0
 26
0.0
 36
0.0
 17
0.0
 27
1.0
 37
0.0
 76
     0
330
1F
331
29
  0
MATERIAL
  5
3D
102
{ACAD_REACTORS
330
3B
102
}
330
3B
100
AcDbMaterial
  1
ByBlock
 72
     1
 94
      127
  0
MATERIAL
  5
3C
102
{ACAD_REACTORS
330
3B
102
}
330
3B
100
AcDbMaterial
  1
ByLayer
 72
     1
 94
      127
  0
MATERIAL
  5
3E
102
{ACAD_REACTORS
330
3B
102
}
330
3B
100
AcDbMaterial
  1
Global
 72
     1
 94
      127
  0
MLINESTYLE
  5
18
102
{ACAD_REACTORS
330
17
102
}
330
17
100
AcDbMlineStyle
  2
Standard
 70
     0
  3

 62
   256
 51
90.0
 52
90.0
 71
     2
 49
0.5
 62
   256
  6
BYLAYER
 49
-0.5
 62
   256
  6
BYLAYER
  0
ACDBPLACEHOLDER
  5
F
102
{ACAD_REACTORS
330
E
102
}
330
E
  0
VISUALSTYLE
  5
2F
102
{ACAD_REACTORS
330
2A
102
}
330
2A
100
AcDbVisualStyle
  2
2dWireframe
 70
     4
177
     2
291
     0
 71
     0
176
     1
 72
     2
176
     1
 73
     0
176
     1
 90
        0
176
     1
 40
-0.6
176
     1
 41
-30.0
176
     1
 62
     5
 63
     7
421
 16777215
176
     1
 74
     1
176
     1
 91
        4
176
     1
 64
     7
176
     1
 65
   257
176
     1
 75
     1
176
     1
175
     1
176
     1
 42
1.0
176
     1
 92
        0
176
     1
 66
   257
176
     1
 43
1.0
176
     1
 76
     1
176
     1
 77
     6
176
     1
 78
     2
176
     1
 67
     7
176
     1
 79
     5
176
     1
170
     0
176
     1
171
     0
176
     1
290
     0
176
     1
 93
        1
176
     1
 44
0.0
176
     1
173
     0
176
     1
  0
VISUALSTYLE
  5
31
102
{ACAD_REACTORS
330
2A
102
}
330
2A
100
AcDbVisualStyle
  2
3D Hidden
 70
     6
177
     2
291
     0
 71
     1
176
     1
 72
     2
176
     1
 73
     2
176
     1
 90
        0
176
     1
 40
-0.6
176
     1
 41
-30.0
176
     1
 62
     5
 63
     7
421
 16777215
176
     1
 74
     2
176
     1
 91
        2
176
     1
 64
     7
176
     1
 65
   257
176
     1
 75
     2
176
     1
175
     1
176
     1
 42
40.0
176
     1
 92
        0
176
     1
 66
   257
176
     1
 43
1.0
176
     1
 76
     1
176
     1
 77
     6
176
     1
 78
     2
176
     1
 67
     7
176
     1
 79
     3
176
     1
170
     0
176
     1
171
     0
176
     1
290
     0
176
     1
 93
        1
176
     1
 44
0.0
176
     1
173
     0
176
     1
  0
VISUALSTYLE
  5
30
102
{ACAD_REACTORS
330
2A
102
}
330
2A
100
AcDbVisualStyle
  2
3dWireframe
 70
     5
177
     2
291
     0
 71
     0
176
     1
 72
     2
176
     1
 73
     0
176
     1
 90
        0
176
     1
 40
-0.6
176
     1
 41
-30.0
176
     1
 62
     5
 63
     7
421
 16777215
176
     1
 74
     1
176
     1
 91
        4
176
     1
 64
     7
176
     1
 65
   257
176
     1
 75
     1
176
     1
175
     1
176
     1
 42
1.0
176
     1
 92
        0
176
     1
 66
   257
176
     1
 43
1.0
176
     1
 76
     1
176
     1
 77
     6
176
     1
 78
     2
176
     1
 67
     7
176
     1
 79
     5
176
     1
170
     0
176
     1
171
     0
176
     1
290
     0
176
     1
 93
        1
176
     1
 44
0.0
176
     1
173
     0
176
     1
  0
VISUALSTYLE
  5
32
102
{ACAD_REACTORS
330
2A
102
}
330
2A
100
AcDbVisualStyle
  2
Basic
 70
     7
177
     2
291
     1
 71
     1
176
     1
 72
     0
176
     1
 73
     1
176
     1
 90
        0
176
     1
 40
-0.6
176
     1
 41
-30.0
176
     1
 62
     5
 63
     7
421
 16777215
176
     1
 74
     0
176
     1
 91
        4
176
     1
 64
     7
176
     1
 65
   257
176
     1
 75
     1
176
     1
175
     1
176
     1
 42
1.0
176
     1
 92
        8
176
     1
 66
     7
176
     1
 43
1.0
176
     1
 76
     1
176
     1
 77
     6
176
     1
 78
     2
176
     1
 67
     7
176
     1
 79
     5
176
     1
170
     0
176
     1
171
     0
176
     1
290
     0
176
     1
 93
        1
176
     1
 44
0.0
176
     1
173
     0
176
     1
  0
VISUALSTYLE
  5
36
102
{ACAD_REACTORS
330
2A
102
}
330
2A
100
AcDbVisualStyle
  2
Brighten
 70
    12
177
     2
291
     1
 71
     2
176
     1
 72
     2
176
     1
 73
     0
176
     1
 90
        0
176
     1
 40
-0.6
176
     1
 41
-30.0
176
     1
 62
     5
 63
     7
421
 16777215
176
     1
 74
     1
176
     1
 91
        4
176
     1
 64
     7
176
     1
 65
   257
176
     1
 75
     1
176
     1
175
     1
176
     1
 42
1.0
176
     1
 92
        8
176
     1
 66
     7
176
     1
 43
1.0
176
     1
 76
     1
176
     1
 77
     6
176
     1
 78
     2
176
     1
 67
     7
176
     1
 79
     5
176
     1
170
     0
176
     1
171
     0
176
     1
290
     0
176
     1
 93
        1
176
     1
 44
50.0
176
     1
173
     0
176
     1
  0
VISUALSTYLE
  5
3A
102
{ACAD_REACTORS
330
2A
102
}
330
2A
100
AcDbVisualStyle
  2
ColorChange
 70
    16
177
     2
291
     1
 71
     2
176
     1
 72
     2
176
     1
 73
     3
176
     1
 90
        0
176
     1
 40
-0.6
176
     1
 41
-30.0
176
     1
 62
     5
 63
     8
421
  8421504
176
     1
 74
     1
176
     1
 91
        4
176
     1
 64
     7
176
     1
 65
   257
176
     1
 75
     1
176
     1
175
     1
176
     1
 42
1.0
176
     1
 92
        8
176
     1
 66
     8
424
  8421504
176
     1
 43
1.0
176
     1
 76
     1
176
     1
 77
     6
176
     1
 78
     2
176
     1
 67
     7
176
     1
 79
     5
176
     1
170
     0
176
     1
171
     0
176
     1
290
     0
176
     1
 93
        1
176
     1
 44
0.0
176
     1
173
     0
176
     1
  0
VISUALSTYLE
  5
34
102
{ACAD_REACTORS
330
2A
102
}
330
2A
100
AcDbVisualStyle
  2
Conceptual
 70
     9
177
     2
291
     0
 71
     3
176
     1
 72
     2
176
     1
 73
     0
176
     1
 90
        0
176
     1
 40
-0.6
176
     1
 41
-30.0
176
     1
 62
     5
 63
     7
421
 16777215
176
     1
 74
     2
176
     1
 91
        2
176
     1
 64
     7
176
     1
 65
   257
176
     1
 75
     1
176
     1
175
     1
176
     1
 42
40.0
176
     1
 92
        8
176
     1
 66
     7
176
     1
 43
1.0
176
     1
 76
     1
176
     1
 77
     6
176
     1
 78
     2
176
     1
 67
     7
176
     1
 79
     3
176
     1
170
     0
176
     1
171
     0
176
     1
290
     0
176
     1
 93
        1
176
     1
 44
0.0
176
     1
173
     0
176
     1
  0
VISUALSTYLE
  5
35
102
{ACAD_REACTORS
330
2A
102
}
330
2A
100
AcDbVisualStyle
  2
Dim
 70
    11
177
     2
291
     1
 71
     2
176
     1
 72
     2
176
     1
 73
     0
176
     1
 90
        0
176
     1
 40
-0.6
176
     1
 41
-30.0
176
     1
 62
     5
 63
     7
421
 16777215
176
     1
 74
     1
176
     1
 91
        4
176
     1
 64
     7
176
     1
 65
   257
176
     1
 75
     1
176
     1
175
     1
176
     1
 42
1.0
176
     1
 92
        8
176
     1
 66
     7
176
     1
 43
1.0
176
     1
 76
     1
176
     1
 77
     6
176
     1
 78
     2
176
     1
 67
     7
176
     1
 79
     5
176
     1
170
     0
176
     1
171
     0
176
     1
290
     0
176
     1
 93
        1
176
     1
 44
-50.0
176
     1
173
     0
176
     1
  0
VISUALSTYLE
  5
39
102
{ACAD_REACTORS
330
2A
102
}
330
2A
100
AcDbVisualStyle
  2
Facepattern
 70
    15
177
     2
291
     1
 71
     2
176
     1
 72
     2
176
     1
 73
     0
176
     1
 90
        0
176
     1
 40
-0.6
176
     1
 41
-30.0
176
     1
 62
     5
 63
     7
421
 16777215
176
     1
 74
     1
176
     1
 91
        4
176
     1
 64
     7
176
     1
 65
   257
176
     1
 75
     1
176
     1
175
     1
176
     1
 42
1.0
176
     1
 92
        8
176
     1
 66
     7
176
     1
 43
1.0
176
     1
 76
     1
176
     1
 77
     6
176
     1
 78
     2
176
     1
 67
     7
176
     1
 79
     5
176
     1
170
     0
176
     1
171
     0
176
     1
290
     0
176
     1
 93
        1
176
     1
 44
0.0
176
     1
173
     0
176
     1
  0
VISUALSTYLE
  5
2B
102
{ACAD_REACTORS
330
2A
102
}
330
2A
100
AcDbVisualStyle
  2
Flat
 70
     0
177
     2
291
     1
 71
     2
176
     1
 72
     1
176
     1
 73
     1
176
     1
 90
        2
176
     1
 40
-0.6
176
     1
 41
30.0
176
     1
 62
     5
 63
     7
421
 16777215
176
     1
 74
     0
176
     1
 91
        4
176
     1
 64
     7
176
     1
 65
   257
176
     1
 75
     1
176
     1
175
     1
176
     1
 42
1.0
176
     1
 92
        8
176
     1
 66
     7
176
     1
 43
1.0
176
     1
 76
     1
176
     1
 77
     6
176
     1
 78
     2
176
     1
 67
     7
176
     1
 79
     5
176
     1
170
     0
176
     1
171
     0
176
     1
290
     0
176
     1
 93
       13
176
     1
 44
0.0
176
     1
173
     0
176
     1
  0
VISUALSTYLE
  5
2C
102
{ACAD_REACTORS
330
2A
102
}
330
2A
100
AcDbVisualStyle
  2
FlatWithEdges
 70
     1
177
     2
291
     1
 71
     2
176
     1
 72
     1
176
     1
 73
     1
176
     1
 90
        2
176
     1
 40
-0.6
176
     1
 41
30.0
176
     1
 62
     5
 63
     7
421
 16777215
176
     1
 74
     1
176
     1
 91
        4
176
     1
 64
     7
176
     1
 65
   257
176
     1
 75
     1
176
     1
175
     1
176
     1
 42
1.0
176
     1
 92
        0
176
     1
 66
   257
176
     1
 43
1.0
176
     1
 76
     1
176
     1
 77
     6
176
     1
 78
     2
176
     1
 67
     7
176
     1
 79
     5
176
     1
170
     0
176
     1
171
     0
176
     1
290
     0
176
     1
 93
       13
176
     1
 44
0.0
176
     1
173
     0
176
     1
  0
VISUALSTYLE
  5
2D
102
{ACAD_REACTORS
330
2A
102
}
330
2A
100
AcDbVisualStyle
  2
Gouraud
 70
     2
177
     2
291
     1
 71
     2
176
     1
 72
     2
176
     1
 73
     1
176
     1
 90
        2
176
     1
 40
-0.6
176
     1
 41
30.0
176
     1
 62
     5
 63
     7
421
 16777215
176
     1
 74
     0
176
     1
 91
        4
176
     1
 64
     7
176
     1
 65
   257
176
     1
 75
     1
176
     1
175
     1
176
     1
 42
1.0
176
     1
 92
        0
176
     1
 66
     7
176
     1
 43
1.0
176
     1
 76
     1
176
     1
 77
     6
176
     1
 78
     2
176
     1
 67
     7
176
     1
 79
     5
176
     1
170
     0
176
     1
171
     0
176
     1
290
     0
176
     1
 93
       13
176
     1
 44
0.0
176
     1
173
     0
176
     1
  0
VISUALSTYLE
  5
2E
102
{ACAD_REACTORS
330
2A
102
}
330
2A
100
AcDbVisualStyle
  2
GouraudWithEdges
 70
     3
177
     2
291
     1
 71
     2
176
     1
 72
     2
176
     1
 73
     1
176
     1
 90
        2
176
     1
 40
-0.6
176
     1
 41
30.0
176
     1
 62
     5
 63
     7
421
 16777215
176
     1
 74
     1
176
     1
 91
        4
176
     1
 64
     7
176
     1
 65
   257
176
     1
 75
     1
176
     1
175
     1
176
     1
 42
1.0
176
     1
 92
        0
176
     1
 66
   257
176
     1
 43
1.0
176
     1
 76
     1
176
     1
 77
     6
176
     1
 78
     2
176
     1
 67
     7
176
     1
 79
     5
176
     1
170
     0
176
     1
171
     0
176
     1
290
     0
176
     1
 93
       13
176
     1
 44
0.0
176
     1
173
     0
176
     1
  0
VISUALSTYLE
  5
38
102
{ACAD_REACTORS
330
2A
102
}
330
2A
100
AcDbVisualStyle
  2
Linepattern
 70
    14
177
     2
291
     1
 71
     2
176
     1
 72
     2
176
     1
 73
     0
176
     1
 90
        0
176
     1
 40
-0.6
176
     1
 41
-30.0
176
     1
 62
     5
 63
     7
421
 16777215
176
     1
 74
     1
176
     1
 91
        4
176
     1
 64
     7
176
     1
 65
   257
176
     1
 75
     7
176
     1
175
     7
176
     1
 42
1.0
176
     1
 92
        8
176
     1
 66
     7
176
     1
 43
1.0
176
     1
 76
     1
176
     1
 77
     6
176
     1
 78
     2
176
     1
 67
     7
176
     1
 79
     5
176
     1
170
     0
176
     1
171
     0
176
     1
290
     0
176
     1
 93
        1
176
     1
 44
0.0
176
     1
173
     0
176
     1
  0
VISUALSTYLE
  5
33
102
{ACAD_REACTORS
330
2A
102
}
330
2A
100
AcDbVisualStyle
  2
Realistic
 70
     8
177
     2
291
     0
 71
     2
176
     1
 72
     2
176
     1
 73
     0
176
     1
 90
        0
176
     1
 40
-0.6
176
     1
 41
-30.0
176
     1
 62
     5
 63
     7
421
 16777215
176
     1
 74
     1
176
     1
 91
        0
176
     1
 64
     7
176
     1
 65
   257
176
     1
 75
     1
176
     1
175
     1
176
     1
 42
1.0
176
     1
 92
        8
176
     1
 66
     8
424
  7895160
176
     1
 43
1.0
176
     1
 76
     1
176
     1
 77
     6
176
     1
 78
     2
176
     1
 67
     7
176
     1
 79
     5
176
     1
170
     0
176
     1
171
     0
176
     1
290
     0
176
     1
 93
       13
176
     1
 44
0.0
176
     1
173
     0
176
     1
  0
VISUALSTYLE
  5
37
102
{ACAD_REACTORS
330
2A
102
}
330
2A
100
AcDbVisualStyle
  2
Thicken
 70
    13
177
     2
291
     1
 71
     2
176
     1
 72
     2
176
     1
 73
     0
176
     1
 90
        0
176
     1
 40
-0.6
176
     1
 41
-30.0
176
     1
 62
     5
 63
     7
421
 16777215
176
     1
 74
     1
176
     1
 91
        4
176
     1
 64
     7
176
     1
 65
   257
176
     1
 75
     1
176
     1
175
     1
176
     1
 42
1.0
176
     1
 92
       12
176
     1
 66
     7
176
     1
 43
1.0
176
     1
 76
     1
176
     1
 77
     6
176
     1
 78
     2
176
     1
 67
     7
176
     1
 79
     5
176
     1
170
     0
176
     1
171
     0
176
     1
290
     0
176
     1
 93
        1
176
     1
 44
0.0
176
     1
173
     0
176
     1
  0
ENDSEC
  0
EOF
