  0
SECTION
  2
HEADER
  9
$ACADVER
  1
AC1021
  9
$ACADMAINTVER
 70
    25
  9
$DWGCODEPAGE
  3
ANSI_1252
  9
$INSBASE
 10
0.0
 20
0.0
 30
0.0
  9
$EXTMIN
 10
-12.03915
 20
-7.17154
 30
0.0
  9
$EXTMAX
 10
12.0363
 20
7.17154
 30
0.0
  9
$LIMMIN
 10
0.0
 20
0.0
  9
$LIMMAX
 10
12.0
 20
9.0
  9
$ORTHOMODE
 70
     0
  9
$REGENMODE
 70
     1
  9
$FILLMODE
 70
     1
  9
$QTEXTMODE
 70
     0
  9
$MIRRTEXT
 70
     1
  9
$LTSCALE
 40
1.0
  9
$ATTMODE
 70
     1
  9
$TEXTSIZE
 40
0.2
  9
$TRACEWID
 40
0.05
  9
$TEXTSTYLE
  7
Standard
  9
$CLAYER
  8
0
  9
$CELTYPE
  6
ByLayer
  9
$CECOLOR
 62
   256
  9
$CELTSCALE
 40
1.0
  9
$DISPSILH
 70
     0
  9
$DIMSCALE
 40
1.0
  9
$DIMASZ
 40
0.18
  9
$DIMEXO
 40
0.0625
  9
$DIMDLI
 40
0.38
  9
$DIMRND
 40
0.0
  9
$DIMDLE
 40
0.0
  9
$DIMEXE
 40
0.18
  9
$DIMTP
 40
0.0
  9
$DIMTM
 40
0.0
  9
$DIMTXT
 40
0.18
  9
$DIMCEN
 40
0.09
  9
$DIMTSZ
 40
0.0
  9
$DIMTOL
 70
     0
  9
$DIMLIM
 70
     0
  9
$DIMTIH
 70
     1
  9
$DIMTOH
 70
     1
  9
$DIMSE1
 70
     0
  9
$DIMSE2
 70
     0
  9
$DIMTAD
 70
     0
  9
$DIMZIN
 70
     0
  9
$DIMBLK
  1

  9
$DIMASO
 70
     1
  9
$DIMSHO
 70
     1
  9
$DIMPOST
  1

  9
$DIMAPOST
  1

  9
$DIMALT
 70
     0
  9
$DIMALTD
 70
     2
  9
$DIMALTF
 40
25.4
  9
$DIMLFAC
 40
1.0
  9
$DIMTOFL
 70
     0
  9
$DIMTVP
 40
0.0
  9
$DIMTIX
 70
     0
  9
$DIMSOXD
 70
     0
  9
$DIMSAH
 70
     0
  9
$DIMBLK1
  1

  9
$DIMBLK2
  1

  9
$DIMSTYLE
  2
Standard
  9
$DIMCLRD
 70
     0
  9
$DIMCLRE
 70
     0
  9
$DIMCLRT
 70
     0
  9
$DIMTFAC
 40
1.0
  9
$DIMGAP
 40
0.09
  9
$DIMJUST
 70
     0
  9
$DIMSD1
 70
     0
  9
$DIMSD2
 70
     0
  9
$DIMTOLJ
 70
     1
  9
$DIMTZIN
 70
     0
  9
$DIMALTZ
 70
     0
  9
$DIMALTTZ
 70
     0
  9
$DIMUPT
 70
     0
  9
$DIMDEC
 70
     4
  9
$DIMTDEC
 70
     4
  9
$DIMALTU
 70
     2
  9
$DIMALTTD
 70
     2
  9
$DIMTXSTY
  7
Standard
  9
$DIMAUNIT
 70
     0
  9
$DIMADEC
 70
     0
  9
$DIMALTRND
 40
0.0
  9
$DIMAZIN
 70
     0
  9
$DIMDSEP
 70
    46
  9
$DIMATFIT
 70
     3
  9
$DIMFRAC
 70
     0
  9
$DIMLDRBLK
  1

  9
$DIMLUNIT
 70
     2
  9
$DIMLWD
 70
    -2
  9
$DIMLWE
 70
    -2
  9
$DIMTMOVE
 70
     0
  9
$DIMFXL
 40
1.0
  9
$DIMFXLON
 70
     0
  9
$DIMJOGANG
 40
0.7853981633974483
  9
$DIMTFILL
 70
     0
  9
$DIMTFILLCLR
 70
     0
  9
$DIMARCSYM
 70
     0
  9
$DIMLTYPE
  6

  9
$DIMLTEX1
  6

  9
$DIMLTEX2
  6

  9
$LUNITS
 70
     2
  9
$LUPREC
 70
     4
  9
$SKETCHINC
 40
0.1
  9
$FILLETRAD
 40
0.5
  9
$AUNITS
 70
     0
  9
$AUPREC
 70
     0
  9
$MENU
  1
.
  9
$ELEVATION
 40
0.0
  9
$PELEVATION
 40
0.0
  9
$THICKNESS
 40
0.0
  9
$LIMCHECK
 70
     0
  9
$CHAMFERA
 40
0.5
  9
$CHAMFERB
 40
0.5
  9
$CHAMFERC
 40
1.0
  9
$CHAMFERD
 40
0.0
  9
$SKPOLY
 70
     0
  9
$TDCREATE
 40
2456231.936885509
  9
$TDUCREATE
 40
2456232.103552176
  9
$TDUPDATE
 40
2456231.936885579
  9
$TDUUPDATE
 40
2456232.103552246
  9
$TDINDWG
 40
0.0000000116
  9
$TDUSRTIMER
 40
0.0000000116
  9
$USRTIMER
 70
     1
  9
$ANGBASE
 50
0.0
  9
$ANGDIR
 70
     0
  9
$PDMODE
 70
     0
  9
$PDSIZE
 40
0.0
  9
$PLINEWID
 40
0.0
  9
$SPLFRAME
 70
     0
  9
$SPLINETYPE
 70
     6
  9
$SPLINESEGS
 70
     8
  9
$HANDSEED
  5
A6
  9
$SURFTAB1
 70
     6
  9
$SURFTAB2
 70
     6
  9
$SURFTYPE
 70
     6
  9
$SURFU
 70
     6
  9
$SURFV
 70
     6
  9
$UCSBASE
  2

  9
$UCSNAME
  2

  9
$UCSORG
 10
0.0
 20
0.0
 30
0.0
  9
$UCSXDIR
 10
1.0
 20
0.0
 30
0.0
  9
$UCSYDIR
 10
0.0
 20
1.0
 30
0.0
  9
$UCSORTHOREF
  2

  9
$UCSORTHOVIEW
 70
     0
  9
$UCSORGTOP
 10
0.0
 20
0.0
 30
0.0
  9
$UCSORGBOTTOM
 10
0.0
 20
0.0
 30
0.0
  9
$UCSORGLEFT
 10
0.0
 20
0.0
 30
0.0
  9
$UCSORGRIGHT
 10
0.0
 20
0.0
 30
0.0
  9
$UCSORGFRONT
 10
0.0
 20
0.0
 30
0.0
  9
$UCSORGBACK
 10
0.0
 20
0.0
 30
0.0
  9
$PUCSBASE
  2

  9
$PUCSNAME
  2

  9
$PUCSORG
 10
0.0
 20
0.0
 30
0.0
  9
$PUCSXDIR
 10
1.0
 20
0.0
 30
0.0
  9
$PUCSYDIR
 10
0.0
 20
1.0
 30
0.0
  9
$PUCSORTHOREF
  2

  9
$PUCSORTHOVIEW
 70
     0
  9
$PUCSORGTOP
 10
0.0
 20
0.0
 30
0.0
  9
$PUCSORGBOTTOM
 10
0.0
 20
0.0
 30
0.0
  9
$PUCSORGLEFT
 10
0.0
 20
0.0
 30
0.0
  9
$PUCSORGRIGHT
 10
0.0
 20
0.0
 30
0.0
  9
$PUCSORGFRONT
 10
0.0
 20
0.0
 30
0.0
  9
$PUCSORGBACK
 10
0.0
 20
0.0
 30
0.0
  9
$USERI1
 70
     0
  9
$USERI2
 70
     0
  9
$USERI3
 70
     0
  9
$USERI4
 70
     0
  9
$USERI5
 70
     0
  9
$USERR1
 40
0.0
  9
$USERR2
 40
0.0
  9
$USERR3
 40
0.0
  9
$USERR4
 40
0.0
  9
$USERR5
 40
0.0
  9
$WORLDVIEW
 70
     1
  9
$SHADEDGE
 70
     3
  9
$SHADEDIF
 70
    70
  9
$TILEMODE
 70
     1
  9
$MAXACTVP
 70
    64
  9
$PINSBASE
 10
0.0
 20
0.0
 30
0.0
  9
$PLIMCHECK
 70
     0
  9
$PEXTMIN
 10
1.000000000000000E+20
 20
1.000000000000000E+20
 30
1.000000000000000E+20
  9
$PEXTMAX
 10
-1.000000000000000E+20
 20
-1.000000000000000E+20
 30
-1.000000000000000E+20
  9
$PLIMMIN
 10
0.0
 20
0.0
  9
$PLIMMAX
 10
12.0
 20
9.0
  9
$UNITMODE
 70
     0
  9
$VISRETAIN
 70
     1
  9
$PLINEGEN
 70
     0
  9
$PSLTSCALE
 70
     1
  9
$TREEDEPTH
 70
  3020
  9
$CMLSTYLE
  2
Standard
  9
$CMLJUST
 70
     0
  9
$CMLSCALE
 40
1.0
  9
$PROXYGRAPHICS
 70
     1
  9
$MEASUREMENT
 70
     0
  9
$CELWEIGHT
370
    -1
  9
$ENDCAPS
280
     0
  9
$JOINSTYLE
280
     0
  9
$LWDISPLAY
290
     0
  9
$INSUNITS
 70
     5
  9
$HYPERLINKBASE
  1

  9
$STYLESHEET
  1

  9
$XEDIT
290
     1
  9
$CEPSNTYPE
380
     0
  9
$PSTYLEMODE
290
     1
  9
$FINGERPRINTGUID
  2
{852A8F57-81F8-4254-9F61-26C718D5DCB5}
  9
$VERSIONGUID
  2
{FAEB1C32-E019-11D5-929B-00C0DF256EC4}
  9
$EXTNAMES
290
     1
  9
$PSVPSCALE
 40
0.0
  9
$OLESTARTUP
290
     0
  9
$SORTENTS
280
   127
  9
$INDEXCTL
280
     0
  9
$HIDETEXT
280
     1
  9
$XCLIPFRAME
290
     0
  9
$HALOGAP
280
     0
  9
$OBSCOLOR
 70
   257
  9
$OBSLTYPE
280
     0
  9
$INTERSECTIONDISPLAY
280
     0
  9
$INTERSECTIONCOLOR
 70
   257
  9
$DIMASSOC
280
     2
  9
$PROJECTNAME
  1

  9
$CAMERADISPLAY
290
     0
  9
$LENSLENGTH
 40
50.0
  9
$CAMERAHEIGHT
 40
0.0
  9
$STEPSPERSEC
 40
2.0
  9
$STEPSIZE
 40
6.0
  9
$3DDWFPREC
 40
2.0
  9
$PSOLWIDTH
 40
0.25
  9
$PSOLHEIGHT
 40
4.0
  9
$LOFTANG1
 40
1.570796326794897
  9
$LOFTANG2
 40
1.570796326794897
  9
$LOFTMAG1
 40
0.0
  9
$LOFTMAG2
 40
0.0
  9
$LOFTPARAM
 70
     7
  9
$LOFTNORMALS
280
     1
  9
$LATITUDE
 40
37.795
  9
$LONGITUDE
 40
-122.394
  9
$NORTHDIRECTION
 40
0.0
  9
$TIMEZONE
 70
 -8000
  9
$LIGHTGLYPHDISPLAY
280
     1
  9
$TILEMODELIGHTSYNCH
280
     1
  9
$SOLIDHIST
280
     1
  9
$SHOWHIST
280
     1
  9
$DWFFRAME
280
     2
  9
$DGNFRAME
280
     2
  9
$REALWORLDSCALE
290
     1
  9
$INTERFERECOLOR
 62
   256
  9
$CSHADOW
280
     0
  9
$SHADOWPLANELOCATION
 40
0.0
  0
ENDSEC
  0
SECTION
  2
CLASSES
  0
CLASS
  1
ACDBDICTIONARYWDFLT
  2
AcDbDictionaryWithDefault
  3
ObjectDBX Classes
 90
        0
 91
        4
280
     0
281
     0
  0
CLASS
  1
VISUALSTYLE
  2
AcDbVisualStyle
  3
ObjectDBX Classes
 90
     4095
 91
        4
280
     0
281
     0
  0
CLASS
  1
MATERIAL
  2
AcDbMaterial
  3
ObjectDBX Classes
 90
     1153
 91
        4
280
     0
281
     0
  0
ENDSEC
  0
SECTION
  2
TABLES
  0
TABLE
  2
VPORT
  5
8
330
0
100
AcDbSymbolTable
 70
     1
  0
VPORT
  5
29
330
8
100
AcDbSymbolTableRecord
100
AcDbViewportTableRecord
  2
*Active
 70
     0
 10
0.0
 20
0.0
 11
1.0
 21
1.0
 12
10.42990654205607
 22
4.5
 13
0.0
 23
0.0
 14
0.5
 24
0.5
 15
0.5
 25
0.5
 16
0.0
 26
0.0
 36
1.0
 17
0.0
 27
0.0
 37
0.0
 40
9.0
 41
1.972972972850329
 42
50.0
 43
0.0
 44
0.0
 50
0.0
 51
0.0
 71
     0
 72
   100
 73
     1
 74
     3
 75
     0
 76
     0
 77
     0
 78
     0
281
     0
 65
     1
110
0.0
120
0.0
130
0.0
111
1.0
121
0.0
131
0.0
112
0.0
122
1.0
132
0.0
 79
     0
146
0.0
 60
     3
 61
     5
292
     1
282
     1
141
0.0
142
0.0
 63
   250
  0
ENDTAB
  0
TABLE
  2
LTYPE
  5
5
330
0
100
AcDbSymbolTable
 70
     1
  0
LTYPE
  5
14
330
5
100
AcDbSymbolTableRecord
100
AcDbLinetypeTableRecord
  2
ByBlock
 70
     0
  3

 72
    65
 73
     0
 40
0.0
  0
LTYPE
  5
15
330
5
100
AcDbSymbolTableRecord
100
AcDbLinetypeTableRecord
  2
ByLayer
 70
     0
  3

 72
    65
 73
     0
 40
0.0
  0
LTYPE
  5
16
330
5
100
AcDbSymbolTableRecord
100
AcDbLinetypeTableRecord
  2
Continuous
 70
     0
  3
Solid line
 72
    65
 73
     0
 40
0.0
  0
ENDTAB
  0
TABLE
  2
LAYER
  5
2
330
0
100
AcDbSymbolTable
 70
     3
  0
LAYER
  5
10
330
2
100
AcDbSymbolTableRecord
100
AcDbLayerTableRecord
  2
0
 70
     0
 62
     7
  6
Continuous
370
    -3
390
F
347
3E
  0
LAYER
  5
40
330
2
100
AcDbSymbolTableRecord
100
AcDbLayerTableRecord
  2
Layer 1
 70
     0
 62
     7
  6
Continuous
370
    -3
390
F
347
3E
  0
LAYER
  5
59
330
2
100
AcDbSymbolTableRecord
100
AcDbLayerTableRecord
  2
layer 2
 70
     0
 62
     7
  6
Continuous
370
    -3
390
F
347
3E
  0
ENDTAB
  0
TABLE
  2
STYLE
  5
3
330
0
100
AcDbSymbolTable
 70
     1
  0
STYLE
  5
11
330
3
100
AcDbSymbolTableRecord
100
AcDbTextStyleTableRecord
  2
Standard
 70
     0
 40
0.0
 41
1.0
 50
0.0
 71
     0
 42
0.2
  3
txt
  4

  0
ENDTAB
  0
TABLE
  2
VIEW
  5
6
330
0
100
AcDbSymbolTable
 70
     0
  0
ENDTAB
  0
TABLE
  2
UCS
  5
7
330
0
100
AcDbSymbolTable
 70
     0
  0
ENDTAB
  0
TABLE
  2
APPID
  5
9
330
0
100
AcDbSymbolTable
 70
     2
  0
APPID
  5
12
330
9
100
AcDbSymbolTableRecord
100
AcDbRegAppTableRecord
  2
ACAD
 70
     0
  0
APPID
  5
3F
330
9
100
AcDbSymbolTableRecord
100
AcDbRegAppTableRecord
  2
ODA
 70
     0
  0
ENDTAB
  0
TABLE
  2
DIMSTYLE
  5
A
330
0
100
AcDbSymbolTable
 70
     1
100
AcDbDimStyleTable
  0
DIMSTYLE
105
27
330
A
100
AcDbSymbolTableRecord
100
AcDbDimStyleTableRecord
  2
Standard
 70
     0
178
     0
340
11
  0
ENDTAB
  0
TABLE
  2
BLOCK_RECORD
  5
1
330
0
100
AcDbSymbolTable
 70
     1
  0
BLOCK_RECORD
  5
1F
330
1
100
AcDbSymbolTableRecord
100
AcDbBlockTableRecord
  2
*Model_Space
340
22
 70
     0
280
     1
281
     0
  0
BLOCK_RECORD
  5
1B
330
1
100
AcDbSymbolTableRecord
100
AcDbBlockTableRecord
  2
*Paper_Space
340
1E
 70
     0
280
     1
281
     0
  0
BLOCK_RECORD
  5
23
330
1
100
AcDbSymbolTableRecord
100
AcDbBlockTableRecord
  2
*Paper_Space0
340
26
 70
     0
280
     1
281
     0
  0
ENDTAB
  0
ENDSEC
  0
SECTION
  2
BLOCKS
  0
BLOCK
  5
20
330
1F
100
AcDbEntity
  8
0
100
AcDbBlockBegin
  2
*Model_Space
 70
     0
 10
0.0
 20
0.0
 30
0.0
  3
*Model_Space
  1

  0
ENDBLK
  5
21
330
1F
100
AcDbEntity
  8
0
100
AcDbBlockEnd
  0
BLOCK
  5
1C
330
1B
100
AcDbEntity
 67
     1
  8
0
100
AcDbBlockBegin
  2
*Paper_Space
 70
     0
 10
0.0
 20
0.0
 30
0.0
  3
*Paper_Space
  1

  0
ENDBLK
  5
1D
330
1B
100
AcDbEntity
 67
     1
  8
0
100
AcDbBlockEnd
  0
BLOCK
  5
24
330
23
100
AcDbEntity
  8
0
100
AcDbBlockBegin
  2
*Paper_Space0
 70
     0
 10
0.0
 20
0.0
 30
0.0
  3
*Paper_Space0
  1

  0
ENDBLK
  5
25
330
23
100
AcDbEntity
  8
0
100
AcDbBlockEnd
  0
ENDSEC
  0
SECTION
  2
ENTITIES
  0
SPLINE
  5
41
330
1F
100
AcDbEntity
  8
Layer 1
 62
   250
370
     9
100
AcDbSpline
210
0.0
220
0.0
230
1.0
 70
    11
 71
     3
 72
    92
 73
    88
 74
     0
 42
0.0000000001
 43
0.0000000001
 12
1.0
 22
0.0
 32
0.0
 13
1.0
 23
0.0
 33
0.0
 40
0.0
 40
0.0
 40
0.0
 40
0.0
 40
0.0434782608695652
 40
0.0434782608695652
 40
0.0434782608695652
 40
0.0434782608695652
 40
0.0869565217391304
 40
0.0869565217391304
 40
0.0869565217391304
 40
0.0869565217391304
 40
0.1304347826086956
 40
0.1304347826086956
 40
0.1304347826086956
 40
0.1304347826086956
 40
0.1739130434782609
 40
0.1739130434782609
 40
0.1739130434782609
 40
0.1739130434782609
 40
0.2173913043478261
 40
0.2173913043478261
 40
0.2173913043478261
 40
0.2173913043478261
 40
0.2608695652173913
 40
0.2608695652173913
 40
0.2608695652173913
 40
0.2608695652173913
 40
0.3043478260869565
 40
0.3043478260869565
 40
0.3043478260869565
 40
0.3043478260869565
 40
0.3478260869565217
 40
0.3478260869565217
 40
0.3478260869565217
 40
0.3478260869565217
 40
0.391304347826087
 40
0.391304347826087
 40
0.391304347826087
 40
0.391304347826087
 40
0.4347826086956522
 40
0.4347826086956522
 40
0.4347826086956522
 40
0.4347826086956522
 40
0.4782608695652174
 40
0.4782608695652174
 40
0.4782608695652174
 40
0.4782608695652174
 40
0.5217391304347826
 40
0.5217391304347826
 40
0.5217391304347826
 40
0.5217391304347826
 40
0.5652173913043478
 40
0.5652173913043478
 40
0.5652173913043478
 40
0.5652173913043478
 40
0.6086956521739131
 40
0.6086956521739131
 40
0.6086956521739131
 40
0.6086956521739131
 40
0.6521739130434783
 40
0.6521739130434783
 40
0.6521739130434783
 40
0.6521739130434783
 40
0.6956521739130435
 40
0.6956521739130435
 40
0.6956521739130435
 40
0.6956521739130435
 40
0.7391304347826086
 40
0.7391304347826086
 40
0.7391304347826086
 40
0.7391304347826086
 40
0.782608695652174
 40
0.782608695652174
 40
0.782608695652174
 40
0.782608695652174
 40
0.8260869565217391
 40
0.8260869565217391
 40
0.8260869565217391
 40
0.8260869565217391
 40
0.8695652173913043
 40
0.8695652173913043
 40
0.8695652173913043
 40
0.8695652173913043
 40
0.9130434782608695
 40
0.9130434782608695
 40
0.9130434782608695
 40
0.9130434782608695
 40
1.0
 40
1.0
 40
1.0
 40
1.0
 10
-1.99969
 20
-7.08645
 30
0.0
 10
-1.99969
 20
-7.08645
 30
0.0
 10
-1.99969
 20
-7.15757
 30
0.0
 10
-1.99969
 20
-7.15757
 30
0.0
 10
-1.99969
 20
-7.15757
 30
0.0
 10
-1.99969
 20
-7.15757
 30
0.0
 10
-2.40102
 20
-7.15757
 30
0.0
 10
-2.40102
 20
-7.15757
 30
0.0
 10
-2.40102
 20
-7.15757
 30
0.0
 10
-2.40158
 20
-7.13965
 30
0.0
 10
-2.39862
 20
-7.12243
 30
0.0
 10
-2.39227
 20
-7.10578
 30
0.0
 10
-2.39227
 20
-7.10578
 30
0.0
 10
-2.38197
 20
-7.07855
 30
0.0
 10
-2.36546
 20
-7.0516
 30
0.0
 10
-2.34274
 20
-7.02521
 30
0.0
 10
-2.34274
 20
-7.02521
 30
0.0
 10
-2.32002
 20
-6.99882
 30
0.0
 10
-2.28756
 20
-6.96834
 30
0.0
 10
-2.24537
 20
-6.93377
 30
0.0
 10
-2.24537
 20
-6.93377
 30
0.0
 10
-2.17975
 20
-6.87972
 30
0.0
 10
-2.13516
 20
-6.83696
 30
0.0
 10
-2.11188
 20
-6.80536
 30
0.0
 10
-2.11188
 20
-6.80536
 30
0.0
 10
-2.08845
 20
-6.77375
 30
0.0
 10
-2.07674
 20
-6.74383
 30
0.0
 10
-2.07674
 20
-6.71561
 30
0.0
 10
-2.07674
 20
-6.71561
 30
0.0
 10
-2.07674
 20
-6.68612
 30
0.0
 10
-2.08733
 20
-6.66128
 30
0.0
 10
-2.10849
 20
-6.64096
 30
0.0
 10
-2.10849
 20
-6.64096
 30
0.0
 10
-2.12966
 20
-6.62078
 30
0.0
 10
-2.15732
 20
-6.61062
 30
0.0
 10
-2.19132
 20
-6.61062
 30
0.0
 10
-2.19132
 20
-6.61062
 30
0.0
 10
-2.22731
 20
-6.61062
 30
0.0
 10
-2.25609
 20
-6.62135
 30
0.0
 10
-2.27768
 20
-6.64279
 30
0.0
 10
-2.27768
 20
-6.64279
 30
0.0
 10
-2.29928
 20
-6.6641
 30
0.0
 10
-2.31014
 20
-6.69374
 30
0.0
 10
-2.31042
 20
-6.73169
 30
0.0
 10
-2.31042
 20
-6.73169
 30
0.0
 10
-2.31042
 20
-6.73169
 30
0.0
 10
-2.38662
 20
-6.72407
 30
0.0
 10
-2.38662
 20
-6.72407
 30
0.0
 10
-2.38662
 20
-6.72407
 30
0.0
 10
-2.3814
 20
-6.66707
 30
0.0
 10
-2.36165
 20
-6.6236
 30
0.0
 10
-2.3275
 20
-6.59369
 30
0.0
 10
-2.3275
 20
-6.59369
 30
0.0
 10
-2.29321
 20
-6.56377
 30
0.0
 10
-2.24735
 20
-6.54881
 30
0.0
 10
-2.18963
 20
-6.54881
 30
0.0
 10
-2.18963
 20
-6.54881
 30
0.0
 10
-2.13149
 20
-6.54881
 30
0.0
 10
-2.08535
 20
-6.5649
 30
0.0
 10
-2.05148
 20
-6.59722
 30
0.0
 10
-2.05148
 20
-6.59722
 30
0.0
 10
-2.01748
 20
-6.62953
 30
0.0
 10
-2.00054
 20
-6.66961
 30
0.0
 10
-2.00054
 20
-6.7173
 30
0.0
 10
-2.00054
 20
-6.7173
 30
0.0
 10
-2.00054
 20
-6.74157
 30
0.0
 10
-2.00548
 20
-6.76542
 30
0.0
 10
-2.0155
 20
-6.78885
 30
0.0
 10
-2.0155
 20
-6.78885
 30
0.0
 10
-2.02538
 20
-6.81241
 30
0.0
 10
-2.04189
 20
-6.83711
 30
0.0
 10
-2.06489
 20
-6.86307
 30
0.0
 10
-2.06489
 20
-6.86307
 30
0.0
 10
-2.08803
 20
-6.88889
 30
0.0
 10
-2.12627
 20
-6.92459
 30
0.0
 10
-2.17961
 20
-6.96975
 30
0.0
 10
-2.17961
 20
-6.96975
 30
0.0
 10
-2.22434
 20
-7.00729
 30
0.0
 10
-2.25313
 20
-7.03269
 30
0.0
 10
-2.26583
 20
-7.04609
 30
0.0
 10
-2.26583
 20
-7.04609
 30
0.0
 10
-2.27853
 20
-7.0595
 30
0.0
 10
-2.28897
 20
-7.0729
 30
0.0
 10
-2.2973
 20
-7.08645
 30
0.0
 10
-2.2973
 20
-7.08645
 30
0.0
 10
-2.2973
 20
-7.08645
 30
0.0
 10
-1.99969
 20
-7.08645
 30
0.0
 10
-1.99969
 20
-7.08645
 30
0.0
  0
SPLINE
  5
42
330
1F
100
AcDbEntity
  8
Layer 1
 62
   250
370
     9
100
AcDbSpline
210
0.0
220
0.0
230
1.0
 70
    11
 71
     3
 72
    52
 73
    48
 74
     0
 42
0.0000000001
 43
0.0000000001
 12
1.0
 22
0.0
 32
0.0
 13
1.0
 23
0.0
 33
0.0
 40
0.0
 40
0.0
 40
0.0
 40
0.0
 40
0.0769230769230769
 40
0.0769230769230769
 40
0.0769230769230769
 40
0.0769230769230769
 40
0.1538461538461539
 40
0.1538461538461539
 40
0.1538461538461539
 40
0.1538461538461539
 40
0.2307692307692308
 40
0.2307692307692308
 40
0.2307692307692308
 40
0.2307692307692308
 40
0.3076923076923077
 40
0.3076923076923077
 40
0.3076923076923077
 40
0.3076923076923077
 40
0.3846153846153846
 40
0.3846153846153846
 40
0.3846153846153846
 40
0.3846153846153846
 40
0.4615384615384616
 40
0.4615384615384616
 40
0.4615384615384616
 40
0.4615384615384616
 40
0.5384615384615384
 40
0.5384615384615384
 40
0.5384615384615384
 40
0.5384615384615384
 40
0.6153846153846154
 40
0.6153846153846154
 40
0.6153846153846154
 40
0.6153846153846154
 40
0.6923076923076923
 40
0.6923076923076923
 40
0.6923076923076923
 40
0.6923076923076923
 40
0.7692307692307693
 40
0.7692307692307693
 40
0.7692307692307693
 40
0.7692307692307693
 40
0.8461538461538461
 40
0.8461538461538461
 40
0.8461538461538461
 40
0.8461538461538461
 40
1.0
 40
1.0
 40
1.0
 40
1.0
 10
-1.91912
 20
-6.85841
 30
0.0
 10
-1.91912
 20
-6.78687
 30
0.0
 10
-1.91178
 20
-6.72901
 30
0.0
 10
-1.89711
 20
-6.68527
 30
0.0
 10
-1.89711
 20
-6.68527
 30
0.0
 10
-1.88229
 20
-6.64138
 30
0.0
 10
-1.86042
 20
-6.60766
 30
0.0
 10
-1.83135
 20
-6.58409
 30
0.0
 10
-1.83135
 20
-6.58409
 30
0.0
 10
-1.80242
 20
-6.56053
 30
0.0
 10
-1.76587
 20
-6.54881
 30
0.0
 10
-1.72185
 20
-6.54881
 30
0.0
 10
-1.72185
 20
-6.54881
 30
0.0
 10
-1.68939
 20
-6.54881
 30
0.0
 10
-1.66089
 20
-6.55531
 30
0.0
 10
-1.63619
 20
-6.56843
 30
0.0
 10
-1.63619
 20
-6.56843
 30
0.0
 10
-1.61164
 20
-6.58155
 30
0.0
 10
-1.59132
 20
-6.60046
 30
0.0
 10
-1.57551
 20
-6.62516
 30
0.0
 10
-1.57551
 20
-6.62516
 30
0.0
 10
-1.55971
 20
-6.64971
 30
0.0
 10
-1.54729
 20
-6.67977
 30
0.0
 10
-1.53826
 20
-6.71518
 30
0.0
 10
-1.53826
 20
-6.71518
 30
0.0
 10
-1.52909
 20
-6.7506
 30
0.0
 10
-1.52457
 20
-6.79844
 30
0.0
 10
-1.52457
 20
-6.85841
 30
0.0
 10
-1.52457
 20
-6.85841
 30
0.0
 10
-1.52457
 20
-6.92953
 30
0.0
 10
-1.53191
 20
-6.98711
 30
0.0
 10
-1.54644
 20
-7.03085
 30
0.0
 10
-1.54644
 20
-7.03085
 30
0.0
 10
-1.56098
 20
-7.07474
 30
0.0
 10
-1.58285
 20
-7.10846
 30
0.0
 10
-1.61192
 20
-7.13217
 30
0.0
 10
-1.61192
 20
-7.13217
 30
0.0
 10
-1.64085
 20
-7.15588
 30
0.0
 10
-1.67754
 20
-7.16773
 30
0.0
 10
-1.72185
 20
-7.16773
 30
0.0
 10
-1.72185
 20
-7.16773
 30
0.0
 10
-1.78012
 20
-7.16773
 30
0.0
 10
-1.82599
 20
-7.14699
 30
0.0
 10
-1.85929
 20
-7.10536
 30
0.0
 10
-1.85929
 20
-7.10536
 30
0.0
 10
-1.89922
 20
-7.05456
 30
0.0
 10
-1.91912
 20
-6.97229
 30
0.0
 10
-1.91912
 20
-6.85841
 30
0.0
  0
SPLINE
  5
43
330
1F
100
AcDbEntity
  8
Layer 1
 62
   250
370
     9
100
AcDbSpline
210
0.0
220
0.0
230
1.0
 70
    11
 71
     3
 72
    36
 73
    32
 74
     0
 42
0.0000000001
 43
0.0000000001
 12
1.0
 22
0.0
 32
0.0
 13
1.0
 23
0.0
 33
0.0
 40
0.0
 40
0.0
 40
0.0
 40
0.0
 40
0.1111111111111111
 40
0.1111111111111111
 40
0.1111111111111111
 40
0.1111111111111111
 40
0.2222222222222222
 40
0.2222222222222222
 40
0.2222222222222222
 40
0.2222222222222222
 40
0.3333333333333333
 40
0.3333333333333333
 40
0.3333333333333333
 40
0.3333333333333333
 40
0.4444444444444444
 40
0.4444444444444444
 40
0.4444444444444444
 40
0.4444444444444444
 40
0.5555555555555556
 40
0.5555555555555556
 40
0.5555555555555556
 40
0.5555555555555556
 40
0.6666666666666666
 40
0.6666666666666666
 40
0.6666666666666666
 40
0.6666666666666666
 40
0.7777777777777778
 40
0.7777777777777778
 40
0.7777777777777778
 40
0.7777777777777778
 40
1.0
 40
1.0
 40
1.0
 40
1.0
 10
-1.84292
 20
-6.8587
 30
0.0
 10
-1.84292
 20
-6.95846
 30
0.0
 10
-1.83135
 20
-7.02478
 30
0.0
 10
-1.80806
 20
-7.05752
 30
0.0
 10
-1.80806
 20
-7.05752
 30
0.0
 10
-1.78478
 20
-7.0904
 30
0.0
 10
-1.75599
 20
-7.10677
 30
0.0
 10
-1.72185
 20
-7.10677
 30
0.0
 10
-1.72185
 20
-7.10677
 30
0.0
 10
-1.6877
 20
-7.10677
 30
0.0
 10
-1.65891
 20
-7.09026
 30
0.0
 10
-1.63563
 20
-7.05738
 30
0.0
 10
-1.63563
 20
-7.05738
 30
0.0
 10
-1.61234
 20
-7.02436
 30
0.0
 10
-1.60077
 20
-6.95818
 30
0.0
 10
-1.60077
 20
-6.8587
 30
0.0
 10
-1.60077
 20
-6.8587
 30
0.0
 10
-1.60077
 20
-6.75893
 30
0.0
 10
-1.61234
 20
-6.69261
 30
0.0
 10
-1.63563
 20
-6.65987
 30
0.0
 10
-1.63563
 20
-6.65987
 30
0.0
 10
-1.65877
 20
-6.62699
 30
0.0
 10
-1.68784
 20
-6.61062
 30
0.0
 10
-1.72269
 20
-6.61062
 30
0.0
 10
-1.72269
 20
-6.61062
 30
0.0
 10
-1.75684
 20
-6.61062
 30
0.0
 10
-1.78422
 20
-6.62516
 30
0.0
 10
-1.80468
 20
-6.65408
 30
0.0
 10
-1.80468
 20
-6.65408
 30
0.0
 10
-1.83022
 20
-6.69091
 30
0.0
 10
-1.84292
 20
-6.75921
 30
0.0
 10
-1.84292
 20
-6.8587
 30
0.0
  0
SPLINE
  5
44
330
1F
100
AcDbEntity
  8
Layer 1
 62
   250
370
     9
100
AcDbSpline
210
0.0
220
0.0
230
1.0
 70
    11
 71
     3
 72
    68
 73
    64
 74
     0
 42
0.0000000001
 43
0.0000000001
 12
1.0
 22
0.0
 32
0.0
 13
1.0
 23
0.0
 33
0.0
 40
0.0
 40
0.0
 40
0.0
 40
0.0
 40
0.0588235294117647
 40
0.0588235294117647
 40
0.0588235294117647
 40
0.0588235294117647
 40
0.1176470588235294
 40
0.1176470588235294
 40
0.1176470588235294
 40
0.1176470588235294
 40
0.1764705882352941
 40
0.1764705882352941
 40
0.1764705882352941
 40
0.1764705882352941
 40
0.2352941176470588
 40
0.2352941176470588
 40
0.2352941176470588
 40
0.2352941176470588
 40
0.2941176470588235
 40
0.2941176470588235
 40
0.2941176470588235
 40
0.2941176470588235
 40
0.3529411764705883
 40
0.3529411764705883
 40
0.3529411764705883
 40
0.3529411764705883
 40
0.4117647058823529
 40
0.4117647058823529
 40
0.4117647058823529
 40
0.4117647058823529
 40
0.4705882352941176
 40
0.4705882352941176
 40
0.4705882352941176
 40
0.4705882352941176
 40
0.5294117647058824
 40
0.5294117647058824
 40
0.5294117647058824
 40
0.5294117647058824
 40
0.5882352941176471
 40
0.5882352941176471
 40
0.5882352941176471
 40
0.5882352941176471
 40
0.6470588235294118
 40
0.6470588235294118
 40
0.6470588235294118
 40
0.6470588235294118
 40
0.7058823529411765
 40
0.7058823529411765
 40
0.7058823529411765
 40
0.7058823529411765
 40
0.7647058823529411
 40
0.7647058823529411
 40
0.7647058823529411
 40
0.7647058823529411
 40
0.8235294117647058
 40
0.8235294117647058
 40
0.8235294117647058
 40
0.8235294117647058
 40
0.8823529411764706
 40
0.8823529411764706
 40
0.8823529411764706
 40
0.8823529411764706
 40
1.0
 40
1.0
 40
1.0
 40
1.0
 10
-1.33351
 20
-6.82892
 30
0.0
 10
-1.36441
 20
-6.81763
 30
0.0
 10
-1.38727
 20
-6.8014
 30
0.0
 10
-1.40223
 20
-6.78052
 30
0.0
 10
-1.40223
 20
-6.78052
 30
0.0
 10
-1.41704
 20
-6.75949
 30
0.0
 10
-1.42452
 20
-6.73438
 30
0.0
 10
-1.42452
 20
-6.70517
 30
0.0
 10
-1.42452
 20
-6.70517
 30
0.0
 10
-1.42452
 20
-6.661
 30
0.0
 10
-1.40872
 20
-6.62403
 30
0.0
 10
-1.37711
 20
-6.59397
 30
0.0
 10
-1.37711
 20
-6.59397
 30
0.0
 10
-1.34536
 20
-6.56391
 30
0.0
 10
-1.30331
 20
-6.54881
 30
0.0
 10
-1.25067
 20
-6.54881
 30
0.0
 10
-1.25067
 20
-6.54881
 30
0.0
 10
-1.1979
 20
-6.54881
 30
0.0
 10
-1.15528
 20
-6.5642
 30
0.0
 10
-1.12311
 20
-6.59496
 30
0.0
 10
-1.12311
 20
-6.59496
 30
0.0
 10
-1.09094
 20
-6.62572
 30
0.0
 10
-1.07485
 20
-6.66311
 30
0.0
 10
-1.07485
 20
-6.70728
 30
0.0
 10
-1.07485
 20
-6.70728
 30
0.0
 10
-1.07485
 20
-6.73536
 30
0.0
 10
-1.08219
 20
-6.75992
 30
0.0
 10
-1.09686
 20
-6.78066
 30
0.0
 10
-1.09686
 20
-6.78066
 30
0.0
 10
-1.11154
 20
-6.80155
 30
0.0
 10
-1.13383
 20
-6.81763
 30
0.0
 10
-1.16389
 20
-6.82892
 30
0.0
 10
-1.16389
 20
-6.82892
 30
0.0
 10
-1.12678
 20
-6.84106
 30
0.0
 10
-1.0987
 20
-6.86053
 30
0.0
 10
-1.07936
 20
-6.88762
 30
0.0
 10
-1.07936
 20
-6.88762
 30
0.0
 10
-1.06003
 20
-6.91458
 30
0.0
 10
-1.05029
 20
-6.94675
 30
0.0
 10
-1.05029
 20
-6.98428
 30
0.0
 10
-1.05029
 20
-6.98428
 30
0.0
 10
-1.05029
 20
-7.03607
 30
0.0
 10
-1.06864
 20
-7.07954
 30
0.0
 10
-1.10519
 20
-7.11481
 30
0.0
 10
-1.10519
 20
-7.11481
 30
0.0
 10
-1.14188
 20
-7.15009
 30
0.0
 10
-1.19
 20
-7.16773
 30
0.0
 10
-1.24969
 20
-7.16773
 30
0.0
 10
-1.24969
 20
-7.16773
 30
0.0
 10
-1.30938
 20
-7.16773
 30
0.0
 10
-1.3575
 20
-7.15009
 30
0.0
 10
-1.39418
 20
-7.11467
 30
0.0
 10
-1.39418
 20
-7.11467
 30
0.0
 10
-1.43073
 20
-7.07925
 30
0.0
 10
-1.44908
 20
-7.03509
 30
0.0
 10
-1.44908
 20
-6.98217
 30
0.0
 10
-1.44908
 20
-6.98217
 30
0.0
 10
-1.44908
 20
-6.9428
 30
0.0
 10
-1.43906
 20
-6.90978
 30
0.0
 10
-1.41902
 20
-6.88325
 30
0.0
 10
-1.41902
 20
-6.88325
 30
0.0
 10
-1.39898
 20
-6.85658
 30
0.0
 10
-1.37048
 20
-6.83852
 30
0.0
 10
-1.33351
 20
-6.82892
 30
0.0
  0
SPLINE
  5
45
330
1F
100
AcDbEntity
  8
Layer 1
 62
   250
370
     9
100
AcDbSpline
210
0.0
220
0.0
230
1.0
 70
    11
 71
     3
 72
    36
 73
    32
 74
     0
 42
0.0000000001
 43
0.0000000001
 12
1.0
 22
0.0
 32
0.0
 13
1.0
 23
0.0
 33
0.0
 40
0.0
 40
0.0
 40
0.0
 40
0.0
 40
0.1111111111111111
 40
0.1111111111111111
 40
0.1111111111111111
 40
0.1111111111111111
 40
0.2222222222222222
 40
0.2222222222222222
 40
0.2222222222222222
 40
0.2222222222222222
 40
0.3333333333333333
 40
0.3333333333333333
 40
0.3333333333333333
 40
0.3333333333333333
 40
0.4444444444444444
 40
0.4444444444444444
 40
0.4444444444444444
 40
0.4444444444444444
 40
0.5555555555555556
 40
0.5555555555555556
 40
0.5555555555555556
 40
0.5555555555555556
 40
0.6666666666666666
 40
0.6666666666666666
 40
0.6666666666666666
 40
0.6666666666666666
 40
0.7777777777777778
 40
0.7777777777777778
 40
0.7777777777777778
 40
0.7777777777777778
 40
1.0
 40
1.0
 40
1.0
 40
1.0
 10
-1.34832
 20
-6.70248
 30
0.0
 10
-1.34832
 20
-6.73127
 30
0.0
 10
-1.33915
 20
-6.7547
 30
0.0
 10
-1.32095
 20
-6.7729
 30
0.0
 10
-1.32095
 20
-6.7729
 30
0.0
 10
-1.3026
 20
-6.7911
 30
0.0
 10
-1.27861
 20
-6.80028
 30
0.0
 10
-1.24884
 20
-6.80028
 30
0.0
 10
-1.24884
 20
-6.80028
 30
0.0
 10
-1.21991
 20
-6.80028
 30
0.0
 10
-1.19649
 20
-6.79124
 30
0.0
 10
-1.17828
 20
-6.77318
 30
0.0
 10
-1.17828
 20
-6.77318
 30
0.0
 10
-1.16008
 20
-6.75512
 30
0.0
 10
-1.15105
 20
-6.73296
 30
0.0
 10
-1.15105
 20
-6.70672
 30
0.0
 10
-1.15105
 20
-6.70672
 30
0.0
 10
-1.15105
 20
-6.67934
 30
0.0
 10
-1.16036
 20
-6.65634
 30
0.0
 10
-1.17913
 20
-6.63771
 30
0.0
 10
-1.17913
 20
-6.63771
 30
0.0
 10
-1.19776
 20
-6.61909
 30
0.0
 10
-1.22132
 20
-6.60977
 30
0.0
 10
-1.24969
 20
-6.60977
 30
0.0
 10
-1.24969
 20
-6.60977
 30
0.0
 10
-1.27833
 20
-6.60977
 30
0.0
 10
-1.3019
 20
-6.61895
 30
0.0
 10
-1.32052
 20
-6.63715
 30
0.0
 10
-1.32052
 20
-6.63715
 30
0.0
 10
-1.33901
 20
-6.65535
 30
0.0
 10
-1.34832
 20
-6.67708
 30
0.0
 10
-1.34832
 20
-6.70248
 30
0.0
  0
SPLINE
  5
46
330
1F
100
AcDbEntity
  8
Layer 1
 62
   250
370
     9
100
AcDbSpline
210
0.0
220
0.0
230
1.0
 70
    11
 71
     3
 72
    40
 73
    36
 74
     0
 42
0.0000000001
 43
0.0000000001
 12
1.0
 22
0.0
 32
0.0
 13
1.0
 23
0.0
 33
0.0
 40
0.0
 40
0.0
 40
0.0
 40
0.0
 40
0.1
 40
0.1
 40
0.1
 40
0.1
 40
0.2
 40
0.2
 40
0.2
 40
0.2
 40
0.3
 40
0.3
 40
0.3
 40
0.3
 40
0.4
 40
0.4
 40
0.4
 40
0.4
 40
0.5
 40
0.5
 40
0.5
 40
0.5
 40
0.6
 40
0.6
 40
0.6
 40
0.6
 40
0.7
 40
0.7
 40
0.7
 40
0.7
 40
0.8
 40
0.8
 40
0.8
 40
0.8
 40
1.0
 40
1.0
 40
1.0
 40
1.0
 10
-1.37288
 20
-6.98273
 30
0.0
 10
-1.37288
 20
-7.00404
 30
0.0
 10
-1.36794
 20
-7.0245
 30
0.0
 10
-1.35806
 20
-7.0444
 30
0.0
 10
-1.35806
 20
-7.0444
 30
0.0
 10
-1.34818
 20
-7.06415
 30
0.0
 10
-1.33322
 20
-7.07954
 30
0.0
 10
-1.31319
 20
-7.0904
 30
0.0
 10
-1.31319
 20
-7.0904
 30
0.0
 10
-1.29329
 20
-7.10127
 30
0.0
 10
-1.27184
 20
-7.10677
 30
0.0
 10
-1.24912
 20
-7.10677
 30
0.0
 10
-1.24912
 20
-7.10677
 30
0.0
 10
-1.21328
 20
-7.10677
 30
0.0
 10
-1.18393
 20
-7.09534
 30
0.0
 10
-1.16093
 20
-7.07248
 30
0.0
 10
-1.16093
 20
-7.07248
 30
0.0
 10
-1.13793
 20
-7.04962
 30
0.0
 10
-1.1265
 20
-7.02055
 30
0.0
 10
-1.1265
 20
-6.98527
 30
0.0
 10
-1.1265
 20
-6.98527
 30
0.0
 10
-1.1265
 20
-6.94943
 30
0.0
 10
-1.13835
 20
-6.9198
 30
0.0
 10
-1.16191
 20
-6.89637
 30
0.0
 10
-1.16191
 20
-6.89637
 30
0.0
 10
-1.18562
 20
-6.87295
 30
0.0
 10
-1.21554
 20
-6.86124
 30
0.0
 10
-1.25152
 20
-6.86124
 30
0.0
 10
-1.25152
 20
-6.86124
 30
0.0
 10
-1.2868
 20
-6.86124
 30
0.0
 10
-1.31573
 20
-6.87281
 30
0.0
 10
-1.33859
 20
-6.89595
 30
0.0
 10
-1.33859
 20
-6.89595
 30
0.0
 10
-1.36145
 20
-6.91909
 30
0.0
 10
-1.37288
 20
-6.94802
 30
0.0
 10
-1.37288
 20
-6.98273
 30
0.0
  0
SPLINE
  5
47
330
1F
100
AcDbEntity
  8
Layer 1
 62
   250
370
     9
100
AcDbSpline
210
0.0
220
0.0
230
1.0
 70
    11
 71
     3
 72
    52
 73
    48
 74
     0
 42
0.0000000001
 43
0.0000000001
 12
1.0
 22
0.0
 32
0.0
 13
1.0
 23
0.0
 33
0.0
 40
0.0
 40
0.0
 40
0.0
 40
0.0
 40
0.0769230769230769
 40
0.0769230769230769
 40
0.0769230769230769
 40
0.0769230769230769
 40
0.1538461538461539
 40
0.1538461538461539
 40
0.1538461538461539
 40
0.1538461538461539
 40
0.2307692307692308
 40
0.2307692307692308
 40
0.2307692307692308
 40
0.2307692307692308
 40
0.3076923076923077
 40
0.3076923076923077
 40
0.3076923076923077
 40
0.3076923076923077
 40
0.3846153846153846
 40
0.3846153846153846
 40
0.3846153846153846
 40
0.3846153846153846
 40
0.4615384615384616
 40
0.4615384615384616
 40
0.4615384615384616
 40
0.4615384615384616
 40
0.5384615384615384
 40
0.5384615384615384
 40
0.5384615384615384
 40
0.5384615384615384
 40
0.6153846153846154
 40
0.6153846153846154
 40
0.6153846153846154
 40
0.6153846153846154
 40
0.6923076923076923
 40
0.6923076923076923
 40
0.6923076923076923
 40
0.6923076923076923
 40
0.7692307692307693
 40
0.7692307692307693
 40
0.7692307692307693
 40
0.7692307692307693
 40
0.8461538461538461
 40
0.8461538461538461
 40
0.8461538461538461
 40
0.8461538461538461
 40
1.0
 40
1.0
 40
1.0
 40
1.0
 10
-0.97734
 20
-6.85841
 30
0.0
 10
-0.97734
 20
-6.78687
 30
0.0
 10
-0.97
 20
-6.72901
 30
0.0
 10
-0.95533
 20
-6.68527
 30
0.0
 10
-0.95533
 20
-6.68527
 30
0.0
 10
-0.94051
 20
-6.64138
 30
0.0
 10
-0.91864
 20
-6.60766
 30
0.0
 10
-0.88957
 20
-6.58409
 30
0.0
 10
-0.88957
 20
-6.58409
 30
0.0
 10
-0.86064
 20
-6.56053
 30
0.0
 10
-0.82409
 20
-6.54881
 30
0.0
 10
-0.78007
 20
-6.54881
 30
0.0
 10
-0.78007
 20
-6.54881
 30
0.0
 10
-0.74761
 20
-6.54881
 30
0.0
 10
-0.71911
 20
-6.55531
 30
0.0
 10
-0.69441
 20
-6.56843
 30
0.0
 10
-0.69441
 20
-6.56843
 30
0.0
 10
-0.66986
 20
-6.58155
 30
0.0
 10
-0.64954
 20
-6.60046
 30
0.0
 10
-0.63373
 20
-6.62516
 30
0.0
 10
-0.63373
 20
-6.62516
 30
0.0
 10
-0.61793
 20
-6.64971
 30
0.0
 10
-0.60551
 20
-6.67977
 30
0.0
 10
-0.59648
 20
-6.71518
 30
0.0
 10
-0.59648
 20
-6.71518
 30
0.0
 10
-0.58731
 20
-6.7506
 30
0.0
 10
-0.58279
 20
-6.79844
 30
0.0
 10
-0.58279
 20
-6.85841
 30
0.0
 10
-0.58279
 20
-6.85841
 30
0.0
 10
-0.58279
 20
-6.92953
 30
0.0
 10
-0.59013
 20
-6.98711
 30
0.0
 10
-0.60466
 20
-7.03085
 30
0.0
 10
-0.60466
 20
-7.03085
 30
0.0
 10
-0.6192
 20
-7.07474
 30
0.0
 10
-0.64107
 20
-7.10846
 30
0.0
 10
-0.67014
 20
-7.13217
 30
0.0
 10
-0.67014
 20
-7.13217
 30
0.0
 10
-0.69907
 20
-7.15588
 30
0.0
 10
-0.73576
 20
-7.16773
 30
0.0
 10
-0.78007
 20
-7.16773
 30
0.0
 10
-0.78007
 20
-7.16773
 30
0.0
 10
-0.83834
 20
-7.16773
 30
0.0
 10
-0.88421
 20
-7.14699
 30
0.0
 10
-0.91751
 20
-7.10536
 30
0.0
 10
-0.91751
 20
-7.10536
 30
0.0
 10
-0.95744
 20
-7.05456
 30
0.0
 10
-0.97734
 20
-6.97229
 30
0.0
 10
-0.97734
 20
-6.85841
 30
0.0
  0
SPLINE
  5
48
330
1F
100
AcDbEntity
  8
Layer 1
 62
   250
370
     9
100
AcDbSpline
210
0.0
220
0.0
230
1.0
 70
    11
 71
     3
 72
    36
 73
    32
 74
     0
 42
0.0000000001
 43
0.0000000001
 12
1.0
 22
0.0
 32
0.0
 13
1.0
 23
0.0
 33
0.0
 40
0.0
 40
0.0
 40
0.0
 40
0.0
 40
0.1111111111111111
 40
0.1111111111111111
 40
0.1111111111111111
 40
0.1111111111111111
 40
0.2222222222222222
 40
0.2222222222222222
 40
0.2222222222222222
 40
0.2222222222222222
 40
0.3333333333333333
 40
0.3333333333333333
 40
0.3333333333333333
 40
0.3333333333333333
 40
0.4444444444444444
 40
0.4444444444444444
 40
0.4444444444444444
 40
0.4444444444444444
 40
0.5555555555555556
 40
0.5555555555555556
 40
0.5555555555555556
 40
0.5555555555555556
 40
0.6666666666666666
 40
0.6666666666666666
 40
0.6666666666666666
 40
0.6666666666666666
 40
0.7777777777777778
 40
0.7777777777777778
 40
0.7777777777777778
 40
0.7777777777777778
 40
1.0
 40
1.0
 40
1.0
 40
1.0
 10
-0.90114
 20
-6.8587
 30
0.0
 10
-0.90114
 20
-6.95846
 30
0.0
 10
-0.88957
 20
-7.02478
 30
0.0
 10
-0.86628
 20
-7.05752
 30
0.0
 10
-0.86628
 20
-7.05752
 30
0.0
 10
-0.843
 20
-7.0904
 30
0.0
 10
-0.81421
 20
-7.10677
 30
0.0
 10
-0.78007
 20
-7.10677
 30
0.0
 10
-0.78007
 20
-7.10677
 30
0.0
 10
-0.74592
 20
-7.10677
 30
0.0
 10
-0.71713
 20
-7.09026
 30
0.0
 10
-0.69385
 20
-7.05738
 30
0.0
 10
-0.69385
 20
-7.05738
 30
0.0
 10
-0.67056
 20
-7.02436
 30
0.0
 10
-0.65899
 20
-6.95818
 30
0.0
 10
-0.65899
 20
-6.8587
 30
0.0
 10
-0.65899
 20
-6.8587
 30
0.0
 10
-0.65899
 20
-6.75893
 30
0.0
 10
-0.67056
 20
-6.69261
 30
0.0
 10
-0.69385
 20
-6.65987
 30
0.0
 10
-0.69385
 20
-6.65987
 30
0.0
 10
-0.71699
 20
-6.62699
 30
0.0
 10
-0.74606
 20
-6.61062
 30
0.0
 10
-0.78091
 20
-6.61062
 30
0.0
 10
-0.78091
 20
-6.61062
 30
0.0
 10
-0.81506
 20
-6.61062
 30
0.0
 10
-0.84244
 20
-6.62516
 30
0.0
 10
-0.8629
 20
-6.65408
 30
0.0
 10
-0.8629
 20
-6.65408
 30
0.0
 10
-0.88844
 20
-6.69091
 30
0.0
 10
-0.90114
 20
-6.75921
 30
0.0
 10
-0.90114
 20
-6.8587
 30
0.0
  0
SPLINE
  5
49
330
1F
100
AcDbEntity
  8
Layer 1
 62
   250
370
     9
100
AcDbSpline
210
0.0
220
0.0
230
1.0
 70
    11
 71
     3
 72
    52
 73
    48
 74
     0
 42
0.0000000001
 43
0.0000000001
 12
1.0
 22
0.0
 32
0.0
 13
1.0
 23
0.0
 33
0.0
 40
0.0
 40
0.0
 40
0.0
 40
0.0
 40
0.0769230769230769
 40
0.0769230769230769
 40
0.0769230769230769
 40
0.0769230769230769
 40
0.1538461538461539
 40
0.1538461538461539
 40
0.1538461538461539
 40
0.1538461538461539
 40
0.2307692307692308
 40
0.2307692307692308
 40
0.2307692307692308
 40
0.2307692307692308
 40
0.3076923076923077
 40
0.3076923076923077
 40
0.3076923076923077
 40
0.3076923076923077
 40
0.3846153846153846
 40
0.3846153846153846
 40
0.3846153846153846
 40
0.3846153846153846
 40
0.4615384615384616
 40
0.4615384615384616
 40
0.4615384615384616
 40
0.4615384615384616
 40
0.5384615384615384
 40
0.5384615384615384
 40
0.5384615384615384
 40
0.5384615384615384
 40
0.6153846153846154
 40
0.6153846153846154
 40
0.6153846153846154
 40
0.6153846153846154
 40
0.6923076923076923
 40
0.6923076923076923
 40
0.6923076923076923
 40
0.6923076923076923
 40
0.7692307692307693
 40
0.7692307692307693
 40
0.7692307692307693
 40
0.7692307692307693
 40
0.8461538461538461
 40
0.8461538461538461
 40
0.8461538461538461
 40
0.8461538461538461
 40
1.0
 40
1.0
 40
1.0
 40
1.0
 10
-0.50645
 20
-6.85841
 30
0.0
 10
-0.50645
 20
-6.78687
 30
0.0
 10
-0.49911
 20
-6.72901
 30
0.0
 10
-0.48444
 20
-6.68527
 30
0.0
 10
-0.48444
 20
-6.68527
 30
0.0
 10
-0.46962
 20
-6.64138
 30
0.0
 10
-0.44775
 20
-6.60766
 30
0.0
 10
-0.41868
 20
-6.58409
 30
0.0
 10
-0.41868
 20
-6.58409
 30
0.0
 10
-0.38975
 20
-6.56053
 30
0.0
 10
-0.3532
 20
-6.54881
 30
0.0
 10
-0.30918
 20
-6.54881
 30
0.0
 10
-0.30918
 20
-6.54881
 30
0.0
 10
-0.27672
 20
-6.54881
 30
0.0
 10
-0.24822
 20
-6.55531
 30
0.0
 10
-0.22352
 20
-6.56843
 30
0.0
 10
-0.22352
 20
-6.56843
 30
0.0
 10
-0.19897
 20
-6.58155
 30
0.0
 10
-0.17865
 20
-6.60046
 30
0.0
 10
-0.16284
 20
-6.62516
 30
0.0
 10
-0.16284
 20
-6.62516
 30
0.0
 10
-0.14704
 20
-6.64971
 30
0.0
 10
-0.13462
 20
-6.67977
 30
0.0
 10
-0.12559
 20
-6.71518
 30
0.0
 10
-0.12559
 20
-6.71518
 30
0.0
 10
-0.11642
 20
-6.7506
 30
0.0
 10
-0.1119
 20
-6.79844
 30
0.0
 10
-0.1119
 20
-6.85841
 30
0.0
 10
-0.1119
 20
-6.85841
 30
0.0
 10
-0.1119
 20
-6.92953
 30
0.0
 10
-0.11924
 20
-6.98711
 30
0.0
 10
-0.13377
 20
-7.03085
 30
0.0
 10
-0.13377
 20
-7.03085
 30
0.0
 10
-0.14831
 20
-7.07474
 30
0.0
 10
-0.17018
 20
-7.10846
 30
0.0
 10
-0.19925
 20
-7.13217
 30
0.0
 10
-0.19925
 20
-7.13217
 30
0.0
 10
-0.22818
 20
-7.15588
 30
0.0
 10
-0.26487
 20
-7.16773
 30
0.0
 10
-0.30918
 20
-7.16773
 30
0.0
 10
-0.30918
 20
-7.16773
 30
0.0
 10
-0.36745
 20
-7.16773
 30
0.0
 10
-0.41332
 20
-7.14699
 30
0.0
 10
-0.44662
 20
-7.10536
 30
0.0
 10
-0.44662
 20
-7.10536
 30
0.0
 10
-0.48655
 20
-7.05456
 30
0.0
 10
-0.50645
 20
-6.97229
 30
0.0
 10
-0.50645
 20
-6.85841
 30
0.0
  0
SPLINE
  5
4A
330
1F
100
AcDbEntity
  8
Layer 1
 62
   250
370
     9
100
AcDbSpline
210
0.0
220
0.0
230
1.0
 70
    11
 71
     3
 72
    36
 73
    32
 74
     0
 42
0.0000000001
 43
0.0000000001
 12
1.0
 22
0.0
 32
0.0
 13
1.0
 23
0.0
 33
0.0
 40
0.0
 40
0.0
 40
0.0
 40
0.0
 40
0.1111111111111111
 40
0.1111111111111111
 40
0.1111111111111111
 40
0.1111111111111111
 40
0.2222222222222222
 40
0.2222222222222222
 40
0.2222222222222222
 40
0.2222222222222222
 40
0.3333333333333333
 40
0.3333333333333333
 40
0.3333333333333333
 40
0.3333333333333333
 40
0.4444444444444444
 40
0.4444444444444444
 40
0.4444444444444444
 40
0.4444444444444444
 40
0.5555555555555556
 40
0.5555555555555556
 40
0.5555555555555556
 40
0.5555555555555556
 40
0.6666666666666666
 40
0.6666666666666666
 40
0.6666666666666666
 40
0.6666666666666666
 40
0.7777777777777778
 40
0.7777777777777778
 40
0.7777777777777778
 40
0.7777777777777778
 40
1.0
 40
1.0
 40
1.0
 40
1.0
 10
-0.43025
 20
-6.8587
 30
0.0
 10
-0.43025
 20
-6.95846
 30
0.0
 10
-0.41868
 20
-7.02478
 30
0.0
 10
-0.39539
 20
-7.05752
 30
0.0
 10
-0.39539
 20
-7.05752
 30
0.0
 10
-0.37211
 20
-7.0904
 30
0.0
 10
-0.34332
 20
-7.10677
 30
0.0
 10
-0.30918
 20
-7.10677
 30
0.0
 10
-0.30918
 20
-7.10677
 30
0.0
 10
-0.27503
 20
-7.10677
 30
0.0
 10
-0.24624
 20
-7.09026
 30
0.0
 10
-0.22296
 20
-7.05738
 30
0.0
 10
-0.22296
 20
-7.05738
 30
0.0
 10
-0.19967
 20
-7.02436
 30
0.0
 10
-0.1881
 20
-6.95818
 30
0.0
 10
-0.1881
 20
-6.8587
 30
0.0
 10
-0.1881
 20
-6.8587
 30
0.0
 10
-0.1881
 20
-6.75893
 30
0.0
 10
-0.19967
 20
-6.69261
 30
0.0
 10
-0.22296
 20
-6.65987
 30
0.0
 10
-0.22296
 20
-6.65987
 30
0.0
 10
-0.2461
 20
-6.62699
 30
0.0
 10
-0.27517
 20
-6.61062
 30
0.0
 10
-0.31002
 20
-6.61062
 30
0.0
 10
-0.31002
 20
-6.61062
 30
0.0
 10
-0.34417
 20
-6.61062
 30
0.0
 10
-0.37155
 20
-6.62516
 30
0.0
 10
-0.39201
 20
-6.65408
 30
0.0
 10
-0.39201
 20
-6.65408
 30
0.0
 10
-0.41755
 20
-6.69091
 30
0.0
 10
-0.43025
 20
-6.75921
 30
0.0
 10
-0.43025
 20
-6.8587
 30
0.0
  0
SPLINE
  5
4B
330
1F
100
AcDbEntity
  8
Layer 1
 62
   250
370
     9
100
AcDbSpline
210
0.0
220
0.0
230
1.0
 70
    11
 71
     3
 72
    80
 73
    76
 74
     0
 42
0.0000000001
 43
0.0000000001
 12
1.0
 22
0.0
 32
0.0
 13
1.0
 23
0.0
 33
0.0
 40
0.0
 40
0.0
 40
0.0
 40
0.0
 40
0.05
 40
0.05
 40
0.05
 40
0.05
 40
0.1
 40
0.1
 40
0.1
 40
0.1
 40
0.15
 40
0.15
 40
0.15
 40
0.15
 40
0.2
 40
0.2
 40
0.2
 40
0.2
 40
0.25
 40
0.25
 40
0.25
 40
0.25
 40
0.3
 40
0.3
 40
0.3
 40
0.3
 40
0.35
 40
0.35
 40
0.35
 40
0.35
 40
0.4
 40
0.4
 40
0.4
 40
0.4
 40
0.45
 40
0.45
 40
0.45
 40
0.45
 40
0.5
 40
0.5
 40
0.5
 40
0.5
 40
0.55
 40
0.55
 40
0.55
 40
0.55
 40
0.6
 40
0.6
 40
0.6
 40
0.6
 40
0.65
 40
0.65
 40
0.65
 40
0.65
 40
0.7
 40
0.7
 40
0.7
 40
0.7
 40
0.75
 40
0.75
 40
0.75
 40
0.75
 40
0.8
 40
0.8
 40
0.8
 40
0.8
 40
0.85
 40
0.85
 40
0.85
 40
0.85
 40
0.9
 40
0.9
 40
0.9
 40
0.9
 40
1.0
 40
1.0
 40
1.0
 40
1.0
 10
0.35137
 20
-6.69952
 30
0.0
 10
0.35137
 20
-6.69952
 30
0.0
 10
0.27771
 20
-6.70545
 30
0.0
 10
0.27771
 20
-6.70545
 30
0.0
 10
0.27771
 20
-6.70545
 30
0.0
 10
0.27108
 20
-6.67624
 30
0.0
 10
0.26162
 20
-6.65493
 30
0.0
 10
0.24934
 20
-6.64167
 30
0.0
 10
0.24934
 20
-6.64167
 30
0.0
 10
0.22917
 20
-6.62036
 30
0.0
 10
0.20419
 20
-6.60977
 30
0.0
 10
0.17456
 20
-6.60977
 30
0.0
 10
0.17456
 20
-6.60977
 30
0.0
 10
0.15071
 20
-6.60977
 30
0.0
 10
0.12954
 20
-6.61641
 30
0.0
 10
0.11134
 20
-6.62967
 30
0.0
 10
0.11134
 20
-6.62967
 30
0.0
 10
0.08791
 20
-6.64675
 30
0.0
 10
0.06957
 20
-6.67158
 30
0.0
 10
0.05588
 20
-6.70432
 30
0.0
 10
0.05588
 20
-6.70432
 30
0.0
 10
0.04233
 20
-6.7372
 30
0.0
 10
0.03528
 20
-6.78391
 30
0.0
 10
0.03471
 20
-6.84444
 30
0.0
 10
0.03471
 20
-6.84444
 30
0.0
 10
0.05263
 20
-6.81721
 30
0.0
 10
0.07465
 20
-6.79689
 30
0.0
 10
0.10061
 20
-6.78377
 30
0.0
 10
0.10061
 20
-6.78377
 30
0.0
 10
0.12658
 20
-6.7705
 30
0.0
 10
0.15367
 20
-6.76387
 30
0.0
 10
0.18218
 20
-6.76387
 30
0.0
 10
0.18218
 20
-6.76387
 30
0.0
 10
0.23185
 20
-6.76387
 30
0.0
 10
0.27418
 20
-6.78221
 30
0.0
 10
0.30918
 20
-6.81876
 30
0.0
 10
0.30918
 20
-6.81876
 30
0.0
 10
0.34403
 20
-6.85531
 30
0.0
 10
0.36153
 20
-6.90244
 30
0.0
 10
0.36153
 20
-6.96044
 30
0.0
 10
0.36153
 20
-6.96044
 30
0.0
 10
0.36153
 20
-6.99854
 30
0.0
 10
0.35334
 20
-7.03382
 30
0.0
 10
0.33697
 20
-7.06655
 30
0.0
 10
0.33697
 20
-7.06655
 30
0.0
 10
0.32046
 20
-7.09929
 30
0.0
 10
0.29803
 20
-7.12427
 30
0.0
 10
0.26924
 20
-7.14162
 30
0.0
 10
0.26924
 20
-7.14162
 30
0.0
 10
0.2406
 20
-7.15898
 30
0.0
 10
0.208
 20
-7.16773
 30
0.0
 10
0.17159
 20
-7.16773
 30
0.0
 10
0.17159
 20
-7.16773
 30
0.0
 10
0.10964
 20
-7.16773
 30
0.0
 10
0.05898
 20
-7.14487
 30
0.0
 10
0.01976
 20
-7.09929
 30
0.0
 10
0.01976
 20
-7.09929
 30
0.0
 10
-0.01933
 20
-7.05371
 30
0.0
 10
-0.03895
 20
-6.9785
 30
0.0
 10
-0.03895
 20
-6.87379
 30
0.0
 10
-0.03895
 20
-6.87379
 30
0.0
 10
-0.03895
 20
-6.75667
 30
0.0
 10
-0.01722
 20
-6.67144
 30
0.0
 10
0.02611
 20
-6.61824
 30
0.0
 10
0.02611
 20
-6.61824
 30
0.0
 10
0.06392
 20
-6.57196
 30
0.0
 10
0.11487
 20
-6.54881
 30
0.0
 10
0.17907
 20
-6.54881
 30
0.0
 10
0.17907
 20
-6.54881
 30
0.0
 10
0.22677
 20
-6.54881
 30
0.0
 10
0.266
 20
-6.56222
 30
0.0
 10
0.29648
 20
-6.58889
 30
0.0
 10
0.29648
 20
-6.58889
 30
0.0
 10
0.32696
 20
-6.61556
 30
0.0
 10
0.3453
 20
-6.65239
 30
0.0
 10
0.35137
 20
-6.69952
 30
0.0
  0
SPLINE
  5
4C
330
1F
100
AcDbEntity
  8
Layer 1
 62
   250
370
     9
100
AcDbSpline
210
0.0
220
0.0
230
1.0
 70
    11
 71
     3
 72
    40
 73
    36
 74
     0
 42
0.0000000001
 43
0.0000000001
 12
1.0
 22
0.0
 32
0.0
 13
1.0
 23
0.0
 33
0.0
 40
0.0
 40
0.0
 40
0.0
 40
0.0
 40
0.1
 40
0.1
 40
0.1
 40
0.1
 40
0.2
 40
0.2
 40
0.2
 40
0.2
 40
0.3
 40
0.3
 40
0.3
 40
0.3
 40
0.4
 40
0.4
 40
0.4
 40
0.4
 40
0.5
 40
0.5
 40
0.5
 40
0.5
 40
0.6
 40
0.6
 40
0.6
 40
0.6
 40
0.7
 40
0.7
 40
0.7
 40
0.7
 40
0.8
 40
0.8
 40
0.8
 40
0.8
 40
1.0
 40
1.0
 40
1.0
 40
1.0
 10
0.04657
 20
-6.96114
 30
0.0
 10
0.04657
 20
-6.98682
 30
0.0
 10
0.05207
 20
-7.01138
 30
0.0
 10
0.06294
 20
-7.0348
 30
0.0
 10
0.06294
 20
-7.0348
 30
0.0
 10
0.0738
 20
-7.05823
 30
0.0
 10
0.08904
 20
-7.07601
 30
0.0
 10
0.10837
 20
-7.08828
 30
0.0
 10
0.10837
 20
-7.08828
 30
0.0
 10
0.12785
 20
-7.10056
 30
0.0
 10
0.14845
 20
-7.10677
 30
0.0
 10
0.17032
 20
-7.10677
 30
0.0
 10
0.17032
 20
-7.10677
 30
0.0
 10
0.20207
 20
-7.10677
 30
0.0
 10
0.22917
 20
-7.09407
 30
0.0
 10
0.2516
 20
-7.06867
 30
0.0
 10
0.2516
 20
-7.06867
 30
0.0
 10
0.27404
 20
-7.04327
 30
0.0
 10
0.28533
 20
-7.00884
 30
0.0
 10
0.28533
 20
-6.96523
 30
0.0
 10
0.28533
 20
-6.96523
 30
0.0
 10
0.28533
 20
-6.92332
 30
0.0
 10
0.27418
 20
-6.8903
 30
0.0
 10
0.25203
 20
-6.86617
 30
0.0
 10
0.25203
 20
-6.86617
 30
0.0
 10
0.22987
 20
-6.84204
 30
0.0
 10
0.20165
 20
-6.82991
 30
0.0
 10
0.16736
 20
-6.82991
 30
0.0
 10
0.16736
 20
-6.82991
 30
0.0
 10
0.13377
 20
-6.82991
 30
0.0
 10
0.10513
 20
-6.84204
 30
0.0
 10
0.0817
 20
-6.86617
 30
0.0
 10
0.0817
 20
-6.86617
 30
0.0
 10
0.05828
 20
-6.8903
 30
0.0
 10
0.04657
 20
-6.92191
 30
0.0
 10
0.04657
 20
-6.96114
 30
0.0
  0
SPLINE
  5
4D
330
1F
100
AcDbEntity
  8
Layer 1
 62
   250
370
     9
100
AcDbSpline
210
0.0
220
0.0
230
1.0
 70
    11
 71
     3
 72
    36
 73
    32
 74
     0
 42
0.0000000001
 43
0.0000000001
 12
1.0
 22
0.0
 32
0.0
 13
1.0
 23
0.0
 33
0.0
 40
0.0
 40
0.0
 40
0.0
 40
0.0
 40
0.1111111111111111
 40
0.1111111111111111
 40
0.1111111111111111
 40
0.1111111111111111
 40
0.2222222222222222
 40
0.2222222222222222
 40
0.2222222222222222
 40
0.2222222222222222
 40
0.3333333333333333
 40
0.3333333333333333
 40
0.3333333333333333
 40
0.3333333333333333
 40
0.4444444444444444
 40
0.4444444444444444
 40
0.4444444444444444
 40
0.4444444444444444
 40
0.5555555555555556
 40
0.5555555555555556
 40
0.5555555555555556
 40
0.5555555555555556
 40
0.6666666666666666
 40
0.6666666666666666
 40
0.6666666666666666
 40
0.6666666666666666
 40
0.7777777777777778
 40
0.7777777777777778
 40
0.7777777777777778
 40
0.7777777777777778
 40
1.0
 40
1.0
 40
1.0
 40
1.0
 10
0.83905
 20
-7.15757
 30
0.0
 10
0.83905
 20
-7.15757
 30
0.0
 10
0.83905
 20
-6.62247
 30
0.0
 10
0.83905
 20
-6.62247
 30
0.0
 10
0.83905
 20
-6.62247
 30
0.0
 10
0.83905
 20
-6.62247
 30
0.0
 10
0.63923
 20
-6.62247
 30
0.0
 10
0.63923
 20
-6.62247
 30
0.0
 10
0.63923
 20
-6.62247
 30
0.0
 10
0.63923
 20
-6.62247
 30
0.0
 10
0.63923
 20
-6.55135
 30
0.0
 10
0.63923
 20
-6.55135
 30
0.0
 10
0.63923
 20
-6.55135
 30
0.0
 10
0.63923
 20
-6.55135
 30
0.0
 10
1.1193
 20
-6.55135
 30
0.0
 10
1.1193
 20
-6.55135
 30
0.0
 10
1.1193
 20
-6.55135
 30
0.0
 10
1.1193
 20
-6.55135
 30
0.0
 10
1.1193
 20
-6.62247
 30
0.0
 10
1.1193
 20
-6.62247
 30
0.0
 10
1.1193
 20
-6.62247
 30
0.0
 10
1.1193
 20
-6.62247
 30
0.0
 10
0.91948
 20
-6.62247
 30
0.0
 10
0.91948
 20
-6.62247
 30
0.0
 10
0.91948
 20
-6.62247
 30
0.0
 10
0.91948
 20
-6.62247
 30
0.0
 10
0.91948
 20
-7.15757
 30
0.0
 10
0.91948
 20
-7.15757
 30
0.0
 10
0.91948
 20
-7.15757
 30
0.0
 10
0.91948
 20
-7.15757
 30
0.0
 10
0.83905
 20
-7.15757
 30
0.0
 10
0.83905
 20
-7.15757
 30
0.0
  0
SPLINE
  5
4E
330
1F
100
AcDbEntity
  8
Layer 1
 62
   250
370
     9
100
AcDbSpline
210
0.0
220
0.0
230
1.0
 70
    11
 71
     3
 72
    52
 73
    48
 74
     0
 42
0.0000000001
 43
0.0000000001
 12
1.0
 22
0.0
 32
0.0
 13
1.0
 23
0.0
 33
0.0
 40
0.0
 40
0.0
 40
0.0
 40
0.0
 40
0.0769230769230769
 40
0.0769230769230769
 40
0.0769230769230769
 40
0.0769230769230769
 40
0.1538461538461539
 40
0.1538461538461539
 40
0.1538461538461539
 40
0.1538461538461539
 40
0.2307692307692308
 40
0.2307692307692308
 40
0.2307692307692308
 40
0.2307692307692308
 40
0.3076923076923077
 40
0.3076923076923077
 40
0.3076923076923077
 40
0.3076923076923077
 40
0.3846153846153846
 40
0.3846153846153846
 40
0.3846153846153846
 40
0.3846153846153846
 40
0.4615384615384616
 40
0.4615384615384616
 40
0.4615384615384616
 40
0.4615384615384616
 40
0.5384615384615384
 40
0.5384615384615384
 40
0.5384615384615384
 40
0.5384615384615384
 40
0.6153846153846154
 40
0.6153846153846154
 40
0.6153846153846154
 40
0.6153846153846154
 40
0.6923076923076923
 40
0.6923076923076923
 40
0.6923076923076923
 40
0.6923076923076923
 40
0.7692307692307693
 40
0.7692307692307693
 40
0.7692307692307693
 40
0.7692307692307693
 40
0.8461538461538461
 40
0.8461538461538461
 40
0.8461538461538461
 40
0.8461538461538461
 40
1.0
 40
1.0
 40
1.0
 40
1.0
 10
1.20382
 20
-7.15757
 30
0.0
 10
1.20382
 20
-7.15757
 30
0.0
 10
1.20382
 20
-6.55135
 30
0.0
 10
1.20382
 20
-6.55135
 30
0.0
 10
1.20382
 20
-6.55135
 30
0.0
 10
1.20382
 20
-6.55135
 30
0.0
 10
1.64155
 20
-6.55135
 30
0.0
 10
1.64155
 20
-6.55135
 30
0.0
 10
1.64155
 20
-6.55135
 30
0.0
 10
1.64155
 20
-6.55135
 30
0.0
 10
1.64155
 20
-6.62247
 30
0.0
 10
1.64155
 20
-6.62247
 30
0.0
 10
1.64155
 20
-6.62247
 30
0.0
 10
1.64155
 20
-6.62247
 30
0.0
 10
1.28425
 20
-6.62247
 30
0.0
 10
1.28425
 20
-6.62247
 30
0.0
 10
1.28425
 20
-6.62247
 30
0.0
 10
1.28425
 20
-6.62247
 30
0.0
 10
1.28425
 20
-6.80874
 30
0.0
 10
1.28425
 20
-6.80874
 30
0.0
 10
1.28425
 20
-6.80874
 30
0.0
 10
1.28425
 20
-6.80874
 30
0.0
 10
1.61869
 20
-6.80874
 30
0.0
 10
1.61869
 20
-6.80874
 30
0.0
 10
1.61869
 20
-6.80874
 30
0.0
 10
1.61869
 20
-6.80874
 30
0.0
 10
1.61869
 20
-6.87986
 30
0.0
 10
1.61869
 20
-6.87986
 30
0.0
 10
1.61869
 20
-6.87986
 30
0.0
 10
1.61869
 20
-6.87986
 30
0.0
 10
1.28425
 20
-6.87986
 30
0.0
 10
1.28425
 20
-6.87986
 30
0.0
 10
1.28425
 20
-6.87986
 30
0.0
 10
1.28425
 20
-6.87986
 30
0.0
 10
1.28425
 20
-7.08645
 30
0.0
 10
1.28425
 20
-7.08645
 30
0.0
 10
1.28425
 20
-7.08645
 30
0.0
 10
1.28425
 20
-7.08645
 30
0.0
 10
1.65594
 20
-7.08645
 30
0.0
 10
1.65594
 20
-7.08645
 30
0.0
 10
1.65594
 20
-7.08645
 30
0.0
 10
1.65594
 20
-7.08645
 30
0.0
 10
1.65594
 20
-7.15757
 30
0.0
 10
1.65594
 20
-7.15757
 30
0.0
 10
1.65594
 20
-7.15757
 30
0.0
 10
1.65594
 20
-7.15757
 30
0.0
 10
1.20382
 20
-7.15757
 30
0.0
 10
1.20382
 20
-7.15757
 30
0.0
  0
SPLINE
  5
4F
330
1F
100
AcDbEntity
  8
Layer 1
 62
   250
370
     9
100
AcDbSpline
210
0.0
220
0.0
230
1.0
 70
    11
 71
     3
 72
    64
 73
    60
 74
     0
 42
0.0000000001
 43
0.0000000001
 12
1.0
 22
0.0
 32
0.0
 13
1.0
 23
0.0
 33
0.0
 40
0.0
 40
0.0
 40
0.0
 40
0.0
 40
0.0625
 40
0.0625
 40
0.0625
 40
0.0625
 40
0.125
 40
0.125
 40
0.125
 40
0.125
 40
0.1875
 40
0.1875
 40
0.1875
 40
0.1875
 40
0.25
 40
0.25
 40
0.25
 40
0.25
 40
0.3125
 40
0.3125
 40
0.3125
 40
0.3125
 40
0.375
 40
0.375
 40
0.375
 40
0.375
 40
0.4375
 40
0.4375
 40
0.4375
 40
0.4375
 40
0.5
 40
0.5
 40
0.5
 40
0.5
 40
0.5625
 40
0.5625
 40
0.5625
 40
0.5625
 40
0.625
 40
0.625
 40
0.625
 40
0.625
 40
0.6875
 40
0.6875
 40
0.6875
 40
0.6875
 40
0.75
 40
0.75
 40
0.75
 40
0.75
 40
0.8125
 40
0.8125
 40
0.8125
 40
0.8125
 40
0.875
 40
0.875
 40
0.875
 40
0.875
 40
1.0
 40
1.0
 40
1.0
 40
1.0
 10
1.76516
 20
-7.15757
 30
0.0
 10
1.76516
 20
-7.15757
 30
0.0
 10
1.76516
 20
-6.55135
 30
0.0
 10
1.76516
 20
-6.55135
 30
0.0
 10
1.76516
 20
-6.55135
 30
0.0
 10
1.76516
 20
-6.55135
 30
0.0
 10
1.88539
 20
-6.55135
 30
0.0
 10
1.88539
 20
-6.55135
 30
0.0
 10
1.88539
 20
-6.55135
 30
0.0
 10
1.88539
 20
-6.55135
 30
0.0
 10
2.02876
 20
-6.98047
 30
0.0
 10
2.02876
 20
-6.98047
 30
0.0
 10
2.02876
 20
-6.98047
 30
0.0
 10
2.04202
 20
-7.02041
 30
0.0
 10
2.05162
 20
-7.05033
 30
0.0
 10
2.05768
 20
-7.07022
 30
0.0
 10
2.05768
 20
-7.07022
 30
0.0
 10
2.0646
 20
-7.04821
 30
0.0
 10
2.07546
 20
-7.01575
 30
0.0
 10
2.09014
 20
-6.973
 30
0.0
 10
2.09014
 20
-6.973
 30
0.0
 10
2.09014
 20
-6.973
 30
0.0
 10
2.23605
 20
-6.55135
 30
0.0
 10
2.23605
 20
-6.55135
 30
0.0
 10
2.23605
 20
-6.55135
 30
0.0
 10
2.23605
 20
-6.55135
 30
0.0
 10
2.34344
 20
-6.55135
 30
0.0
 10
2.34344
 20
-6.55135
 30
0.0
 10
2.34344
 20
-6.55135
 30
0.0
 10
2.34344
 20
-6.55135
 30
0.0
 10
2.34344
 20
-7.15757
 30
0.0
 10
2.34344
 20
-7.15757
 30
0.0
 10
2.34344
 20
-7.15757
 30
0.0
 10
2.34344
 20
-7.15757
 30
0.0
 10
2.26639
 20
-7.15757
 30
0.0
 10
2.26639
 20
-7.15757
 30
0.0
 10
2.26639
 20
-7.15757
 30
0.0
 10
2.26639
 20
-7.15757
 30
0.0
 10
2.26639
 20
-6.65041
 30
0.0
 10
2.26639
 20
-6.65041
 30
0.0
 10
2.26639
 20
-6.65041
 30
0.0
 10
2.26639
 20
-6.65041
 30
0.0
 10
2.08943
 20
-7.15757
 30
0.0
 10
2.08943
 20
-7.15757
 30
0.0
 10
2.08943
 20
-7.15757
 30
0.0
 10
2.08943
 20
-7.15757
 30
0.0
 10
2.01719
 20
-7.15757
 30
0.0
 10
2.01719
 20
-7.15757
 30
0.0
 10
2.01719
 20
-7.15757
 30
0.0
 10
2.01719
 20
-7.15757
 30
0.0
 10
1.84221
 20
-6.6411
 30
0.0
 10
1.84221
 20
-6.6411
 30
0.0
 10
1.84221
 20
-6.6411
 30
0.0
 10
1.84221
 20
-6.6411
 30
0.0
 10
1.84221
 20
-7.15757
 30
0.0
 10
1.84221
 20
-7.15757
 30
0.0
 10
1.84221
 20
-7.15757
 30
0.0
 10
1.84221
 20
-7.15757
 30
0.0
 10
1.76516
 20
-7.15757
 30
0.0
 10
1.76516
 20
-7.15757
 30
0.0
  0
SPLINE
  5
50
330
1F
100
AcDbEntity
  8
Layer 1
 62
   250
370
     9
100
AcDbSpline
210
0.0
220
0.0
230
1.0
 70
    11
 71
     3
 72
    48
 73
    44
 74
     0
 42
0.0000000001
 43
0.0000000001
 12
1.0
 22
0.0
 32
0.0
 13
1.0
 23
0.0
 33
0.0
 40
0.0
 40
0.0
 40
0.0
 40
0.0
 40
0.0833333333333333
 40
0.0833333333333333
 40
0.0833333333333333
 40
0.0833333333333333
 40
0.1666666666666667
 40
0.1666666666666667
 40
0.1666666666666667
 40
0.1666666666666667
 40
0.25
 40
0.25
 40
0.25
 40
0.25
 40
0.3333333333333333
 40
0.3333333333333333
 40
0.3333333333333333
 40
0.3333333333333333
 40
0.4166666666666667
 40
0.4166666666666667
 40
0.4166666666666667
 40
0.4166666666666667
 40
0.5
 40
0.5
 40
0.5
 40
0.5
 40
0.5833333333333334
 40
0.5833333333333334
 40
0.5833333333333334
 40
0.5833333333333334
 40
0.6666666666666666
 40
0.6666666666666666
 40
0.6666666666666666
 40
0.6666666666666666
 40
0.75
 40
0.75
 40
0.75
 40
0.75
 40
0.8333333333333334
 40
0.8333333333333334
 40
0.8333333333333334
 40
0.8333333333333334
 40
1.0
 40
1.0
 40
1.0
 40
1.0
 10
2.47213
 20
-7.15757
 30
0.0
 10
2.47213
 20
-7.15757
 30
0.0
 10
2.47213
 20
-6.55135
 30
0.0
 10
2.47213
 20
-6.55135
 30
0.0
 10
2.47213
 20
-6.55135
 30
0.0
 10
2.47213
 20
-6.55135
 30
0.0
 10
2.70102
 20
-6.55135
 30
0.0
 10
2.70102
 20
-6.55135
 30
0.0
 10
2.70102
 20
-6.55135
 30
0.0
 10
2.74123
 20
-6.55135
 30
0.0
 10
2.772
 20
-6.55333
 30
0.0
 10
2.7933
 20
-6.55714
 30
0.0
 10
2.7933
 20
-6.55714
 30
0.0
 10
2.82308
 20
-6.56208
 30
0.0
 10
2.84806
 20
-6.57153
 30
0.0
 10
2.86823
 20
-6.58536
 30
0.0
 10
2.86823
 20
-6.58536
 30
0.0
 10
2.88841
 20
-6.59933
 30
0.0
 10
2.90464
 20
-6.61881
 30
0.0
 10
2.91692
 20
-6.64378
 30
0.0
 10
2.91692
 20
-6.64378
 30
0.0
 10
2.92919
 20
-6.66876
 30
0.0
 10
2.93526
 20
-6.69628
 30
0.0
 10
2.93526
 20
-6.72633
 30
0.0
 10
2.93526
 20
-6.72633
 30
0.0
 10
2.93526
 20
-6.7777
 30
0.0
 10
2.91889
 20
-6.8213
 30
0.0
 10
2.88601
 20
-6.85686
 30
0.0
 10
2.88601
 20
-6.85686
 30
0.0
 10
2.85328
 20
-6.89256
 30
0.0
 10
2.79387
 20
-6.91034
 30
0.0
 10
2.70807
 20
-6.91034
 30
0.0
 10
2.70807
 20
-6.91034
 30
0.0
 10
2.70807
 20
-6.91034
 30
0.0
 10
2.55257
 20
-6.91034
 30
0.0
 10
2.55257
 20
-6.91034
 30
0.0
 10
2.55257
 20
-6.91034
 30
0.0
 10
2.55257
 20
-6.91034
 30
0.0
 10
2.55257
 20
-7.15757
 30
0.0
 10
2.55257
 20
-7.15757
 30
0.0
 10
2.55257
 20
-7.15757
 30
0.0
 10
2.55257
 20
-7.15757
 30
0.0
 10
2.47213
 20
-7.15757
 30
0.0
 10
2.47213
 20
-7.15757
 30
0.0
  0
SPLINE
  5
51
330
1F
100
AcDbEntity
  8
Layer 1
 62
   250
370
     9
100
AcDbSpline
210
0.0
220
0.0
230
1.0
 70
    11
 71
     3
 72
    36
 73
    32
 74
     0
 42
0.0000000001
 43
0.0000000001
 12
1.0
 22
0.0
 32
0.0
 13
1.0
 23
0.0
 33
0.0
 40
0.0
 40
0.0
 40
0.0
 40
0.0
 40
0.1111111111111111
 40
0.1111111111111111
 40
0.1111111111111111
 40
0.1111111111111111
 40
0.2222222222222222
 40
0.2222222222222222
 40
0.2222222222222222
 40
0.2222222222222222
 40
0.3333333333333333
 40
0.3333333333333333
 40
0.3333333333333333
 40
0.3333333333333333
 40
0.4444444444444444
 40
0.4444444444444444
 40
0.4444444444444444
 40
0.4444444444444444
 40
0.5555555555555556
 40
0.5555555555555556
 40
0.5555555555555556
 40
0.5555555555555556
 40
0.6666666666666666
 40
0.6666666666666666
 40
0.6666666666666666
 40
0.6666666666666666
 40
0.7777777777777778
 40
0.7777777777777778
 40
0.7777777777777778
 40
0.7777777777777778
 40
1.0
 40
1.0
 40
1.0
 40
1.0
 10
2.55257
 20
-6.83922
 30
0.0
 10
2.55257
 20
-6.83922
 30
0.0
 10
2.7092
 20
-6.83922
 30
0.0
 10
2.7092
 20
-6.83922
 30
0.0
 10
2.7092
 20
-6.83922
 30
0.0
 10
2.76113
 20
-6.83922
 30
0.0
 10
2.79782
 20
-6.82963
 30
0.0
 10
2.81969
 20
-6.81029
 30
0.0
 10
2.81969
 20
-6.81029
 30
0.0
 10
2.84142
 20
-6.79096
 30
0.0
 10
2.85229
 20
-6.76387
 30
0.0
 10
2.85229
 20
-6.72873
 30
0.0
 10
2.85229
 20
-6.72873
 30
0.0
 10
2.85229
 20
-6.70347
 30
0.0
 10
2.84594
 20
-6.68174
 30
0.0
 10
2.8331
 20
-6.66368
 30
0.0
 10
2.8331
 20
-6.66368
 30
0.0
 10
2.82026
 20
-6.64562
 30
0.0
 10
2.80332
 20
-6.63362
 30
0.0
 10
2.78244
 20
-6.62784
 30
0.0
 10
2.78244
 20
-6.62784
 30
0.0
 10
2.76889
 20
-6.62431
 30
0.0
 10
2.74391
 20
-6.62247
 30
0.0
 10
2.70765
 20
-6.62247
 30
0.0
 10
2.70765
 20
-6.62247
 30
0.0
 10
2.70765
 20
-6.62247
 30
0.0
 10
2.55257
 20
-6.62247
 30
0.0
 10
2.55257
 20
-6.62247
 30
0.0
 10
2.55257
 20
-6.62247
 30
0.0
 10
2.55257
 20
-6.62247
 30
0.0
 10
2.55257
 20
-6.83922
 30
0.0
 10
2.55257
 20
-6.83922
 30
0.0
  0
SPLINE
  5
52
330
1F
100
AcDbEntity
  8
Layer 1
 62
   250
370
     9
100
AcDbSpline
210
0.0
220
0.0
230
1.0
 70
    11
 71
     3
 72
    28
 73
    24
 74
     0
 42
0.0000000001
 43
0.0000000001
 12
1.0
 22
0.0
 32
0.0
 13
1.0
 23
0.0
 33
0.0
 40
0.0
 40
0.0
 40
0.0
 40
0.0
 40
0.1428571428571428
 40
0.1428571428571428
 40
0.1428571428571428
 40
0.1428571428571428
 40
0.2857142857142857
 40
0.2857142857142857
 40
0.2857142857142857
 40
0.2857142857142857
 40
0.4285714285714285
 40
0.4285714285714285
 40
0.4285714285714285
 40
0.4285714285714285
 40
0.5714285714285714
 40
0.5714285714285714
 40
0.5714285714285714
 40
0.5714285714285714
 40
0.7142857142857143
 40
0.7142857142857143
 40
0.7142857142857143
 40
0.7142857142857143
 40
1.0
 40
1.0
 40
1.0
 40
1.0
 10
3.03348
 20
-7.15757
 30
0.0
 10
3.03348
 20
-7.15757
 30
0.0
 10
3.03348
 20
-6.55135
 30
0.0
 10
3.03348
 20
-6.55135
 30
0.0
 10
3.03348
 20
-6.55135
 30
0.0
 10
3.03348
 20
-6.55135
 30
0.0
 10
3.11391
 20
-6.55135
 30
0.0
 10
3.11391
 20
-6.55135
 30
0.0
 10
3.11391
 20
-6.55135
 30
0.0
 10
3.11391
 20
-6.55135
 30
0.0
 10
3.11391
 20
-7.08645
 30
0.0
 10
3.11391
 20
-7.08645
 30
0.0
 10
3.11391
 20
-7.08645
 30
0.0
 10
3.11391
 20
-7.08645
 30
0.0
 10
3.41194
 20
-7.08645
 30
0.0
 10
3.41194
 20
-7.08645
 30
0.0
 10
3.41194
 20
-7.08645
 30
0.0
 10
3.41194
 20
-7.08645
 30
0.0
 10
3.41194
 20
-7.15757
 30
0.0
 10
3.41194
 20
-7.15757
 30
0.0
 10
3.41194
 20
-7.15757
 30
0.0
 10
3.41194
 20
-7.15757
 30
0.0
 10
3.03348
 20
-7.15757
 30
0.0
 10
3.03348
 20
-7.15757
 30
0.0
  0
SPLINE
  5
53
330
1F
100
AcDbEntity
  8
Layer 1
 62
   250
370
     9
100
AcDbSpline
210
0.0
220
0.0
230
1.0
 70
    11
 71
     3
 72
    36
 73
    32
 74
     0
 42
0.0000000001
 43
0.0000000001
 12
1.0
 22
0.0
 32
0.0
 13
1.0
 23
0.0
 33
0.0
 40
0.0
 40
0.0
 40
0.0
 40
0.0
 40
0.1111111111111111
 40
0.1111111111111111
 40
0.1111111111111111
 40
0.1111111111111111
 40
0.2222222222222222
 40
0.2222222222222222
 40
0.2222222222222222
 40
0.2222222222222222
 40
0.3333333333333333
 40
0.3333333333333333
 40
0.3333333333333333
 40
0.3333333333333333
 40
0.4444444444444444
 40
0.4444444444444444
 40
0.4444444444444444
 40
0.4444444444444444
 40
0.5555555555555556
 40
0.5555555555555556
 40
0.5555555555555556
 40
0.5555555555555556
 40
0.6666666666666666
 40
0.6666666666666666
 40
0.6666666666666666
 40
0.6666666666666666
 40
0.7777777777777778
 40
0.7777777777777778
 40
0.7777777777777778
 40
0.7777777777777778
 40
1.0
 40
1.0
 40
1.0
 40
1.0
 10
3.44129
 20
-7.15757
 30
0.0
 10
3.44129
 20
-7.15757
 30
0.0
 10
3.67384
 20
-6.55135
 30
0.0
 10
3.67384
 20
-6.55135
 30
0.0
 10
3.67384
 20
-6.55135
 30
0.0
 10
3.67384
 20
-6.55135
 30
0.0
 10
3.76204
 20
-6.55135
 30
0.0
 10
3.76204
 20
-6.55135
 30
0.0
 10
3.76204
 20
-6.55135
 30
0.0
 10
3.76204
 20
-6.55135
 30
0.0
 10
4.00884
 20
-7.15757
 30
0.0
 10
4.00884
 20
-7.15757
 30
0.0
 10
4.00884
 20
-7.15757
 30
0.0
 10
4.00884
 20
-7.15757
 30
0.0
 10
3.91754
 20
-7.15757
 30
0.0
 10
3.91754
 20
-7.15757
 30
0.0
 10
3.91754
 20
-7.15757
 30
0.0
 10
3.91754
 20
-7.15757
 30
0.0
 10
3.84741
 20
-6.97384
 30
0.0
 10
3.84741
 20
-6.97384
 30
0.0
 10
3.84741
 20
-6.97384
 30
0.0
 10
3.84741
 20
-6.97384
 30
0.0
 10
3.59214
 20
-6.97384
 30
0.0
 10
3.59214
 20
-6.97384
 30
0.0
 10
3.59214
 20
-6.97384
 30
0.0
 10
3.59214
 20
-6.97384
 30
0.0
 10
3.52638
 20
-7.15757
 30
0.0
 10
3.52638
 20
-7.15757
 30
0.0
 10
3.52638
 20
-7.15757
 30
0.0
 10
3.52638
 20
-7.15757
 30
0.0
 10
3.44129
 20
-7.15757
 30
0.0
 10
3.44129
 20
-7.15757
 30
0.0
  0
SPLINE
  5
54
330
1F
100
AcDbEntity
  8
Layer 1
 62
   250
370
     9
100
AcDbSpline
210
0.0
220
0.0
230
1.0
 70
    11
 71
     3
 72
    24
 73
    20
 74
     0
 42
0.0000000001
 43
0.0000000001
 12
1.0
 22
0.0
 32
0.0
 13
1.0
 23
0.0
 33
0.0
 40
0.0
 40
0.0
 40
0.0
 40
0.0
 40
0.1666666666666667
 40
0.1666666666666667
 40
0.1666666666666667
 40
0.1666666666666667
 40
0.3333333333333333
 40
0.3333333333333333
 40
0.3333333333333333
 40
0.3333333333333333
 40
0.5
 40
0.5
 40
0.5
 40
0.5
 40
0.6666666666666666
 40
0.6666666666666666
 40
0.6666666666666666
 40
0.6666666666666666
 40
1.0
 40
1.0
 40
1.0
 40
1.0
 10
3.6157
 20
-6.90865
 30
0.0
 10
3.6157
 20
-6.90865
 30
0.0
 10
3.82229
 20
-6.90865
 30
0.0
 10
3.82229
 20
-6.90865
 30
0.0
 10
3.82229
 20
-6.90865
 30
0.0
 10
3.82229
 20
-6.90865
 30
0.0
 10
3.75907
 20
-6.74059
 30
0.0
 10
3.75907
 20
-6.74059
 30
0.0
 10
3.75907
 20
-6.74059
 30
0.0
 10
3.74002
 20
-6.6895
 30
0.0
 10
3.72563
 20
-6.64731
 30
0.0
 10
3.71561
 20
-6.61401
 30
0.0
 10
3.71561
 20
-6.61401
 30
0.0
 10
3.70729
 20
-6.65352
 30
0.0
 10
3.69614
 20
-6.69232
 30
0.0
 10
3.68217
 20
-6.73071
 30
0.0
 10
3.68217
 20
-6.73071
 30
0.0
 10
3.68217
 20
-6.73071
 30
0.0
 10
3.6157
 20
-6.90865
 30
0.0
 10
3.6157
 20
-6.90865
 30
0.0
  0
SPLINE
  5
55
330
1F
100
AcDbEntity
  8
Layer 1
 62
   250
370
     9
100
AcDbSpline
210
0.0
220
0.0
230
1.0
 70
    11
 71
     3
 72
    36
 73
    32
 74
     0
 42
0.0000000001
 43
0.0000000001
 12
1.0
 22
0.0
 32
0.0
 13
1.0
 23
0.0
 33
0.0
 40
0.0
 40
0.0
 40
0.0
 40
0.0
 40
0.1111111111111111
 40
0.1111111111111111
 40
0.1111111111111111
 40
0.1111111111111111
 40
0.2222222222222222
 40
0.2222222222222222
 40
0.2222222222222222
 40
0.2222222222222222
 40
0.3333333333333333
 40
0.3333333333333333
 40
0.3333333333333333
 40
0.3333333333333333
 40
0.4444444444444444
 40
0.4444444444444444
 40
0.4444444444444444
 40
0.4444444444444444
 40
0.5555555555555556
 40
0.5555555555555556
 40
0.5555555555555556
 40
0.5555555555555556
 40
0.6666666666666666
 40
0.6666666666666666
 40
0.6666666666666666
 40
0.6666666666666666
 40
0.7777777777777778
 40
0.7777777777777778
 40
0.7777777777777778
 40
0.7777777777777778
 40
1.0
 40
1.0
 40
1.0
 40
1.0
 10
4.16379
 20
-7.15757
 30
0.0
 10
4.16379
 20
-7.15757
 30
0.0
 10
4.16379
 20
-6.62247
 30
0.0
 10
4.16379
 20
-6.62247
 30
0.0
 10
4.16379
 20
-6.62247
 30
0.0
 10
4.16379
 20
-6.62247
 30
0.0
 10
3.96397
 20
-6.62247
 30
0.0
 10
3.96397
 20
-6.62247
 30
0.0
 10
3.96397
 20
-6.62247
 30
0.0
 10
3.96397
 20
-6.62247
 30
0.0
 10
3.96397
 20
-6.55135
 30
0.0
 10
3.96397
 20
-6.55135
 30
0.0
 10
3.96397
 20
-6.55135
 30
0.0
 10
3.96397
 20
-6.55135
 30
0.0
 10
4.44404
 20
-6.55135
 30
0.0
 10
4.44404
 20
-6.55135
 30
0.0
 10
4.44404
 20
-6.55135
 30
0.0
 10
4.44404
 20
-6.55135
 30
0.0
 10
4.44404
 20
-6.62247
 30
0.0
 10
4.44404
 20
-6.62247
 30
0.0
 10
4.44404
 20
-6.62247
 30
0.0
 10
4.44404
 20
-6.62247
 30
0.0
 10
4.24422
 20
-6.62247
 30
0.0
 10
4.24422
 20
-6.62247
 30
0.0
 10
4.24422
 20
-6.62247
 30
0.0
 10
4.24422
 20
-6.62247
 30
0.0
 10
4.24422
 20
-7.15757
 30
0.0
 10
4.24422
 20
-7.15757
 30
0.0
 10
4.24422
 20
-7.15757
 30
0.0
 10
4.24422
 20
-7.15757
 30
0.0
 10
4.16379
 20
-7.15757
 30
0.0
 10
4.16379
 20
-7.15757
 30
0.0
  0
SPLINE
  5
56
330
1F
100
AcDbEntity
  8
Layer 1
 62
   250
370
     9
100
AcDbSpline
210
0.0
220
0.0
230
1.0
 70
    11
 71
     3
 72
    52
 73
    48
 74
     0
 42
0.0000000001
 43
0.0000000001
 12
1.0
 22
0.0
 32
0.0
 13
1.0
 23
0.0
 33
0.0
 40
0.0
 40
0.0
 40
0.0
 40
0.0
 40
0.0769230769230769
 40
0.0769230769230769
 40
0.0769230769230769
 40
0.0769230769230769
 40
0.1538461538461539
 40
0.1538461538461539
 40
0.1538461538461539
 40
0.1538461538461539
 40
0.2307692307692308
 40
0.2307692307692308
 40
0.2307692307692308
 40
0.2307692307692308
 40
0.3076923076923077
 40
0.3076923076923077
 40
0.3076923076923077
 40
0.3076923076923077
 40
0.3846153846153846
 40
0.3846153846153846
 40
0.3846153846153846
 40
0.3846153846153846
 40
0.4615384615384616
 40
0.4615384615384616
 40
0.4615384615384616
 40
0.4615384615384616
 40
0.5384615384615384
 40
0.5384615384615384
 40
0.5384615384615384
 40
0.5384615384615384
 40
0.6153846153846154
 40
0.6153846153846154
 40
0.6153846153846154
 40
0.6153846153846154
 40
0.6923076923076923
 40
0.6923076923076923
 40
0.6923076923076923
 40
0.6923076923076923
 40
0.7692307692307693
 40
0.7692307692307693
 40
0.7692307692307693
 40
0.7692307692307693
 40
0.8461538461538461
 40
0.8461538461538461
 40
0.8461538461538461
 40
0.8461538461538461
 40
1.0
 40
1.0
 40
1.0
 40
1.0
 10
4.52856
 20
-7.15757
 30
0.0
 10
4.52856
 20
-7.15757
 30
0.0
 10
4.52856
 20
-6.55135
 30
0.0
 10
4.52856
 20
-6.55135
 30
0.0
 10
4.52856
 20
-6.55135
 30
0.0
 10
4.52856
 20
-6.55135
 30
0.0
 10
4.96629
 20
-6.55135
 30
0.0
 10
4.96629
 20
-6.55135
 30
0.0
 10
4.96629
 20
-6.55135
 30
0.0
 10
4.96629
 20
-6.55135
 30
0.0
 10
4.96629
 20
-6.62247
 30
0.0
 10
4.96629
 20
-6.62247
 30
0.0
 10
4.96629
 20
-6.62247
 30
0.0
 10
4.96629
 20
-6.62247
 30
0.0
 10
4.60899
 20
-6.62247
 30
0.0
 10
4.60899
 20
-6.62247
 30
0.0
 10
4.60899
 20
-6.62247
 30
0.0
 10
4.60899
 20
-6.62247
 30
0.0
 10
4.60899
 20
-6.80874
 30
0.0
 10
4.60899
 20
-6.80874
 30
0.0
 10
4.60899
 20
-6.80874
 30
0.0
 10
4.60899
 20
-6.80874
 30
0.0
 10
4.94343
 20
-6.80874
 30
0.0
 10
4.94343
 20
-6.80874
 30
0.0
 10
4.94343
 20
-6.80874
 30
0.0
 10
4.94343
 20
-6.80874
 30
0.0
 10
4.94343
 20
-6.87986
 30
0.0
 10
4.94343
 20
-6.87986
 30
0.0
 10
4.94343
 20
-6.87986
 30
0.0
 10
4.94343
 20
-6.87986
 30
0.0
 10
4.60899
 20
-6.87986
 30
0.0
 10
4.60899
 20
-6.87986
 30
0.0
 10
4.60899
 20
-6.87986
 30
0.0
 10
4.60899
 20
-6.87986
 30
0.0
 10
4.60899
 20
-7.08645
 30
0.0
 10
4.60899
 20
-7.08645
 30
0.0
 10
4.60899
 20
-7.08645
 30
0.0
 10
4.60899
 20
-7.08645
 30
0.0
 10
4.98068
 20
-7.08645
 30
0.0
 10
4.98068
 20
-7.08645
 30
0.0
 10
4.98068
 20
-7.08645
 30
0.0
 10
4.98068
 20
-7.08645
 30
0.0
 10
4.98068
 20
-7.15757
 30
0.0
 10
4.98068
 20
-7.15757
 30
0.0
 10
4.98068
 20
-7.15757
 30
0.0
 10
4.98068
 20
-7.15757
 30
0.0
 10
4.52856
 20
-7.15757
 30
0.0
 10
4.52856
 20
-7.15757
 30
0.0
  0
SPLINE
  5
57
330
1F
100
AcDbEntity
  8
Layer 1
 62
     3
370
     9
100
AcDbSpline
210
0.0
220
0.0
230
1.0
 70
     8
 71
     3
 72
    32
 73
    28
 74
     0
 42
0.0000000001
 43
0.0000000001
 12
1.0
 22
0.0
 32
0.0
 13
1.0
 23
0.0
 33
0.0
 40
0.0
 40
0.0
 40
0.0
 40
0.0
 40
0.125
 40
0.125
 40
0.125
 40
0.125
 40
0.25
 40
0.25
 40
0.25
 40
0.25
 40
0.375
 40
0.375
 40
0.375
 40
0.375
 40
0.5
 40
0.5
 40
0.5
 40
0.5
 40
0.625
 40
0.625
 40
0.625
 40
0.625
 40
0.75
 40
0.75
 40
0.75
 40
0.75
 40
1.0
 40
1.0
 40
1.0
 40
1.0
 10
2.13461
 20
5.67791
 30
0.0
 10
2.13461
 20
5.67791
 30
0.0
 10
-10.1245
 20
5.67791
 30
0.0
 10
-10.1245
 20
5.67791
 30
0.0
 10
-10.1245
 20
5.67791
 30
0.0
 10
-10.19524
 20
5.67786
 30
0.0
 10
-10.26307
 20
5.64971
 30
0.0
 10
-10.31307
 20
5.59966
 30
0.0
 10
-10.31307
 20
5.59966
 30
0.0
 10
-10.36305
 20
5.5496
 30
0.0
 10
-10.39112
 20
5.48207
 30
0.0
 10
-10.39108
 20
5.41133
 30
0.0
 10
-10.39108
 20
5.41133
 30
0.0
 10
-10.39108
 20
5.41133
 30
0.0
 10
-10.39108
 20
-4.88922
 30
0.0
 10
-10.39108
 20
-4.88922
 30
0.0
 10
-10.39108
 20
-4.88922
 30
0.0
 10
-10.39103
 20
-4.95997
 30
0.0
 10
-10.36288
 20
-5.0278
 30
0.0
 10
-10.31283
 20
-5.07778
 30
0.0
 10
-10.31283
 20
-5.07778
 30
0.0
 10
-10.26277
 20
-5.12778
 30
0.0
 10
-10.19524
 20
-5.15584
 30
0.0
 10
-10.1245
 20
-5.15579
 30
0.0
 10
-10.1245
 20
-5.15579
 30
0.0
 10
-10.1245
 20
-5.15579
 30
0.0
 10
2.13461
 20
-5.15579
 30
0.0
 10
2.13461
 20
-5.15579
 30
0.0
  0
SPLINE
  5
58
330
1F
100
AcDbEntity
  8
Layer 1
 62
     3
370
     9
100
AcDbSpline
210
0.0
220
0.0
230
1.0
 70
     8
 71
     3
 72
    32
 73
    28
 74
     0
 42
0.0000000001
 43
0.0000000001
 12
1.0
 22
0.0
 32
0.0
 13
1.0
 23
0.0
 33
0.0
 40
0.0
 40
0.0
 40
0.0
 40
0.0
 40
0.125
 40
0.125
 40
0.125
 40
0.125
 40
0.25
 40
0.25
 40
0.25
 40
0.25
 40
0.375
 40
0.375
 40
0.375
 40
0.375
 40
0.5
 40
0.5
 40
0.5
 40
0.5
 40
0.625
 40
0.625
 40
0.625
 40
0.625
 40
0.75
 40
0.75
 40
0.75
 40
0.75
 40
1.0
 40
1.0
 40
1.0
 40
1.0
 10
2.13461
 20
5.67791
 30
0.0
 10
2.13461
 20
5.67791
 30
0.0
 10
10.33264
 20
5.67791
 30
0.0
 10
10.33264
 20
5.67791
 30
0.0
 10
10.33264
 20
5.67791
 30
0.0
 10
10.40329
 20
5.67795
 30
0.0
 10
10.47107
 20
5.64993
 30
0.0
 10
10.52107
 20
5.59999
 30
0.0
 10
10.52107
 20
5.59999
 30
0.0
 10
10.57106
 20
5.55007
 30
0.0
 10
10.59917
 20
5.48198
 30
0.0
 10
10.59921
 20
5.41133
 30
0.0
 10
10.59921
 20
5.41133
 30
0.0
 10
10.59921
 20
5.41133
 30
0.0
 10
10.59921
 20
-4.88922
 30
0.0
 10
10.59921
 20
-4.88922
 30
0.0
 10
10.59921
 20
-4.88922
 30
0.0
 10
10.59926
 20
-4.95987
 30
0.0
 10
10.57123
 20
-5.02765
 30
0.0
 10
10.52131
 20
-5.07764
 30
0.0
 10
10.52131
 20
-5.07764
 30
0.0
 10
10.47137
 20
-5.12764
 30
0.0
 10
10.40329
 20
-5.15575
 30
0.0
 10
10.33264
 20
-5.15579
 30
0.0
 10
10.33264
 20
-5.15579
 30
0.0
 10
10.33264
 20
-5.15579
 30
0.0
 10
2.13461
 20
-5.15579
 30
0.0
 10
2.13461
 20
-5.15579
 30
0.0
  0
SPLINE
  5
5A
330
1F
100
AcDbEntity
  8
layer 2
 62
     1
370
     9
100
AcDbSpline
210
0.0
220
0.0
230
1.0
 70
    24
 71
     3
 72
     8
 73
     4
 74
     0
 42
0.0000000001
 43
0.0000000001
 12
1.0
 22
0.0
 32
0.0
 13
1.0
 23
0.0
 33
0.0
 40
0.0
 40
0.0
 40
0.0
 40
0.0
 40
1.0
 40
1.0
 40
1.0
 40
1.0
 10
-10.39108
 20
5.54461
 30
0.0
 10
-10.39108
 20
5.54461
 30
0.0
 10
-10.39108
 20
6.85371
 30
0.0
 10
-10.39108
 20
6.85371
 30
0.0
  0
SPLINE
  5
5B
330
1F
100
AcDbEntity
  8
layer 2
 62
     1
370
     9
100
AcDbSpline
210
0.0
220
0.0
230
1.0
 70
    24
 71
     3
 72
     8
 73
     4
 74
     0
 42
0.0000000001
 43
0.0000000001
 12
1.0
 22
0.0
 32
0.0
 13
1.0
 23
0.0
 33
0.0
 40
0.0
 40
0.0
 40
0.0
 40
0.0
 40
1.0
 40
1.0
 40
1.0
 40
1.0
 10
10.59921
 20
5.54461
 30
0.0
 10
10.59921
 20
5.54461
 30
0.0
 10
10.59921
 20
6.85371
 30
0.0
 10
10.59921
 20
6.85371
 30
0.0
  0
SPLINE
  5
5C
330
1F
100
AcDbEntity
  8
layer 2
 62
     1
370
     9
100
AcDbSpline
210
0.0
220
0.0
230
1.0
 70
    24
 71
     3
 72
     8
 73
     4
 74
     0
 42
0.0000000001
 43
0.0000000001
 12
1.0
 22
0.0
 32
0.0
 13
1.0
 23
0.0
 33
0.0
 40
0.0
 40
0.0
 40
0.0
 40
0.0
 40
1.0
 40
1.0
 40
1.0
 40
1.0
 10
-9.85792
 20
6.58714
 30
0.0
 10
-9.85792
 20
6.58714
 30
0.0
 10
10.06606
 20
6.58714
 30
0.0
 10
10.06606
 20
6.58714
 30
0.0
  0
SPLINE
  5
5D
330
1F
100
AcDbEntity
  8
layer 2
 62
     1
370
     9
100
AcDbSpline
210
0.0
220
0.0
230
1.0
 70
    27
 71
     3
 72
    12
 73
     8
 74
     0
 42
0.0000000001
 43
0.0000000001
 12
1.0
 22
0.0
 32
0.0
 13
1.0
 23
0.0
 33
0.0
 40
0.0
 40
0.0
 40
0.0
 40
0.0
 40
0.3333333333333333
 40
0.3333333333333333
 40
0.3333333333333333
 40
0.3333333333333333
 40
1.0
 40
1.0
 40
1.0
 40
1.0
 10
-9.85792
 20
6.676
 30
0.0
 10
-9.85792
 20
6.676
 30
0.0
 10
-10.39108
 20
6.58714
 30
0.0
 10
-10.39108
 20
6.58714
 30
0.0
 10
-10.39108
 20
6.58714
 30
0.0
 10
-10.39108
 20
6.58714
 30
0.0
 10
-9.85792
 20
6.676
 30
0.0
 10
-9.85792
 20
6.676
 30
0.0
  0
SPLINE
  5
5E
330
1F
100
AcDbEntity
  8
layer 2
 62
     1
370
     9
100
AcDbSpline
210
0.0
220
0.0
230
1.0
 70
     8
 71
     3
 72
    12
 73
     8
 74
     0
 42
0.0000000001
 43
0.0000000001
 12
1.0
 22
0.0
 32
0.0
 13
1.0
 23
0.0
 33
0.0
 40
0.0
 40
0.0
 40
0.0
 40
0.0
 40
0.3333333333333333
 40
0.3333333333333333
 40
0.3333333333333333
 40
0.3333333333333333
 40
1.0
 40
1.0
 40
1.0
 40
1.0
 10
-10.39108
 20
6.58714
 30
0.0
 10
-10.39108
 20
6.58714
 30
0.0
 10
-9.85792
 20
6.49828
 30
0.0
 10
-9.85792
 20
6.49828
 30
0.0
 10
-9.85792
 20
6.49828
 30
0.0
 10
-9.85792
 20
6.49828
 30
0.0
 10
-9.85792
 20
6.676
 30
0.0
 10
-9.85792
 20
6.676
 30
0.0
  0
SPLINE
  5
5F
330
1F
100
AcDbEntity
  8
layer 2
 62
     1
370
     9
100
AcDbSpline
210
0.0
220
0.0
230
1.0
 70
    24
 71
     3
 72
     8
 73
     4
 74
     0
 42
0.0000000001
 43
0.0000000001
 12
1.0
 22
0.0
 32
0.0
 13
1.0
 23
0.0
 33
0.0
 40
0.0
 40
0.0
 40
0.0
 40
0.0
 40
1.0
 40
1.0
 40
1.0
 40
1.0
 10
-9.85792
 20
6.676
 30
0.0
 10
-9.85792
 20
6.676
 30
0.0
 10
-10.39108
 20
6.58714
 30
0.0
 10
-10.39108
 20
6.58714
 30
0.0
  0
SPLINE
  5
60
330
1F
100
AcDbEntity
  8
layer 2
 62
     1
370
     9
100
AcDbSpline
210
0.0
220
0.0
230
1.0
 70
     8
 71
     3
 72
    12
 73
     8
 74
     0
 42
0.0000000001
 43
0.0000000001
 12
1.0
 22
0.0
 32
0.0
 13
1.0
 23
0.0
 33
0.0
 40
0.0
 40
0.0
 40
0.0
 40
0.0
 40
0.3333333333333333
 40
0.3333333333333333
 40
0.3333333333333333
 40
0.3333333333333333
 40
1.0
 40
1.0
 40
1.0
 40
1.0
 10
-10.39108
 20
6.58714
 30
0.0
 10
-10.39108
 20
6.58714
 30
0.0
 10
-9.85792
 20
6.49828
 30
0.0
 10
-9.85792
 20
6.49828
 30
0.0
 10
-9.85792
 20
6.49828
 30
0.0
 10
-9.85792
 20
6.49828
 30
0.0
 10
-9.85792
 20
6.676
 30
0.0
 10
-9.85792
 20
6.676
 30
0.0
  0
SPLINE
  5
61
330
1F
100
AcDbEntity
  8
layer 2
 62
     1
370
     9
100
AcDbSpline
210
0.0
220
0.0
230
1.0
 70
    27
 71
     3
 72
    12
 73
     8
 74
     0
 42
0.0000000001
 43
0.0000000001
 12
1.0
 22
0.0
 32
0.0
 13
1.0
 23
0.0
 33
0.0
 40
0.0
 40
0.0
 40
0.0
 40
0.0
 40
0.3333333333333333
 40
0.3333333333333333
 40
0.3333333333333333
 40
0.3333333333333333
 40
1.0
 40
1.0
 40
1.0
 40
1.0
 10
10.06606
 20
6.676
 30
0.0
 10
10.06606
 20
6.676
 30
0.0
 10
10.59921
 20
6.58714
 30
0.0
 10
10.59921
 20
6.58714
 30
0.0
 10
10.59921
 20
6.58714
 30
0.0
 10
10.59921
 20
6.58714
 30
0.0
 10
10.06606
 20
6.676
 30
0.0
 10
10.06606
 20
6.676
 30
0.0
  0
SPLINE
  5
62
330
1F
100
AcDbEntity
  8
layer 2
 62
     1
370
     9
100
AcDbSpline
210
0.0
220
0.0
230
1.0
 70
     8
 71
     3
 72
    12
 73
     8
 74
     0
 42
0.0000000001
 43
0.0000000001
 12
1.0
 22
0.0
 32
0.0
 13
1.0
 23
0.0
 33
0.0
 40
0.0
 40
0.0
 40
0.0
 40
0.0
 40
0.3333333333333333
 40
0.3333333333333333
 40
0.3333333333333333
 40
0.3333333333333333
 40
1.0
 40
1.0
 40
1.0
 40
1.0
 10
10.59921
 20
6.58714
 30
0.0
 10
10.59921
 20
6.58714
 30
0.0
 10
10.06606
 20
6.49828
 30
0.0
 10
10.06606
 20
6.49828
 30
0.0
 10
10.06606
 20
6.49828
 30
0.0
 10
10.06606
 20
6.49828
 30
0.0
 10
10.06606
 20
6.676
 30
0.0
 10
10.06606
 20
6.676
 30
0.0
  0
SPLINE
  5
63
330
1F
100
AcDbEntity
  8
layer 2
 62
     1
370
     9
100
AcDbSpline
210
0.0
220
0.0
230
1.0
 70
    24
 71
     3
 72
     8
 73
     4
 74
     0
 42
0.0000000001
 43
0.0000000001
 12
1.0
 22
0.0
 32
0.0
 13
1.0
 23
0.0
 33
0.0
 40
0.0
 40
0.0
 40
0.0
 40
0.0
 40
1.0
 40
1.0
 40
1.0
 40
1.0
 10
10.06606
 20
6.676
 30
0.0
 10
10.06606
 20
6.676
 30
0.0
 10
10.59921
 20
6.58714
 30
0.0
 10
10.59921
 20
6.58714
 30
0.0
  0
SPLINE
  5
64
330
1F
100
AcDbEntity
  8
layer 2
 62
     1
370
     9
100
AcDbSpline
210
0.0
220
0.0
230
1.0
 70
     8
 71
     3
 72
    12
 73
     8
 74
     0
 42
0.0000000001
 43
0.0000000001
 12
1.0
 22
0.0
 32
0.0
 13
1.0
 23
0.0
 33
0.0
 40
0.0
 40
0.0
 40
0.0
 40
0.0
 40
0.3333333333333333
 40
0.3333333333333333
 40
0.3333333333333333
 40
0.3333333333333333
 40
1.0
 40
1.0
 40
1.0
 40
1.0
 10
10.59921
 20
6.58714
 30
0.0
 10
10.59921
 20
6.58714
 30
0.0
 10
10.06606
 20
6.49828
 30
0.0
 10
10.06606
 20
6.49828
 30
0.0
 10
10.06606
 20
6.49828
 30
0.0
 10
10.06606
 20
6.49828
 30
0.0
 10
10.06606
 20
6.676
 30
0.0
 10
10.06606
 20
6.676
 30
0.0
  0
SPLINE
  5
65
330
1F
100
AcDbEntity
  8
layer 2
 62
     1
370
     9
100
AcDbSpline
210
0.0
220
0.0
230
1.0
 70
    11
 71
     3
 72
   124
 73
   120
 74
     0
 42
0.0000000001
 43
0.0000000001
 12
1.0
 22
0.0
 32
0.0
 13
1.0
 23
0.0
 33
0.0
 40
0.0
 40
0.0
 40
0.0
 40
0.0
 40
0.032258064516129
 40
0.032258064516129
 40
0.032258064516129
 40
0.032258064516129
 40
0.0645161290322581
 40
0.0645161290322581
 40
0.0645161290322581
 40
0.0645161290322581
 40
0.0967741935483871
 40
0.0967741935483871
 40
0.0967741935483871
 40
0.0967741935483871
 40
0.1290322580645161
 40
0.1290322580645161
 40
0.1290322580645161
 40
0.1290322580645161
 40
0.1612903225806452
 40
0.1612903225806452
 40
0.1612903225806452
 40
0.1612903225806452
 40
0.1935483870967742
 40
0.1935483870967742
 40
0.1935483870967742
 40
0.1935483870967742
 40
0.2258064516129032
 40
0.2258064516129032
 40
0.2258064516129032
 40
0.2258064516129032
 40
0.2580645161290323
 40
0.2580645161290323
 40
0.2580645161290323
 40
0.2580645161290323
 40
0.2903225806451613
 40
0.2903225806451613
 40
0.2903225806451613
 40
0.2903225806451613
 40
0.3225806451612903
 40
0.3225806451612903
 40
0.3225806451612903
 40
0.3225806451612903
 40
0.3548387096774194
 40
0.3548387096774194
 40
0.3548387096774194
 40
0.3548387096774194
 40
0.3870967741935484
 40
0.3870967741935484
 40
0.3870967741935484
 40
0.3870967741935484
 40
0.4193548387096774
 40
0.4193548387096774
 40
0.4193548387096774
 40
0.4193548387096774
 40
0.4516129032258064
 40
0.4516129032258064
 40
0.4516129032258064
 40
0.4516129032258064
 40
0.4838709677419355
 40
0.4838709677419355
 40
0.4838709677419355
 40
0.4838709677419355
 40
0.5161290322580645
 40
0.5161290322580645
 40
0.5161290322580645
 40
0.5161290322580645
 40
0.5483870967741935
 40
0.5483870967741935
 40
0.5483870967741935
 40
0.5483870967741935
 40
0.5806451612903226
 40
0.5806451612903226
 40
0.5806451612903226
 40
0.5806451612903226
 40
0.6129032258064516
 40
0.6129032258064516
 40
0.6129032258064516
 40
0.6129032258064516
 40
0.6451612903225806
 40
0.6451612903225806
 40
0.6451612903225806
 40
0.6451612903225806
 40
0.6774193548387096
 40
0.6774193548387096
 40
0.6774193548387096
 40
0.6774193548387096
 40
0.7096774193548387
 40
0.7096774193548387
 40
0.7096774193548387
 40
0.7096774193548387
 40
0.7419354838709677
 40
0.7419354838709677
 40
0.7419354838709677
 40
0.7419354838709677
 40
0.7741935483870968
 40
0.7741935483870968
 40
0.7741935483870968
 40
0.7741935483870968
 40
0.8064516129032258
 40
0.8064516129032258
 40
0.8064516129032258
 40
0.8064516129032258
 40
0.8387096774193549
 40
0.8387096774193549
 40
0.8387096774193549
 40
0.8387096774193549
 40
0.8709677419354839
 40
0.8709677419354839
 40
0.8709677419354839
 40
0.8709677419354839
 40
0.9032258064516129
 40
0.9032258064516129
 40
0.9032258064516129
 40
0.9032258064516129
 40
0.9354838709677419
 40
0.9354838709677419
 40
0.9354838709677419
 40
0.9354838709677419
 40
1.0
 40
1.0
 40
1.0
 40
1.0
 10
-0.2352
 20
6.90826
 30
0.0
 10
-0.2352
 20
6.90826
 30
0.0
 10
-0.19204
 20
6.91414
 30
0.0
 10
-0.19204
 20
6.91414
 30
0.0
 10
-0.19204
 20
6.91414
 30
0.0
 10
-0.18705
 20
6.88962
 30
0.0
 10
-0.17871
 20
6.87196
 30
0.0
 10
-0.16685
 20
6.86117
 30
0.0
 10
-0.16685
 20
6.86117
 30
0.0
 10
-0.155
 20
6.85038
 30
0.0
 10
-0.14045
 20
6.84498
 30
0.0
 10
-0.1232
 20
6.84498
 30
0.0
 10
-0.1232
 20
6.84498
 30
0.0
 10
-0.10276
 20
6.84498
 30
0.0
 10
-0.08551
 20
6.85201
 30
0.0
 10
-0.07161
 20
6.86607
 30
0.0
 10
-0.07161
 20
6.86607
 30
0.0
 10
-0.05772
 20
6.88014
 30
0.0
 10
-0.05077
 20
6.89755
 30
0.0
 10
-0.05077
 20
6.91831
 30
0.0
 10
-0.05077
 20
6.91831
 30
0.0
 10
-0.05077
 20
6.93809
 30
0.0
 10
-0.05723
 20
6.95444
 30
0.0
 10
-0.07023
 20
6.96736
 30
0.0
 10
-0.07023
 20
6.96736
 30
0.0
 10
-0.08315
 20
6.9802
 30
0.0
 10
-0.09957
 20
6.98665
 30
0.0
 10
-0.1196
 20
6.98665
 30
0.0
 10
-0.1196
 20
6.98665
 30
0.0
 10
-0.12778
 20
6.98665
 30
0.0
 10
-0.13791
 20
6.98502
 30
0.0
 10
-0.1501
 20
6.98183
 30
0.0
 10
-0.1501
 20
6.98183
 30
0.0
 10
-0.1501
 20
6.98183
 30
0.0
 10
-0.14528
 20
7.0196
 30
0.0
 10
-0.14528
 20
7.0196
 30
0.0
 10
-0.14528
 20
7.0196
 30
0.0
 10
-0.14241
 20
7.01927
 30
0.0
 10
-0.14004
 20
7.01911
 30
0.0
 10
-0.13833
 20
7.01911
 30
0.0
 10
-0.13833
 20
7.01911
 30
0.0
 10
-0.11984
 20
7.01911
 30
0.0
 10
-0.10334
 20
7.02393
 30
0.0
 10
-0.08854
 20
7.0335
 30
0.0
 10
-0.08854
 20
7.0335
 30
0.0
 10
-0.07382
 20
7.04306
 30
0.0
 10
-0.06647
 20
7.05777
 30
0.0
 10
-0.06647
 20
7.07765
 30
0.0
 10
-0.06647
 20
7.07765
 30
0.0
 10
-0.06647
 20
7.09342
 30
0.0
 10
-0.07186
 20
7.1065
 30
0.0
 10
-0.08257
 20
7.11688
 30
0.0
 10
-0.08257
 20
7.11688
 30
0.0
 10
-0.09328
 20
7.12727
 30
0.0
 10
-0.10709
 20
7.13241
 30
0.0
 10
-0.12401
 20
7.13241
 30
0.0
 10
-0.12401
 20
7.13241
 30
0.0
 10
-0.14086
 20
7.13241
 30
0.0
 10
-0.15483
 20
7.12711
 30
0.0
 10
-0.16604
 20
7.11648
 30
0.0
 10
-0.16604
 20
7.11648
 30
0.0
 10
-0.17724
 20
7.10584
 30
0.0
 10
-0.18443
 20
7.08991
 30
0.0
 10
-0.18762
 20
7.06865
 30
0.0
 10
-0.18762
 20
7.06865
 30
0.0
 10
-0.18762
 20
7.06865
 30
0.0
 10
-0.23078
 20
7.0765
 30
0.0
 10
-0.23078
 20
7.0765
 30
0.0
 10
-0.23078
 20
7.0765
 30
0.0
 10
-0.22547
 20
7.10544
 30
0.0
 10
-0.21353
 20
7.12792
 30
0.0
 10
-0.19481
 20
7.14386
 30
0.0
 10
-0.19481
 20
7.14386
 30
0.0
 10
-0.17618
 20
7.1598
 30
0.0
 10
-0.15288
 20
7.16773
 30
0.0
 10
-0.12508
 20
7.16773
 30
0.0
 10
-0.12508
 20
7.16773
 30
0.0
 10
-0.10595
 20
7.16773
 30
0.0
 10
-0.08829
 20
7.16365
 30
0.0
 10
-0.07219
 20
7.15539
 30
0.0
 10
-0.07219
 20
7.15539
 30
0.0
 10
-0.056
 20
7.14721
 30
0.0
 10
-0.04366
 20
7.13601
 30
0.0
 10
-0.03515
 20
7.12187
 30
0.0
 10
-0.03515
 20
7.12187
 30
0.0
 10
-0.02657
 20
7.10765
 30
0.0
 10
-0.02232
 20
7.0926
 30
0.0
 10
-0.02232
 20
7.07666
 30
0.0
 10
-0.02232
 20
7.07666
 30
0.0
 10
-0.02232
 20
7.06154
 30
0.0
 10
-0.02641
 20
7.0478
 30
0.0
 10
-0.0345
 20
7.03538
 30
0.0
 10
-0.0345
 20
7.03538
 30
0.0
 10
-0.04267
 20
7.02295
 30
0.0
 10
-0.05478
 20
7.01306
 30
0.0
 10
-0.07071
 20
7.00571
 30
0.0
 10
-0.07071
 20
7.00571
 30
0.0
 10
-0.04995
 20
7.00096
 30
0.0
 10
-0.03385
 20
6.99099
 30
0.0
 10
-0.02232
 20
6.97586
 30
0.0
 10
-0.02232
 20
6.97586
 30
0.0
 10
-0.01088
 20
6.96082
 30
0.0
 10
-0.00515
 20
6.94186
 30
0.0
 10
-0.00515
 20
6.91921
 30
0.0
 10
-0.00515
 20
6.91921
 30
0.0
 10
-0.00515
 20
6.88856
 30
0.0
 10
-0.01635
 20
6.86247
 30
0.0
 10
-0.03867
 20
6.84114
 30
0.0
 10
-0.03867
 20
6.84114
 30
0.0
 10
-0.06107
 20
6.8198
 30
0.0
 10
-0.08935
 20
6.80917
 30
0.0
 10
-0.12352
 20
6.80917
 30
0.0
 10
-0.12352
 20
6.80917
 30
0.0
 10
-0.15435
 20
6.80917
 30
0.0
 10
-0.17993
 20
6.81841
 30
0.0
 10
-0.20029
 20
6.83681
 30
0.0
 10
-0.20029
 20
6.83681
 30
0.0
 10
-0.22073
 20
6.8552
 30
0.0
 10
-0.23233
 20
6.87899
 30
0.0
 10
-0.2352
 20
6.90826
 30
0.0
  0
SPLINE
  5
66
330
1F
100
AcDbEntity
  8
layer 2
 62
     1
370
     9
100
AcDbSpline
210
0.0
220
0.0
230
1.0
 70
    11
 71
     3
 72
    40
 73
    36
 74
     0
 42
0.0000000001
 43
0.0000000001
 12
1.0
 22
0.0
 32
0.0
 13
1.0
 23
0.0
 33
0.0
 40
0.0
 40
0.0
 40
0.0
 40
0.0
 40
0.1
 40
0.1
 40
0.1
 40
0.1
 40
0.2
 40
0.2
 40
0.2
 40
0.2
 40
0.3
 40
0.3
 40
0.3
 40
0.3
 40
0.4
 40
0.4
 40
0.4
 40
0.4
 40
0.5
 40
0.5
 40
0.5
 40
0.5
 40
0.6
 40
0.6
 40
0.6
 40
0.6
 40
0.7
 40
0.7
 40
0.7
 40
0.7
 40
0.8
 40
0.8
 40
0.8
 40
0.8
 40
1.0
 40
1.0
 40
1.0
 40
1.0
 10
0.19947
 20
6.81506
 30
0.0
 10
0.19947
 20
6.81506
 30
0.0
 10
0.1563
 20
6.81506
 30
0.0
 10
0.1563
 20
6.81506
 30
0.0
 10
0.1563
 20
6.81506
 30
0.0
 10
0.1563
 20
6.81506
 30
0.0
 10
0.1563
 20
7.08991
 30
0.0
 10
0.1563
 20
7.08991
 30
0.0
 10
0.1563
 20
7.08991
 30
0.0
 10
0.14593
 20
7.07993
 30
0.0
 10
0.13227
 20
7.07004
 30
0.0
 10
0.11543
 20
7.06015
 30
0.0
 10
0.11543
 20
7.06015
 30
0.0
 10
0.09859
 20
7.05025
 30
0.0
 10
0.08338
 20
7.04282
 30
0.0
 10
0.06998
 20
7.03791
 30
0.0
 10
0.06998
 20
7.03791
 30
0.0
 10
0.06998
 20
7.03791
 30
0.0
 10
0.06998
 20
7.07961
 30
0.0
 10
0.06998
 20
7.07961
 30
0.0
 10
0.06998
 20
7.07961
 30
0.0
 10
0.09409
 20
7.09089
 30
0.0
 10
0.11518
 20
7.10462
 30
0.0
 10
0.13325
 20
7.1208
 30
0.0
 10
0.13325
 20
7.1208
 30
0.0
 10
0.15132
 20
7.13691
 30
0.0
 10
0.16415
 20
7.15253
 30
0.0
 10
0.17167
 20
7.16773
 30
0.0
 10
0.17167
 20
7.16773
 30
0.0
 10
0.17167
 20
7.16773
 30
0.0
 10
0.19947
 20
7.16773
 30
0.0
 10
0.19947
 20
7.16773
 30
0.0
 10
0.19947
 20
7.16773
 30
0.0
 10
0.19947
 20
7.16773
 30
0.0
 10
0.19947
 20
6.81506
 30
0.0
 10
0.19947
 20
6.81506
 30
0.0
  0
SPLINE
  5
67
330
1F
100
AcDbEntity
  8
layer 2
 62
     1
370
     9
100
AcDbSpline
210
0.0
220
0.0
230
1.0
 70
    11
 71
     3
 72
    28
 73
    24
 74
     0
 42
0.0000000001
 43
0.0000000001
 12
1.0
 22
0.0
 32
0.0
 13
1.0
 23
0.0
 33
0.0
 40
0.0
 40
0.0
 40
0.0
 40
0.0
 40
0.1428571428571428
 40
0.1428571428571428
 40
0.1428571428571428
 40
0.1428571428571428
 40
0.2857142857142857
 40
0.2857142857142857
 40
0.2857142857142857
 40
0.2857142857142857
 40
0.4285714285714285
 40
0.4285714285714285
 40
0.4285714285714285
 40
0.4285714285714285
 40
0.5714285714285714
 40
0.5714285714285714
 40
0.5714285714285714
 40
0.5714285714285714
 40
0.7142857142857143
 40
0.7142857142857143
 40
0.7142857142857143
 40
0.7142857142857143
 40
1.0
 40
1.0
 40
1.0
 40
1.0
 10
0.3243
 20
7.04216
 30
0.0
 10
0.3243
 20
7.04216
 30
0.0
 10
0.31236
 20
7.10887
 30
0.0
 10
0.31236
 20
7.10887
 30
0.0
 10
0.31236
 20
7.10887
 30
0.0
 10
0.31236
 20
7.10887
 30
0.0
 10
0.31236
 20
7.16626
 30
0.0
 10
0.31236
 20
7.16626
 30
0.0
 10
0.31236
 20
7.16626
 30
0.0
 10
0.31236
 20
7.16626
 30
0.0
 10
0.36142
 20
7.16626
 30
0.0
 10
0.36142
 20
7.16626
 30
0.0
 10
0.36142
 20
7.16626
 30
0.0
 10
0.36142
 20
7.16626
 30
0.0
 10
0.36142
 20
7.10887
 30
0.0
 10
0.36142
 20
7.10887
 30
0.0
 10
0.36142
 20
7.10887
 30
0.0
 10
0.36142
 20
7.10887
 30
0.0
 10
0.35063
 20
7.04216
 30
0.0
 10
0.35063
 20
7.04216
 30
0.0
 10
0.35063
 20
7.04216
 30
0.0
 10
0.35063
 20
7.04216
 30
0.0
 10
0.3243
 20
7.04216
 30
0.0
 10
0.3243
 20
7.04216
 30
0.0
  0
SPLINE
  5
68
330
1F
100
AcDbEntity
  8
layer 2
 62
     1
370
     9
100
AcDbSpline
210
0.0
220
0.0
230
1.0
 70
    11
 71
     3
 72
    28
 73
    24
 74
     0
 42
0.0000000001
 43
0.0000000001
 12
1.0
 22
0.0
 32
0.0
 13
1.0
 23
0.0
 33
0.0
 40
0.0
 40
0.0
 40
0.0
 40
0.0
 40
0.1428571428571428
 40
0.1428571428571428
 40
0.1428571428571428
 40
0.1428571428571428
 40
0.2857142857142857
 40
0.2857142857142857
 40
0.2857142857142857
 40
0.2857142857142857
 40
0.4285714285714285
 40
0.4285714285714285
 40
0.4285714285714285
 40
0.4285714285714285
 40
0.5714285714285714
 40
0.5714285714285714
 40
0.5714285714285714
 40
0.5714285714285714
 40
0.7142857142857143
 40
0.7142857142857143
 40
0.7142857142857143
 40
0.7142857142857143
 40
1.0
 40
1.0
 40
1.0
 40
1.0
 10
0.40352
 20
7.04216
 30
0.0
 10
0.40352
 20
7.04216
 30
0.0
 10
0.39183
 20
7.10887
 30
0.0
 10
0.39183
 20
7.10887
 30
0.0
 10
0.39183
 20
7.10887
 30
0.0
 10
0.39183
 20
7.10887
 30
0.0
 10
0.39183
 20
7.16626
 30
0.0
 10
0.39183
 20
7.16626
 30
0.0
 10
0.39183
 20
7.16626
 30
0.0
 10
0.39183
 20
7.16626
 30
0.0
 10
0.44088
 20
7.16626
 30
0.0
 10
0.44088
 20
7.16626
 30
0.0
 10
0.44088
 20
7.16626
 30
0.0
 10
0.44088
 20
7.16626
 30
0.0
 10
0.44088
 20
7.10887
 30
0.0
 10
0.44088
 20
7.10887
 30
0.0
 10
0.44088
 20
7.10887
 30
0.0
 10
0.44088
 20
7.10887
 30
0.0
 10
0.42935
 20
7.04216
 30
0.0
 10
0.42935
 20
7.04216
 30
0.0
 10
0.42935
 20
7.04216
 30
0.0
 10
0.42935
 20
7.04216
 30
0.0
 10
0.40352
 20
7.04216
 30
0.0
 10
0.40352
 20
7.04216
 30
0.0
  0
SPLINE
  5
69
330
1F
100
AcDbEntity
  8
layer 2
 62
     1
370
     9
100
AcDbSpline
210
0.0
220
0.0
230
1.0
 70
    24
 71
     3
 72
     8
 73
     4
 74
     0
 42
0.0000000001
 43
0.0000000001
 12
1.0
 22
0.0
 32
0.0
 13
1.0
 23
0.0
 33
0.0
 40
0.0
 40
0.0
 40
0.0
 40
0.0
 40
1.0
 40
1.0
 40
1.0
 40
1.0
 10
10.46593
 20
5.67791
 30
0.0
 10
10.46593
 20
5.67791
 30
0.0
 10
12.0363
 20
5.67791
 30
0.0
 10
12.0363
 20
5.67791
 30
0.0
  0
SPLINE
  5
6A
330
1F
100
AcDbEntity
  8
layer 2
 62
     1
370
     9
100
AcDbSpline
210
0.0
220
0.0
230
1.0
 70
    24
 71
     3
 72
     8
 73
     4
 74
     0
 42
0.0000000001
 43
0.0000000001
 12
1.0
 22
0.0
 32
0.0
 13
1.0
 23
0.0
 33
0.0
 40
0.0
 40
0.0
 40
0.0
 40
0.0
 40
1.0
 40
1.0
 40
1.0
 40
1.0
 10
10.46593
 20
-5.15579
 30
0.0
 10
10.46593
 20
-5.15579
 30
0.0
 10
12.0363
 20
-5.15579
 30
0.0
 10
12.0363
 20
-5.15579
 30
0.0
  0
SPLINE
  5
6B
330
1F
100
AcDbEntity
  8
layer 2
 62
     1
370
     9
100
AcDbSpline
210
0.0
220
0.0
230
1.0
 70
    24
 71
     3
 72
     8
 73
     4
 74
     0
 42
0.0000000001
 43
0.0000000001
 12
1.0
 22
0.0
 32
0.0
 13
1.0
 23
0.0
 33
0.0
 40
0.0
 40
0.0
 40
0.0
 40
0.0
 40
1.0
 40
1.0
 40
1.0
 40
1.0
 10
11.76973
 20
5.14475
 30
0.0
 10
11.76973
 20
5.14475
 30
0.0
 10
11.76973
 20
-4.62264
 30
0.0
 10
11.76973
 20
-4.62264
 30
0.0
  0
SPLINE
  5
6C
330
1F
100
AcDbEntity
  8
layer 2
 62
     1
370
     9
100
AcDbSpline
210
0.0
220
0.0
230
1.0
 70
    27
 71
     3
 72
    12
 73
     8
 74
     0
 42
0.0000000001
 43
0.0000000001
 12
1.0
 22
0.0
 32
0.0
 13
1.0
 23
0.0
 33
0.0
 40
0.0
 40
0.0
 40
0.0
 40
0.0
 40
0.3333333333333333
 40
0.3333333333333333
 40
0.3333333333333333
 40
0.3333333333333333
 40
1.0
 40
1.0
 40
1.0
 40
1.0
 10
11.68087
 20
5.14475
 30
0.0
 10
11.68087
 20
5.14475
 30
0.0
 10
11.76973
 20
5.67791
 30
0.0
 10
11.76973
 20
5.67791
 30
0.0
 10
11.76973
 20
5.67791
 30
0.0
 10
11.76973
 20
5.67791
 30
0.0
 10
11.68087
 20
5.14475
 30
0.0
 10
11.68087
 20
5.14475
 30
0.0
  0
SPLINE
  5
6D
330
1F
100
AcDbEntity
  8
layer 2
 62
     1
370
     9
100
AcDbSpline
210
0.0
220
0.0
230
1.0
 70
     8
 71
     3
 72
    12
 73
     8
 74
     0
 42
0.0000000001
 43
0.0000000001
 12
1.0
 22
0.0
 32
0.0
 13
1.0
 23
0.0
 33
0.0
 40
0.0
 40
0.0
 40
0.0
 40
0.0
 40
0.3333333333333333
 40
0.3333333333333333
 40
0.3333333333333333
 40
0.3333333333333333
 40
1.0
 40
1.0
 40
1.0
 40
1.0
 10
11.76973
 20
5.67791
 30
0.0
 10
11.76973
 20
5.67791
 30
0.0
 10
11.85859
 20
5.14475
 30
0.0
 10
11.85859
 20
5.14475
 30
0.0
 10
11.85859
 20
5.14475
 30
0.0
 10
11.85859
 20
5.14475
 30
0.0
 10
11.68087
 20
5.14475
 30
0.0
 10
11.68087
 20
5.14475
 30
0.0
  0
SPLINE
  5
6E
330
1F
100
AcDbEntity
  8
layer 2
 62
     1
370
     9
100
AcDbSpline
210
0.0
220
0.0
230
1.0
 70
    24
 71
     3
 72
     8
 73
     4
 74
     0
 42
0.0000000001
 43
0.0000000001
 12
1.0
 22
0.0
 32
0.0
 13
1.0
 23
0.0
 33
0.0
 40
0.0
 40
0.0
 40
0.0
 40
0.0
 40
1.0
 40
1.0
 40
1.0
 40
1.0
 10
11.68087
 20
5.14475
 30
0.0
 10
11.68087
 20
5.14475
 30
0.0
 10
11.76973
 20
5.67791
 30
0.0
 10
11.76973
 20
5.67791
 30
0.0
  0
SPLINE
  5
6F
330
1F
100
AcDbEntity
  8
layer 2
 62
     1
370
     9
100
AcDbSpline
210
0.0
220
0.0
230
1.0
 70
     8
 71
     3
 72
    12
 73
     8
 74
     0
 42
0.0000000001
 43
0.0000000001
 12
1.0
 22
0.0
 32
0.0
 13
1.0
 23
0.0
 33
0.0
 40
0.0
 40
0.0
 40
0.0
 40
0.0
 40
0.3333333333333333
 40
0.3333333333333333
 40
0.3333333333333333
 40
0.3333333333333333
 40
1.0
 40
1.0
 40
1.0
 40
1.0
 10
11.76973
 20
5.67791
 30
0.0
 10
11.76973
 20
5.67791
 30
0.0
 10
11.85859
 20
5.14475
 30
0.0
 10
11.85859
 20
5.14475
 30
0.0
 10
11.85859
 20
5.14475
 30
0.0
 10
11.85859
 20
5.14475
 30
0.0
 10
11.68087
 20
5.14475
 30
0.0
 10
11.68087
 20
5.14475
 30
0.0
  0
SPLINE
  5
70
330
1F
100
AcDbEntity
  8
layer 2
 62
     1
370
     9
100
AcDbSpline
210
0.0
220
0.0
230
1.0
 70
    27
 71
     3
 72
    12
 73
     8
 74
     0
 42
0.0000000001
 43
0.0000000001
 12
1.0
 22
0.0
 32
0.0
 13
1.0
 23
0.0
 33
0.0
 40
0.0
 40
0.0
 40
0.0
 40
0.0
 40
0.3333333333333333
 40
0.3333333333333333
 40
0.3333333333333333
 40
0.3333333333333333
 40
1.0
 40
1.0
 40
1.0
 40
1.0
 10
11.68087
 20
-4.62264
 30
0.0
 10
11.68087
 20
-4.62264
 30
0.0
 10
11.76973
 20
-5.15579
 30
0.0
 10
11.76973
 20
-5.15579
 30
0.0
 10
11.76973
 20
-5.15579
 30
0.0
 10
11.76973
 20
-5.15579
 30
0.0
 10
11.68087
 20
-4.62264
 30
0.0
 10
11.68087
 20
-4.62264
 30
0.0
  0
SPLINE
  5
71
330
1F
100
AcDbEntity
  8
layer 2
 62
     1
370
     9
100
AcDbSpline
210
0.0
220
0.0
230
1.0
 70
     8
 71
     3
 72
    12
 73
     8
 74
     0
 42
0.0000000001
 43
0.0000000001
 12
1.0
 22
0.0
 32
0.0
 13
1.0
 23
0.0
 33
0.0
 40
0.0
 40
0.0
 40
0.0
 40
0.0
 40
0.3333333333333333
 40
0.3333333333333333
 40
0.3333333333333333
 40
0.3333333333333333
 40
1.0
 40
1.0
 40
1.0
 40
1.0
 10
11.76973
 20
-5.15579
 30
0.0
 10
11.76973
 20
-5.15579
 30
0.0
 10
11.85859
 20
-4.62264
 30
0.0
 10
11.85859
 20
-4.62264
 30
0.0
 10
11.85859
 20
-4.62264
 30
0.0
 10
11.85859
 20
-4.62264
 30
0.0
 10
11.68087
 20
-4.62264
 30
0.0
 10
11.68087
 20
-4.62264
 30
0.0
  0
SPLINE
  5
72
330
1F
100
AcDbEntity
  8
layer 2
 62
     1
370
     9
100
AcDbSpline
210
0.0
220
0.0
230
1.0
 70
    24
 71
     3
 72
     8
 73
     4
 74
     0
 42
0.0000000001
 43
0.0000000001
 12
1.0
 22
0.0
 32
0.0
 13
1.0
 23
0.0
 33
0.0
 40
0.0
 40
0.0
 40
0.0
 40
0.0
 40
1.0
 40
1.0
 40
1.0
 40
1.0
 10
11.68087
 20
-4.62264
 30
0.0
 10
11.68087
 20
-4.62264
 30
0.0
 10
11.76973
 20
-5.15579
 30
0.0
 10
11.76973
 20
-5.15579
 30
0.0
  0
SPLINE
  5
73
330
1F
100
AcDbEntity
  8
layer 2
 62
     1
370
     9
100
AcDbSpline
210
0.0
220
0.0
230
1.0
 70
     8
 71
     3
 72
    12
 73
     8
 74
     0
 42
0.0000000001
 43
0.0000000001
 12
1.0
 22
0.0
 32
0.0
 13
1.0
 23
0.0
 33
0.0
 40
0.0
 40
0.0
 40
0.0
 40
0.0
 40
0.3333333333333333
 40
0.3333333333333333
 40
0.3333333333333333
 40
0.3333333333333333
 40
1.0
 40
1.0
 40
1.0
 40
1.0
 10
11.76973
 20
-5.15579
 30
0.0
 10
11.76973
 20
-5.15579
 30
0.0
 10
11.85859
 20
-4.62264
 30
0.0
 10
11.85859
 20
-4.62264
 30
0.0
 10
11.85859
 20
-4.62264
 30
0.0
 10
11.85859
 20
-4.62264
 30
0.0
 10
11.68087
 20
-4.62264
 30
0.0
 10
11.68087
 20
-4.62264
 30
0.0
  0
SPLINE
  5
74
330
1F
100
AcDbEntity
  8
layer 2
 62
     1
370
     9
100
AcDbSpline
210
0.0
220
0.0
230
1.0
 70
    11
 71
     3
 72
    40
 73
    36
 74
     0
 42
0.0000000001
 43
0.0000000001
 12
1.0
 22
0.0
 32
0.0
 13
1.0
 23
0.0
 33
0.0
 40
0.0
 40
0.0
 40
0.0
 40
0.0
 40
0.1
 40
0.1
 40
0.1
 40
0.1
 40
0.2
 40
0.2
 40
0.2
 40
0.2
 40
0.3
 40
0.3
 40
0.3
 40
0.3
 40
0.4
 40
0.4
 40
0.4
 40
0.4
 40
0.5
 40
0.5
 40
0.5
 40
0.5
 40
0.6
 40
0.6
 40
0.6
 40
0.6
 40
0.7
 40
0.7
 40
0.7
 40
0.7
 40
0.8
 40
0.8
 40
0.8
 40
0.8
 40
1.0
 40
1.0
 40
1.0
 40
1.0
 10
11.5418
 20
1.15809
 30
0.0
 10
11.5418
 20
1.15809
 30
0.0
 10
11.5418
 20
1.11493
 30
0.0
 10
11.5418
 20
1.11493
 30
0.0
 10
11.5418
 20
1.11493
 30
0.0
 10
11.5418
 20
1.11493
 30
0.0
 10
11.26696
 20
1.11493
 30
0.0
 10
11.26696
 20
1.11493
 30
0.0
 10
11.26696
 20
1.11493
 30
0.0
 10
11.27693
 20
1.10454
 30
0.0
 10
11.28682
 20
1.09089
 30
0.0
 10
11.29671
 20
1.07405
 30
0.0
 10
11.29671
 20
1.07405
 30
0.0
 10
11.3066
 20
1.05721
 30
0.0
 10
11.31404
 20
1.042
 30
0.0
 10
11.31895
 20
1.02859
 30
0.0
 10
11.31895
 20
1.02859
 30
0.0
 10
11.31895
 20
1.02859
 30
0.0
 10
11.27726
 20
1.02859
 30
0.0
 10
11.27726
 20
1.02859
 30
0.0
 10
11.27726
 20
1.02859
 30
0.0
 10
11.26598
 20
1.05272
 30
0.0
 10
11.25224
 20
1.07381
 30
0.0
 10
11.23605
 20
1.09187
 30
0.0
 10
11.23605
 20
1.09187
 30
0.0
 10
11.21995
 20
1.10994
 30
0.0
 10
11.20433
 20
1.12277
 30
0.0
 10
11.18913
 20
1.13029
 30
0.0
 10
11.18913
 20
1.13029
 30
0.0
 10
11.18913
 20
1.13029
 30
0.0
 10
11.18913
 20
1.15809
 30
0.0
 10
11.18913
 20
1.15809
 30
0.0
 10
11.18913
 20
1.15809
 30
0.0
 10
11.18913
 20
1.15809
 30
0.0
 10
11.5418
 20
1.15809
 30
0.0
 10
11.5418
 20
1.15809
 30
0.0
  0
SPLINE
  5
75
330
1F
100
AcDbEntity
  8
layer 2
 62
     1
370
     9
100
AcDbSpline
210
0.0
220
0.0
230
1.0
 70
    11
 71
     3
 72
    80
 73
    76
 74
     0
 42
0.0000000001
 43
0.0000000001
 12
1.0
 22
0.0
 32
0.0
 13
1.0
 23
0.0
 33
0.0
 40
0.0
 40
0.0
 40
0.0
 40
0.0
 40
0.05
 40
0.05
 40
0.05
 40
0.05
 40
0.1
 40
0.1
 40
0.1
 40
0.1
 40
0.15
 40
0.15
 40
0.15
 40
0.15
 40
0.2
 40
0.2
 40
0.2
 40
0.2
 40
0.25
 40
0.25
 40
0.25
 40
0.25
 40
0.3
 40
0.3
 40
0.3
 40
0.3
 40
0.35
 40
0.35
 40
0.35
 40
0.35
 40
0.4
 40
0.4
 40
0.4
 40
0.4
 40
0.45
 40
0.45
 40
0.45
 40
0.45
 40
0.5
 40
0.5
 40
0.5
 40
0.5
 40
0.55
 40
0.55
 40
0.55
 40
0.55
 40
0.6
 40
0.6
 40
0.6
 40
0.6
 40
0.65
 40
0.65
 40
0.65
 40
0.65
 40
0.7
 40
0.7
 40
0.7
 40
0.7
 40
0.75
 40
0.75
 40
0.75
 40
0.75
 40
0.8
 40
0.8
 40
0.8
 40
0.8
 40
0.85
 40
0.85
 40
0.85
 40
0.85
 40
0.9
 40
0.9
 40
0.9
 40
0.9
 40
1.0
 40
1.0
 40
1.0
 40
1.0
 10
11.27644
 20
1.49319
 30
0.0
 10
11.27644
 20
1.49319
 30
0.0
 10
11.27987
 20
1.45051
 30
0.0
 10
11.27987
 20
1.45051
 30
0.0
 10
11.27987
 20
1.45051
 30
0.0
 10
11.26295
 20
1.44667
 30
0.0
 10
11.25061
 20
1.44119
 30
0.0
 10
11.24292
 20
1.43408
 30
0.0
 10
11.24292
 20
1.43408
 30
0.0
 10
11.23058
 20
1.42239
 30
0.0
 10
11.22445
 20
1.40792
 30
0.0
 10
11.22445
 20
1.39075
 30
0.0
 10
11.22445
 20
1.39075
 30
0.0
 10
11.22445
 20
1.37694
 30
0.0
 10
11.22829
 20
1.36467
 30
0.0
 10
11.23598
 20
1.35413
 30
0.0
 10
11.23598
 20
1.35413
 30
0.0
 10
11.24587
 20
1.34056
 30
0.0
 10
11.26025
 20
1.32993
 30
0.0
 10
11.27922
 20
1.322
 30
0.0
 10
11.27922
 20
1.322
 30
0.0
 10
11.29827
 20
1.31415
 30
0.0
 10
11.32533
 20
1.31007
 30
0.0
 10
11.3604
 20
1.30974
 30
0.0
 10
11.3604
 20
1.30974
 30
0.0
 10
11.34462
 20
1.32012
 30
0.0
 10
11.33285
 20
1.33288
 30
0.0
 10
11.32524
 20
1.34792
 30
0.0
 10
11.32524
 20
1.34792
 30
0.0
 10
11.31756
 20
1.36295
 30
0.0
 10
11.31372
 20
1.37865
 30
0.0
 10
11.31372
 20
1.39516
 30
0.0
 10
11.31372
 20
1.39516
 30
0.0
 10
11.31372
 20
1.42394
 30
0.0
 10
11.32434
 20
1.44847
 30
0.0
 10
11.34552
 20
1.46875
 30
0.0
 10
11.34552
 20
1.46875
 30
0.0
 10
11.36669
 20
1.48893
 30
0.0
 10
11.394
 20
1.49907
 30
0.0
 10
11.4276
 20
1.49907
 30
0.0
 10
11.4276
 20
1.49907
 30
0.0
 10
11.44967
 20
1.49907
 30
0.0
 10
11.47011
 20
1.49432
 30
0.0
 10
11.48907
 20
1.48485
 30
0.0
 10
11.48907
 20
1.48485
 30
0.0
 10
11.50804
 20
1.47528
 30
0.0
 10
11.52251
 20
1.46229
 30
0.0
 10
11.53257
 20
1.44561
 30
0.0
 10
11.53257
 20
1.44561
 30
0.0
 10
11.54262
 20
1.42902
 30
0.0
 10
11.54769
 20
1.41013
 30
0.0
 10
11.54769
 20
1.38904
 30
0.0
 10
11.54769
 20
1.38904
 30
0.0
 10
11.54769
 20
1.35315
 30
0.0
 10
11.53445
 20
1.3238
 30
0.0
 10
11.50804
 20
1.30107
 30
0.0
 10
11.50804
 20
1.30107
 30
0.0
 10
11.48163
 20
1.27843
 30
0.0
 10
11.43806
 20
1.26707
 30
0.0
 10
11.3774
 20
1.26707
 30
0.0
 10
11.3774
 20
1.26707
 30
0.0
 10
11.30955
 20
1.26707
 30
0.0
 10
11.26017
 20
1.27965
 30
0.0
 10
11.22935
 20
1.30475
 30
0.0
 10
11.22935
 20
1.30475
 30
0.0
 10
11.20254
 20
1.32666
 30
0.0
 10
11.18913
 20
1.35617
 30
0.0
 10
11.18913
 20
1.39337
 30
0.0
 10
11.18913
 20
1.39337
 30
0.0
 10
11.18913
 20
1.421
 30
0.0
 10
11.19689
 20
1.44373
 30
0.0
 10
11.21235
 20
1.46139
 30
0.0
 10
11.21235
 20
1.46139
 30
0.0
 10
11.2278
 20
1.47904
 30
0.0
 10
11.24913
 20
1.48967
 30
0.0
 10
11.27644
 20
1.49319
 30
0.0
  0
SPLINE
  5
76
330
1F
100
AcDbEntity
  8
layer 2
 62
     1
370
     9
100
AcDbSpline
210
0.0
220
0.0
230
1.0
 70
    11
 71
     3
 72
    40
 73
    36
 74
     0
 42
0.0000000001
 43
0.0000000001
 12
1.0
 22
0.0
 32
0.0
 13
1.0
 23
0.0
 33
0.0
 40
0.0
 40
0.0
 40
0.0
 40
0.0
 40
0.1
 40
0.1
 40
0.1
 40
0.1
 40
0.2
 40
0.2
 40
0.2
 40
0.2
 40
0.3
 40
0.3
 40
0.3
 40
0.3
 40
0.4
 40
0.4
 40
0.4
 40
0.4
 40
0.5
 40
0.5
 40
0.5
 40
0.5
 40
0.6
 40
0.6
 40
0.6
 40
0.6
 40
0.7
 40
0.7
 40
0.7
 40
0.7
 40
0.8
 40
0.8
 40
0.8
 40
0.8
 40
1.0
 40
1.0
 40
1.0
 40
1.0
 10
11.428
 20
1.3166
 30
0.0
 10
11.44289
 20
1.3166
 30
0.0
 10
11.4571
 20
1.31979
 30
0.0
 10
11.47068
 20
1.32608
 30
0.0
 10
11.47068
 20
1.32608
 30
0.0
 10
11.48425
 20
1.33238
 30
0.0
 10
11.49455
 20
1.34121
 30
0.0
 10
11.50166
 20
1.35241
 30
0.0
 10
11.50166
 20
1.35241
 30
0.0
 10
11.50877
 20
1.36369
 30
0.0
 10
11.51237
 20
1.37563
 30
0.0
 10
11.51237
 20
1.3883
 30
0.0
 10
11.51237
 20
1.3883
 30
0.0
 10
11.51237
 20
1.40669
 30
0.0
 10
11.50502
 20
1.42239
 30
0.0
 10
11.4903
 20
1.43539
 30
0.0
 10
11.4903
 20
1.43539
 30
0.0
 10
11.47559
 20
1.44839
 30
0.0
 10
11.45564
 20
1.45492
 30
0.0
 10
11.43038
 20
1.45492
 30
0.0
 10
11.43038
 20
1.45492
 30
0.0
 10
11.4061
 20
1.45492
 30
0.0
 10
11.38697
 20
1.44847
 30
0.0
 10
11.37298
 20
1.43564
 30
0.0
 10
11.37298
 20
1.43564
 30
0.0
 10
11.35901
 20
1.4228
 30
0.0
 10
11.35198
 20
1.40645
 30
0.0
 10
11.35198
 20
1.38658
 30
0.0
 10
11.35198
 20
1.38658
 30
0.0
 10
11.35198
 20
1.36712
 30
0.0
 10
11.35901
 20
1.35053
 30
0.0
 10
11.37298
 20
1.33696
 30
0.0
 10
11.37298
 20
1.33696
 30
0.0
 10
11.38697
 20
1.32339
 30
0.0
 10
11.40528
 20
1.3166
 30
0.0
 10
11.428
 20
1.3166
 30
0.0
  0
SPLINE
  5
77
330
1F
100
AcDbEntity
  8
layer 2
 62
     1
370
     9
100
AcDbSpline
210
0.0
220
0.0
230
1.0
 70
    11
 71
     3
 72
    28
 73
    24
 74
     0
 42
0.0000000001
 43
0.0000000001
 12
1.0
 22
0.0
 32
0.0
 13
1.0
 23
0.0
 33
0.0
 40
0.0
 40
0.0
 40
0.0
 40
0.0
 40
0.1428571428571428
 40
0.1428571428571428
 40
0.1428571428571428
 40
0.1428571428571428
 40
0.2857142857142857
 40
0.2857142857142857
 40
0.2857142857142857
 40
0.2857142857142857
 40
0.4285714285714285
 40
0.4285714285714285
 40
0.4285714285714285
 40
0.4285714285714285
 40
0.5714285714285714
 40
0.5714285714285714
 40
0.5714285714285714
 40
0.5714285714285714
 40
0.7142857142857143
 40
0.7142857142857143
 40
0.7142857142857143
 40
0.7142857142857143
 40
1.0
 40
1.0
 40
1.0
 40
1.0
 10
11.3147
 20
1.55572
 30
0.0
 10
11.3147
 20
1.55572
 30
0.0
 10
11.24799
 20
1.54379
 30
0.0
 10
11.24799
 20
1.54379
 30
0.0
 10
11.24799
 20
1.54379
 30
0.0
 10
11.24799
 20
1.54379
 30
0.0
 10
11.1906
 20
1.54379
 30
0.0
 10
11.1906
 20
1.54379
 30
0.0
 10
11.1906
 20
1.54379
 30
0.0
 10
11.1906
 20
1.54379
 30
0.0
 10
11.1906
 20
1.59284
 30
0.0
 10
11.1906
 20
1.59284
 30
0.0
 10
11.1906
 20
1.59284
 30
0.0
 10
11.1906
 20
1.59284
 30
0.0
 10
11.24799
 20
1.59284
 30
0.0
 10
11.24799
 20
1.59284
 30
0.0
 10
11.24799
 20
1.59284
 30
0.0
 10
11.24799
 20
1.59284
 30
0.0
 10
11.3147
 20
1.58205
 30
0.0
 10
11.3147
 20
1.58205
 30
0.0
 10
11.3147
 20
1.58205
 30
0.0
 10
11.3147
 20
1.58205
 30
0.0
 10
11.3147
 20
1.55572
 30
0.0
 10
11.3147
 20
1.55572
 30
0.0
  0
SPLINE
  5
78
330
1F
100
AcDbEntity
  8
layer 2
 62
     1
370
     9
100
AcDbSpline
210
0.0
220
0.0
230
1.0
 70
    11
 71
     3
 72
    28
 73
    24
 74
     0
 42
0.0000000001
 43
0.0000000001
 12
1.0
 22
0.0
 32
0.0
 13
1.0
 23
0.0
 33
0.0
 40
0.0
 40
0.0
 40
0.0
 40
0.0
 40
0.1428571428571428
 40
0.1428571428571428
 40
0.1428571428571428
 40
0.1428571428571428
 40
0.2857142857142857
 40
0.2857142857142857
 40
0.2857142857142857
 40
0.2857142857142857
 40
0.4285714285714285
 40
0.4285714285714285
 40
0.4285714285714285
 40
0.4285714285714285
 40
0.5714285714285714
 40
0.5714285714285714
 40
0.5714285714285714
 40
0.5714285714285714
 40
0.7142857142857143
 40
0.7142857142857143
 40
0.7142857142857143
 40
0.7142857142857143
 40
1.0
 40
1.0
 40
1.0
 40
1.0
 10
11.3147
 20
1.63494
 30
0.0
 10
11.3147
 20
1.63494
 30
0.0
 10
11.24799
 20
1.62325
 30
0.0
 10
11.24799
 20
1.62325
 30
0.0
 10
11.24799
 20
1.62325
 30
0.0
 10
11.24799
 20
1.62325
 30
0.0
 10
11.1906
 20
1.62325
 30
0.0
 10
11.1906
 20
1.62325
 30
0.0
 10
11.1906
 20
1.62325
 30
0.0
 10
11.1906
 20
1.62325
 30
0.0
 10
11.1906
 20
1.67231
 30
0.0
 10
11.1906
 20
1.67231
 30
0.0
 10
11.1906
 20
1.67231
 30
0.0
 10
11.1906
 20
1.67231
 30
0.0
 10
11.24799
 20
1.67231
 30
0.0
 10
11.24799
 20
1.67231
 30
0.0
 10
11.24799
 20
1.67231
 30
0.0
 10
11.24799
 20
1.67231
 30
0.0
 10
11.3147
 20
1.66077
 30
0.0
 10
11.3147
 20
1.66077
 30
0.0
 10
11.3147
 20
1.66077
 30
0.0
 10
11.3147
 20
1.66077
 30
0.0
 10
11.3147
 20
1.63494
 30
0.0
 10
11.3147
 20
1.63494
 30
0.0
  0
SPLINE
  5
79
330
1F
100
AcDbEntity
  8
layer 2
 62
     1
370
     9
100
AcDbSpline
210
0.0
220
0.0
230
1.0
 70
    24
 71
     3
 72
     8
 73
     4
 74
     0
 42
0.0000000001
 43
0.0000000001
 12
1.0
 22
0.0
 32
0.0
 13
1.0
 23
0.0
 33
0.0
 40
0.0
 40
0.0
 40
0.0
 40
0.0
 40
1.0
 40
1.0
 40
1.0
 40
1.0
 10
-11.94778
 20
-6.50201
 30
0.0
 10
-11.94778
 20
-6.50201
 30
0.0
 10
-10.56377
 20
-5.27779
 30
0.0
 10
-10.56377
 20
-5.27779
 30
0.0
  0
SPLINE
  5
7A
330
1F
100
AcDbEntity
  8
layer 2
 62
     1
370
     9
100
AcDbSpline
210
0.0
220
0.0
230
1.0
 70
    11
 71
     3
 72
    80
 73
    76
 74
     0
 42
0.0000000001
 43
0.0000000001
 12
1.0
 22
0.0
 32
0.0
 13
1.0
 23
0.0
 33
0.0
 40
0.0
 40
0.0
 40
0.0
 40
0.0
 40
0.05
 40
0.05
 40
0.05
 40
0.05
 40
0.1
 40
0.1
 40
0.1
 40
0.1
 40
0.15
 40
0.15
 40
0.15
 40
0.15
 40
0.2
 40
0.2
 40
0.2
 40
0.2
 40
0.25
 40
0.25
 40
0.25
 40
0.25
 40
0.3
 40
0.3
 40
0.3
 40
0.3
 40
0.35
 40
0.35
 40
0.35
 40
0.35
 40
0.4
 40
0.4
 40
0.4
 40
0.4
 40
0.45
 40
0.45
 40
0.45
 40
0.45
 40
0.5
 40
0.5
 40
0.5
 40
0.5
 40
0.55
 40
0.55
 40
0.55
 40
0.55
 40
0.6
 40
0.6
 40
0.6
 40
0.6
 40
0.65
 40
0.65
 40
0.65
 40
0.65
 40
0.7
 40
0.7
 40
0.7
 40
0.7
 40
0.75
 40
0.75
 40
0.75
 40
0.75
 40
0.8
 40
0.8
 40
0.8
 40
0.8
 40
0.85
 40
0.85
 40
0.85
 40
0.85
 40
0.9
 40
0.9
 40
0.9
 40
0.9
 40
1.0
 40
1.0
 40
1.0
 40
1.0
 10
-11.80361
 20
-5.29131
 30
0.0
 10
-11.80361
 20
-5.29131
 30
0.0
 10
-12.0363
 20
-5.02825
 30
0.0
 10
-12.0363
 20
-5.02825
 30
0.0
 10
-12.0363
 20
-5.02825
 30
0.0
 10
-12.0363
 20
-5.02825
 30
0.0
 10
-11.91972
 20
-4.92513
 30
0.0
 10
-11.91972
 20
-4.92513
 30
0.0
 10
-11.91972
 20
-4.92513
 30
0.0
 10
-11.89626
 20
-4.90439
 30
0.0
 10
-11.87633
 20
-4.89101
 30
0.0
 10
-11.85998
 20
-4.88494
 30
0.0
 10
-11.85998
 20
-4.88494
 30
0.0
 10
-11.84362
 20
-4.87888
 30
0.0
 10
-11.82651
 20
-4.8786
 30
0.0
 10
-11.80867
 20
-4.8841
 30
0.0
 10
-11.80867
 20
-4.8841
 30
0.0
 10
-11.79082
 20
-4.88959
 30
0.0
 10
-11.77551
 20
-4.89962
 30
0.0
 10
-11.76272
 20
-4.91407
 30
0.0
 10
-11.76272
 20
-4.91407
 30
0.0
 10
-11.7462
 20
-4.93275
 30
0.0
 10
-11.73834
 20
-4.95384
 30
0.0
 10
-11.73909
 20
-4.97731
 30
0.0
 10
-11.73909
 20
-4.97731
 30
0.0
 10
-11.73983
 20
-5.00078
 30
0.0
 10
-11.75129
 20
-5.02533
 30
0.0
 10
-11.77344
 20
-5.05114
 30
0.0
 10
-11.77344
 20
-5.05114
 30
0.0
 10
-11.76029
 20
-5.04737
 30
0.0
 10
-11.74941
 20
-5.0456
 30
0.0
 10
-11.74084
 20
-5.04566
 30
0.0
 10
-11.74084
 20
-5.04566
 30
0.0
 10
-11.72245
 20
-5.04598
 30
0.0
 10
-11.70249
 20
-5.04917
 30
0.0
 10
-11.68108
 20
-5.05523
 30
0.0
 10
-11.68108
 20
-5.05523
 30
0.0
 10
-11.68108
 20
-5.05523
 30
0.0
 10
-11.57222
 20
-5.08663
 30
0.0
 10
-11.57222
 20
-5.08663
 30
0.0
 10
-11.57222
 20
-5.08663
 30
0.0
 10
-11.57222
 20
-5.08663
 30
0.0
 10
-11.61569
 20
-5.12508
 30
0.0
 10
-11.61569
 20
-5.12508
 30
0.0
 10
-11.61569
 20
-5.12508
 30
0.0
 10
-11.61569
 20
-5.12508
 30
0.0
 10
-11.69889
 20
-5.10111
 30
0.0
 10
-11.69889
 20
-5.10111
 30
0.0
 10
-11.69889
 20
-5.10111
 30
0.0
 10
-11.72303
 20
-5.09418
 30
0.0
 10
-11.74208
 20
-5.08954
 30
0.0
 10
-11.75605
 20
-5.08695
 30
0.0
 10
-11.75605
 20
-5.08695
 30
0.0
 10
-11.77009
 20
-5.0844
 30
0.0
 10
-11.78111
 20
-5.08379
 30
0.0
 10
-11.7893
 20
-5.08502
 30
0.0
 10
-11.7893
 20
-5.08502
 30
0.0
 10
-11.79737
 20
-5.08627
 30
0.0
 10
-11.80475
 20
-5.08866
 30
0.0
 10
-11.81133
 20
-5.09208
 30
0.0
 10
-11.81133
 20
-5.09208
 30
0.0
 10
-11.81596
 20
-5.09475
 30
0.0
 10
-11.82276
 20
-5.1
 30
0.0
 10
-11.83176
 20
-5.10797
 30
0.0
 10
-11.83176
 20
-5.10797
 30
0.0
 10
-11.83176
 20
-5.10797
 30
0.0
 10
-11.87205
 20
-5.14361
 30
0.0
 10
-11.87205
 20
-5.14361
 30
0.0
 10
-11.87205
 20
-5.14361
 30
0.0
 10
-11.87205
 20
-5.14361
 30
0.0
 10
-11.76872
 20
-5.26044
 30
0.0
 10
-11.76872
 20
-5.26044
 30
0.0
 10
-11.76872
 20
-5.26044
 30
0.0
 10
-11.76872
 20
-5.26044
 30
0.0
 10
-11.80361
 20
-5.29131
 30
0.0
 10
-11.80361
 20
-5.29131
 30
0.0
  0
SPLINE
  5
7B
330
1F
100
AcDbEntity
  8
layer 2
 62
     1
370
     9
100
AcDbSpline
210
0.0
220
0.0
230
1.0
 70
    11
 71
     3
 72
    36
 73
    32
 74
     0
 42
0.0000000001
 43
0.0000000001
 12
1.0
 22
0.0
 32
0.0
 13
1.0
 23
0.0
 33
0.0
 40
0.0
 40
0.0
 40
0.0
 40
0.0
 40
0.1111111111111111
 40
0.1111111111111111
 40
0.1111111111111111
 40
0.1111111111111111
 40
0.2222222222222222
 40
0.2222222222222222
 40
0.2222222222222222
 40
0.2222222222222222
 40
0.3333333333333333
 40
0.3333333333333333
 40
0.3333333333333333
 40
0.3333333333333333
 40
0.4444444444444444
 40
0.4444444444444444
 40
0.4444444444444444
 40
0.4444444444444444
 40
0.5555555555555556
 40
0.5555555555555556
 40
0.5555555555555556
 40
0.5555555555555556
 40
0.6666666666666666
 40
0.6666666666666666
 40
0.6666666666666666
 40
0.6666666666666666
 40
0.7777777777777778
 40
0.7777777777777778
 40
0.7777777777777778
 40
0.7777777777777778
 40
1.0
 40
1.0
 40
1.0
 40
1.0
 10
-11.89871
 20
-5.11348
 30
0.0
 10
-11.89871
 20
-5.11348
 30
0.0
 10
-11.824
 20
-5.0474
 30
0.0
 10
-11.824
 20
-5.0474
 30
0.0
 10
-11.824
 20
-5.0474
 30
0.0
 10
-11.80807
 20
-5.03332
 30
0.0
 10
-11.79717
 20
-5.02073
 30
0.0
 10
-11.79116
 20
-5.00951
 30
0.0
 10
-11.79116
 20
-5.00951
 30
0.0
 10
-11.78508
 20
-4.99836
 30
0.0
 10
-11.78295
 20
-4.98707
 30
0.0
 10
-11.7848
 20
-4.97573
 30
0.0
 10
-11.7848
 20
-4.97573
 30
0.0
 10
-11.78654
 20
-4.96439
 30
0.0
 10
-11.79115
 20
-4.95449
 30
0.0
 10
-11.79867
 20
-4.94598
 30
0.0
 10
-11.79867
 20
-4.94598
 30
0.0
 10
-11.80967
 20
-4.93355
 30
0.0
 10
-11.82324
 20
-4.92722
 30
0.0
 10
-11.83934
 20
-4.92716
 30
0.0
 10
-11.83934
 20
-4.92716
 30
0.0
 10
-11.85544
 20
-4.9271
 30
0.0
 10
-11.87316
 20
-4.93568
 30
0.0
 10
-11.89258
 20
-4.95285
 30
0.0
 10
-11.89258
 20
-4.95285
 30
0.0
 10
-11.89258
 20
-4.95285
 30
0.0
 10
-11.97573
 20
-5.02641
 30
0.0
 10
-11.97573
 20
-5.02641
 30
0.0
 10
-11.97573
 20
-5.02641
 30
0.0
 10
-11.97573
 20
-5.02641
 30
0.0
 10
-11.89871
 20
-5.11348
 30
0.0
 10
-11.89871
 20
-5.11348
 30
0.0
  0
SPLINE
  5
7C
330
1F
100
AcDbEntity
  8
layer 2
 62
     1
370
     9
100
AcDbSpline
210
0.0
220
0.0
230
1.0
 70
    11
 71
     3
 72
    40
 73
    36
 74
     0
 42
0.0000000001
 43
0.0000000001
 12
1.0
 22
0.0
 32
0.0
 13
1.0
 23
0.0
 33
0.0
 40
0.0
 40
0.0
 40
0.0
 40
0.0
 40
0.1
 40
0.1
 40
0.1
 40
0.1
 40
0.2
 40
0.2
 40
0.2
 40
0.2
 40
0.3
 40
0.3
 40
0.3
 40
0.3
 40
0.4
 40
0.4
 40
0.4
 40
0.4
 40
0.5
 40
0.5
 40
0.5
 40
0.5
 40
0.6
 40
0.6
 40
0.6
 40
0.6
 40
0.7
 40
0.7
 40
0.7
 40
0.7
 40
0.8
 40
0.8
 40
0.8
 40
0.8
 40
1.0
 40
1.0
 40
1.0
 40
1.0
 10
-11.43064
 20
-4.9614
 30
0.0
 10
-11.43064
 20
-4.9614
 30
0.0
 10
-11.46297
 20
-4.99
 30
0.0
 10
-11.46297
 20
-4.99
 30
0.0
 10
-11.46297
 20
-4.99
 30
0.0
 10
-11.46297
 20
-4.99
 30
0.0
 10
-11.64507
 20
-4.78413
 30
0.0
 10
-11.64507
 20
-4.78413
 30
0.0
 10
-11.64507
 20
-4.78413
 30
0.0
 10
-11.64625
 20
-4.79848
 30
0.0
 10
-11.64992
 20
-4.81494
 30
0.0
 10
-11.65598
 20
-4.83351
 30
0.0
 10
-11.65598
 20
-4.83351
 30
0.0
 10
-11.66204
 20
-4.85207
 30
0.0
 10
-11.66849
 20
-4.86772
 30
0.0
 10
-11.67529
 20
-4.88027
 30
0.0
 10
-11.67529
 20
-4.88027
 30
0.0
 10
-11.67529
 20
-4.88027
 30
0.0
 10
-11.70291
 20
-4.84905
 30
0.0
 10
-11.70291
 20
-4.84905
 30
0.0
 10
-11.70291
 20
-4.84905
 30
0.0
 10
-11.69232
 20
-4.82462
 30
0.0
 10
-11.68562
 20
-4.80036
 30
0.0
 10
-11.68282
 20
-4.77626
 30
0.0
 10
-11.68282
 20
-4.77626
 30
0.0
 10
-11.67996
 20
-4.75223
 30
0.0
 10
-11.68068
 20
-4.73203
 30
0.0
 10
-11.68513
 20
-4.71566
 30
0.0
 10
-11.68513
 20
-4.71566
 30
0.0
 10
-11.68513
 20
-4.71566
 30
0.0
 10
-11.66431
 20
-4.69724
 30
0.0
 10
-11.66431
 20
-4.69724
 30
0.0
 10
-11.66431
 20
-4.69724
 30
0.0
 10
-11.66431
 20
-4.69724
 30
0.0
 10
-11.43064
 20
-4.9614
 30
0.0
 10
-11.43064
 20
-4.9614
 30
0.0
  0
SPLINE
  5
7D
330
1F
100
AcDbEntity
  8
layer 2
 62
     1
370
     9
100
AcDbSpline
210
0.0
220
0.0
230
1.0
 70
    11
 71
     3
 72
    52
 73
    48
 74
     0
 42
0.0000000001
 43
0.0000000001
 12
1.0
 22
0.0
 32
0.0
 13
1.0
 23
0.0
 33
0.0
 40
0.0
 40
0.0
 40
0.0
 40
0.0
 40
0.0769230769230769
 40
0.0769230769230769
 40
0.0769230769230769
 40
0.0769230769230769
 40
0.1538461538461539
 40
0.1538461538461539
 40
0.1538461538461539
 40
0.1538461538461539
 40
0.2307692307692308
 40
0.2307692307692308
 40
0.2307692307692308
 40
0.2307692307692308
 40
0.3076923076923077
 40
0.3076923076923077
 40
0.3076923076923077
 40
0.3076923076923077
 40
0.3846153846153846
 40
0.3846153846153846
 40
0.3846153846153846
 40
0.3846153846153846
 40
0.4615384615384616
 40
0.4615384615384616
 40
0.4615384615384616
 40
0.4615384615384616
 40
0.5384615384615384
 40
0.5384615384615384
 40
0.5384615384615384
 40
0.5384615384615384
 40
0.6153846153846154
 40
0.6153846153846154
 40
0.6153846153846154
 40
0.6153846153846154
 40
0.6923076923076923
 40
0.6923076923076923
 40
0.6923076923076923
 40
0.6923076923076923
 40
0.7692307692307693
 40
0.7692307692307693
 40
0.7692307692307693
 40
0.7692307692307693
 40
0.8461538461538461
 40
0.8461538461538461
 40
0.8461538461538461
 40
0.8461538461538461
 40
1.0
 40
1.0
 40
1.0
 40
1.0
 10
-11.46238
 20
-4.75809
 30
0.0
 10
-11.48984
 20
-4.72704
 30
0.0
 10
-11.50886
 20
-4.69912
 30
0.0
 10
-11.51929
 20
-4.67451
 30
0.0
 10
-11.51929
 20
-4.67451
 30
0.0
 10
-11.5297
 20
-4.64978
 30
0.0
 10
-11.53315
 20
-4.62674
 30
0.0
 10
-11.52959
 20
-4.60536
 30
0.0
 10
-11.52959
 20
-4.60536
 30
0.0
 10
-11.52608
 20
-4.58403
 30
0.0
 10
-11.51471
 20
-4.56492
 30
0.0
 10
-11.49561
 20
-4.54802
 30
0.0
 10
-11.49561
 20
-4.54802
 30
0.0
 10
-11.48153
 20
-4.53556
 30
0.0
 10
-11.46667
 20
-4.52745
 30
0.0
 10
-11.45091
 20
-4.52366
 30
0.0
 10
-11.45091
 20
-4.52366
 30
0.0
 10
-11.43522
 20
-4.51993
 30
0.0
 10
-11.41914
 20
-4.52033
 30
0.0
 10
-11.40281
 20
-4.52499
 30
0.0
 10
-11.40281
 20
-4.52499
 30
0.0
 10
-11.38653
 20
-4.52957
 30
0.0
 10
-11.3696
 20
-4.53785
 30
0.0
 10
-11.35209
 20
-4.54975
 30
0.0
 10
-11.35209
 20
-4.54975
 30
0.0
 10
-11.33451
 20
-4.5616
 30
0.0
 10
-11.31419
 20
-4.58062
 30
0.0
 10
-11.29118
 20
-4.60665
 30
0.0
 10
-11.29118
 20
-4.60665
 30
0.0
 10
-11.26388
 20
-4.63751
 30
0.0
 10
-11.24496
 20
-4.66531
 30
0.0
 10
-11.23447
 20
-4.68987
 30
0.0
 10
-11.23447
 20
-4.68987
 30
0.0
 10
-11.22394
 20
-4.71449
 30
0.0
 10
-11.22048
 20
-4.73752
 30
0.0
 10
-11.224
 20
-4.75896
 30
0.0
 10
-11.224
 20
-4.75896
 30
0.0
 10
-11.22745
 20
-4.78035
 30
0.0
 10
-11.23882
 20
-4.79958
 30
0.0
 10
-11.25805
 20
-4.81659
 30
0.0
 10
-11.25805
 20
-4.81659
 30
0.0
 10
-11.28334
 20
-4.83896
 30
0.0
 10
-11.3112
 20
-4.84756
 30
0.0
 10
-11.34163
 20
-4.84228
 30
0.0
 10
-11.34163
 20
-4.84228
 30
0.0
 10
-11.37846
 20
-4.83556
 30
0.0
 10
-11.41867
 20
-4.8075
 30
0.0
 10
-11.46238
 20
-4.75809
 30
0.0
  0
SPLINE
  5
7E
330
1F
100
AcDbEntity
  8
layer 2
 62
     1
370
     9
100
AcDbSpline
210
0.0
220
0.0
230
1.0
 70
    11
 71
     3
 72
    36
 73
    32
 74
     0
 42
0.0000000001
 43
0.0000000001
 12
1.0
 22
0.0
 32
0.0
 13
1.0
 23
0.0
 33
0.0
 40
0.0
 40
0.0
 40
0.0
 40
0.0
 40
0.1111111111111111
 40
0.1111111111111111
 40
0.1111111111111111
 40
0.1111111111111111
 40
0.2222222222222222
 40
0.2222222222222222
 40
0.2222222222222222
 40
0.2222222222222222
 40
0.3333333333333333
 40
0.3333333333333333
 40
0.3333333333333333
 40
0.3333333333333333
 40
0.4444444444444444
 40
0.4444444444444444
 40
0.4444444444444444
 40
0.4444444444444444
 40
0.5555555555555556
 40
0.5555555555555556
 40
0.5555555555555556
 40
0.5555555555555556
 40
0.6666666666666666
 40
0.6666666666666666
 40
0.6666666666666666
 40
0.6666666666666666
 40
0.7777777777777778
 40
0.7777777777777778
 40
0.7777777777777778
 40
0.7777777777777778
 40
1.0
 40
1.0
 40
1.0
 40
1.0
 10
-11.4292
 20
-4.72896
 30
0.0
 10
-11.39091
 20
-4.77226
 30
0.0
 10
-11.36043
 20
-4.79659
 30
0.0
 10
-11.33776
 20
-4.80186
 30
0.0
 10
-11.33776
 20
-4.80186
 30
0.0
 10
-11.31504
 20
-4.80719
 30
0.0
 10
-11.29627
 20
-4.80324
 30
0.0
 10
-11.28145
 20
-4.79013
 30
0.0
 10
-11.28145
 20
-4.79013
 30
0.0
 10
-11.26663
 20
-4.77703
 30
0.0
 10
-11.26048
 20
-4.75881
 30
0.0
 10
-11.26299
 20
-4.73562
 30
0.0
 10
-11.26299
 20
-4.73562
 30
0.0
 10
-11.26556
 20
-4.71235
 30
0.0
 10
-11.28594
 20
-4.67918
 30
0.0
 10
-11.32413
 20
-4.63602
 30
0.0
 10
-11.32413
 20
-4.63602
 30
0.0
 10
-11.36242
 20
-4.59273
 30
0.0
 10
-11.3929
 20
-4.56838
 30
0.0
 10
-11.41557
 20
-4.56312
 30
0.0
 10
-11.41557
 20
-4.56312
 30
0.0
 10
-11.43823
 20
-4.55773
 30
0.0
 10
-11.45713
 20
-4.56179
 30
0.0
 10
-11.47225
 20
-4.57517
 30
0.0
 10
-11.47225
 20
-4.57517
 30
0.0
 10
-11.48707
 20
-4.58828
 30
0.0
 10
-11.49337
 20
-4.60509
 30
0.0
 10
-11.49114
 20
-4.62549
 30
0.0
 10
-11.49114
 20
-4.62549
 30
0.0
 10
-11.4881
 20
-4.65128
 30
0.0
 10
-11.46739
 20
-4.6858
 30
0.0
 10
-11.4292
 20
-4.72896
 30
0.0
  0
SPLINE
  5
7F
330
1F
100
AcDbEntity
  8
layer 2
 62
     1
370
     9
100
AcDbSpline
210
0.0
220
0.0
230
1.0
 70
    24
 71
     3
 72
     8
 73
     4
 74
     0
 42
0.0000000001
 43
0.0000000001
 12
1.0
 22
0.0
 32
0.0
 13
1.0
 23
0.0
 33
0.0
 40
0.0
 40
0.0
 40
0.0
 40
0.0
 40
1.0
 40
1.0
 40
1.0
 40
1.0
 10
-10.1245
 20
-4.88922
 30
0.0
 10
-10.1245
 20
-4.88922
 30
0.0
 10
-10.32417
 20
-5.06583
 30
0.0
 10
-10.32417
 20
-5.06583
 30
0.0
  0
SPLINE
  5
80
330
1F
100
AcDbEntity
  8
layer 2
 62
     1
370
     9
100
AcDbSpline
210
0.0
220
0.0
230
1.0
 70
    27
 71
     3
 72
    12
 73
     8
 74
     0
 42
0.0000000001
 43
0.0000000001
 12
1.0
 22
0.0
 32
0.0
 13
1.0
 23
0.0
 33
0.0
 40
0.0
 40
0.0
 40
0.0
 40
0.0
 40
0.3333333333333333
 40
0.3333333333333333
 40
0.3333333333333333
 40
0.3333333333333333
 40
1.0
 40
1.0
 40
1.0
 40
1.0
 10
-10.5991
 20
-5.23785
 30
0.0
 10
-10.5991
 20
-5.23785
 30
0.0
 10
-10.32417
 20
-5.06583
 30
0.0
 10
-10.32417
 20
-5.06583
 30
0.0
 10
-10.32417
 20
-5.06583
 30
0.0
 10
-10.32417
 20
-5.06583
 30
0.0
 10
-10.5991
 20
-5.23785
 30
0.0
 10
-10.5991
 20
-5.23785
 30
0.0
  0
SPLINE
  5
81
330
1F
100
AcDbEntity
  8
layer 2
 62
     1
370
     9
100
AcDbSpline
210
0.0
220
0.0
230
1.0
 70
     8
 71
     3
 72
    12
 73
     8
 74
     0
 42
0.0000000001
 43
0.0000000001
 12
1.0
 22
0.0
 32
0.0
 13
1.0
 23
0.0
 33
0.0
 40
0.0
 40
0.0
 40
0.0
 40
0.0
 40
0.3333333333333333
 40
0.3333333333333333
 40
0.3333333333333333
 40
0.3333333333333333
 40
1.0
 40
1.0
 40
1.0
 40
1.0
 10
-10.32417
 20
-5.06583
 30
0.0
 10
-10.32417
 20
-5.06583
 30
0.0
 10
-10.52845
 20
-5.31771
 30
0.0
 10
-10.52845
 20
-5.31771
 30
0.0
 10
-10.52845
 20
-5.31771
 30
0.0
 10
-10.52845
 20
-5.31771
 30
0.0
 10
-10.5991
 20
-5.23785
 30
0.0
 10
-10.5991
 20
-5.23785
 30
0.0
  0
SPLINE
  5
82
330
1F
100
AcDbEntity
  8
layer 2
 62
     1
370
     9
100
AcDbSpline
210
0.0
220
0.0
230
1.0
 70
    24
 71
     3
 72
     8
 73
     4
 74
     0
 42
0.0000000001
 43
0.0000000001
 12
1.0
 22
0.0
 32
0.0
 13
1.0
 23
0.0
 33
0.0
 40
0.0
 40
0.0
 40
0.0
 40
0.0
 40
1.0
 40
1.0
 40
1.0
 40
1.0
 10
-10.5991
 20
-5.23785
 30
0.0
 10
-10.5991
 20
-5.23785
 30
0.0
 10
-10.32417
 20
-5.06583
 30
0.0
 10
-10.32417
 20
-5.06583
 30
0.0
  0
SPLINE
  5
83
330
1F
100
AcDbEntity
  8
layer 2
 62
     1
370
     9
100
AcDbSpline
210
0.0
220
0.0
230
1.0
 70
     8
 71
     3
 72
    12
 73
     8
 74
     0
 42
0.0000000001
 43
0.0000000001
 12
1.0
 22
0.0
 32
0.0
 13
1.0
 23
0.0
 33
0.0
 40
0.0
 40
0.0
 40
0.0
 40
0.0
 40
0.3333333333333333
 40
0.3333333333333333
 40
0.3333333333333333
 40
0.3333333333333333
 40
1.0
 40
1.0
 40
1.0
 40
1.0
 10
-10.32417
 20
-5.06583
 30
0.0
 10
-10.32417
 20
-5.06583
 30
0.0
 10
-10.52845
 20
-5.31771
 30
0.0
 10
-10.52845
 20
-5.31771
 30
0.0
 10
-10.52845
 20
-5.31771
 30
0.0
 10
-10.52845
 20
-5.31771
 30
0.0
 10
-10.5991
 20
-5.23785
 30
0.0
 10
-10.5991
 20
-5.23785
 30
0.0
  0
ENDSEC
  0
SECTION
  2
OBJECTS
  0
DICTIONARY
  5
C
330
0
100
AcDbDictionary
281
     1
  3
ACAD_GROUP
350
D
  3
ACAD_LAYOUT
350
1A
  3
ACAD_MATERIAL
350
3B
  3
ACAD_MLEADERSTYLE
350
A5
  3
ACAD_MLINESTYLE
350
17
  3
ACAD_PLOTSETTINGS
350
19
  3
ACAD_PLOTSTYLENAME
350
E
  3
ACAD_TABLESTYLE
350
A4
  3
ACAD_VISUALSTYLE
350
2A
  0
DICTIONARY
  5
D
102
{ACAD_REACTORS
330
C
102
}
330
C
100
AcDbDictionary
281
     1
  0
DICTIONARY
  5
1A
102
{ACAD_REACTORS
330
C
102
}
330
C
100
AcDbDictionary
281
     1
  3
Layout1
350
1E
  3
Layout2
350
26
  3
Model
350
22
  0
DICTIONARY
  5
3B
102
{ACAD_REACTORS
330
C
102
}
330
C
100
AcDbDictionary
281
     1
  3
ByBlock
350
3D
  3
ByLayer
350
3C
  3
Global
350
3E
  0
DICTIONARY
  5
A5
102
{ACAD_REACTORS
330
C
102
}
330
C
100
AcDbDictionary
281
     1
  0
DICTIONARY
  5
17
102
{ACAD_REACTORS
330
C
102
}
330
C
100
AcDbDictionary
281
     1
  3
Standard
350
18
  0
DICTIONARY
  5
19
102
{ACAD_REACTORS
330
C
102
}
330
C
100
AcDbDictionary
281
     1
  0
ACDBDICTIONARYWDFLT
  5
E
102
{ACAD_REACTORS
330
C
102
}
330
C
100
AcDbDictionary
281
     1
  3
Normal
350
F
100
AcDbDictionaryWithDefault
340
F
  0
DICTIONARY
  5
A4
102
{ACAD_REACTORS
330
C
102
}
330
C
100
AcDbDictionary
281
     1
  0
DICTIONARY
  5
2A
102
{ACAD_REACTORS
330
C
102
}
330
C
100
AcDbDictionary
281
     1
  3
2dWireframe
350
2F
  3
3D Hidden
350
31
  3
3dWireframe
350
30
  3
Basic
350
32
  3
Brighten
350
36
  3
ColorChange
350
3A
  3
Conceptual
350
34
  3
Dim
350
35
  3
Facepattern
350
39
  3
Flat
350
2B
  3
FlatWithEdges
350
2C
  3
Gouraud
350
2D
  3
GouraudWithEdges
350
2E
  3
Linepattern
350
38
  3
Realistic
350
33
  3
Thicken
350
37
  0
LAYOUT
  5
1E
102
{ACAD_REACTORS
330
1A
102
}
330
1A
100
AcDbPlotSettings
  1

  2
none_device
  4

  6

 40
0.0
 41
0.0
 42
0.0
 43
0.0
 44
0.0
 45
0.0
 46
0.0
 47
0.0
 48
0.0
 49
0.0
140
0.0
141
0.0
142
1.0
143
1.0
 70
   688
 72
     0
 73
     0
 74
     5
  7

 75
    16
 76
     0
 77
     2
 78
   300
147
1.0
148
0.0
149
0.0
100
AcDbLayout
  1
Layout1
 70
     1
 71
     1
 10
0.0
 20
0.0
 11
12.0
 21
9.0
 12
0.0
 22
0.0
 32
0.0
 14
1.000000000000000E+20
 24
1.000000000000000E+20
 34
1.000000000000000E+20
 15
-1.000000000000000E+20
 25
-1.000000000000000E+20
 35
-1.000000000000000E+20
146
0.0
 13
0.0
 23
0.0
 33
0.0
 16
1.0
 26
0.0
 36
0.0
 17
0.0
 27
1.0
 37
0.0
 76
     0
330
1B
  0
LAYOUT
  5
26
102
{ACAD_REACTORS
330
1A
102
}
330
1A
100
AcDbPlotSettings
  1

  2
none_device
  4

  6

 40
0.0
 41
0.0
 42
0.0
 43
0.0
 44
0.0
 45
0.0
 46
0.0
 47
0.0
 48
0.0
 49
0.0
140
0.0
141
0.0
142
1.0
143
1.0
 70
   688
 72
     0
 73
     0
 74
     5
  7

 75
    16
 76
     0
 77
     2
 78
   300
147
1.0
148
0.0
149
0.0
100
AcDbLayout
  1
Layout2
 70
     1
 71
     2
 10
0.0
 20
0.0
 11
0.0
 21
0.0
 12
0.0
 22
0.0
 32
0.0
 14
0.0
 24
0.0
 34
0.0
 15
0.0
 25
0.0
 35
0.0
146
0.0
 13
0.0
 23
0.0
 33
0.0
 16
1.0
 26
0.0
 36
0.0
 17
0.0
 27
1.0
 37
0.0
 76
     0
330
23
  0
LAYOUT
  5
22
102
{ACAD_REACTORS
330
1A
102
}
330
1A
100
AcDbPlotSettings
  1

  2
none_device
  4

  6

 40
0.0
 41
0.0
 42
0.0
 43
0.0
 44
0.0
 45
0.0
 46
0.0
 47
0.0
 48
0.0
 49
0.0
140
0.0
141
0.0
142
1.0
143
1.0
 70
  1712
 72
     0
 73
     0
 74
     0
  7

 75
     0
 76
     0
 77
     2
 78
   300
147
1.0
148
0.0
149
0.0
100
AcDbLayout
  1
Model
 70
     1
 71
     0
 10
0.0
 20
0.0
 11
12.0
 21
9.0
 12
0.0
 22
0.0
 32
0.0
 14
-12.03915
 24
-7.17154
 34
0.0
 15
12.0363
 25
7.17154
 35
0.0
146
0.0
 13
0.0
 23
0.0
 33
0.0
 16
1.0
 26
0.0
 36
0.0
 17
0.0
 27
1.0
 37
0.0
 76
     0
330
1F
331
29
  0
MATERIAL
  5
3D
102
{ACAD_REACTORS
330
3B
102
}
330
3B
100
AcDbMaterial
  1
ByBlock
 72
     1
 94
      127
  0
MATERIAL
  5
3C
102
{ACAD_REACTORS
330
3B
102
}
330
3B
100
AcDbMaterial
  1
ByLayer
 72
     1
 94
      127
  0
MATERIAL
  5
3E
102
{ACAD_REACTORS
330
3B
102
}
330
3B
100
AcDbMaterial
  1
Global
 72
     1
 94
      127
  0
MLINESTYLE
  5
18
102
{ACAD_REACTORS
330
17
102
}
330
17
100
AcDbMlineStyle
  2
Standard
 70
     0
  3

 62
   256
 51
90.0
 52
90.0
 71
     2
 49
0.5
 62
   256
  6
BYLAYER
 49
-0.5
 62
   256
  6
BYLAYER
  0
ACDBPLACEHOLDER
  5
F
102
{ACAD_REACTORS
330
E
102
}
330
E
  0
VISUALSTYLE
  5
2F
102
{ACAD_REACTORS
330
2A
102
}
102
{ACAD_XDICTIONARY
360
8C
102
}
330
2A
100
AcDbVisualStyle
  2
2dWireframe
 70
     4
 71
     0
 72
     2
 73
     0
 90
        0
 40
-0.6
 41
-30.0
 62
     5
 63
     7
421
 16777215
 74
     1
 91
        4
 64
     7
 65
   257
 75
     1
175
     1
 42
1.0
 92
        0
 66
   257
 43
1.0
 76
     1
 77
     6
 78
     2
 67
     7
 79
     5
170
     0
171
     0
290
     0
174
     0
 93
        1
 44
0.0
173
     0
291
     0
 45
0.0
  0
VISUALSTYLE
  5
31
102
{ACAD_REACTORS
330
2A
102
}
102
{ACAD_XDICTIONARY
360
90
102
}
330
2A
100
AcDbVisualStyle
  2
3D Hidden
 70
     6
 71
     1
 72
     2
 73
     2
 90
        0
 40
-0.6
 41
-30.0
 62
     5
 63
     7
421
 16777215
 74
     2
 91
        2
 64
     7
 65
   257
 75
     2
175
     1
 42
40.0
 92
        0
 66
   257
 43
1.0
 76
     1
 77
     6
 78
     2
 67
     7
 79
     3
170
     0
171
     0
290
     0
174
     0
 93
        1
 44
0.0
173
     0
291
     0
 45
0.0
  0
VISUALSTYLE
  5
30
102
{ACAD_REACTORS
330
2A
102
}
102
{ACAD_XDICTIONARY
360
8E
102
}
330
2A
100
AcDbVisualStyle
  2
3dWireframe
 70
     5
 71
     0
 72
     2
 73
     0
 90
        0
 40
-0.6
 41
-30.0
 62
     5
 63
     7
421
 16777215
 74
     1
 91
        4
 64
     7
 65
   257
 75
     1
175
     1
 42
1.0
 92
        0
 66
   257
 43
1.0
 76
     1
 77
     6
 78
     2
 67
     7
 79
     5
170
     0
171
     0
290
     0
174
     0
 93
        1
 44
0.0
173
     0
291
     0
 45
0.0
  0
VISUALSTYLE
  5
32
102
{ACAD_REACTORS
330
2A
102
}
102
{ACAD_XDICTIONARY
360
92
102
}
330
2A
100
AcDbVisualStyle
  2
Basic
 70
     7
 71
     1
 72
     0
 73
     1
 90
        0
 40
-0.6
 41
-30.0
 62
     5
 63
     7
421
 16777215
 74
     0
 91
        4
 64
     7
 65
   257
 75
     1
175
     1
 42
1.0
 92
        8
 66
     7
 43
1.0
 76
     1
 77
     6
 78
     2
 67
     7
 79
     5
170
     0
171
     0
290
     0
174
     0
 93
        1
 44
0.0
173
     0
291
     1
 45
0.0
  0
VISUALSTYLE
  5
36
102
{ACAD_REACTORS
330
2A
102
}
102
{ACAD_XDICTIONARY
360
9A
102
}
330
2A
100
AcDbVisualStyle
  2
Brighten
 70
    12
 71
     2
 72
     2
 73
     0
 90
        0
 40
-0.6
 41
-30.0
 62
     5
 63
     7
421
 16777215
 74
     1
 91
        4
 64
     7
 65
   257
 75
     1
175
     1
 42
1.0
 92
        8
 66
     7
 43
1.0
 76
     1
 77
     6
 78
     2
 67
     7
 79
     5
170
     0
171
     0
290
     0
174
     0
 93
        1
 44
50.0
173
     0
291
     1
 45
0.0
  0
VISUALSTYLE
  5
3A
102
{ACAD_REACTORS
330
2A
102
}
102
{ACAD_XDICTIONARY
360
A2
102
}
330
2A
100
AcDbVisualStyle
  2
ColorChange
 70
    16
 71
     2
 72
     2
 73
     3
 90
        0
 40
-0.6
 41
-30.0
 62
     5
 63
     8
421
  8421504
 74
     1
 91
        4
 64
     7
 65
   257
 75
     1
175
     1
 42
1.0
 92
        8
 66
     8
424
  8421504
 43
1.0
 76
     1
 77
     6
 78
     2
 67
     7
 79
     5
170
     0
171
     0
290
     0
174
     0
 93
        1
 44
0.0
173
     0
291
     1
 45
0.0
  0
VISUALSTYLE
  5
34
102
{ACAD_REACTORS
330
2A
102
}
102
{ACAD_XDICTIONARY
360
96
102
}
330
2A
100
AcDbVisualStyle
  2
Conceptual
 70
     9
 71
     3
 72
     2
 73
     0
 90
        0
 40
-0.6
 41
-30.0
 62
     5
 63
     7
421
 16777215
 74
     2
 91
        2
 64
     7
 65
   257
 75
     1
175
     1
 42
40.0
 92
        8
 66
     7
 43
1.0
 76
     1
 77
     6
 78
     2
 67
     7
 79
     3
170
     0
171
     0
290
     0
174
     0
 93
        1
 44
0.0
173
     0
291
     0
 45
0.0
  0
VISUALSTYLE
  5
35
102
{ACAD_REACTORS
330
2A
102
}
102
{ACAD_XDICTIONARY
360
98
102
}
330
2A
100
AcDbVisualStyle
  2
Dim
 70
    11
 71
     2
 72
     2
 73
     0
 90
        0
 40
-0.6
 41
-30.0
 62
     5
 63
     7
421
 16777215
 74
     1
 91
        4
 64
     7
 65
   257
 75
     1
175
     1
 42
1.0
 92
        8
 66
     7
 43
1.0
 76
     1
 77
     6
 78
     2
 67
     7
 79
     5
170
     0
171
     0
290
     0
174
     0
 93
        1
 44
-50.0
173
     0
291
     1
 45
0.0
  0
VISUALSTYLE
  5
39
102
{ACAD_REACTORS
330
2A
102
}
102
{ACAD_XDICTIONARY
360
A0
102
}
330
2A
100
AcDbVisualStyle
  2
Facepattern
 70
    15
 71
     2
 72
     2
 73
     0
 90
        0
 40
-0.6
 41
-30.0
 62
     5
 63
     7
421
 16777215
 74
     1
 91
        4
 64
     7
 65
   257
 75
     1
175
     1
 42
1.0
 92
        8
 66
     7
 43
1.0
 76
     1
 77
     6
 78
     2
 67
     7
 79
     5
170
     0
171
     0
290
     0
174
     0
 93
        1
 44
0.0
173
     0
291
     1
 45
0.0
  0
VISUALSTYLE
  5
2B
102
{ACAD_REACTORS
330
2A
102
}
102
{ACAD_XDICTIONARY
360
84
102
}
330
2A
100
AcDbVisualStyle
  2
Flat
 70
     0
 71
     2
 72
     1
 73
     1
 90
        2
 40
-0.6
 41
30.0
 62
     5
 63
     7
421
 16777215
 74
     0
 91
        4
 64
     7
 65
   257
 75
     1
175
     1
 42
1.0
 92
        8
 66
     7
 43
1.0
 76
     1
 77
     6
 78
     2
 67
     7
 79
     5
170
     0
171
     0
290
     0
174
     0
 93
       13
 44
0.0
173
     0
291
     1
 45
0.0
  0
VISUALSTYLE
  5
2C
102
{ACAD_REACTORS
330
2A
102
}
102
{ACAD_XDICTIONARY
360
86
102
}
330
2A
100
AcDbVisualStyle
  2
FlatWithEdges
 70
     1
 71
     2
 72
     1
 73
     1
 90
        2
 40
-0.6
 41
30.0
 62
     5
 63
     7
421
 16777215
 74
     1
 91
        4
 64
     7
 65
   257
 75
     1
175
     1
 42
1.0
 92
        0
 66
   257
 43
1.0
 76
     1
 77
     6
 78
     2
 67
     7
 79
     5
170
     0
171
     0
290
     0
174
     0
 93
       13
 44
0.0
173
     0
291
     1
 45
0.0
  0
VISUALSTYLE
  5
2D
102
{ACAD_REACTORS
330
2A
102
}
102
{ACAD_XDICTIONARY
360
88
102
}
330
2A
100
AcDbVisualStyle
  2
Gouraud
 70
     2
 71
     2
 72
     2
 73
     1
 90
        2
 40
-0.6
 41
30.0
 62
     5
 63
     7
421
 16777215
 74
     0
 91
        4
 64
     7
 65
   257
 75
     1
175
     1
 42
1.0
 92
        0
 66
     7
 43
1.0
 76
     1
 77
     6
 78
     2
 67
     7
 79
     5
170
     0
171
     0
290
     0
174
     0
 93
       13
 44
0.0
173
     0
291
     1
 45
0.0
  0
VISUALSTYLE
  5
2E
102
{ACAD_REACTORS
330
2A
102
}
102
{ACAD_XDICTIONARY
360
8A
102
}
330
2A
100
AcDbVisualStyle
  2
GouraudWithEdges
 70
     3
 71
     2
 72
     2
 73
     1
 90
        2
 40
-0.6
 41
30.0
 62
     5
 63
     7
421
 16777215
 74
     1
 91
        4
 64
     7
 65
   257
 75
     1
175
     1
 42
1.0
 92
        0
 66
   257
 43
1.0
 76
     1
 77
     6
 78
     2
 67
     7
 79
     5
170
     0
171
     0
290
     0
174
     0
 93
       13
 44
0.0
173
     0
291
     1
 45
0.0
  0
VISUALSTYLE
  5
38
102
{ACAD_REACTORS
330
2A
102
}
102
{ACAD_XDICTIONARY
360
9E
102
}
330
2A
100
AcDbVisualStyle
  2
Linepattern
 70
    14
 71
     2
 72
     2
 73
     0
 90
        0
 40
-0.6
 41
-30.0
 62
     5
 63
     7
421
 16777215
 74
     1
 91
        4
 64
     7
 65
   257
 75
     7
175
     7
 42
1.0
 92
        8
 66
     7
 43
1.0
 76
     1
 77
     6
 78
     2
 67
     7
 79
     5
170
     0
171
     0
290
     0
174
     0
 93
        1
 44
0.0
173
     0
291
     1
 45
0.0
  0
VISUALSTYLE
  5
33
102
{ACAD_REACTORS
330
2A
102
}
102
{ACAD_XDICTIONARY
360
94
102
}
330
2A
100
AcDbVisualStyle
  2
Realistic
 70
     8
 71
     2
 72
     2
 73
     0
 90
        0
 40
-0.6
 41
-30.0
 62
     5
 63
     7
421
 16777215
 74
     1
 91
        0
 64
     7
 65
   257
 75
     1
175
     1
 42
1.0
 92
        8
 66
     8
424
  7895160
 43
1.0
 76
     1
 77
     6
 78
     2
 67
     7
 79
     5
170
     0
171
     0
290
     0
174
     0
 93
       13
 44
0.0
173
     0
291
     0
 45
0.0
  0
VISUALSTYLE
  5
37
102
{ACAD_REACTORS
330
2A
102
}
102
{ACAD_XDICTIONARY
360
9C
102
}
330
2A
100
AcDbVisualStyle
  2
Thicken
 70
    13
 71
     2
 72
     2
 73
     0
 90
        0
 40
-0.6
 41
-30.0
 62
     5
 63
     7
421
 16777215
 74
     1
 91
        4
 64
     7
 65
   257
 75
     1
175
     1
 42
1.0
 92
       12
 66
     7
 43
1.0
 76
     1
 77
     6
 78
     2
 67
     7
 79
     5
170
     0
171
     0
290
     0
174
     0
 93
        1
 44
0.0
173
     0
291
     1
 45
0.0
  0
DICTIONARY
  5
8C
330
2F
100
AcDbDictionary
280
     1
281
     1
  3
ACAD_XREC_ROUNDTRIP
360
8D
  0
DICTIONARY
  5
90
330
31
100
AcDbDictionary
280
     1
281
     1
  3
ACAD_XREC_ROUNDTRIP
360
91
  0
DICTIONARY
  5
8E
330
30
100
AcDbDictionary
280
     1
281
     1
  3
ACAD_XREC_ROUNDTRIP
360
8F
  0
DICTIONARY
  5
92
330
32
100
AcDbDictionary
280
     1
281
     1
  3
ACAD_XREC_ROUNDTRIP
360
93
  0
DICTIONARY
  5
9A
330
36
100
AcDbDictionary
280
     1
281
     1
  3
ACAD_XREC_ROUNDTRIP
360
9B
  0
DICTIONARY
  5
A2
330
3A
100
AcDbDictionary
280
     1
281
     1
  3
ACAD_XREC_ROUNDTRIP
360
A3
  0
DICTIONARY
  5
96
330
34
100
AcDbDictionary
280
     1
281
     1
  3
ACAD_XREC_ROUNDTRIP
360
97
  0
DICTIONARY
  5
98
330
35
100
AcDbDictionary
280
     1
281
     1
  3
ACAD_XREC_ROUNDTRIP
360
99
  0
DICTIONARY
  5
A0
330
39
100
AcDbDictionary
280
     1
281
     1
  3
ACAD_XREC_ROUNDTRIP
360
A1
  0
DICTIONARY
  5
84
330
2B
100
AcDbDictionary
280
     1
281
     1
  3
ACAD_XREC_ROUNDTRIP
360
85
  0
DICTIONARY
  5
86
330
2C
100
AcDbDictionary
280
     1
281
     1
  3
ACAD_XREC_ROUNDTRIP
360
87
  0
DICTIONARY
  5
88
330
2D
100
AcDbDictionary
280
     1
281
     1
  3
ACAD_XREC_ROUNDTRIP
360
89
  0
DICTIONARY
  5
8A
330
2E
100
AcDbDictionary
280
     1
281
     1
  3
ACAD_XREC_ROUNDTRIP
360
8B
  0
DICTIONARY
  5
9E
330
38
100
AcDbDictionary
280
     1
281
     1
  3
ACAD_XREC_ROUNDTRIP
360
9F
  0
DICTIONARY
  5
94
330
33
100
AcDbDictionary
280
     1
281
     1
  3
ACAD_XREC_ROUNDTRIP
360
95
  0
DICTIONARY
  5
9C
330
37
100
AcDbDictionary
280
     1
281
     1
  3
ACAD_XREC_ROUNDTRIP
360
9D
  0
XRECORD
  5
8D
102
{ACAD_REACTORS
330
8C
102
}
330
8C
100
AcDbXrecord
280
     1
102
RTVSPropertyOp0
 70
     1
102
RTVSPropertyOp1
 70
     1
102
RTVSPropertyOp2
 70
     1
102
RTVSPropertyOp3
 70
     1
102
RTVSPropertyOp4
 70
     1
102
RTVSPropertyOp5
 70
     1
102
RTVSPropertyOp6
 70
     1
102
RTVSPropertyOp7
 70
     1
102
RTVSPropertyOp8
 70
     1
102
RTVSPropertyOp9
 70
     1
102
RTVSPropertyOp10
 70
     1
102
RTVSPropertyOp11
 70
     1
102
RTVSPropertyOp12
 70
     1
102
RTVSPropertyOp13
 70
     1
102
RTVSPropertyOp14
 70
     1
102
RTVSPropertyOp15
 70
     1
102
RTVSPropertyOp16
 70
     1
102
RTVSPropertyOp17
 70
     1
102
RTVSPropertyOp18
 70
     1
102
RTVSPropertyOp19
 70
     1
102
RTVSPropertyOp20
 70
     1
102
RTVSPropertyOp21
 70
     1
102
RTVSPropertyOp22
 70
     1
102
RTVSPropertyOp23
 70
     1
102
RTVSPropertyOp24
 70
     1
102
RTVSPropertyOp25
 70
     1
102
RTVSPropertyOp26
 70
     1
102
RTVSPropertyOp27
 70
     1
102
RTVSPropertyOp28
 70
     1
102
RTVSPropertyOp29
 70
     1
102
RTVSPropertyOp30
 70
     1
102
RTVSPropertyOp31
 70
     1
102
RTVSPropertyOp32
 70
     1
  0
XRECORD
  5
91
102
{ACAD_REACTORS
330
90
102
}
330
90
100
AcDbXrecord
280
     1
102
RTVSPropertyOp0
 70
     1
102
RTVSPropertyOp1
 70
     1
102
RTVSPropertyOp2
 70
     1
102
RTVSPropertyOp3
 70
     1
102
RTVSPropertyOp4
 70
     1
102
RTVSPropertyOp5
 70
     1
102
RTVSPropertyOp6
 70
     1
102
RTVSPropertyOp7
 70
     1
102
RTVSPropertyOp8
 70
     1
102
RTVSPropertyOp9
 70
     1
102
RTVSPropertyOp10
 70
     1
102
RTVSPropertyOp11
 70
     1
102
RTVSPropertyOp12
 70
     1
102
RTVSPropertyOp13
 70
     1
102
RTVSPropertyOp14
 70
     1
102
RTVSPropertyOp15
 70
     1
102
RTVSPropertyOp16
 70
     1
102
RTVSPropertyOp17
 70
     1
102
RTVSPropertyOp18
 70
     1
102
RTVSPropertyOp19
 70
     1
102
RTVSPropertyOp20
 70
     1
102
RTVSPropertyOp21
 70
     1
102
RTVSPropertyOp22
 70
     1
102
RTVSPropertyOp23
 70
     1
102
RTVSPropertyOp24
 70
     1
102
RTVSPropertyOp25
 70
     1
102
RTVSPropertyOp26
 70
     1
102
RTVSPropertyOp27
 70
     1
102
RTVSPropertyOp28
 70
     1
102
RTVSPropertyOp29
 70
     1
102
RTVSPropertyOp30
 70
     1
102
RTVSPropertyOp31
 70
     1
102
RTVSPropertyOp32
 70
     1
  0
XRECORD
  5
8F
102
{ACAD_REACTORS
330
8E
102
}
330
8E
100
AcDbXrecord
280
     1
102
RTVSPropertyOp0
 70
     1
102
RTVSPropertyOp1
 70
     1
102
RTVSPropertyOp2
 70
     1
102
RTVSPropertyOp3
 70
     1
102
RTVSPropertyOp4
 70
     1
102
RTVSPropertyOp5
 70
     1
102
RTVSPropertyOp6
 70
     1
102
RTVSPropertyOp7
 70
     1
102
RTVSPropertyOp8
 70
     1
102
RTVSPropertyOp9
 70
     1
102
RTVSPropertyOp10
 70
     1
102
RTVSPropertyOp11
 70
     1
102
RTVSPropertyOp12
 70
     1
102
RTVSPropertyOp13
 70
     1
102
RTVSPropertyOp14
 70
     1
102
RTVSPropertyOp15
 70
     1
102
RTVSPropertyOp16
 70
     1
102
RTVSPropertyOp17
 70
     1
102
RTVSPropertyOp18
 70
     1
102
RTVSPropertyOp19
 70
     1
102
RTVSPropertyOp20
 70
     1
102
RTVSPropertyOp21
 70
     1
102
RTVSPropertyOp22
 70
     1
102
RTVSPropertyOp23
 70
     1
102
RTVSPropertyOp24
 70
     1
102
RTVSPropertyOp25
 70
     1
102
RTVSPropertyOp26
 70
     1
102
RTVSPropertyOp27
 70
     1
102
RTVSPropertyOp28
 70
     1
102
RTVSPropertyOp29
 70
     1
102
RTVSPropertyOp30
 70
     1
102
RTVSPropertyOp31
 70
     1
102
RTVSPropertyOp32
 70
     1
  0
XRECORD
  5
93
102
{ACAD_REACTORS
330
92
102
}
330
92
100
AcDbXrecord
280
     1
102
RTVSPropertyOp0
 70
     1
102
RTVSPropertyOp1
 70
     1
102
RTVSPropertyOp2
 70
     1
102
RTVSPropertyOp3
 70
     1
102
RTVSPropertyOp4
 70
     1
102
RTVSPropertyOp5
 70
     1
102
RTVSPropertyOp6
 70
     1
102
RTVSPropertyOp7
 70
     1
102
RTVSPropertyOp8
 70
     1
102
RTVSPropertyOp9
 70
     1
102
RTVSPropertyOp10
 70
     1
102
RTVSPropertyOp11
 70
     1
102
RTVSPropertyOp12
 70
     1
102
RTVSPropertyOp13
 70
     1
102
RTVSPropertyOp14
 70
     1
102
RTVSPropertyOp15
 70
     1
102
RTVSPropertyOp16
 70
     1
102
RTVSPropertyOp17
 70
     1
102
RTVSPropertyOp18
 70
     1
102
RTVSPropertyOp19
 70
     1
102
RTVSPropertyOp20
 70
     1
102
RTVSPropertyOp21
 70
     1
102
RTVSPropertyOp22
 70
     1
102
RTVSPropertyOp23
 70
     1
102
RTVSPropertyOp24
 70
     1
102
RTVSPropertyOp25
 70
     1
102
RTVSPropertyOp26
 70
     1
102
RTVSPropertyOp27
 70
     1
102
RTVSPropertyOp28
 70
     1
102
RTVSPropertyOp29
 70
     1
102
RTVSPropertyOp30
 70
     1
102
RTVSPropertyOp31
 70
     1
102
RTVSPropertyOp32
 70
     1
  0
XRECORD
  5
9B
102
{ACAD_REACTORS
330
9A
102
}
330
9A
100
AcDbXrecord
280
     1
102
RTVSPropertyOp0
 70
     1
102
RTVSPropertyOp1
 70
     1
102
RTVSPropertyOp2
 70
     1
102
RTVSPropertyOp3
 70
     1
102
RTVSPropertyOp4
 70
     1
102
RTVSPropertyOp5
 70
     1
102
RTVSPropertyOp6
 70
     1
102
RTVSPropertyOp7
 70
     1
102
RTVSPropertyOp8
 70
     1
102
RTVSPropertyOp9
 70
     1
102
RTVSPropertyOp10
 70
     1
102
RTVSPropertyOp11
 70
     1
102
RTVSPropertyOp12
 70
     1
102
RTVSPropertyOp13
 70
     1
102
RTVSPropertyOp14
 70
     1
102
RTVSPropertyOp15
 70
     1
102
RTVSPropertyOp16
 70
     1
102
RTVSPropertyOp17
 70
     1
102
RTVSPropertyOp18
 70
     1
102
RTVSPropertyOp19
 70
     1
102
RTVSPropertyOp20
 70
     1
102
RTVSPropertyOp21
 70
     1
102
RTVSPropertyOp22
 70
     1
102
RTVSPropertyOp23
 70
     1
102
RTVSPropertyOp24
 70
     1
102
RTVSPropertyOp25
 70
     1
102
RTVSPropertyOp26
 70
     1
102
RTVSPropertyOp27
 70
     1
102
RTVSPropertyOp28
 70
     1
102
RTVSPropertyOp29
 70
     1
102
RTVSPropertyOp30
 70
     1
102
RTVSPropertyOp31
 70
     1
102
RTVSPropertyOp32
 70
     1
  0
XRECORD
  5
A3
102
{ACAD_REACTORS
330
A2
102
}
330
A2
100
AcDbXrecord
280
     1
102
RTVSPropertyOp0
 70
     1
102
RTVSPropertyOp1
 70
     1
102
RTVSPropertyOp2
 70
     1
102
RTVSPropertyOp3
 70
     1
102
RTVSPropertyOp4
 70
     1
102
RTVSPropertyOp5
 70
     1
102
RTVSPropertyOp6
 70
     1
102
RTVSPropertyOp7
 70
     1
102
RTVSPropertyOp8
 70
     1
102
RTVSPropertyOp9
 70
     1
102
RTVSPropertyOp10
 70
     1
102
RTVSPropertyOp11
 70
     1
102
RTVSPropertyOp12
 70
     1
102
RTVSPropertyOp13
 70
     1
102
RTVSPropertyOp14
 70
     1
102
RTVSPropertyOp15
 70
     1
102
RTVSPropertyOp16
 70
     1
102
RTVSPropertyOp17
 70
     1
102
RTVSPropertyOp18
 70
     1
102
RTVSPropertyOp19
 70
     1
102
RTVSPropertyOp20
 70
     1
102
RTVSPropertyOp21
 70
     1
102
RTVSPropertyOp22
 70
     1
102
RTVSPropertyOp23
 70
     1
102
RTVSPropertyOp24
 70
     1
102
RTVSPropertyOp25
 70
     1
102
RTVSPropertyOp26
 70
     1
102
RTVSPropertyOp27
 70
     1
102
RTVSPropertyOp28
 70
     1
102
RTVSPropertyOp29
 70
     1
102
RTVSPropertyOp30
 70
     1
102
RTVSPropertyOp31
 70
     1
102
RTVSPropertyOp32
 70
     1
  0
XRECORD
  5
97
102
{ACAD_REACTORS
330
96
102
}
330
96
100
AcDbXrecord
280
     1
102
RTVSPropertyOp0
 70
     1
102
RTVSPropertyOp1
 70
     1
102
RTVSPropertyOp2
 70
     1
102
RTVSPropertyOp3
 70
     1
102
RTVSPropertyOp4
 70
     1
102
RTVSPropertyOp5
 70
     1
102
RTVSPropertyOp6
 70
     1
102
RTVSPropertyOp7
 70
     1
102
RTVSPropertyOp8
 70
     1
102
RTVSPropertyOp9
 70
     1
102
RTVSPropertyOp10
 70
     1
102
RTVSPropertyOp11
 70
     1
102
RTVSPropertyOp12
 70
     1
102
RTVSPropertyOp13
 70
     1
102
RTVSPropertyOp14
 70
     1
102
RTVSPropertyOp15
 70
     1
102
RTVSPropertyOp16
 70
     1
102
RTVSPropertyOp17
 70
     1
102
RTVSPropertyOp18
 70
     1
102
RTVSPropertyOp19
 70
     1
102
RTVSPropertyOp20
 70
     1
102
RTVSPropertyOp21
 70
     1
102
RTVSPropertyOp22
 70
     1
102
RTVSPropertyOp23
 70
     1
102
RTVSPropertyOp24
 70
     1
102
RTVSPropertyOp25
 70
     1
102
RTVSPropertyOp26
 70
     1
102
RTVSPropertyOp27
 70
     1
102
RTVSPropertyOp28
 70
     1
102
RTVSPropertyOp29
 70
     1
102
RTVSPropertyOp30
 70
     1
102
RTVSPropertyOp31
 70
     1
102
RTVSPropertyOp32
 70
     1
  0
XRECORD
  5
99
102
{ACAD_REACTORS
330
98
102
}
330
98
100
AcDbXrecord
280
     1
102
RTVSPropertyOp0
 70
     1
102
RTVSPropertyOp1
 70
     1
102
RTVSPropertyOp2
 70
     1
102
RTVSPropertyOp3
 70
     1
102
RTVSPropertyOp4
 70
     1
102
RTVSPropertyOp5
 70
     1
102
RTVSPropertyOp6
 70
     1
102
RTVSPropertyOp7
 70
     1
102
RTVSPropertyOp8
 70
     1
102
RTVSPropertyOp9
 70
     1
102
RTVSPropertyOp10
 70
     1
102
RTVSPropertyOp11
 70
     1
102
RTVSPropertyOp12
 70
     1
102
RTVSPropertyOp13
 70
     1
102
RTVSPropertyOp14
 70
     1
102
RTVSPropertyOp15
 70
     1
102
RTVSPropertyOp16
 70
     1
102
RTVSPropertyOp17
 70
     1
102
RTVSPropertyOp18
 70
     1
102
RTVSPropertyOp19
 70
     1
102
RTVSPropertyOp20
 70
     1
102
RTVSPropertyOp21
 70
     1
102
RTVSPropertyOp22
 70
     1
102
RTVSPropertyOp23
 70
     1
102
RTVSPropertyOp24
 70
     1
102
RTVSPropertyOp25
 70
     1
102
RTVSPropertyOp26
 70
     1
102
RTVSPropertyOp27
 70
     1
102
RTVSPropertyOp28
 70
     1
102
RTVSPropertyOp29
 70
     1
102
RTVSPropertyOp30
 70
     1
102
RTVSPropertyOp31
 70
     1
102
RTVSPropertyOp32
 70
     1
  0
XRECORD
  5
A1
102
{ACAD_REACTORS
330
A0
102
}
330
A0
100
AcDbXrecord
280
     1
102
RTVSPropertyOp0
 70
     1
102
RTVSPropertyOp1
 70
     1
102
RTVSPropertyOp2
 70
     1
102
RTVSPropertyOp3
 70
     1
102
RTVSPropertyOp4
 70
     1
102
RTVSPropertyOp5
 70
     1
102
RTVSPropertyOp6
 70
     1
102
RTVSPropertyOp7
 70
     1
102
RTVSPropertyOp8
 70
     1
102
RTVSPropertyOp9
 70
     1
102
RTVSPropertyOp10
 70
     1
102
RTVSPropertyOp11
 70
     1
102
RTVSPropertyOp12
 70
     1
102
RTVSPropertyOp13
 70
     1
102
RTVSPropertyOp14
 70
     1
102
RTVSPropertyOp15
 70
     1
102
RTVSPropertyOp16
 70
     1
102
RTVSPropertyOp17
 70
     1
102
RTVSPropertyOp18
 70
     1
102
RTVSPropertyOp19
 70
     1
102
RTVSPropertyOp20
 70
     1
102
RTVSPropertyOp21
 70
     1
102
RTVSPropertyOp22
 70
     1
102
RTVSPropertyOp23
 70
     1
102
RTVSPropertyOp24
 70
     1
102
RTVSPropertyOp25
 70
     1
102
RTVSPropertyOp26
 70
     1
102
RTVSPropertyOp27
 70
     1
102
RTVSPropertyOp28
 70
     1
102
RTVSPropertyOp29
 70
     1
102
RTVSPropertyOp30
 70
     1
102
RTVSPropertyOp31
 70
     1
102
RTVSPropertyOp32
 70
     1
  0
XRECORD
  5
85
102
{ACAD_REACTORS
330
84
102
}
330
84
100
AcDbXrecord
280
     1
102
RTVSPropertyOp0
 70
     1
102
RTVSPropertyOp1
 70
     1
102
RTVSPropertyOp2
 70
     1
102
RTVSPropertyOp3
 70
     1
102
RTVSPropertyOp4
 70
     1
102
RTVSPropertyOp5
 70
     1
102
RTVSPropertyOp6
 70
     1
102
RTVSPropertyOp7
 70
     1
102
RTVSPropertyOp8
 70
     1
102
RTVSPropertyOp9
 70
     1
102
RTVSPropertyOp10
 70
     1
102
RTVSPropertyOp11
 70
     1
102
RTVSPropertyOp12
 70
     1
102
RTVSPropertyOp13
 70
     1
102
RTVSPropertyOp14
 70
     1
102
RTVSPropertyOp15
 70
     1
102
RTVSPropertyOp16
 70
     1
102
RTVSPropertyOp17
 70
     1
102
RTVSPropertyOp18
 70
     1
102
RTVSPropertyOp19
 70
     1
102
RTVSPropertyOp20
 70
     1
102
RTVSPropertyOp21
 70
     1
102
RTVSPropertyOp22
 70
     1
102
RTVSPropertyOp23
 70
     1
102
RTVSPropertyOp24
 70
     1
102
RTVSPropertyOp25
 70
     1
102
RTVSPropertyOp26
 70
     1
102
RTVSPropertyOp27
 70
     1
102
RTVSPropertyOp28
 70
     1
102
RTVSPropertyOp29
 70
     1
102
RTVSPropertyOp30
 70
     1
102
RTVSPropertyOp31
 70
     1
102
RTVSPropertyOp32
 70
     1
  0
XRECORD
  5
87
102
{ACAD_REACTORS
330
86
102
}
330
86
100
AcDbXrecord
280
     1
102
RTVSPropertyOp0
 70
     1
102
RTVSPropertyOp1
 70
     1
102
RTVSPropertyOp2
 70
     1
102
RTVSPropertyOp3
 70
     1
102
RTVSPropertyOp4
 70
     1
102
RTVSPropertyOp5
 70
     1
102
RTVSPropertyOp6
 70
     1
102
RTVSPropertyOp7
 70
     1
102
RTVSPropertyOp8
 70
     1
102
RTVSPropertyOp9
 70
     1
102
RTVSPropertyOp10
 70
     1
102
RTVSPropertyOp11
 70
     1
102
RTVSPropertyOp12
 70
     1
102
RTVSPropertyOp13
 70
     1
102
RTVSPropertyOp14
 70
     1
102
RTVSPropertyOp15
 70
     1
102
RTVSPropertyOp16
 70
     1
102
RTVSPropertyOp17
 70
     1
102
RTVSPropertyOp18
 70
     1
102
RTVSPropertyOp19
 70
     1
102
RTVSPropertyOp20
 70
     1
102
RTVSPropertyOp21
 70
     1
102
RTVSPropertyOp22
 70
     1
102
RTVSPropertyOp23
 70
     1
102
RTVSPropertyOp24
 70
     1
102
RTVSPropertyOp25
 70
     1
102
RTVSPropertyOp26
 70
     1
102
RTVSPropertyOp27
 70
     1
102
RTVSPropertyOp28
 70
     1
102
RTVSPropertyOp29
 70
     1
102
RTVSPropertyOp30
 70
     1
102
RTVSPropertyOp31
 70
     1
102
RTVSPropertyOp32
 70
     1
  0
XRECORD
  5
89
102
{ACAD_REACTORS
330
88
102
}
330
88
100
AcDbXrecord
280
     1
102
RTVSPropertyOp0
 70
     1
102
RTVSPropertyOp1
 70
     1
102
RTVSPropertyOp2
 70
     1
102
RTVSPropertyOp3
 70
     1
102
RTVSPropertyOp4
 70
     1
102
RTVSPropertyOp5
 70
     1
102
RTVSPropertyOp6
 70
     1
102
RTVSPropertyOp7
 70
     1
102
RTVSPropertyOp8
 70
     1
102
RTVSPropertyOp9
 70
     1
102
RTVSPropertyOp10
 70
     1
102
RTVSPropertyOp11
 70
     1
102
RTVSPropertyOp12
 70
     1
102
RTVSPropertyOp13
 70
     1
102
RTVSPropertyOp14
 70
     1
102
RTVSPropertyOp15
 70
     1
102
RTVSPropertyOp16
 70
     1
102
RTVSPropertyOp17
 70
     1
102
RTVSPropertyOp18
 70
     1
102
RTVSPropertyOp19
 70
     1
102
RTVSPropertyOp20
 70
     1
102
RTVSPropertyOp21
 70
     1
102
RTVSPropertyOp22
 70
     1
102
RTVSPropertyOp23
 70
     1
102
RTVSPropertyOp24
 70
     1
102
RTVSPropertyOp25
 70
     1
102
RTVSPropertyOp26
 70
     1
102
RTVSPropertyOp27
 70
     1
102
RTVSPropertyOp28
 70
     1
102
RTVSPropertyOp29
 70
     1
102
RTVSPropertyOp30
 70
     1
102
RTVSPropertyOp31
 70
     1
102
RTVSPropertyOp32
 70
     1
  0
XRECORD
  5
8B
102
{ACAD_REACTORS
330
8A
102
}
330
8A
100
AcDbXrecord
280
     1
102
RTVSPropertyOp0
 70
     1
102
RTVSPropertyOp1
 70
     1
102
RTVSPropertyOp2
 70
     1
102
RTVSPropertyOp3
 70
     1
102
RTVSPropertyOp4
 70
     1
102
RTVSPropertyOp5
 70
     1
102
RTVSPropertyOp6
 70
     1
102
RTVSPropertyOp7
 70
     1
102
RTVSPropertyOp8
 70
     1
102
RTVSPropertyOp9
 70
     1
102
RTVSPropertyOp10
 70
     1
102
RTVSPropertyOp11
 70
     1
102
RTVSPropertyOp12
 70
     1
102
RTVSPropertyOp13
 70
     1
102
RTVSPropertyOp14
 70
     1
102
RTVSPropertyOp15
 70
     1
102
RTVSPropertyOp16
 70
     1
102
RTVSPropertyOp17
 70
     1
102
RTVSPropertyOp18
 70
     1
102
RTVSPropertyOp19
 70
     1
102
RTVSPropertyOp20
 70
     1
102
RTVSPropertyOp21
 70
     1
102
RTVSPropertyOp22
 70
     1
102
RTVSPropertyOp23
 70
     1
102
RTVSPropertyOp24
 70
     1
102
RTVSPropertyOp25
 70
     1
102
RTVSPropertyOp26
 70
     1
102
RTVSPropertyOp27
 70
     1
102
RTVSPropertyOp28
 70
     1
102
RTVSPropertyOp29
 70
     1
102
RTVSPropertyOp30
 70
     1
102
RTVSPropertyOp31
 70
     1
102
RTVSPropertyOp32
 70
     1
  0
XRECORD
  5
9F
102
{ACAD_REACTORS
330
9E
102
}
330
9E
100
AcDbXrecord
280
     1
102
RTVSPropertyOp0
 70
     1
102
RTVSPropertyOp1
 70
     1
102
RTVSPropertyOp2
 70
     1
102
RTVSPropertyOp3
 70
     1
102
RTVSPropertyOp4
 70
     1
102
RTVSPropertyOp5
 70
     1
102
RTVSPropertyOp6
 70
     1
102
RTVSPropertyOp7
 70
     1
102
RTVSPropertyOp8
 70
     1
102
RTVSPropertyOp9
 70
     1
102
RTVSPropertyOp10
 70
     1
102
RTVSPropertyOp11
 70
     1
102
RTVSPropertyOp12
 70
     1
102
RTVSPropertyOp13
 70
     1
102
RTVSPropertyOp14
 70
     1
102
RTVSPropertyOp15
 70
     1
102
RTVSPropertyOp16
 70
     1
102
RTVSPropertyOp17
 70
     1
102
RTVSPropertyOp18
 70
     1
102
RTVSPropertyOp19
 70
     1
102
RTVSPropertyOp20
 70
     1
102
RTVSPropertyOp21
 70
     1
102
RTVSPropertyOp22
 70
     1
102
RTVSPropertyOp23
 70
     1
102
RTVSPropertyOp24
 70
     1
102
RTVSPropertyOp25
 70
     1
102
RTVSPropertyOp26
 70
     1
102
RTVSPropertyOp27
 70
     1
102
RTVSPropertyOp28
 70
     1
102
RTVSPropertyOp29
 70
     1
102
RTVSPropertyOp30
 70
     1
102
RTVSPropertyOp31
 70
     1
102
RTVSPropertyOp32
 70
     1
  0
XRECORD
  5
95
102
{ACAD_REACTORS
330
94
102
}
330
94
100
AcDbXrecord
280
     1
102
RTVSPropertyOp0
 70
     1
102
RTVSPropertyOp1
 70
     1
102
RTVSPropertyOp2
 70
     1
102
RTVSPropertyOp3
 70
     1
102
RTVSPropertyOp4
 70
     1
102
RTVSPropertyOp5
 70
     1
102
RTVSPropertyOp6
 70
     1
102
RTVSPropertyOp7
 70
     1
102
RTVSPropertyOp8
 70
     1
102
RTVSPropertyOp9
 70
     1
102
RTVSPropertyOp10
 70
     1
102
RTVSPropertyOp11
 70
     1
102
RTVSPropertyOp12
 70
     1
102
RTVSPropertyOp13
 70
     1
102
RTVSPropertyOp14
 70
     1
102
RTVSPropertyOp15
 70
     1
102
RTVSPropertyOp16
 70
     1
102
RTVSPropertyOp17
 70
     1
102
RTVSPropertyOp18
 70
     1
102
RTVSPropertyOp19
 70
     1
102
RTVSPropertyOp20
 70
     1
102
RTVSPropertyOp21
 70
     1
102
RTVSPropertyOp22
 70
     1
102
RTVSPropertyOp23
 70
     1
102
RTVSPropertyOp24
 70
     1
102
RTVSPropertyOp25
 70
     1
102
RTVSPropertyOp26
 70
     1
102
RTVSPropertyOp27
 70
     1
102
RTVSPropertyOp28
 70
     1
102
RTVSPropertyOp29
 70
     1
102
RTVSPropertyOp30
 70
     1
102
RTVSPropertyOp31
 70
     1
102
RTVSPropertyOp32
 70
     1
  0
XRECORD
  5
9D
102
{ACAD_REACTORS
330
9C
102
}
330
9C
100
AcDbXrecord
280
     1
102
RTVSPropertyOp0
 70
     1
102
RTVSPropertyOp1
 70
     1
102
RTVSPropertyOp2
 70
     1
102
RTVSPropertyOp3
 70
     1
102
RTVSPropertyOp4
 70
     1
102
RTVSPropertyOp5
 70
     1
102
RTVSPropertyOp6
 70
     1
102
RTVSPropertyOp7
 70
     1
102
RTVSPropertyOp8
 70
     1
102
RTVSPropertyOp9
 70
     1
102
RTVSPropertyOp10
 70
     1
102
RTVSPropertyOp11
 70
     1
102
RTVSPropertyOp12
 70
     1
102
RTVSPropertyOp13
 70
     1
102
RTVSPropertyOp14
 70
     1
102
RTVSPropertyOp15
 70
     1
102
RTVSPropertyOp16
 70
     1
102
RTVSPropertyOp17
 70
     1
102
RTVSPropertyOp18
 70
     1
102
RTVSPropertyOp19
 70
     1
102
RTVSPropertyOp20
 70
     1
102
RTVSPropertyOp21
 70
     1
102
RTVSPropertyOp22
 70
     1
102
RTVSPropertyOp23
 70
     1
102
RTVSPropertyOp24
 70
     1
102
RTVSPropertyOp25
 70
     1
102
RTVSPropertyOp26
 70
     1
102
RTVSPropertyOp27
 70
     1
102
RTVSPropertyOp28
 70
     1
102
RTVSPropertyOp29
 70
     1
102
RTVSPropertyOp30
 70
     1
102
RTVSPropertyOp31
 70
     1
102
RTVSPropertyOp32
 70
     1
  0
ENDSEC
  0
EOF
