  0
SECTION
  2
HEADER
  9
$ACADVER
  1
AC1021
  9
$ACADMAINTVER
 70
    25
  9
$DWGCODEPAGE
  3
ANSI_1252
  9
$INSBASE
 10
0.0
 20
0.0
 30
0.0
  9
$EXTMIN
 10
-11.35452
 20
-7.08552
 30
0.0
  9
$EXTMAX
 10
11.35147
 20
7.08553
 30
0.0
  9
$LIMMIN
 10
0.0
 20
0.0
  9
$LIMMAX
 10
12.0
 20
9.0
  9
$ORTHOMODE
 70
     0
  9
$REGENMODE
 70
     1
  9
$FILLMODE
 70
     1
  9
$QTEXTMODE
 70
     0
  9
$MIRRTEXT
 70
     1
  9
$LTSCALE
 40
1.0
  9
$ATTMODE
 70
     1
  9
$TEXTSIZE
 40
0.2
  9
$TRACEWID
 40
0.05
  9
$TEXTSTYLE
  7
Standard
  9
$CLAYER
  8
0
  9
$CELTYPE
  6
ByLayer
  9
$CECOLOR
 62
   256
  9
$CELTSCALE
 40
1.0
  9
$DISPSILH
 70
     0
  9
$DIMSCALE
 40
1.0
  9
$DIMASZ
 40
0.18
  9
$DIMEXO
 40
0.0625
  9
$DIMDLI
 40
0.38
  9
$DIMRND
 40
0.0
  9
$DIMDLE
 40
0.0
  9
$DIMEXE
 40
0.18
  9
$DIMTP
 40
0.0
  9
$DIMTM
 40
0.0
  9
$DIMTXT
 40
0.18
  9
$DIMCEN
 40
0.09
  9
$DIMTSZ
 40
0.0
  9
$DIMTOL
 70
     0
  9
$DIMLIM
 70
     0
  9
$DIMTIH
 70
     1
  9
$DIMTOH
 70
     1
  9
$DIMSE1
 70
     0
  9
$DIMSE2
 70
     0
  9
$DIMTAD
 70
     0
  9
$DIMZIN
 70
     0
  9
$DIMBLK
  1

  9
$DIMASO
 70
     1
  9
$DIMSHO
 70
     1
  9
$DIMPOST
  1

  9
$DIMAPOST
  1

  9
$DIMALT
 70
     0
  9
$DIMALTD
 70
     2
  9
$DIMALTF
 40
25.4
  9
$DIMLFAC
 40
1.0
  9
$DIMTOFL
 70
     0
  9
$DIMTVP
 40
0.0
  9
$DIMTIX
 70
     0
  9
$DIMSOXD
 70
     0
  9
$DIMSAH
 70
     0
  9
$DIMBLK1
  1

  9
$DIMBLK2
  1

  9
$DIMSTYLE
  2
Standard
  9
$DIMCLRD
 70
     0
  9
$DIMCLRE
 70
     0
  9
$DIMCLRT
 70
     0
  9
$DIMTFAC
 40
1.0
  9
$DIMGAP
 40
0.09
  9
$DIMJUST
 70
     0
  9
$DIMSD1
 70
     0
  9
$DIMSD2
 70
     0
  9
$DIMTOLJ
 70
     1
  9
$DIMTZIN
 70
     0
  9
$DIMALTZ
 70
     0
  9
$DIMALTTZ
 70
     0
  9
$DIMUPT
 70
     0
  9
$DIMDEC
 70
     4
  9
$DIMTDEC
 70
     4
  9
$DIMALTU
 70
     2
  9
$DIMALTTD
 70
     2
  9
$DIMTXSTY
  7
Standard
  9
$DIMAUNIT
 70
     0
  9
$DIMADEC
 70
     0
  9
$DIMALTRND
 40
0.0
  9
$DIMAZIN
 70
     0
  9
$DIMDSEP
 70
    46
  9
$DIMATFIT
 70
     3
  9
$DIMFRAC
 70
     0
  9
$DIMLDRBLK
  1

  9
$DIMLUNIT
 70
     2
  9
$DIMLWD
 70
    -2
  9
$DIMLWE
 70
    -2
  9
$DIMTMOVE
 70
     0
  9
$DIMFXL
 40
1.0
  9
$DIMFXLON
 70
     0
  9
$DIMJOGANG
 40
0.7853981633974483
  9
$DIMTFILL
 70
     0
  9
$DIMTFILLCLR
 70
     0
  9
$DIMARCSYM
 70
     0
  9
$DIMLTYPE
  6

  9
$DIMLTEX1
  6

  9
$DIMLTEX2
  6

  9
$LUNITS
 70
     2
  9
$LUPREC
 70
     4
  9
$SKETCHINC
 40
0.1
  9
$FILLETRAD
 40
0.5
  9
$AUNITS
 70
     0
  9
$AUPREC
 70
     0
  9
$MENU
  1
.
  9
$ELEVATION
 40
0.0
  9
$PELEVATION
 40
0.0
  9
$THICKNESS
 40
0.0
  9
$LIMCHECK
 70
     0
  9
$CHAMFERA
 40
0.5
  9
$CHAMFERB
 40
0.5
  9
$CHAMFERC
 40
1.0
  9
$CHAMFERD
 40
0.0
  9
$SKPOLY
 70
     0
  9
$TDCREATE
 40
2456231.937337558
  9
$TDUCREATE
 40
2456232.104004225
  9
$TDUPDATE
 40
2456231.93733765
  9
$TDUUPDATE
 40
2456232.104004317
  9
$TDINDWG
 40
0.0000000116
  9
$TDUSRTIMER
 40
0.0000000116
  9
$USRTIMER
 70
     1
  9
$ANGBASE
 50
0.0
  9
$ANGDIR
 70
     0
  9
$PDMODE
 70
     0
  9
$PDSIZE
 40
0.0
  9
$PLINEWID
 40
0.0
  9
$SPLFRAME
 70
     0
  9
$SPLINETYPE
 70
     6
  9
$SPLINESEGS
 70
     8
  9
$HANDSEED
  5
AB
  9
$SURFTAB1
 70
     6
  9
$SURFTAB2
 70
     6
  9
$SURFTYPE
 70
     6
  9
$SURFU
 70
     6
  9
$SURFV
 70
     6
  9
$UCSBASE
  2

  9
$UCSNAME
  2

  9
$UCSORG
 10
0.0
 20
0.0
 30
0.0
  9
$UCSXDIR
 10
1.0
 20
0.0
 30
0.0
  9
$UCSYDIR
 10
0.0
 20
1.0
 30
0.0
  9
$UCSORTHOREF
  2

  9
$UCSORTHOVIEW
 70
     0
  9
$UCSORGTOP
 10
0.0
 20
0.0
 30
0.0
  9
$UCSORGBOTTOM
 10
0.0
 20
0.0
 30
0.0
  9
$UCSORGLEFT
 10
0.0
 20
0.0
 30
0.0
  9
$UCSORGRIGHT
 10
0.0
 20
0.0
 30
0.0
  9
$UCSORGFRONT
 10
0.0
 20
0.0
 30
0.0
  9
$UCSORGBACK
 10
0.0
 20
0.0
 30
0.0
  9
$PUCSBASE
  2

  9
$PUCSNAME
  2

  9
$PUCSORG
 10
0.0
 20
0.0
 30
0.0
  9
$PUCSXDIR
 10
1.0
 20
0.0
 30
0.0
  9
$PUCSYDIR
 10
0.0
 20
1.0
 30
0.0
  9
$PUCSORTHOREF
  2

  9
$PUCSORTHOVIEW
 70
     0
  9
$PUCSORGTOP
 10
0.0
 20
0.0
 30
0.0
  9
$PUCSORGBOTTOM
 10
0.0
 20
0.0
 30
0.0
  9
$PUCSORGLEFT
 10
0.0
 20
0.0
 30
0.0
  9
$PUCSORGRIGHT
 10
0.0
 20
0.0
 30
0.0
  9
$PUCSORGFRONT
 10
0.0
 20
0.0
 30
0.0
  9
$PUCSORGBACK
 10
0.0
 20
0.0
 30
0.0
  9
$USERI1
 70
     0
  9
$USERI2
 70
     0
  9
$USERI3
 70
     0
  9
$USERI4
 70
     0
  9
$USERI5
 70
     0
  9
$USERR1
 40
0.0
  9
$USERR2
 40
0.0
  9
$USERR3
 40
0.0
  9
$USERR4
 40
0.0
  9
$USERR5
 40
0.0
  9
$WORLDVIEW
 70
     1
  9
$SHADEDGE
 70
     3
  9
$SHADEDIF
 70
    70
  9
$TILEMODE
 70
     1
  9
$MAXACTVP
 70
    64
  9
$PINSBASE
 10
0.0
 20
0.0
 30
0.0
  9
$PLIMCHECK
 70
     0
  9
$PEXTMIN
 10
1.000000000000000E+20
 20
1.000000000000000E+20
 30
1.000000000000000E+20
  9
$PEXTMAX
 10
-1.000000000000000E+20
 20
-1.000000000000000E+20
 30
-1.000000000000000E+20
  9
$PLIMMIN
 10
0.0
 20
0.0
  9
$PLIMMAX
 10
12.0
 20
9.0
  9
$UNITMODE
 70
     0
  9
$VISRETAIN
 70
     1
  9
$PLINEGEN
 70
     0
  9
$PSLTSCALE
 70
     1
  9
$TREEDEPTH
 70
  3020
  9
$CMLSTYLE
  2
Standard
  9
$CMLJUST
 70
     0
  9
$CMLSCALE
 40
1.0
  9
$PROXYGRAPHICS
 70
     1
  9
$MEASUREMENT
 70
     0
  9
$CELWEIGHT
370
    -1
  9
$ENDCAPS
280
     0
  9
$JOINSTYLE
280
     0
  9
$LWDISPLAY
290
     0
  9
$INSUNITS
 70
     5
  9
$HYPERLINKBASE
  1

  9
$STYLESHEET
  1

  9
$XEDIT
290
     1
  9
$CEPSNTYPE
380
     0
  9
$PSTYLEMODE
290
     1
  9
$FINGERPRINTGUID
  2
{7D330AEA-DBD7-4E66-9057-150736856B4A}
  9
$VERSIONGUID
  2
{FAEB1C32-E019-11D5-929B-00C0DF256EC4}
  9
$EXTNAMES
290
     1
  9
$PSVPSCALE
 40
0.0
  9
$OLESTARTUP
290
     0
  9
$SORTENTS
280
   127
  9
$INDEXCTL
280
     0
  9
$HIDETEXT
280
     1
  9
$XCLIPFRAME
290
     0
  9
$HALOGAP
280
     0
  9
$OBSCOLOR
 70
   257
  9
$OBSLTYPE
280
     0
  9
$INTERSECTIONDISPLAY
280
     0
  9
$INTERSECTIONCOLOR
 70
   257
  9
$DIMASSOC
280
     2
  9
$PROJECTNAME
  1

  9
$CAMERADISPLAY
290
     0
  9
$LENSLENGTH
 40
50.0
  9
$CAMERAHEIGHT
 40
0.0
  9
$STEPSPERSEC
 40
2.0
  9
$STEPSIZE
 40
6.0
  9
$3DDWFPREC
 40
2.0
  9
$PSOLWIDTH
 40
0.25
  9
$PSOLHEIGHT
 40
4.0
  9
$LOFTANG1
 40
1.570796326794897
  9
$LOFTANG2
 40
1.570796326794897
  9
$LOFTMAG1
 40
0.0
  9
$LOFTMAG2
 40
0.0
  9
$LOFTPARAM
 70
     7
  9
$LOFTNORMALS
280
     1
  9
$LATITUDE
 40
37.795
  9
$LONGITUDE
 40
-122.394
  9
$NORTHDIRECTION
 40
0.0
  9
$TIMEZONE
 70
 -8000
  9
$LIGHTGLYPHDISPLAY
280
     1
  9
$TILEMODELIGHTSYNCH
280
     1
  9
$SOLIDHIST
280
     1
  9
$SHOWHIST
280
     1
  9
$DWFFRAME
280
     2
  9
$DGNFRAME
280
     2
  9
$REALWORLDSCALE
290
     1
  9
$INTERFERECOLOR
 62
   256
  9
$CSHADOW
280
     0
  9
$SHADOWPLANELOCATION
 40
0.0
  0
ENDSEC
  0
SECTION
  2
CLASSES
  0
CLASS
  1
ACDBDICTIONARYWDFLT
  2
AcDbDictionaryWithDefault
  3
ObjectDBX Classes
 90
        0
 91
        4
280
     0
281
     0
  0
CLASS
  1
VISUALSTYLE
  2
AcDbVisualStyle
  3
ObjectDBX Classes
 90
     4095
 91
        4
280
     0
281
     0
  0
CLASS
  1
MATERIAL
  2
AcDbMaterial
  3
ObjectDBX Classes
 90
     1153
 91
        4
280
     0
281
     0
  0
ENDSEC
  0
SECTION
  2
TABLES
  0
TABLE
  2
VPORT
  5
8
330
0
100
AcDbSymbolTable
 70
     1
  0
VPORT
  5
29
330
8
100
AcDbSymbolTableRecord
100
AcDbViewportTableRecord
  2
*Active
 70
     0
 10
0.0
 20
0.0
 11
1.0
 21
1.0
 12
10.42990654205607
 22
4.5
 13
0.0
 23
0.0
 14
0.5
 24
0.5
 15
0.5
 25
0.5
 16
0.0
 26
0.0
 36
1.0
 17
0.0
 27
0.0
 37
0.0
 40
9.0
 41
1.972972972850329
 42
50.0
 43
0.0
 44
0.0
 50
0.0
 51
0.0
 71
     0
 72
   100
 73
     1
 74
     3
 75
     0
 76
     0
 77
     0
 78
     0
281
     0
 65
     1
110
0.0
120
0.0
130
0.0
111
1.0
121
0.0
131
0.0
112
0.0
122
1.0
132
0.0
 79
     0
146
0.0
 60
     3
 61
     5
292
     1
282
     1
141
0.0
142
0.0
 63
   250
  0
ENDTAB
  0
TABLE
  2
LTYPE
  5
5
330
0
100
AcDbSymbolTable
 70
     1
  0
LTYPE
  5
14
330
5
100
AcDbSymbolTableRecord
100
AcDbLinetypeTableRecord
  2
ByBlock
 70
     0
  3

 72
    65
 73
     0
 40
0.0
  0
LTYPE
  5
15
330
5
100
AcDbSymbolTableRecord
100
AcDbLinetypeTableRecord
  2
ByLayer
 70
     0
  3

 72
    65
 73
     0
 40
0.0
  0
LTYPE
  5
16
330
5
100
AcDbSymbolTableRecord
100
AcDbLinetypeTableRecord
  2
Continuous
 70
     0
  3
Solid line
 72
    65
 73
     0
 40
0.0
  0
ENDTAB
  0
TABLE
  2
LAYER
  5
2
330
0
100
AcDbSymbolTable
 70
     3
  0
LAYER
  5
10
330
2
100
AcDbSymbolTableRecord
100
AcDbLayerTableRecord
  2
0
 70
     0
 62
     7
  6
Continuous
370
    -3
390
F
347
3E
  0
LAYER
  5
40
330
2
100
AcDbSymbolTableRecord
100
AcDbLayerTableRecord
  2
Layer 1
 70
     0
 62
     7
  6
Continuous
370
    -3
390
F
347
3E
  0
LAYER
  5
5E
330
2
100
AcDbSymbolTableRecord
100
AcDbLayerTableRecord
  2
layer 2
 70
     0
 62
     7
  6
Continuous
370
    -3
390
F
347
3E
  0
ENDTAB
  0
TABLE
  2
STYLE
  5
3
330
0
100
AcDbSymbolTable
 70
     1
  0
STYLE
  5
11
330
3
100
AcDbSymbolTableRecord
100
AcDbTextStyleTableRecord
  2
Standard
 70
     0
 40
0.0
 41
1.0
 50
0.0
 71
     0
 42
0.2
  3
txt
  4

  0
ENDTAB
  0
TABLE
  2
VIEW
  5
6
330
0
100
AcDbSymbolTable
 70
     0
  0
ENDTAB
  0
TABLE
  2
UCS
  5
7
330
0
100
AcDbSymbolTable
 70
     0
  0
ENDTAB
  0
TABLE
  2
APPID
  5
9
330
0
100
AcDbSymbolTable
 70
     2
  0
APPID
  5
12
330
9
100
AcDbSymbolTableRecord
100
AcDbRegAppTableRecord
  2
ACAD
 70
     0
  0
APPID
  5
3F
330
9
100
AcDbSymbolTableRecord
100
AcDbRegAppTableRecord
  2
ODA
 70
     0
  0
ENDTAB
  0
TABLE
  2
DIMSTYLE
  5
A
330
0
100
AcDbSymbolTable
 70
     1
100
AcDbDimStyleTable
  0
DIMSTYLE
105
27
330
A
100
AcDbSymbolTableRecord
100
AcDbDimStyleTableRecord
  2
Standard
 70
     0
178
     0
340
11
  0
ENDTAB
  0
TABLE
  2
BLOCK_RECORD
  5
1
330
0
100
AcDbSymbolTable
 70
     1
  0
BLOCK_RECORD
  5
1F
330
1
100
AcDbSymbolTableRecord
100
AcDbBlockTableRecord
  2
*Model_Space
340
22
 70
     0
280
     1
281
     0
  0
BLOCK_RECORD
  5
1B
330
1
100
AcDbSymbolTableRecord
100
AcDbBlockTableRecord
  2
*Paper_Space
340
1E
 70
     0
280
     1
281
     0
  0
BLOCK_RECORD
  5
23
330
1
100
AcDbSymbolTableRecord
100
AcDbBlockTableRecord
  2
*Paper_Space0
340
26
 70
     0
280
     1
281
     0
  0
ENDTAB
  0
ENDSEC
  0
SECTION
  2
BLOCKS
  0
BLOCK
  5
20
330
1F
100
AcDbEntity
  8
0
100
AcDbBlockBegin
  2
*Model_Space
 70
     0
 10
0.0
 20
0.0
 30
0.0
  3
*Model_Space
  1

  0
ENDBLK
  5
21
330
1F
100
AcDbEntity
  8
0
100
AcDbBlockEnd
  0
BLOCK
  5
1C
330
1B
100
AcDbEntity
 67
     1
  8
0
100
AcDbBlockBegin
  2
*Paper_Space
 70
     0
 10
0.0
 20
0.0
 30
0.0
  3
*Paper_Space
  1

  0
ENDBLK
  5
1D
330
1B
100
AcDbEntity
 67
     1
  8
0
100
AcDbBlockEnd
  0
BLOCK
  5
24
330
23
100
AcDbEntity
  8
0
100
AcDbBlockBegin
  2
*Paper_Space0
 70
     0
 10
0.0
 20
0.0
 30
0.0
  3
*Paper_Space0
  1

  0
ENDBLK
  5
25
330
23
100
AcDbEntity
  8
0
100
AcDbBlockEnd
  0
ENDSEC
  0
SECTION
  2
ENTITIES
  0
SPLINE
  5
41
330
1F
100
AcDbEntity
  8
Layer 1
 62
   250
370
     9
100
AcDbSpline
210
0.0
220
0.0
230
1.0
 70
    11
 71
     3
 72
    92
 73
    88
 74
     0
 42
0.0000000001
 43
0.0000000001
 12
1.0
 22
0.0
 32
0.0
 13
1.0
 23
0.0
 33
0.0
 40
0.0
 40
0.0
 40
0.0
 40
0.0
 40
0.0434782608695652
 40
0.0434782608695652
 40
0.0434782608695652
 40
0.0434782608695652
 40
0.0869565217391304
 40
0.0869565217391304
 40
0.0869565217391304
 40
0.0869565217391304
 40
0.1304347826086956
 40
0.1304347826086956
 40
0.1304347826086956
 40
0.1304347826086956
 40
0.1739130434782609
 40
0.1739130434782609
 40
0.1739130434782609
 40
0.1739130434782609
 40
0.2173913043478261
 40
0.2173913043478261
 40
0.2173913043478261
 40
0.2173913043478261
 40
0.2608695652173913
 40
0.2608695652173913
 40
0.2608695652173913
 40
0.2608695652173913
 40
0.3043478260869565
 40
0.3043478260869565
 40
0.3043478260869565
 40
0.3043478260869565
 40
0.3478260869565217
 40
0.3478260869565217
 40
0.3478260869565217
 40
0.3478260869565217
 40
0.391304347826087
 40
0.391304347826087
 40
0.391304347826087
 40
0.391304347826087
 40
0.4347826086956522
 40
0.4347826086956522
 40
0.4347826086956522
 40
0.4347826086956522
 40
0.4782608695652174
 40
0.4782608695652174
 40
0.4782608695652174
 40
0.4782608695652174
 40
0.5217391304347826
 40
0.5217391304347826
 40
0.5217391304347826
 40
0.5217391304347826
 40
0.5652173913043478
 40
0.5652173913043478
 40
0.5652173913043478
 40
0.5652173913043478
 40
0.6086956521739131
 40
0.6086956521739131
 40
0.6086956521739131
 40
0.6086956521739131
 40
0.6521739130434783
 40
0.6521739130434783
 40
0.6521739130434783
 40
0.6521739130434783
 40
0.6956521739130435
 40
0.6956521739130435
 40
0.6956521739130435
 40
0.6956521739130435
 40
0.7391304347826086
 40
0.7391304347826086
 40
0.7391304347826086
 40
0.7391304347826086
 40
0.782608695652174
 40
0.782608695652174
 40
0.782608695652174
 40
0.782608695652174
 40
0.8260869565217391
 40
0.8260869565217391
 40
0.8260869565217391
 40
0.8260869565217391
 40
0.8695652173913043
 40
0.8695652173913043
 40
0.8695652173913043
 40
0.8695652173913043
 40
0.9130434782608695
 40
0.9130434782608695
 40
0.9130434782608695
 40
0.9130434782608695
 40
1.0
 40
1.0
 40
1.0
 40
1.0
 10
-2.12297
 20
-7.00044
 30
0.0
 10
-2.12297
 20
-7.00044
 30
0.0
 10
-2.12297
 20
-7.07156
 30
0.0
 10
-2.12297
 20
-7.07156
 30
0.0
 10
-2.12297
 20
-7.07156
 30
0.0
 10
-2.12297
 20
-7.07156
 30
0.0
 10
-2.5243
 20
-7.07156
 30
0.0
 10
-2.5243
 20
-7.07156
 30
0.0
 10
-2.5243
 20
-7.07156
 30
0.0
 10
-2.52486
 20
-7.05364
 30
0.0
 10
-2.5219
 20
-7.03642
 30
0.0
 10
-2.51555
 20
-7.01977
 30
0.0
 10
-2.51555
 20
-7.01977
 30
0.0
 10
-2.50525
 20
-6.99254
 30
0.0
 10
-2.48874
 20
-6.96558
 30
0.0
 10
-2.46602
 20
-6.9392
 30
0.0
 10
-2.46602
 20
-6.9392
 30
0.0
 10
-2.4433
 20
-6.91281
 30
0.0
 10
-2.41084
 20
-6.88233
 30
0.0
 10
-2.36865
 20
-6.84776
 30
0.0
 10
-2.36865
 20
-6.84776
 30
0.0
 10
-2.30303
 20
-6.7937
 30
0.0
 10
-2.25844
 20
-6.75095
 30
0.0
 10
-2.23516
 20
-6.71935
 30
0.0
 10
-2.23516
 20
-6.71935
 30
0.0
 10
-2.21173
 20
-6.68774
 30
0.0
 10
-2.20002
 20
-6.65782
 30
0.0
 10
-2.20002
 20
-6.6296
 30
0.0
 10
-2.20002
 20
-6.6296
 30
0.0
 10
-2.20002
 20
-6.6001
 30
0.0
 10
-2.21061
 20
-6.57527
 30
0.0
 10
-2.23177
 20
-6.55495
 30
0.0
 10
-2.23177
 20
-6.55495
 30
0.0
 10
-2.25294
 20
-6.53477
 30
0.0
 10
-2.2806
 20
-6.52461
 30
0.0
 10
-2.3146
 20
-6.52461
 30
0.0
 10
-2.3146
 20
-6.52461
 30
0.0
 10
-2.35059
 20
-6.52461
 30
0.0
 10
-2.37937
 20
-6.53534
 30
0.0
 10
-2.40096
 20
-6.55678
 30
0.0
 10
-2.40096
 20
-6.55678
 30
0.0
 10
-2.42256
 20
-6.57809
 30
0.0
 10
-2.43342
 20
-6.60773
 30
0.0
 10
-2.4337
 20
-6.64568
 30
0.0
 10
-2.4337
 20
-6.64568
 30
0.0
 10
-2.4337
 20
-6.64568
 30
0.0
 10
-2.5099
 20
-6.63806
 30
0.0
 10
-2.5099
 20
-6.63806
 30
0.0
 10
-2.5099
 20
-6.63806
 30
0.0
 10
-2.50468
 20
-6.58105
 30
0.0
 10
-2.48493
 20
-6.53759
 30
0.0
 10
-2.45078
 20
-6.50767
 30
0.0
 10
-2.45078
 20
-6.50767
 30
0.0
 10
-2.41649
 20
-6.47776
 30
0.0
 10
-2.37063
 20
-6.4628
 30
0.0
 10
-2.31291
 20
-6.4628
 30
0.0
 10
-2.31291
 20
-6.4628
 30
0.0
 10
-2.25477
 20
-6.4628
 30
0.0
 10
-2.20863
 20
-6.47889
 30
0.0
 10
-2.17476
 20
-6.51121
 30
0.0
 10
-2.17476
 20
-6.51121
 30
0.0
 10
-2.14076
 20
-6.54352
 30
0.0
 10
-2.12382
 20
-6.58359
 30
0.0
 10
-2.12382
 20
-6.63129
 30
0.0
 10
-2.12382
 20
-6.63129
 30
0.0
 10
-2.12382
 20
-6.65556
 30
0.0
 10
-2.12876
 20
-6.6794
 30
0.0
 10
-2.13878
 20
-6.70284
 30
0.0
 10
-2.13878
 20
-6.70284
 30
0.0
 10
-2.14866
 20
-6.7264
 30
0.0
 10
-2.16517
 20
-6.7511
 30
0.0
 10
-2.18817
 20
-6.77705
 30
0.0
 10
-2.18817
 20
-6.77705
 30
0.0
 10
-2.21131
 20
-6.80288
 30
0.0
 10
-2.24955
 20
-6.83858
 30
0.0
 10
-2.30289
 20
-6.88374
 30
0.0
 10
-2.30289
 20
-6.88374
 30
0.0
 10
-2.34762
 20
-6.92128
 30
0.0
 10
-2.37641
 20
-6.94667
 30
0.0
 10
-2.38911
 20
-6.96008
 30
0.0
 10
-2.38911
 20
-6.96008
 30
0.0
 10
-2.40181
 20
-6.97349
 30
0.0
 10
-2.41225
 20
-6.98688
 30
0.0
 10
-2.42058
 20
-7.00044
 30
0.0
 10
-2.42058
 20
-7.00044
 30
0.0
 10
-2.42058
 20
-7.00044
 30
0.0
 10
-2.12297
 20
-7.00044
 30
0.0
 10
-2.12297
 20
-7.00044
 30
0.0
  0
SPLINE
  5
42
330
1F
100
AcDbEntity
  8
Layer 1
 62
   250
370
     9
100
AcDbSpline
210
0.0
220
0.0
230
1.0
 70
    11
 71
     3
 72
    52
 73
    48
 74
     0
 42
0.0000000001
 43
0.0000000001
 12
1.0
 22
0.0
 32
0.0
 13
1.0
 23
0.0
 33
0.0
 40
0.0
 40
0.0
 40
0.0
 40
0.0
 40
0.0769230769230769
 40
0.0769230769230769
 40
0.0769230769230769
 40
0.0769230769230769
 40
0.1538461538461539
 40
0.1538461538461539
 40
0.1538461538461539
 40
0.1538461538461539
 40
0.2307692307692308
 40
0.2307692307692308
 40
0.2307692307692308
 40
0.2307692307692308
 40
0.3076923076923077
 40
0.3076923076923077
 40
0.3076923076923077
 40
0.3076923076923077
 40
0.3846153846153846
 40
0.3846153846153846
 40
0.3846153846153846
 40
0.3846153846153846
 40
0.4615384615384616
 40
0.4615384615384616
 40
0.4615384615384616
 40
0.4615384615384616
 40
0.5384615384615384
 40
0.5384615384615384
 40
0.5384615384615384
 40
0.5384615384615384
 40
0.6153846153846154
 40
0.6153846153846154
 40
0.6153846153846154
 40
0.6153846153846154
 40
0.6923076923076923
 40
0.6923076923076923
 40
0.6923076923076923
 40
0.6923076923076923
 40
0.7692307692307693
 40
0.7692307692307693
 40
0.7692307692307693
 40
0.7692307692307693
 40
0.8461538461538461
 40
0.8461538461538461
 40
0.8461538461538461
 40
0.8461538461538461
 40
1.0
 40
1.0
 40
1.0
 40
1.0
 10
-2.0424
 20
-6.7724
 30
0.0
 10
-2.0424
 20
-6.70086
 30
0.0
 10
-2.03506
 20
-6.64299
 30
0.0
 10
-2.02039
 20
-6.59926
 30
0.0
 10
-2.02039
 20
-6.59926
 30
0.0
 10
-2.00557
 20
-6.55537
 30
0.0
 10
-1.9837
 20
-6.52165
 30
0.0
 10
-1.95463
 20
-6.49808
 30
0.0
 10
-1.95463
 20
-6.49808
 30
0.0
 10
-1.9257
 20
-6.47452
 30
0.0
 10
-1.88915
 20
-6.4628
 30
0.0
 10
-1.84513
 20
-6.4628
 30
0.0
 10
-1.84513
 20
-6.4628
 30
0.0
 10
-1.81267
 20
-6.4628
 30
0.0
 10
-1.78417
 20
-6.4693
 30
0.0
 10
-1.75947
 20
-6.48242
 30
0.0
 10
-1.75947
 20
-6.48242
 30
0.0
 10
-1.73492
 20
-6.49554
 30
0.0
 10
-1.7146
 20
-6.51445
 30
0.0
 10
-1.69879
 20
-6.53915
 30
0.0
 10
-1.69879
 20
-6.53915
 30
0.0
 10
-1.68299
 20
-6.56369
 30
0.0
 10
-1.67057
 20
-6.59376
 30
0.0
 10
-1.66154
 20
-6.62917
 30
0.0
 10
-1.66154
 20
-6.62917
 30
0.0
 10
-1.65237
 20
-6.66459
 30
0.0
 10
-1.64785
 20
-6.71243
 30
0.0
 10
-1.64785
 20
-6.7724
 30
0.0
 10
-1.64785
 20
-6.7724
 30
0.0
 10
-1.64785
 20
-6.84352
 30
0.0
 10
-1.65519
 20
-6.9011
 30
0.0
 10
-1.66972
 20
-6.94484
 30
0.0
 10
-1.66972
 20
-6.94484
 30
0.0
 10
-1.68426
 20
-6.98873
 30
0.0
 10
-1.70613
 20
-7.02245
 30
0.0
 10
-1.7352
 20
-7.04616
 30
0.0
 10
-1.7352
 20
-7.04616
 30
0.0
 10
-1.76413
 20
-7.06987
 30
0.0
 10
-1.80082
 20
-7.08171
 30
0.0
 10
-1.84513
 20
-7.08171
 30
0.0
 10
-1.84513
 20
-7.08171
 30
0.0
 10
-1.9034
 20
-7.08171
 30
0.0
 10
-1.94927
 20
-7.06097
 30
0.0
 10
-1.98257
 20
-7.01935
 30
0.0
 10
-1.98257
 20
-7.01935
 30
0.0
 10
-2.0225
 20
-6.96855
 30
0.0
 10
-2.0424
 20
-6.88628
 30
0.0
 10
-2.0424
 20
-6.7724
 30
0.0
  0
SPLINE
  5
43
330
1F
100
AcDbEntity
  8
Layer 1
 62
   250
370
     9
100
AcDbSpline
210
0.0
220
0.0
230
1.0
 70
    11
 71
     3
 72
    36
 73
    32
 74
     0
 42
0.0000000001
 43
0.0000000001
 12
1.0
 22
0.0
 32
0.0
 13
1.0
 23
0.0
 33
0.0
 40
0.0
 40
0.0
 40
0.0
 40
0.0
 40
0.1111111111111111
 40
0.1111111111111111
 40
0.1111111111111111
 40
0.1111111111111111
 40
0.2222222222222222
 40
0.2222222222222222
 40
0.2222222222222222
 40
0.2222222222222222
 40
0.3333333333333333
 40
0.3333333333333333
 40
0.3333333333333333
 40
0.3333333333333333
 40
0.4444444444444444
 40
0.4444444444444444
 40
0.4444444444444444
 40
0.4444444444444444
 40
0.5555555555555556
 40
0.5555555555555556
 40
0.5555555555555556
 40
0.5555555555555556
 40
0.6666666666666666
 40
0.6666666666666666
 40
0.6666666666666666
 40
0.6666666666666666
 40
0.7777777777777778
 40
0.7777777777777778
 40
0.7777777777777778
 40
0.7777777777777778
 40
1.0
 40
1.0
 40
1.0
 40
1.0
 10
-1.9662
 20
-6.77268
 30
0.0
 10
-1.9662
 20
-6.87244
 30
0.0
 10
-1.95463
 20
-6.93877
 30
0.0
 10
-1.93134
 20
-6.97151
 30
0.0
 10
-1.93134
 20
-6.97151
 30
0.0
 10
-1.90806
 20
-7.00438
 30
0.0
 10
-1.87927
 20
-7.02076
 30
0.0
 10
-1.84513
 20
-7.02076
 30
0.0
 10
-1.84513
 20
-7.02076
 30
0.0
 10
-1.81098
 20
-7.02076
 30
0.0
 10
-1.78219
 20
-7.00424
 30
0.0
 10
-1.75891
 20
-6.97137
 30
0.0
 10
-1.75891
 20
-6.97137
 30
0.0
 10
-1.73562
 20
-6.93835
 30
0.0
 10
-1.72405
 20
-6.87216
 30
0.0
 10
-1.72405
 20
-6.77268
 30
0.0
 10
-1.72405
 20
-6.77268
 30
0.0
 10
-1.72405
 20
-6.67292
 30
0.0
 10
-1.73562
 20
-6.6066
 30
0.0
 10
-1.75891
 20
-6.57386
 30
0.0
 10
-1.75891
 20
-6.57386
 30
0.0
 10
-1.78205
 20
-6.54098
 30
0.0
 10
-1.81112
 20
-6.52461
 30
0.0
 10
-1.84597
 20
-6.52461
 30
0.0
 10
-1.84597
 20
-6.52461
 30
0.0
 10
-1.88012
 20
-6.52461
 30
0.0
 10
-1.9075
 20
-6.53915
 30
0.0
 10
-1.92796
 20
-6.56806
 30
0.0
 10
-1.92796
 20
-6.56806
 30
0.0
 10
-1.9535
 20
-6.60489
 30
0.0
 10
-1.9662
 20
-6.6732
 30
0.0
 10
-1.9662
 20
-6.77268
 30
0.0
  0
SPLINE
  5
44
330
1F
100
AcDbEntity
  8
Layer 1
 62
   250
370
     9
100
AcDbSpline
210
0.0
220
0.0
230
1.0
 70
    11
 71
     3
 72
    68
 73
    64
 74
     0
 42
0.0000000001
 43
0.0000000001
 12
1.0
 22
0.0
 32
0.0
 13
1.0
 23
0.0
 33
0.0
 40
0.0
 40
0.0
 40
0.0
 40
0.0
 40
0.0588235294117647
 40
0.0588235294117647
 40
0.0588235294117647
 40
0.0588235294117647
 40
0.1176470588235294
 40
0.1176470588235294
 40
0.1176470588235294
 40
0.1176470588235294
 40
0.1764705882352941
 40
0.1764705882352941
 40
0.1764705882352941
 40
0.1764705882352941
 40
0.2352941176470588
 40
0.2352941176470588
 40
0.2352941176470588
 40
0.2352941176470588
 40
0.2941176470588235
 40
0.2941176470588235
 40
0.2941176470588235
 40
0.2941176470588235
 40
0.3529411764705883
 40
0.3529411764705883
 40
0.3529411764705883
 40
0.3529411764705883
 40
0.4117647058823529
 40
0.4117647058823529
 40
0.4117647058823529
 40
0.4117647058823529
 40
0.4705882352941176
 40
0.4705882352941176
 40
0.4705882352941176
 40
0.4705882352941176
 40
0.5294117647058824
 40
0.5294117647058824
 40
0.5294117647058824
 40
0.5294117647058824
 40
0.5882352941176471
 40
0.5882352941176471
 40
0.5882352941176471
 40
0.5882352941176471
 40
0.6470588235294118
 40
0.6470588235294118
 40
0.6470588235294118
 40
0.6470588235294118
 40
0.7058823529411765
 40
0.7058823529411765
 40
0.7058823529411765
 40
0.7058823529411765
 40
0.7647058823529411
 40
0.7647058823529411
 40
0.7647058823529411
 40
0.7647058823529411
 40
0.8235294117647058
 40
0.8235294117647058
 40
0.8235294117647058
 40
0.8235294117647058
 40
0.8823529411764706
 40
0.8823529411764706
 40
0.8823529411764706
 40
0.8823529411764706
 40
1.0
 40
1.0
 40
1.0
 40
1.0
 10
-1.45679
 20
-6.74291
 30
0.0
 10
-1.48769
 20
-6.73162
 30
0.0
 10
-1.51055
 20
-6.71539
 30
0.0
 10
-1.52551
 20
-6.69451
 30
0.0
 10
-1.52551
 20
-6.69451
 30
0.0
 10
-1.54032
 20
-6.67348
 30
0.0
 10
-1.5478
 20
-6.64837
 30
0.0
 10
-1.5478
 20
-6.61916
 30
0.0
 10
-1.5478
 20
-6.61916
 30
0.0
 10
-1.5478
 20
-6.57499
 30
0.0
 10
-1.532
 20
-6.53802
 30
0.0
 10
-1.50039
 20
-6.50795
 30
0.0
 10
-1.50039
 20
-6.50795
 30
0.0
 10
-1.46864
 20
-6.4779
 30
0.0
 10
-1.42659
 20
-6.4628
 30
0.0
 10
-1.37395
 20
-6.4628
 30
0.0
 10
-1.37395
 20
-6.4628
 30
0.0
 10
-1.32118
 20
-6.4628
 30
0.0
 10
-1.27856
 20
-6.47819
 30
0.0
 10
-1.24639
 20
-6.50895
 30
0.0
 10
-1.24639
 20
-6.50895
 30
0.0
 10
-1.21422
 20
-6.53971
 30
0.0
 10
-1.19813
 20
-6.5771
 30
0.0
 10
-1.19813
 20
-6.62127
 30
0.0
 10
-1.19813
 20
-6.62127
 30
0.0
 10
-1.19813
 20
-6.64935
 30
0.0
 10
-1.20547
 20
-6.67391
 30
0.0
 10
-1.22014
 20
-6.69465
 30
0.0
 10
-1.22014
 20
-6.69465
 30
0.0
 10
-1.23482
 20
-6.71553
 30
0.0
 10
-1.25711
 20
-6.73162
 30
0.0
 10
-1.28717
 20
-6.74291
 30
0.0
 10
-1.28717
 20
-6.74291
 30
0.0
 10
-1.25006
 20
-6.75504
 30
0.0
 10
-1.22198
 20
-6.77451
 30
0.0
 10
-1.20264
 20
-6.80161
 30
0.0
 10
-1.20264
 20
-6.80161
 30
0.0
 10
-1.18331
 20
-6.82857
 30
0.0
 10
-1.17357
 20
-6.86074
 30
0.0
 10
-1.17357
 20
-6.89827
 30
0.0
 10
-1.17357
 20
-6.89827
 30
0.0
 10
-1.17357
 20
-6.95005
 30
0.0
 10
-1.19192
 20
-6.99353
 30
0.0
 10
-1.22847
 20
-7.0288
 30
0.0
 10
-1.22847
 20
-7.0288
 30
0.0
 10
-1.26516
 20
-7.06407
 30
0.0
 10
-1.31328
 20
-7.08171
 30
0.0
 10
-1.37297
 20
-7.08171
 30
0.0
 10
-1.37297
 20
-7.08171
 30
0.0
 10
-1.43266
 20
-7.08171
 30
0.0
 10
-1.48078
 20
-7.06407
 30
0.0
 10
-1.51746
 20
-7.02866
 30
0.0
 10
-1.51746
 20
-7.02866
 30
0.0
 10
-1.55401
 20
-6.99324
 30
0.0
 10
-1.57236
 20
-6.94908
 30
0.0
 10
-1.57236
 20
-6.89616
 30
0.0
 10
-1.57236
 20
-6.89616
 30
0.0
 10
-1.57236
 20
-6.85679
 30
0.0
 10
-1.56234
 20
-6.82377
 30
0.0
 10
-1.5423
 20
-6.79724
 30
0.0
 10
-1.5423
 20
-6.79724
 30
0.0
 10
-1.52226
 20
-6.77057
 30
0.0
 10
-1.49376
 20
-6.75251
 30
0.0
 10
-1.45679
 20
-6.74291
 30
0.0
  0
SPLINE
  5
45
330
1F
100
AcDbEntity
  8
Layer 1
 62
   250
370
     9
100
AcDbSpline
210
0.0
220
0.0
230
1.0
 70
    11
 71
     3
 72
    36
 73
    32
 74
     0
 42
0.0000000001
 43
0.0000000001
 12
1.0
 22
0.0
 32
0.0
 13
1.0
 23
0.0
 33
0.0
 40
0.0
 40
0.0
 40
0.0
 40
0.0
 40
0.1111111111111111
 40
0.1111111111111111
 40
0.1111111111111111
 40
0.1111111111111111
 40
0.2222222222222222
 40
0.2222222222222222
 40
0.2222222222222222
 40
0.2222222222222222
 40
0.3333333333333333
 40
0.3333333333333333
 40
0.3333333333333333
 40
0.3333333333333333
 40
0.4444444444444444
 40
0.4444444444444444
 40
0.4444444444444444
 40
0.4444444444444444
 40
0.5555555555555556
 40
0.5555555555555556
 40
0.5555555555555556
 40
0.5555555555555556
 40
0.6666666666666666
 40
0.6666666666666666
 40
0.6666666666666666
 40
0.6666666666666666
 40
0.7777777777777778
 40
0.7777777777777778
 40
0.7777777777777778
 40
0.7777777777777778
 40
1.0
 40
1.0
 40
1.0
 40
1.0
 10
-1.4716
 20
-6.61647
 30
0.0
 10
-1.4716
 20
-6.64526
 30
0.0
 10
-1.46243
 20
-6.66869
 30
0.0
 10
-1.44423
 20
-6.68689
 30
0.0
 10
-1.44423
 20
-6.68689
 30
0.0
 10
-1.42588
 20
-6.70509
 30
0.0
 10
-1.40189
 20
-6.71427
 30
0.0
 10
-1.37212
 20
-6.71427
 30
0.0
 10
-1.37212
 20
-6.71427
 30
0.0
 10
-1.34319
 20
-6.71427
 30
0.0
 10
-1.31977
 20
-6.70523
 30
0.0
 10
-1.30156
 20
-6.68717
 30
0.0
 10
-1.30156
 20
-6.68717
 30
0.0
 10
-1.28336
 20
-6.66911
 30
0.0
 10
-1.27433
 20
-6.64695
 30
0.0
 10
-1.27433
 20
-6.6207
 30
0.0
 10
-1.27433
 20
-6.6207
 30
0.0
 10
-1.27433
 20
-6.59333
 30
0.0
 10
-1.28364
 20
-6.57033
 30
0.0
 10
-1.30241
 20
-6.5517
 30
0.0
 10
-1.30241
 20
-6.5517
 30
0.0
 10
-1.32104
 20
-6.53308
 30
0.0
 10
-1.3446
 20
-6.52376
 30
0.0
 10
-1.37297
 20
-6.52376
 30
0.0
 10
-1.37297
 20
-6.52376
 30
0.0
 10
-1.40161
 20
-6.52376
 30
0.0
 10
-1.42518
 20
-6.53294
 30
0.0
 10
-1.4438
 20
-6.55114
 30
0.0
 10
-1.4438
 20
-6.55114
 30
0.0
 10
-1.46229
 20
-6.56934
 30
0.0
 10
-1.4716
 20
-6.59107
 30
0.0
 10
-1.4716
 20
-6.61647
 30
0.0
  0
SPLINE
  5
46
330
1F
100
AcDbEntity
  8
Layer 1
 62
   250
370
     9
100
AcDbSpline
210
0.0
220
0.0
230
1.0
 70
    11
 71
     3
 72
    40
 73
    36
 74
     0
 42
0.0000000001
 43
0.0000000001
 12
1.0
 22
0.0
 32
0.0
 13
1.0
 23
0.0
 33
0.0
 40
0.0
 40
0.0
 40
0.0
 40
0.0
 40
0.1
 40
0.1
 40
0.1
 40
0.1
 40
0.2
 40
0.2
 40
0.2
 40
0.2
 40
0.3
 40
0.3
 40
0.3
 40
0.3
 40
0.4
 40
0.4
 40
0.4
 40
0.4
 40
0.5
 40
0.5
 40
0.5
 40
0.5
 40
0.6
 40
0.6
 40
0.6
 40
0.6
 40
0.7
 40
0.7
 40
0.7
 40
0.7
 40
0.8
 40
0.8
 40
0.8
 40
0.8
 40
1.0
 40
1.0
 40
1.0
 40
1.0
 10
-1.49616
 20
-6.89672
 30
0.0
 10
-1.49616
 20
-6.91803
 30
0.0
 10
-1.49122
 20
-6.93849
 30
0.0
 10
-1.48134
 20
-6.95839
 30
0.0
 10
-1.48134
 20
-6.95839
 30
0.0
 10
-1.47146
 20
-6.97814
 30
0.0
 10
-1.4565
 20
-6.99353
 30
0.0
 10
-1.43647
 20
-7.00438
 30
0.0
 10
-1.43647
 20
-7.00438
 30
0.0
 10
-1.41657
 20
-7.01526
 30
0.0
 10
-1.39512
 20
-7.02076
 30
0.0
 10
-1.3724
 20
-7.02076
 30
0.0
 10
-1.3724
 20
-7.02076
 30
0.0
 10
-1.33656
 20
-7.02076
 30
0.0
 10
-1.30721
 20
-7.00933
 30
0.0
 10
-1.28421
 20
-6.98646
 30
0.0
 10
-1.28421
 20
-6.98646
 30
0.0
 10
-1.26121
 20
-6.96361
 30
0.0
 10
-1.24978
 20
-6.93454
 30
0.0
 10
-1.24978
 20
-6.89926
 30
0.0
 10
-1.24978
 20
-6.89926
 30
0.0
 10
-1.24978
 20
-6.86342
 30
0.0
 10
-1.26163
 20
-6.83379
 30
0.0
 10
-1.28519
 20
-6.81036
 30
0.0
 10
-1.28519
 20
-6.81036
 30
0.0
 10
-1.3089
 20
-6.78694
 30
0.0
 10
-1.33882
 20
-6.77522
 30
0.0
 10
-1.3748
 20
-6.77522
 30
0.0
 10
-1.3748
 20
-6.77522
 30
0.0
 10
-1.41008
 20
-6.77522
 30
0.0
 10
-1.43901
 20
-6.7868
 30
0.0
 10
-1.46187
 20
-6.80994
 30
0.0
 10
-1.46187
 20
-6.80994
 30
0.0
 10
-1.48473
 20
-6.83307
 30
0.0
 10
-1.49616
 20
-6.86201
 30
0.0
 10
-1.49616
 20
-6.89672
 30
0.0
  0
SPLINE
  5
47
330
1F
100
AcDbEntity
  8
Layer 1
 62
   250
370
     9
100
AcDbSpline
210
0.0
220
0.0
230
1.0
 70
    11
 71
     3
 72
    52
 73
    48
 74
     0
 42
0.0000000001
 43
0.0000000001
 12
1.0
 22
0.0
 32
0.0
 13
1.0
 23
0.0
 33
0.0
 40
0.0
 40
0.0
 40
0.0
 40
0.0
 40
0.0769230769230769
 40
0.0769230769230769
 40
0.0769230769230769
 40
0.0769230769230769
 40
0.1538461538461539
 40
0.1538461538461539
 40
0.1538461538461539
 40
0.1538461538461539
 40
0.2307692307692308
 40
0.2307692307692308
 40
0.2307692307692308
 40
0.2307692307692308
 40
0.3076923076923077
 40
0.3076923076923077
 40
0.3076923076923077
 40
0.3076923076923077
 40
0.3846153846153846
 40
0.3846153846153846
 40
0.3846153846153846
 40
0.3846153846153846
 40
0.4615384615384616
 40
0.4615384615384616
 40
0.4615384615384616
 40
0.4615384615384616
 40
0.5384615384615384
 40
0.5384615384615384
 40
0.5384615384615384
 40
0.5384615384615384
 40
0.6153846153846154
 40
0.6153846153846154
 40
0.6153846153846154
 40
0.6153846153846154
 40
0.6923076923076923
 40
0.6923076923076923
 40
0.6923076923076923
 40
0.6923076923076923
 40
0.7692307692307693
 40
0.7692307692307693
 40
0.7692307692307693
 40
0.7692307692307693
 40
0.8461538461538461
 40
0.8461538461538461
 40
0.8461538461538461
 40
0.8461538461538461
 40
1.0
 40
1.0
 40
1.0
 40
1.0
 10
-1.10062
 20
-6.7724
 30
0.0
 10
-1.10062
 20
-6.70086
 30
0.0
 10
-1.09328
 20
-6.64299
 30
0.0
 10
-1.07861
 20
-6.59926
 30
0.0
 10
-1.07861
 20
-6.59926
 30
0.0
 10
-1.06379
 20
-6.55537
 30
0.0
 10
-1.04192
 20
-6.52165
 30
0.0
 10
-1.01285
 20
-6.49808
 30
0.0
 10
-1.01285
 20
-6.49808
 30
0.0
 10
-0.98392
 20
-6.47452
 30
0.0
 10
-0.94737
 20
-6.4628
 30
0.0
 10
-0.90335
 20
-6.4628
 30
0.0
 10
-0.90335
 20
-6.4628
 30
0.0
 10
-0.87089
 20
-6.4628
 30
0.0
 10
-0.84239
 20
-6.4693
 30
0.0
 10
-0.81769
 20
-6.48242
 30
0.0
 10
-0.81769
 20
-6.48242
 30
0.0
 10
-0.79314
 20
-6.49554
 30
0.0
 10
-0.77282
 20
-6.51445
 30
0.0
 10
-0.75701
 20
-6.53915
 30
0.0
 10
-0.75701
 20
-6.53915
 30
0.0
 10
-0.74121
 20
-6.56369
 30
0.0
 10
-0.72879
 20
-6.59376
 30
0.0
 10
-0.71976
 20
-6.62917
 30
0.0
 10
-0.71976
 20
-6.62917
 30
0.0
 10
-0.71059
 20
-6.66459
 30
0.0
 10
-0.70607
 20
-6.71243
 30
0.0
 10
-0.70607
 20
-6.7724
 30
0.0
 10
-0.70607
 20
-6.7724
 30
0.0
 10
-0.70607
 20
-6.84352
 30
0.0
 10
-0.71341
 20
-6.9011
 30
0.0
 10
-0.72794
 20
-6.94484
 30
0.0
 10
-0.72794
 20
-6.94484
 30
0.0
 10
-0.74248
 20
-6.98873
 30
0.0
 10
-0.76435
 20
-7.02245
 30
0.0
 10
-0.79342
 20
-7.04616
 30
0.0
 10
-0.79342
 20
-7.04616
 30
0.0
 10
-0.82235
 20
-7.06987
 30
0.0
 10
-0.85904
 20
-7.08171
 30
0.0
 10
-0.90335
 20
-7.08171
 30
0.0
 10
-0.90335
 20
-7.08171
 30
0.0
 10
-0.96162
 20
-7.08171
 30
0.0
 10
-1.00749
 20
-7.06097
 30
0.0
 10
-1.04079
 20
-7.01935
 30
0.0
 10
-1.04079
 20
-7.01935
 30
0.0
 10
-1.08072
 20
-6.96855
 30
0.0
 10
-1.10062
 20
-6.88628
 30
0.0
 10
-1.10062
 20
-6.7724
 30
0.0
  0
SPLINE
  5
48
330
1F
100
AcDbEntity
  8
Layer 1
 62
   250
370
     9
100
AcDbSpline
210
0.0
220
0.0
230
1.0
 70
    11
 71
     3
 72
    36
 73
    32
 74
     0
 42
0.0000000001
 43
0.0000000001
 12
1.0
 22
0.0
 32
0.0
 13
1.0
 23
0.0
 33
0.0
 40
0.0
 40
0.0
 40
0.0
 40
0.0
 40
0.1111111111111111
 40
0.1111111111111111
 40
0.1111111111111111
 40
0.1111111111111111
 40
0.2222222222222222
 40
0.2222222222222222
 40
0.2222222222222222
 40
0.2222222222222222
 40
0.3333333333333333
 40
0.3333333333333333
 40
0.3333333333333333
 40
0.3333333333333333
 40
0.4444444444444444
 40
0.4444444444444444
 40
0.4444444444444444
 40
0.4444444444444444
 40
0.5555555555555556
 40
0.5555555555555556
 40
0.5555555555555556
 40
0.5555555555555556
 40
0.6666666666666666
 40
0.6666666666666666
 40
0.6666666666666666
 40
0.6666666666666666
 40
0.7777777777777778
 40
0.7777777777777778
 40
0.7777777777777778
 40
0.7777777777777778
 40
1.0
 40
1.0
 40
1.0
 40
1.0
 10
-1.02442
 20
-6.77268
 30
0.0
 10
-1.02442
 20
-6.87244
 30
0.0
 10
-1.01285
 20
-6.93877
 30
0.0
 10
-0.98956
 20
-6.97151
 30
0.0
 10
-0.98956
 20
-6.97151
 30
0.0
 10
-0.96628
 20
-7.00438
 30
0.0
 10
-0.93749
 20
-7.02076
 30
0.0
 10
-0.90335
 20
-7.02076
 30
0.0
 10
-0.90335
 20
-7.02076
 30
0.0
 10
-0.8692
 20
-7.02076
 30
0.0
 10
-0.84041
 20
-7.00424
 30
0.0
 10
-0.81713
 20
-6.97137
 30
0.0
 10
-0.81713
 20
-6.97137
 30
0.0
 10
-0.79384
 20
-6.93835
 30
0.0
 10
-0.78227
 20
-6.87216
 30
0.0
 10
-0.78227
 20
-6.77268
 30
0.0
 10
-0.78227
 20
-6.77268
 30
0.0
 10
-0.78227
 20
-6.67292
 30
0.0
 10
-0.79384
 20
-6.6066
 30
0.0
 10
-0.81713
 20
-6.57386
 30
0.0
 10
-0.81713
 20
-6.57386
 30
0.0
 10
-0.84027
 20
-6.54098
 30
0.0
 10
-0.86934
 20
-6.52461
 30
0.0
 10
-0.90419
 20
-6.52461
 30
0.0
 10
-0.90419
 20
-6.52461
 30
0.0
 10
-0.93834
 20
-6.52461
 30
0.0
 10
-0.96572
 20
-6.53915
 30
0.0
 10
-0.98618
 20
-6.56806
 30
0.0
 10
-0.98618
 20
-6.56806
 30
0.0
 10
-1.01172
 20
-6.60489
 30
0.0
 10
-1.02442
 20
-6.6732
 30
0.0
 10
-1.02442
 20
-6.77268
 30
0.0
  0
SPLINE
  5
49
330
1F
100
AcDbEntity
  8
Layer 1
 62
   250
370
     9
100
AcDbSpline
210
0.0
220
0.0
230
1.0
 70
    11
 71
     3
 72
    52
 73
    48
 74
     0
 42
0.0000000001
 43
0.0000000001
 12
1.0
 22
0.0
 32
0.0
 13
1.0
 23
0.0
 33
0.0
 40
0.0
 40
0.0
 40
0.0
 40
0.0
 40
0.0769230769230769
 40
0.0769230769230769
 40
0.0769230769230769
 40
0.0769230769230769
 40
0.1538461538461539
 40
0.1538461538461539
 40
0.1538461538461539
 40
0.1538461538461539
 40
0.2307692307692308
 40
0.2307692307692308
 40
0.2307692307692308
 40
0.2307692307692308
 40
0.3076923076923077
 40
0.3076923076923077
 40
0.3076923076923077
 40
0.3076923076923077
 40
0.3846153846153846
 40
0.3846153846153846
 40
0.3846153846153846
 40
0.3846153846153846
 40
0.4615384615384616
 40
0.4615384615384616
 40
0.4615384615384616
 40
0.4615384615384616
 40
0.5384615384615384
 40
0.5384615384615384
 40
0.5384615384615384
 40
0.5384615384615384
 40
0.6153846153846154
 40
0.6153846153846154
 40
0.6153846153846154
 40
0.6153846153846154
 40
0.6923076923076923
 40
0.6923076923076923
 40
0.6923076923076923
 40
0.6923076923076923
 40
0.7692307692307693
 40
0.7692307692307693
 40
0.7692307692307693
 40
0.7692307692307693
 40
0.8461538461538461
 40
0.8461538461538461
 40
0.8461538461538461
 40
0.8461538461538461
 40
1.0
 40
1.0
 40
1.0
 40
1.0
 10
-0.62973
 20
-6.7724
 30
0.0
 10
-0.62973
 20
-6.70086
 30
0.0
 10
-0.62239
 20
-6.64299
 30
0.0
 10
-0.60772
 20
-6.59926
 30
0.0
 10
-0.60772
 20
-6.59926
 30
0.0
 10
-0.5929
 20
-6.55537
 30
0.0
 10
-0.57103
 20
-6.52165
 30
0.0
 10
-0.54196
 20
-6.49808
 30
0.0
 10
-0.54196
 20
-6.49808
 30
0.0
 10
-0.51303
 20
-6.47452
 30
0.0
 10
-0.47648
 20
-6.4628
 30
0.0
 10
-0.43246
 20
-6.4628
 30
0.0
 10
-0.43246
 20
-6.4628
 30
0.0
 10
-0.4
 20
-6.4628
 30
0.0
 10
-0.3715
 20
-6.4693
 30
0.0
 10
-0.3468
 20
-6.48242
 30
0.0
 10
-0.3468
 20
-6.48242
 30
0.0
 10
-0.32225
 20
-6.49554
 30
0.0
 10
-0.30193
 20
-6.51445
 30
0.0
 10
-0.28612
 20
-6.53915
 30
0.0
 10
-0.28612
 20
-6.53915
 30
0.0
 10
-0.27032
 20
-6.56369
 30
0.0
 10
-0.2579
 20
-6.59376
 30
0.0
 10
-0.24887
 20
-6.62917
 30
0.0
 10
-0.24887
 20
-6.62917
 30
0.0
 10
-0.2397
 20
-6.66459
 30
0.0
 10
-0.23518
 20
-6.71243
 30
0.0
 10
-0.23518
 20
-6.7724
 30
0.0
 10
-0.23518
 20
-6.7724
 30
0.0
 10
-0.23518
 20
-6.84352
 30
0.0
 10
-0.24252
 20
-6.9011
 30
0.0
 10
-0.25705
 20
-6.94484
 30
0.0
 10
-0.25705
 20
-6.94484
 30
0.0
 10
-0.27159
 20
-6.98873
 30
0.0
 10
-0.29346
 20
-7.02245
 30
0.0
 10
-0.32253
 20
-7.04616
 30
0.0
 10
-0.32253
 20
-7.04616
 30
0.0
 10
-0.35146
 20
-7.06987
 30
0.0
 10
-0.38815
 20
-7.08171
 30
0.0
 10
-0.43246
 20
-7.08171
 30
0.0
 10
-0.43246
 20
-7.08171
 30
0.0
 10
-0.49073
 20
-7.08171
 30
0.0
 10
-0.5366
 20
-7.06097
 30
0.0
 10
-0.5699
 20
-7.01935
 30
0.0
 10
-0.5699
 20
-7.01935
 30
0.0
 10
-0.60983
 20
-6.96855
 30
0.0
 10
-0.62973
 20
-6.88628
 30
0.0
 10
-0.62973
 20
-6.7724
 30
0.0
  0
SPLINE
  5
4A
330
1F
100
AcDbEntity
  8
Layer 1
 62
   250
370
     9
100
AcDbSpline
210
0.0
220
0.0
230
1.0
 70
    11
 71
     3
 72
    36
 73
    32
 74
     0
 42
0.0000000001
 43
0.0000000001
 12
1.0
 22
0.0
 32
0.0
 13
1.0
 23
0.0
 33
0.0
 40
0.0
 40
0.0
 40
0.0
 40
0.0
 40
0.1111111111111111
 40
0.1111111111111111
 40
0.1111111111111111
 40
0.1111111111111111
 40
0.2222222222222222
 40
0.2222222222222222
 40
0.2222222222222222
 40
0.2222222222222222
 40
0.3333333333333333
 40
0.3333333333333333
 40
0.3333333333333333
 40
0.3333333333333333
 40
0.4444444444444444
 40
0.4444444444444444
 40
0.4444444444444444
 40
0.4444444444444444
 40
0.5555555555555556
 40
0.5555555555555556
 40
0.5555555555555556
 40
0.5555555555555556
 40
0.6666666666666666
 40
0.6666666666666666
 40
0.6666666666666666
 40
0.6666666666666666
 40
0.7777777777777778
 40
0.7777777777777778
 40
0.7777777777777778
 40
0.7777777777777778
 40
1.0
 40
1.0
 40
1.0
 40
1.0
 10
-0.55353
 20
-6.77268
 30
0.0
 10
-0.55353
 20
-6.87244
 30
0.0
 10
-0.54196
 20
-6.93877
 30
0.0
 10
-0.51867
 20
-6.97151
 30
0.0
 10
-0.51867
 20
-6.97151
 30
0.0
 10
-0.49539
 20
-7.00438
 30
0.0
 10
-0.4666
 20
-7.02076
 30
0.0
 10
-0.43246
 20
-7.02076
 30
0.0
 10
-0.43246
 20
-7.02076
 30
0.0
 10
-0.39831
 20
-7.02076
 30
0.0
 10
-0.36952
 20
-7.00424
 30
0.0
 10
-0.34624
 20
-6.97137
 30
0.0
 10
-0.34624
 20
-6.97137
 30
0.0
 10
-0.32295
 20
-6.93835
 30
0.0
 10
-0.31138
 20
-6.87216
 30
0.0
 10
-0.31138
 20
-6.77268
 30
0.0
 10
-0.31138
 20
-6.77268
 30
0.0
 10
-0.31138
 20
-6.67292
 30
0.0
 10
-0.32295
 20
-6.6066
 30
0.0
 10
-0.34624
 20
-6.57386
 30
0.0
 10
-0.34624
 20
-6.57386
 30
0.0
 10
-0.36938
 20
-6.54098
 30
0.0
 10
-0.39845
 20
-6.52461
 30
0.0
 10
-0.4333
 20
-6.52461
 30
0.0
 10
-0.4333
 20
-6.52461
 30
0.0
 10
-0.46745
 20
-6.52461
 30
0.0
 10
-0.49483
 20
-6.53915
 30
0.0
 10
-0.51529
 20
-6.56806
 30
0.0
 10
-0.51529
 20
-6.56806
 30
0.0
 10
-0.54083
 20
-6.60489
 30
0.0
 10
-0.55353
 20
-6.6732
 30
0.0
 10
-0.55353
 20
-6.77268
 30
0.0
  0
SPLINE
  5
4B
330
1F
100
AcDbEntity
  8
Layer 1
 62
   250
370
     9
100
AcDbSpline
210
0.0
220
0.0
230
1.0
 70
    11
 71
     3
 72
    92
 73
    88
 74
     0
 42
0.0000000001
 43
0.0000000001
 12
1.0
 22
0.0
 32
0.0
 13
1.0
 23
0.0
 33
0.0
 40
0.0
 40
0.0
 40
0.0
 40
0.0
 40
0.0434782608695652
 40
0.0434782608695652
 40
0.0434782608695652
 40
0.0434782608695652
 40
0.0869565217391304
 40
0.0869565217391304
 40
0.0869565217391304
 40
0.0869565217391304
 40
0.1304347826086956
 40
0.1304347826086956
 40
0.1304347826086956
 40
0.1304347826086956
 40
0.1739130434782609
 40
0.1739130434782609
 40
0.1739130434782609
 40
0.1739130434782609
 40
0.2173913043478261
 40
0.2173913043478261
 40
0.2173913043478261
 40
0.2173913043478261
 40
0.2608695652173913
 40
0.2608695652173913
 40
0.2608695652173913
 40
0.2608695652173913
 40
0.3043478260869565
 40
0.3043478260869565
 40
0.3043478260869565
 40
0.3043478260869565
 40
0.3478260869565217
 40
0.3478260869565217
 40
0.3478260869565217
 40
0.3478260869565217
 40
0.391304347826087
 40
0.391304347826087
 40
0.391304347826087
 40
0.391304347826087
 40
0.4347826086956522
 40
0.4347826086956522
 40
0.4347826086956522
 40
0.4347826086956522
 40
0.4782608695652174
 40
0.4782608695652174
 40
0.4782608695652174
 40
0.4782608695652174
 40
0.5217391304347826
 40
0.5217391304347826
 40
0.5217391304347826
 40
0.5217391304347826
 40
0.5652173913043478
 40
0.5652173913043478
 40
0.5652173913043478
 40
0.5652173913043478
 40
0.6086956521739131
 40
0.6086956521739131
 40
0.6086956521739131
 40
0.6086956521739131
 40
0.6521739130434783
 40
0.6521739130434783
 40
0.6521739130434783
 40
0.6521739130434783
 40
0.6956521739130435
 40
0.6956521739130435
 40
0.6956521739130435
 40
0.6956521739130435
 40
0.7391304347826086
 40
0.7391304347826086
 40
0.7391304347826086
 40
0.7391304347826086
 40
0.782608695652174
 40
0.782608695652174
 40
0.782608695652174
 40
0.782608695652174
 40
0.8260869565217391
 40
0.8260869565217391
 40
0.8260869565217391
 40
0.8260869565217391
 40
0.8695652173913043
 40
0.8695652173913043
 40
0.8695652173913043
 40
0.8695652173913043
 40
0.9130434782608695
 40
0.9130434782608695
 40
0.9130434782608695
 40
0.9130434782608695
 40
1.0
 40
1.0
 40
1.0
 40
1.0
 10
-0.15884
 20
-6.91239
 30
0.0
 10
-0.15884
 20
-6.91239
 30
0.0
 10
-0.08095
 20
-6.90646
 30
0.0
 10
-0.08095
 20
-6.90646
 30
0.0
 10
-0.08095
 20
-6.90646
 30
0.0
 10
-0.07516
 20
-6.94442
 30
0.0
 10
-0.06176
 20
-6.97292
 30
0.0
 10
-0.04087
 20
-6.99211
 30
0.0
 10
-0.04087
 20
-6.99211
 30
0.0
 10
-0.01999
 20
-7.01116
 30
0.0
 10
0.00556
 20
-7.02076
 30
0.0
 10
0.03561
 20
-7.02076
 30
0.0
 10
0.03561
 20
-7.02076
 30
0.0
 10
0.07188
 20
-7.02076
 30
0.0
 10
0.10222
 20
-7.0072
 30
0.0
 10
0.12691
 20
-6.98026
 30
0.0
 10
0.12691
 20
-6.98026
 30
0.0
 10
0.15146
 20
-6.95317
 30
0.0
 10
0.16374
 20
-6.91732
 30
0.0
 10
0.16374
 20
-6.87272
 30
0.0
 10
0.16374
 20
-6.87272
 30
0.0
 10
0.16374
 20
-6.83026
 30
0.0
 10
0.15203
 20
-6.79682
 30
0.0
 10
0.12846
 20
-6.77226
 30
0.0
 10
0.12846
 20
-6.77226
 30
0.0
 10
0.1049
 20
-6.74771
 30
0.0
 10
0.07371
 20
-6.73543
 30
0.0
 10
0.03491
 20
-6.73543
 30
0.0
 10
0.03491
 20
-6.73543
 30
0.0
 10
0.01078
 20
-6.73543
 30
0.0
 10
-0.01081
 20
-6.74094
 30
0.0
 10
-0.03
 20
-6.75194
 30
0.0
 10
-0.03
 20
-6.75194
 30
0.0
 10
-0.04905
 20
-6.76295
 30
0.0
 10
-0.06401
 20
-6.77719
 30
0.0
 10
-0.07502
 20
-6.79469
 30
0.0
 10
-0.07502
 20
-6.79469
 30
0.0
 10
-0.07502
 20
-6.79469
 30
0.0
 10
-0.14529
 20
-6.78454
 30
0.0
 10
-0.14529
 20
-6.78454
 30
0.0
 10
-0.14529
 20
-6.78454
 30
0.0
 10
-0.14529
 20
-6.78454
 30
0.0
 10
-0.08687
 20
-6.47296
 30
0.0
 10
-0.08687
 20
-6.47296
 30
0.0
 10
-0.08687
 20
-6.47296
 30
0.0
 10
-0.08687
 20
-6.47296
 30
0.0
 10
0.21369
 20
-6.47296
 30
0.0
 10
0.21369
 20
-6.47296
 30
0.0
 10
0.21369
 20
-6.47296
 30
0.0
 10
0.21369
 20
-6.47296
 30
0.0
 10
0.21369
 20
-6.54408
 30
0.0
 10
0.21369
 20
-6.54408
 30
0.0
 10
0.21369
 20
-6.54408
 30
0.0
 10
0.21369
 20
-6.54408
 30
0.0
 10
-0.02746
 20
-6.54408
 30
0.0
 10
-0.02746
 20
-6.54408
 30
0.0
 10
-0.02746
 20
-6.54408
 30
0.0
 10
-0.02746
 20
-6.54408
 30
0.0
 10
-0.05978
 20
-6.70763
 30
0.0
 10
-0.05978
 20
-6.70763
 30
0.0
 10
-0.05978
 20
-6.70763
 30
0.0
 10
-0.02351
 20
-6.68208
 30
0.0
 10
0.01459
 20
-6.66939
 30
0.0
 10
0.05438
 20
-6.66939
 30
0.0
 10
0.05438
 20
-6.66939
 30
0.0
 10
0.10716
 20
-6.66939
 30
0.0
 10
0.15175
 20
-6.68774
 30
0.0
 10
0.18801
 20
-6.72443
 30
0.0
 10
0.18801
 20
-6.72443
 30
0.0
 10
0.22428
 20
-6.76111
 30
0.0
 10
0.24248
 20
-6.80825
 30
0.0
 10
0.24248
 20
-6.86582
 30
0.0
 10
0.24248
 20
-6.86582
 30
0.0
 10
0.24248
 20
-6.92071
 30
0.0
 10
0.22654
 20
-6.96813
 30
0.0
 10
0.19464
 20
-7.00806
 30
0.0
 10
0.19464
 20
-7.00806
 30
0.0
 10
0.15584
 20
-7.05717
 30
0.0
 10
0.10278
 20
-7.08171
 30
0.0
 10
0.03561
 20
-7.08171
 30
0.0
 10
0.03561
 20
-7.08171
 30
0.0
 10
-0.01942
 20
-7.08171
 30
0.0
 10
-0.0643
 20
-7.0662
 30
0.0
 10
-0.09915
 20
-7.03529
 30
0.0
 10
-0.09915
 20
-7.03529
 30
0.0
 10
-0.134
 20
-7.00438
 30
0.0
 10
-0.1539
 20
-6.96347
 30
0.0
 10
-0.15884
 20
-6.91239
 30
0.0
  0
SPLINE
  5
4C
330
1F
100
AcDbEntity
  8
Layer 1
 62
   250
370
     9
100
AcDbSpline
210
0.0
220
0.0
230
1.0
 70
    11
 71
     3
 72
    36
 73
    32
 74
     0
 42
0.0000000001
 43
0.0000000001
 12
1.0
 22
0.0
 32
0.0
 13
1.0
 23
0.0
 33
0.0
 40
0.0
 40
0.0
 40
0.0
 40
0.0
 40
0.1111111111111111
 40
0.1111111111111111
 40
0.1111111111111111
 40
0.1111111111111111
 40
0.2222222222222222
 40
0.2222222222222222
 40
0.2222222222222222
 40
0.2222222222222222
 40
0.3333333333333333
 40
0.3333333333333333
 40
0.3333333333333333
 40
0.3333333333333333
 40
0.4444444444444444
 40
0.4444444444444444
 40
0.4444444444444444
 40
0.4444444444444444
 40
0.5555555555555556
 40
0.5555555555555556
 40
0.5555555555555556
 40
0.5555555555555556
 40
0.6666666666666666
 40
0.6666666666666666
 40
0.6666666666666666
 40
0.6666666666666666
 40
0.7777777777777778
 40
0.7777777777777778
 40
0.7777777777777778
 40
0.7777777777777778
 40
1.0
 40
1.0
 40
1.0
 40
1.0
 10
0.71577
 20
-7.07156
 30
0.0
 10
0.71577
 20
-7.07156
 30
0.0
 10
0.71577
 20
-6.53646
 30
0.0
 10
0.71577
 20
-6.53646
 30
0.0
 10
0.71577
 20
-6.53646
 30
0.0
 10
0.71577
 20
-6.53646
 30
0.0
 10
0.51595
 20
-6.53646
 30
0.0
 10
0.51595
 20
-6.53646
 30
0.0
 10
0.51595
 20
-6.53646
 30
0.0
 10
0.51595
 20
-6.53646
 30
0.0
 10
0.51595
 20
-6.46534
 30
0.0
 10
0.51595
 20
-6.46534
 30
0.0
 10
0.51595
 20
-6.46534
 30
0.0
 10
0.51595
 20
-6.46534
 30
0.0
 10
0.99602
 20
-6.46534
 30
0.0
 10
0.99602
 20
-6.46534
 30
0.0
 10
0.99602
 20
-6.46534
 30
0.0
 10
0.99602
 20
-6.46534
 30
0.0
 10
0.99602
 20
-6.53646
 30
0.0
 10
0.99602
 20
-6.53646
 30
0.0
 10
0.99602
 20
-6.53646
 30
0.0
 10
0.99602
 20
-6.53646
 30
0.0
 10
0.7962
 20
-6.53646
 30
0.0
 10
0.7962
 20
-6.53646
 30
0.0
 10
0.7962
 20
-6.53646
 30
0.0
 10
0.7962
 20
-6.53646
 30
0.0
 10
0.7962
 20
-7.07156
 30
0.0
 10
0.7962
 20
-7.07156
 30
0.0
 10
0.7962
 20
-7.07156
 30
0.0
 10
0.7962
 20
-7.07156
 30
0.0
 10
0.71577
 20
-7.07156
 30
0.0
 10
0.71577
 20
-7.07156
 30
0.0
  0
SPLINE
  5
4D
330
1F
100
AcDbEntity
  8
Layer 1
 62
   250
370
     9
100
AcDbSpline
210
0.0
220
0.0
230
1.0
 70
    11
 71
     3
 72
    52
 73
    48
 74
     0
 42
0.0000000001
 43
0.0000000001
 12
1.0
 22
0.0
 32
0.0
 13
1.0
 23
0.0
 33
0.0
 40
0.0
 40
0.0
 40
0.0
 40
0.0
 40
0.0769230769230769
 40
0.0769230769230769
 40
0.0769230769230769
 40
0.0769230769230769
 40
0.1538461538461539
 40
0.1538461538461539
 40
0.1538461538461539
 40
0.1538461538461539
 40
0.2307692307692308
 40
0.2307692307692308
 40
0.2307692307692308
 40
0.2307692307692308
 40
0.3076923076923077
 40
0.3076923076923077
 40
0.3076923076923077
 40
0.3076923076923077
 40
0.3846153846153846
 40
0.3846153846153846
 40
0.3846153846153846
 40
0.3846153846153846
 40
0.4615384615384616
 40
0.4615384615384616
 40
0.4615384615384616
 40
0.4615384615384616
 40
0.5384615384615384
 40
0.5384615384615384
 40
0.5384615384615384
 40
0.5384615384615384
 40
0.6153846153846154
 40
0.6153846153846154
 40
0.6153846153846154
 40
0.6153846153846154
 40
0.6923076923076923
 40
0.6923076923076923
 40
0.6923076923076923
 40
0.6923076923076923
 40
0.7692307692307693
 40
0.7692307692307693
 40
0.7692307692307693
 40
0.7692307692307693
 40
0.8461538461538461
 40
0.8461538461538461
 40
0.8461538461538461
 40
0.8461538461538461
 40
1.0
 40
1.0
 40
1.0
 40
1.0
 10
1.08054
 20
-7.07156
 30
0.0
 10
1.08054
 20
-7.07156
 30
0.0
 10
1.08054
 20
-6.46534
 30
0.0
 10
1.08054
 20
-6.46534
 30
0.0
 10
1.08054
 20
-6.46534
 30
0.0
 10
1.08054
 20
-6.46534
 30
0.0
 10
1.51827
 20
-6.46534
 30
0.0
 10
1.51827
 20
-6.46534
 30
0.0
 10
1.51827
 20
-6.46534
 30
0.0
 10
1.51827
 20
-6.46534
 30
0.0
 10
1.51827
 20
-6.53646
 30
0.0
 10
1.51827
 20
-6.53646
 30
0.0
 10
1.51827
 20
-6.53646
 30
0.0
 10
1.51827
 20
-6.53646
 30
0.0
 10
1.16097
 20
-6.53646
 30
0.0
 10
1.16097
 20
-6.53646
 30
0.0
 10
1.16097
 20
-6.53646
 30
0.0
 10
1.16097
 20
-6.53646
 30
0.0
 10
1.16097
 20
-6.72273
 30
0.0
 10
1.16097
 20
-6.72273
 30
0.0
 10
1.16097
 20
-6.72273
 30
0.0
 10
1.16097
 20
-6.72273
 30
0.0
 10
1.49541
 20
-6.72273
 30
0.0
 10
1.49541
 20
-6.72273
 30
0.0
 10
1.49541
 20
-6.72273
 30
0.0
 10
1.49541
 20
-6.72273
 30
0.0
 10
1.49541
 20
-6.79385
 30
0.0
 10
1.49541
 20
-6.79385
 30
0.0
 10
1.49541
 20
-6.79385
 30
0.0
 10
1.49541
 20
-6.79385
 30
0.0
 10
1.16097
 20
-6.79385
 30
0.0
 10
1.16097
 20
-6.79385
 30
0.0
 10
1.16097
 20
-6.79385
 30
0.0
 10
1.16097
 20
-6.79385
 30
0.0
 10
1.16097
 20
-7.00044
 30
0.0
 10
1.16097
 20
-7.00044
 30
0.0
 10
1.16097
 20
-7.00044
 30
0.0
 10
1.16097
 20
-7.00044
 30
0.0
 10
1.53266
 20
-7.00044
 30
0.0
 10
1.53266
 20
-7.00044
 30
0.0
 10
1.53266
 20
-7.00044
 30
0.0
 10
1.53266
 20
-7.00044
 30
0.0
 10
1.53266
 20
-7.07156
 30
0.0
 10
1.53266
 20
-7.07156
 30
0.0
 10
1.53266
 20
-7.07156
 30
0.0
 10
1.53266
 20
-7.07156
 30
0.0
 10
1.08054
 20
-7.07156
 30
0.0
 10
1.08054
 20
-7.07156
 30
0.0
  0
SPLINE
  5
4E
330
1F
100
AcDbEntity
  8
Layer 1
 62
   250
370
     9
100
AcDbSpline
210
0.0
220
0.0
230
1.0
 70
    11
 71
     3
 72
    64
 73
    60
 74
     0
 42
0.0000000001
 43
0.0000000001
 12
1.0
 22
0.0
 32
0.0
 13
1.0
 23
0.0
 33
0.0
 40
0.0
 40
0.0
 40
0.0
 40
0.0
 40
0.0625
 40
0.0625
 40
0.0625
 40
0.0625
 40
0.125
 40
0.125
 40
0.125
 40
0.125
 40
0.1875
 40
0.1875
 40
0.1875
 40
0.1875
 40
0.25
 40
0.25
 40
0.25
 40
0.25
 40
0.3125
 40
0.3125
 40
0.3125
 40
0.3125
 40
0.375
 40
0.375
 40
0.375
 40
0.375
 40
0.4375
 40
0.4375
 40
0.4375
 40
0.4375
 40
0.5
 40
0.5
 40
0.5
 40
0.5
 40
0.5625
 40
0.5625
 40
0.5625
 40
0.5625
 40
0.625
 40
0.625
 40
0.625
 40
0.625
 40
0.6875
 40
0.6875
 40
0.6875
 40
0.6875
 40
0.75
 40
0.75
 40
0.75
 40
0.75
 40
0.8125
 40
0.8125
 40
0.8125
 40
0.8125
 40
0.875
 40
0.875
 40
0.875
 40
0.875
 40
1.0
 40
1.0
 40
1.0
 40
1.0
 10
1.64188
 20
-7.07156
 30
0.0
 10
1.64188
 20
-7.07156
 30
0.0
 10
1.64188
 20
-6.46534
 30
0.0
 10
1.64188
 20
-6.46534
 30
0.0
 10
1.64188
 20
-6.46534
 30
0.0
 10
1.64188
 20
-6.46534
 30
0.0
 10
1.76211
 20
-6.46534
 30
0.0
 10
1.76211
 20
-6.46534
 30
0.0
 10
1.76211
 20
-6.46534
 30
0.0
 10
1.76211
 20
-6.46534
 30
0.0
 10
1.90548
 20
-6.89446
 30
0.0
 10
1.90548
 20
-6.89446
 30
0.0
 10
1.90548
 20
-6.89446
 30
0.0
 10
1.91874
 20
-6.9344
 30
0.0
 10
1.92834
 20
-6.96431
 30
0.0
 10
1.9344
 20
-6.98421
 30
0.0
 10
1.9344
 20
-6.98421
 30
0.0
 10
1.94133
 20
-6.9622
 30
0.0
 10
1.95218
 20
-6.92973
 30
0.0
 10
1.96686
 20
-6.88699
 30
0.0
 10
1.96686
 20
-6.88699
 30
0.0
 10
1.96686
 20
-6.88699
 30
0.0
 10
2.11277
 20
-6.46534
 30
0.0
 10
2.11277
 20
-6.46534
 30
0.0
 10
2.11277
 20
-6.46534
 30
0.0
 10
2.11277
 20
-6.46534
 30
0.0
 10
2.22016
 20
-6.46534
 30
0.0
 10
2.22016
 20
-6.46534
 30
0.0
 10
2.22016
 20
-6.46534
 30
0.0
 10
2.22016
 20
-6.46534
 30
0.0
 10
2.22016
 20
-7.07156
 30
0.0
 10
2.22016
 20
-7.07156
 30
0.0
 10
2.22016
 20
-7.07156
 30
0.0
 10
2.22016
 20
-7.07156
 30
0.0
 10
2.14311
 20
-7.07156
 30
0.0
 10
2.14311
 20
-7.07156
 30
0.0
 10
2.14311
 20
-7.07156
 30
0.0
 10
2.14311
 20
-7.07156
 30
0.0
 10
2.14311
 20
-6.5644
 30
0.0
 10
2.14311
 20
-6.5644
 30
0.0
 10
2.14311
 20
-6.5644
 30
0.0
 10
2.14311
 20
-6.5644
 30
0.0
 10
1.96615
 20
-7.07156
 30
0.0
 10
1.96615
 20
-7.07156
 30
0.0
 10
1.96615
 20
-7.07156
 30
0.0
 10
1.96615
 20
-7.07156
 30
0.0
 10
1.89391
 20
-7.07156
 30
0.0
 10
1.89391
 20
-7.07156
 30
0.0
 10
1.89391
 20
-7.07156
 30
0.0
 10
1.89391
 20
-7.07156
 30
0.0
 10
1.71893
 20
-6.55509
 30
0.0
 10
1.71893
 20
-6.55509
 30
0.0
 10
1.71893
 20
-6.55509
 30
0.0
 10
1.71893
 20
-6.55509
 30
0.0
 10
1.71893
 20
-7.07156
 30
0.0
 10
1.71893
 20
-7.07156
 30
0.0
 10
1.71893
 20
-7.07156
 30
0.0
 10
1.71893
 20
-7.07156
 30
0.0
 10
1.64188
 20
-7.07156
 30
0.0
 10
1.64188
 20
-7.07156
 30
0.0
  0
SPLINE
  5
4F
330
1F
100
AcDbEntity
  8
Layer 1
 62
   250
370
     9
100
AcDbSpline
210
0.0
220
0.0
230
1.0
 70
    11
 71
     3
 72
    48
 73
    44
 74
     0
 42
0.0000000001
 43
0.0000000001
 12
1.0
 22
0.0
 32
0.0
 13
1.0
 23
0.0
 33
0.0
 40
0.0
 40
0.0
 40
0.0
 40
0.0
 40
0.0833333333333333
 40
0.0833333333333333
 40
0.0833333333333333
 40
0.0833333333333333
 40
0.1666666666666667
 40
0.1666666666666667
 40
0.1666666666666667
 40
0.1666666666666667
 40
0.25
 40
0.25
 40
0.25
 40
0.25
 40
0.3333333333333333
 40
0.3333333333333333
 40
0.3333333333333333
 40
0.3333333333333333
 40
0.4166666666666667
 40
0.4166666666666667
 40
0.4166666666666667
 40
0.4166666666666667
 40
0.5
 40
0.5
 40
0.5
 40
0.5
 40
0.5833333333333334
 40
0.5833333333333334
 40
0.5833333333333334
 40
0.5833333333333334
 40
0.6666666666666666
 40
0.6666666666666666
 40
0.6666666666666666
 40
0.6666666666666666
 40
0.75
 40
0.75
 40
0.75
 40
0.75
 40
0.8333333333333334
 40
0.8333333333333334
 40
0.8333333333333334
 40
0.8333333333333334
 40
1.0
 40
1.0
 40
1.0
 40
1.0
 10
2.34885
 20
-7.07156
 30
0.0
 10
2.34885
 20
-7.07156
 30
0.0
 10
2.34885
 20
-6.46534
 30
0.0
 10
2.34885
 20
-6.46534
 30
0.0
 10
2.34885
 20
-6.46534
 30
0.0
 10
2.34885
 20
-6.46534
 30
0.0
 10
2.57774
 20
-6.46534
 30
0.0
 10
2.57774
 20
-6.46534
 30
0.0
 10
2.57774
 20
-6.46534
 30
0.0
 10
2.61795
 20
-6.46534
 30
0.0
 10
2.64873
 20
-6.46732
 30
0.0
 10
2.67003
 20
-6.47113
 30
0.0
 10
2.67003
 20
-6.47113
 30
0.0
 10
2.69981
 20
-6.47607
 30
0.0
 10
2.72479
 20
-6.48552
 30
0.0
 10
2.74496
 20
-6.49935
 30
0.0
 10
2.74496
 20
-6.49935
 30
0.0
 10
2.76514
 20
-6.51332
 30
0.0
 10
2.78137
 20
-6.5328
 30
0.0
 10
2.79365
 20
-6.55777
 30
0.0
 10
2.79365
 20
-6.55777
 30
0.0
 10
2.80592
 20
-6.58274
 30
0.0
 10
2.81199
 20
-6.61027
 30
0.0
 10
2.81199
 20
-6.64032
 30
0.0
 10
2.81199
 20
-6.64032
 30
0.0
 10
2.81199
 20
-6.69169
 30
0.0
 10
2.79562
 20
-6.73529
 30
0.0
 10
2.76274
 20
-6.77085
 30
0.0
 10
2.76274
 20
-6.77085
 30
0.0
 10
2.73001
 20
-6.80655
 30
0.0
 10
2.6706
 20
-6.82433
 30
0.0
 10
2.58479
 20
-6.82433
 30
0.0
 10
2.58479
 20
-6.82433
 30
0.0
 10
2.58479
 20
-6.82433
 30
0.0
 10
2.42929
 20
-6.82433
 30
0.0
 10
2.42929
 20
-6.82433
 30
0.0
 10
2.42929
 20
-6.82433
 30
0.0
 10
2.42929
 20
-6.82433
 30
0.0
 10
2.42929
 20
-7.07156
 30
0.0
 10
2.42929
 20
-7.07156
 30
0.0
 10
2.42929
 20
-7.07156
 30
0.0
 10
2.42929
 20
-7.07156
 30
0.0
 10
2.34885
 20
-7.07156
 30
0.0
 10
2.34885
 20
-7.07156
 30
0.0
  0
SPLINE
  5
50
330
1F
100
AcDbEntity
  8
Layer 1
 62
   250
370
     9
100
AcDbSpline
210
0.0
220
0.0
230
1.0
 70
    11
 71
     3
 72
    36
 73
    32
 74
     0
 42
0.0000000001
 43
0.0000000001
 12
1.0
 22
0.0
 32
0.0
 13
1.0
 23
0.0
 33
0.0
 40
0.0
 40
0.0
 40
0.0
 40
0.0
 40
0.1111111111111111
 40
0.1111111111111111
 40
0.1111111111111111
 40
0.1111111111111111
 40
0.2222222222222222
 40
0.2222222222222222
 40
0.2222222222222222
 40
0.2222222222222222
 40
0.3333333333333333
 40
0.3333333333333333
 40
0.3333333333333333
 40
0.3333333333333333
 40
0.4444444444444444
 40
0.4444444444444444
 40
0.4444444444444444
 40
0.4444444444444444
 40
0.5555555555555556
 40
0.5555555555555556
 40
0.5555555555555556
 40
0.5555555555555556
 40
0.6666666666666666
 40
0.6666666666666666
 40
0.6666666666666666
 40
0.6666666666666666
 40
0.7777777777777778
 40
0.7777777777777778
 40
0.7777777777777778
 40
0.7777777777777778
 40
1.0
 40
1.0
 40
1.0
 40
1.0
 10
2.42929
 20
-6.75321
 30
0.0
 10
2.42929
 20
-6.75321
 30
0.0
 10
2.58592
 20
-6.75321
 30
0.0
 10
2.58592
 20
-6.75321
 30
0.0
 10
2.58592
 20
-6.75321
 30
0.0
 10
2.63786
 20
-6.75321
 30
0.0
 10
2.67455
 20
-6.74362
 30
0.0
 10
2.69642
 20
-6.72428
 30
0.0
 10
2.69642
 20
-6.72428
 30
0.0
 10
2.71815
 20
-6.70495
 30
0.0
 10
2.72902
 20
-6.67785
 30
0.0
 10
2.72902
 20
-6.64271
 30
0.0
 10
2.72902
 20
-6.64271
 30
0.0
 10
2.72902
 20
-6.61746
 30
0.0
 10
2.72267
 20
-6.59573
 30
0.0
 10
2.70983
 20
-6.57767
 30
0.0
 10
2.70983
 20
-6.57767
 30
0.0
 10
2.69699
 20
-6.55961
 30
0.0
 10
2.68005
 20
-6.5476
 30
0.0
 10
2.65917
 20
-6.54183
 30
0.0
 10
2.65917
 20
-6.54183
 30
0.0
 10
2.64562
 20
-6.5383
 30
0.0
 10
2.62063
 20
-6.53646
 30
0.0
 10
2.58437
 20
-6.53646
 30
0.0
 10
2.58437
 20
-6.53646
 30
0.0
 10
2.58437
 20
-6.53646
 30
0.0
 10
2.42929
 20
-6.53646
 30
0.0
 10
2.42929
 20
-6.53646
 30
0.0
 10
2.42929
 20
-6.53646
 30
0.0
 10
2.42929
 20
-6.53646
 30
0.0
 10
2.42929
 20
-6.75321
 30
0.0
 10
2.42929
 20
-6.75321
 30
0.0
  0
SPLINE
  5
51
330
1F
100
AcDbEntity
  8
Layer 1
 62
   250
370
     9
100
AcDbSpline
210
0.0
220
0.0
230
1.0
 70
    11
 71
     3
 72
    28
 73
    24
 74
     0
 42
0.0000000001
 43
0.0000000001
 12
1.0
 22
0.0
 32
0.0
 13
1.0
 23
0.0
 33
0.0
 40
0.0
 40
0.0
 40
0.0
 40
0.0
 40
0.1428571428571428
 40
0.1428571428571428
 40
0.1428571428571428
 40
0.1428571428571428
 40
0.2857142857142857
 40
0.2857142857142857
 40
0.2857142857142857
 40
0.2857142857142857
 40
0.4285714285714285
 40
0.4285714285714285
 40
0.4285714285714285
 40
0.4285714285714285
 40
0.5714285714285714
 40
0.5714285714285714
 40
0.5714285714285714
 40
0.5714285714285714
 40
0.7142857142857143
 40
0.7142857142857143
 40
0.7142857142857143
 40
0.7142857142857143
 40
1.0
 40
1.0
 40
1.0
 40
1.0
 10
2.91021
 20
-7.07156
 30
0.0
 10
2.91021
 20
-7.07156
 30
0.0
 10
2.91021
 20
-6.46534
 30
0.0
 10
2.91021
 20
-6.46534
 30
0.0
 10
2.91021
 20
-6.46534
 30
0.0
 10
2.91021
 20
-6.46534
 30
0.0
 10
2.99064
 20
-6.46534
 30
0.0
 10
2.99064
 20
-6.46534
 30
0.0
 10
2.99064
 20
-6.46534
 30
0.0
 10
2.99064
 20
-6.46534
 30
0.0
 10
2.99064
 20
-7.00044
 30
0.0
 10
2.99064
 20
-7.00044
 30
0.0
 10
2.99064
 20
-7.00044
 30
0.0
 10
2.99064
 20
-7.00044
 30
0.0
 10
3.28867
 20
-7.00044
 30
0.0
 10
3.28867
 20
-7.00044
 30
0.0
 10
3.28867
 20
-7.00044
 30
0.0
 10
3.28867
 20
-7.00044
 30
0.0
 10
3.28867
 20
-7.07156
 30
0.0
 10
3.28867
 20
-7.07156
 30
0.0
 10
3.28867
 20
-7.07156
 30
0.0
 10
3.28867
 20
-7.07156
 30
0.0
 10
2.91021
 20
-7.07156
 30
0.0
 10
2.91021
 20
-7.07156
 30
0.0
  0
SPLINE
  5
52
330
1F
100
AcDbEntity
  8
Layer 1
 62
   250
370
     9
100
AcDbSpline
210
0.0
220
0.0
230
1.0
 70
    11
 71
     3
 72
    36
 73
    32
 74
     0
 42
0.0000000001
 43
0.0000000001
 12
1.0
 22
0.0
 32
0.0
 13
1.0
 23
0.0
 33
0.0
 40
0.0
 40
0.0
 40
0.0
 40
0.0
 40
0.1111111111111111
 40
0.1111111111111111
 40
0.1111111111111111
 40
0.1111111111111111
 40
0.2222222222222222
 40
0.2222222222222222
 40
0.2222222222222222
 40
0.2222222222222222
 40
0.3333333333333333
 40
0.3333333333333333
 40
0.3333333333333333
 40
0.3333333333333333
 40
0.4444444444444444
 40
0.4444444444444444
 40
0.4444444444444444
 40
0.4444444444444444
 40
0.5555555555555556
 40
0.5555555555555556
 40
0.5555555555555556
 40
0.5555555555555556
 40
0.6666666666666666
 40
0.6666666666666666
 40
0.6666666666666666
 40
0.6666666666666666
 40
0.7777777777777778
 40
0.7777777777777778
 40
0.7777777777777778
 40
0.7777777777777778
 40
1.0
 40
1.0
 40
1.0
 40
1.0
 10
3.31802
 20
-7.07156
 30
0.0
 10
3.31802
 20
-7.07156
 30
0.0
 10
3.55057
 20
-6.46534
 30
0.0
 10
3.55057
 20
-6.46534
 30
0.0
 10
3.55057
 20
-6.46534
 30
0.0
 10
3.55057
 20
-6.46534
 30
0.0
 10
3.63877
 20
-6.46534
 30
0.0
 10
3.63877
 20
-6.46534
 30
0.0
 10
3.63877
 20
-6.46534
 30
0.0
 10
3.63877
 20
-6.46534
 30
0.0
 10
3.88557
 20
-7.07156
 30
0.0
 10
3.88557
 20
-7.07156
 30
0.0
 10
3.88557
 20
-7.07156
 30
0.0
 10
3.88557
 20
-7.07156
 30
0.0
 10
3.79427
 20
-7.07156
 30
0.0
 10
3.79427
 20
-7.07156
 30
0.0
 10
3.79427
 20
-7.07156
 30
0.0
 10
3.79427
 20
-7.07156
 30
0.0
 10
3.72414
 20
-6.88783
 30
0.0
 10
3.72414
 20
-6.88783
 30
0.0
 10
3.72414
 20
-6.88783
 30
0.0
 10
3.72414
 20
-6.88783
 30
0.0
 10
3.46887
 20
-6.88783
 30
0.0
 10
3.46887
 20
-6.88783
 30
0.0
 10
3.46887
 20
-6.88783
 30
0.0
 10
3.46887
 20
-6.88783
 30
0.0
 10
3.40311
 20
-7.07156
 30
0.0
 10
3.40311
 20
-7.07156
 30
0.0
 10
3.40311
 20
-7.07156
 30
0.0
 10
3.40311
 20
-7.07156
 30
0.0
 10
3.31802
 20
-7.07156
 30
0.0
 10
3.31802
 20
-7.07156
 30
0.0
  0
SPLINE
  5
53
330
1F
100
AcDbEntity
  8
Layer 1
 62
   250
370
     9
100
AcDbSpline
210
0.0
220
0.0
230
1.0
 70
    11
 71
     3
 72
    24
 73
    20
 74
     0
 42
0.0000000001
 43
0.0000000001
 12
1.0
 22
0.0
 32
0.0
 13
1.0
 23
0.0
 33
0.0
 40
0.0
 40
0.0
 40
0.0
 40
0.0
 40
0.1666666666666667
 40
0.1666666666666667
 40
0.1666666666666667
 40
0.1666666666666667
 40
0.3333333333333333
 40
0.3333333333333333
 40
0.3333333333333333
 40
0.3333333333333333
 40
0.5
 40
0.5
 40
0.5
 40
0.5
 40
0.6666666666666666
 40
0.6666666666666666
 40
0.6666666666666666
 40
0.6666666666666666
 40
1.0
 40
1.0
 40
1.0
 40
1.0
 10
3.49243
 20
-6.82264
 30
0.0
 10
3.49243
 20
-6.82264
 30
0.0
 10
3.69902
 20
-6.82264
 30
0.0
 10
3.69902
 20
-6.82264
 30
0.0
 10
3.69902
 20
-6.82264
 30
0.0
 10
3.69902
 20
-6.82264
 30
0.0
 10
3.6358
 20
-6.65458
 30
0.0
 10
3.6358
 20
-6.65458
 30
0.0
 10
3.6358
 20
-6.65458
 30
0.0
 10
3.61675
 20
-6.60348
 30
0.0
 10
3.60236
 20
-6.5613
 30
0.0
 10
3.59234
 20
-6.528
 30
0.0
 10
3.59234
 20
-6.528
 30
0.0
 10
3.58402
 20
-6.56751
 30
0.0
 10
3.57287
 20
-6.6063
 30
0.0
 10
3.5589
 20
-6.6447
 30
0.0
 10
3.5589
 20
-6.6447
 30
0.0
 10
3.5589
 20
-6.6447
 30
0.0
 10
3.49243
 20
-6.82264
 30
0.0
 10
3.49243
 20
-6.82264
 30
0.0
  0
SPLINE
  5
54
330
1F
100
AcDbEntity
  8
Layer 1
 62
   250
370
     9
100
AcDbSpline
210
0.0
220
0.0
230
1.0
 70
    11
 71
     3
 72
    36
 73
    32
 74
     0
 42
0.0000000001
 43
0.0000000001
 12
1.0
 22
0.0
 32
0.0
 13
1.0
 23
0.0
 33
0.0
 40
0.0
 40
0.0
 40
0.0
 40
0.0
 40
0.1111111111111111
 40
0.1111111111111111
 40
0.1111111111111111
 40
0.1111111111111111
 40
0.2222222222222222
 40
0.2222222222222222
 40
0.2222222222222222
 40
0.2222222222222222
 40
0.3333333333333333
 40
0.3333333333333333
 40
0.3333333333333333
 40
0.3333333333333333
 40
0.4444444444444444
 40
0.4444444444444444
 40
0.4444444444444444
 40
0.4444444444444444
 40
0.5555555555555556
 40
0.5555555555555556
 40
0.5555555555555556
 40
0.5555555555555556
 40
0.6666666666666666
 40
0.6666666666666666
 40
0.6666666666666666
 40
0.6666666666666666
 40
0.7777777777777778
 40
0.7777777777777778
 40
0.7777777777777778
 40
0.7777777777777778
 40
1.0
 40
1.0
 40
1.0
 40
1.0
 10
4.04052
 20
-7.07156
 30
0.0
 10
4.04052
 20
-7.07156
 30
0.0
 10
4.04052
 20
-6.53646
 30
0.0
 10
4.04052
 20
-6.53646
 30
0.0
 10
4.04052
 20
-6.53646
 30
0.0
 10
4.04052
 20
-6.53646
 30
0.0
 10
3.8407
 20
-6.53646
 30
0.0
 10
3.8407
 20
-6.53646
 30
0.0
 10
3.8407
 20
-6.53646
 30
0.0
 10
3.8407
 20
-6.53646
 30
0.0
 10
3.8407
 20
-6.46534
 30
0.0
 10
3.8407
 20
-6.46534
 30
0.0
 10
3.8407
 20
-6.46534
 30
0.0
 10
3.8407
 20
-6.46534
 30
0.0
 10
4.32077
 20
-6.46534
 30
0.0
 10
4.32077
 20
-6.46534
 30
0.0
 10
4.32077
 20
-6.46534
 30
0.0
 10
4.32077
 20
-6.46534
 30
0.0
 10
4.32077
 20
-6.53646
 30
0.0
 10
4.32077
 20
-6.53646
 30
0.0
 10
4.32077
 20
-6.53646
 30
0.0
 10
4.32077
 20
-6.53646
 30
0.0
 10
4.12095
 20
-6.53646
 30
0.0
 10
4.12095
 20
-6.53646
 30
0.0
 10
4.12095
 20
-6.53646
 30
0.0
 10
4.12095
 20
-6.53646
 30
0.0
 10
4.12095
 20
-7.07156
 30
0.0
 10
4.12095
 20
-7.07156
 30
0.0
 10
4.12095
 20
-7.07156
 30
0.0
 10
4.12095
 20
-7.07156
 30
0.0
 10
4.04052
 20
-7.07156
 30
0.0
 10
4.04052
 20
-7.07156
 30
0.0
  0
SPLINE
  5
55
330
1F
100
AcDbEntity
  8
Layer 1
 62
   250
370
     9
100
AcDbSpline
210
0.0
220
0.0
230
1.0
 70
    11
 71
     3
 72
    52
 73
    48
 74
     0
 42
0.0000000001
 43
0.0000000001
 12
1.0
 22
0.0
 32
0.0
 13
1.0
 23
0.0
 33
0.0
 40
0.0
 40
0.0
 40
0.0
 40
0.0
 40
0.0769230769230769
 40
0.0769230769230769
 40
0.0769230769230769
 40
0.0769230769230769
 40
0.1538461538461539
 40
0.1538461538461539
 40
0.1538461538461539
 40
0.1538461538461539
 40
0.2307692307692308
 40
0.2307692307692308
 40
0.2307692307692308
 40
0.2307692307692308
 40
0.3076923076923077
 40
0.3076923076923077
 40
0.3076923076923077
 40
0.3076923076923077
 40
0.3846153846153846
 40
0.3846153846153846
 40
0.3846153846153846
 40
0.3846153846153846
 40
0.4615384615384616
 40
0.4615384615384616
 40
0.4615384615384616
 40
0.4615384615384616
 40
0.5384615384615384
 40
0.5384615384615384
 40
0.5384615384615384
 40
0.5384615384615384
 40
0.6153846153846154
 40
0.6153846153846154
 40
0.6153846153846154
 40
0.6153846153846154
 40
0.6923076923076923
 40
0.6923076923076923
 40
0.6923076923076923
 40
0.6923076923076923
 40
0.7692307692307693
 40
0.7692307692307693
 40
0.7692307692307693
 40
0.7692307692307693
 40
0.8461538461538461
 40
0.8461538461538461
 40
0.8461538461538461
 40
0.8461538461538461
 40
1.0
 40
1.0
 40
1.0
 40
1.0
 10
4.40529
 20
-7.07156
 30
0.0
 10
4.40529
 20
-7.07156
 30
0.0
 10
4.40529
 20
-6.46534
 30
0.0
 10
4.40529
 20
-6.46534
 30
0.0
 10
4.40529
 20
-6.46534
 30
0.0
 10
4.40529
 20
-6.46534
 30
0.0
 10
4.84301
 20
-6.46534
 30
0.0
 10
4.84301
 20
-6.46534
 30
0.0
 10
4.84301
 20
-6.46534
 30
0.0
 10
4.84301
 20
-6.46534
 30
0.0
 10
4.84301
 20
-6.53646
 30
0.0
 10
4.84301
 20
-6.53646
 30
0.0
 10
4.84301
 20
-6.53646
 30
0.0
 10
4.84301
 20
-6.53646
 30
0.0
 10
4.48572
 20
-6.53646
 30
0.0
 10
4.48572
 20
-6.53646
 30
0.0
 10
4.48572
 20
-6.53646
 30
0.0
 10
4.48572
 20
-6.53646
 30
0.0
 10
4.48572
 20
-6.72273
 30
0.0
 10
4.48572
 20
-6.72273
 30
0.0
 10
4.48572
 20
-6.72273
 30
0.0
 10
4.48572
 20
-6.72273
 30
0.0
 10
4.82016
 20
-6.72273
 30
0.0
 10
4.82016
 20
-6.72273
 30
0.0
 10
4.82016
 20
-6.72273
 30
0.0
 10
4.82016
 20
-6.72273
 30
0.0
 10
4.82016
 20
-6.79385
 30
0.0
 10
4.82016
 20
-6.79385
 30
0.0
 10
4.82016
 20
-6.79385
 30
0.0
 10
4.82016
 20
-6.79385
 30
0.0
 10
4.48572
 20
-6.79385
 30
0.0
 10
4.48572
 20
-6.79385
 30
0.0
 10
4.48572
 20
-6.79385
 30
0.0
 10
4.48572
 20
-6.79385
 30
0.0
 10
4.48572
 20
-7.00044
 30
0.0
 10
4.48572
 20
-7.00044
 30
0.0
 10
4.48572
 20
-7.00044
 30
0.0
 10
4.48572
 20
-7.00044
 30
0.0
 10
4.85741
 20
-7.00044
 30
0.0
 10
4.85741
 20
-7.00044
 30
0.0
 10
4.85741
 20
-7.00044
 30
0.0
 10
4.85741
 20
-7.00044
 30
0.0
 10
4.85741
 20
-7.07156
 30
0.0
 10
4.85741
 20
-7.07156
 30
0.0
 10
4.85741
 20
-7.07156
 30
0.0
 10
4.85741
 20
-7.07156
 30
0.0
 10
4.40529
 20
-7.07156
 30
0.0
 10
4.40529
 20
-7.07156
 30
0.0
  0
SPLINE
  5
56
330
1F
100
AcDbEntity
  8
Layer 1
 62
     3
370
     9
100
AcDbSpline
210
0.0
220
0.0
230
1.0
 70
    24
 71
     3
 72
     8
 73
     4
 74
     0
 42
0.0000000001
 43
0.0000000001
 12
1.0
 22
0.0
 32
0.0
 13
1.0
 23
0.0
 33
0.0
 40
0.0
 40
0.0
 40
0.0
 40
0.0
 40
1.0
 40
1.0
 40
1.0
 40
1.0
 10
-9.34302
 20
-4.62076
 30
0.0
 10
-9.34302
 20
-4.62076
 30
0.0
 10
9.38426
 20
-4.62076
 30
0.0
 10
9.38426
 20
-4.62076
 30
0.0
  0
SPLINE
  5
57
330
1F
100
AcDbEntity
  8
Layer 1
 62
     3
370
     9
100
AcDbSpline
210
0.0
220
0.0
230
1.0
 70
    24
 71
     3
 72
     8
 73
     4
 74
     0
 42
0.0000000001
 43
0.0000000001
 12
1.0
 22
0.0
 32
0.0
 13
1.0
 23
0.0
 33
0.0
 40
0.0
 40
0.0
 40
0.0
 40
0.0
 40
1.0
 40
1.0
 40
1.0
 40
1.0
 10
9.76801
 20
-4.237
 30
0.0
 10
9.76801
 20
-4.237
 30
0.0
 10
9.76801
 20
5.3927
 30
0.0
 10
9.76801
 20
5.3927
 30
0.0
  0
SPLINE
  5
58
330
1F
100
AcDbEntity
  8
Layer 1
 62
     3
370
     9
100
AcDbSpline
210
0.0
220
0.0
230
1.0
 70
     8
 71
     3
 72
     8
 73
     4
 74
     0
 42
0.0000000001
 43
0.0000000001
 12
1.0
 22
0.0
 32
0.0
 13
1.0
 23
0.0
 33
0.0
 40
0.0
 40
0.0
 40
0.0
 40
0.0
 40
1.0
 40
1.0
 40
1.0
 40
1.0
 10
9.38426
 20
-4.62076
 30
0.0
 10
9.59619
 20
-4.62076
 30
0.0
 10
9.768
 20
-4.44895
 30
0.0
 10
9.76801
 20
-4.23701
 30
0.0
  0
SPLINE
  5
59
330
1F
100
AcDbEntity
  8
Layer 1
 62
     3
370
     9
100
AcDbSpline
210
0.0
220
0.0
230
1.0
 70
     8
 71
     3
 72
    12
 73
     8
 74
     0
 42
0.0000000001
 43
0.0000000001
 12
1.0
 22
0.0
 32
0.0
 13
1.0
 23
0.0
 33
0.0
 40
0.0
 40
0.0
 40
0.0
 40
0.0
 40
0.3333333333333333
 40
0.3333333333333333
 40
0.3333333333333333
 40
0.3333333333333333
 40
1.0
 40
1.0
 40
1.0
 40
1.0
 10
9.76801
 20
5.3927
 30
0.0
 10
9.76801
 20
5.49448
 30
0.0
 10
9.72757
 20
5.59209
 30
0.0
 10
9.65559
 20
5.66406
 30
0.0
 10
9.65559
 20
5.66406
 30
0.0
 10
9.58363
 20
5.73602
 30
0.0
 10
9.48603
 20
5.77646
 30
0.0
 10
9.38426
 20
5.77646
 30
0.0
  0
SPLINE
  5
5A
330
1F
100
AcDbEntity
  8
Layer 1
 62
     3
370
     9
100
AcDbSpline
210
0.0
220
0.0
230
1.0
 70
    24
 71
     3
 72
     8
 73
     4
 74
     0
 42
0.0000000001
 43
0.0000000001
 12
1.0
 22
0.0
 32
0.0
 13
1.0
 23
0.0
 33
0.0
 40
0.0
 40
0.0
 40
0.0
 40
0.0
 40
1.0
 40
1.0
 40
1.0
 40
1.0
 10
9.38426
 20
5.77646
 30
0.0
 10
9.38426
 20
5.77646
 30
0.0
 10
-9.34302
 20
5.77646
 30
0.0
 10
-9.34302
 20
5.77646
 30
0.0
  0
SPLINE
  5
5B
330
1F
100
AcDbEntity
  8
Layer 1
 62
     3
370
     9
100
AcDbSpline
210
0.0
220
0.0
230
1.0
 70
    24
 71
     3
 72
     8
 73
     4
 74
     0
 42
0.0000000001
 43
0.0000000001
 12
1.0
 22
0.0
 32
0.0
 13
1.0
 23
0.0
 33
0.0
 40
0.0
 40
0.0
 40
0.0
 40
0.0
 40
1.0
 40
1.0
 40
1.0
 40
1.0
 10
-9.72676
 20
5.3927
 30
0.0
 10
-9.72676
 20
5.3927
 30
0.0
 10
-9.72676
 20
-4.237
 30
0.0
 10
-9.72676
 20
-4.237
 30
0.0
  0
SPLINE
  5
5C
330
1F
100
AcDbEntity
  8
Layer 1
 62
     3
370
     9
100
AcDbSpline
210
0.0
220
0.0
230
1.0
 70
     8
 71
     3
 72
    12
 73
     8
 74
     0
 42
0.0000000001
 43
0.0000000001
 12
1.0
 22
0.0
 32
0.0
 13
1.0
 23
0.0
 33
0.0
 40
0.0
 40
0.0
 40
0.0
 40
0.0
 40
0.3333333333333333
 40
0.3333333333333333
 40
0.3333333333333333
 40
0.3333333333333333
 40
1.0
 40
1.0
 40
1.0
 40
1.0
 10
-9.72676
 20
-4.237
 30
0.0
 10
-9.72676
 20
-4.33879
 30
0.0
 10
-9.68635
 20
-4.43639
 30
0.0
 10
-9.61438
 20
-4.50836
 30
0.0
 10
-9.61438
 20
-4.50836
 30
0.0
 10
-9.5424
 20
-4.58033
 30
0.0
 10
-9.44479
 20
-4.62076
 30
0.0
 10
-9.34302
 20
-4.62076
 30
0.0
  0
SPLINE
  5
5D
330
1F
100
AcDbEntity
  8
Layer 1
 62
     3
370
     9
100
AcDbSpline
210
0.0
220
0.0
230
1.0
 70
     8
 71
     3
 72
    12
 73
     8
 74
     0
 42
0.0000000001
 43
0.0000000001
 12
1.0
 22
0.0
 32
0.0
 13
1.0
 23
0.0
 33
0.0
 40
0.0
 40
0.0
 40
0.0
 40
0.0
 40
0.3333333333333333
 40
0.3333333333333333
 40
0.3333333333333333
 40
0.3333333333333333
 40
1.0
 40
1.0
 40
1.0
 40
1.0
 10
-9.34302
 20
5.77646
 30
0.0
 10
-9.44479
 20
5.77646
 30
0.0
 10
-9.5424
 20
5.73602
 30
0.0
 10
-9.61438
 20
5.66406
 30
0.0
 10
-9.61438
 20
5.66406
 30
0.0
 10
-9.68635
 20
5.59209
 30
0.0
 10
-9.72676
 20
5.49448
 30
0.0
 10
-9.72676
 20
5.3927
 30
0.0
  0
SPLINE
  5
5F
330
1F
100
AcDbEntity
  8
layer 2
 62
     1
370
     9
100
AcDbSpline
210
0.0
220
0.0
230
1.0
 70
    24
 71
     3
 72
     8
 73
     4
 74
     0
 42
0.0000000001
 43
0.0000000001
 12
1.0
 22
0.0
 32
0.0
 13
1.0
 23
0.0
 33
0.0
 40
0.0
 40
0.0
 40
0.0
 40
0.0
 40
1.0
 40
1.0
 40
1.0
 40
1.0
 10
-9.72676
 20
5.52062
 30
0.0
 10
-9.72676
 20
5.52062
 30
0.0
 10
-9.72676
 20
6.78035
 30
0.0
 10
-9.72676
 20
6.78035
 30
0.0
  0
SPLINE
  5
60
330
1F
100
AcDbEntity
  8
layer 2
 62
     1
370
     9
100
AcDbSpline
210
0.0
220
0.0
230
1.0
 70
    24
 71
     3
 72
     8
 73
     4
 74
     0
 42
0.0000000001
 43
0.0000000001
 12
1.0
 22
0.0
 32
0.0
 13
1.0
 23
0.0
 33
0.0
 40
0.0
 40
0.0
 40
0.0
 40
0.0
 40
1.0
 40
1.0
 40
1.0
 40
1.0
 10
9.76801
 20
5.52062
 30
0.0
 10
9.76801
 20
5.52062
 30
0.0
 10
9.76801
 20
6.78035
 30
0.0
 10
9.76801
 20
6.78035
 30
0.0
  0
SPLINE
  5
61
330
1F
100
AcDbEntity
  8
layer 2
 62
     1
370
     9
100
AcDbSpline
210
0.0
220
0.0
230
1.0
 70
    24
 71
     3
 72
     8
 73
     4
 74
     0
 42
0.0000000001
 43
0.0000000001
 12
1.0
 22
0.0
 32
0.0
 13
1.0
 23
0.0
 33
0.0
 40
0.0
 40
0.0
 40
0.0
 40
0.0
 40
1.0
 40
1.0
 40
1.0
 40
1.0
 10
-9.2151
 20
6.52452
 30
0.0
 10
-9.2151
 20
6.52452
 30
0.0
 10
9.25633
 20
6.52452
 30
0.0
 10
9.25633
 20
6.52452
 30
0.0
  0
SPLINE
  5
62
330
1F
100
AcDbEntity
  8
layer 2
 62
     1
370
     9
100
AcDbSpline
210
0.0
220
0.0
230
1.0
 70
    27
 71
     3
 72
    12
 73
     8
 74
     0
 42
0.0000000001
 43
0.0000000001
 12
1.0
 22
0.0
 32
0.0
 13
1.0
 23
0.0
 33
0.0
 40
0.0
 40
0.0
 40
0.0
 40
0.0
 40
0.3333333333333333
 40
0.3333333333333333
 40
0.3333333333333333
 40
0.3333333333333333
 40
1.0
 40
1.0
 40
1.0
 40
1.0
 10
-9.2151
 20
6.6098
 30
0.0
 10
-9.2151
 20
6.6098
 30
0.0
 10
-9.72676
 20
6.52452
 30
0.0
 10
-9.72676
 20
6.52452
 30
0.0
 10
-9.72676
 20
6.52452
 30
0.0
 10
-9.72676
 20
6.52452
 30
0.0
 10
-9.2151
 20
6.6098
 30
0.0
 10
-9.2151
 20
6.6098
 30
0.0
  0
SPLINE
  5
63
330
1F
100
AcDbEntity
  8
layer 2
 62
     1
370
     9
100
AcDbSpline
210
0.0
220
0.0
230
1.0
 70
     8
 71
     3
 72
    12
 73
     8
 74
     0
 42
0.0000000001
 43
0.0000000001
 12
1.0
 22
0.0
 32
0.0
 13
1.0
 23
0.0
 33
0.0
 40
0.0
 40
0.0
 40
0.0
 40
0.0
 40
0.3333333333333333
 40
0.3333333333333333
 40
0.3333333333333333
 40
0.3333333333333333
 40
1.0
 40
1.0
 40
1.0
 40
1.0
 10
-9.72676
 20
6.52452
 30
0.0
 10
-9.72676
 20
6.52452
 30
0.0
 10
-9.2151
 20
6.43924
 30
0.0
 10
-9.2151
 20
6.43924
 30
0.0
 10
-9.2151
 20
6.43924
 30
0.0
 10
-9.2151
 20
6.43924
 30
0.0
 10
-9.2151
 20
6.6098
 30
0.0
 10
-9.2151
 20
6.6098
 30
0.0
  0
SPLINE
  5
64
330
1F
100
AcDbEntity
  8
layer 2
 62
     1
370
     9
100
AcDbSpline
210
0.0
220
0.0
230
1.0
 70
    24
 71
     3
 72
     8
 73
     4
 74
     0
 42
0.0000000001
 43
0.0000000001
 12
1.0
 22
0.0
 32
0.0
 13
1.0
 23
0.0
 33
0.0
 40
0.0
 40
0.0
 40
0.0
 40
0.0
 40
1.0
 40
1.0
 40
1.0
 40
1.0
 10
-9.2151
 20
6.6098
 30
0.0
 10
-9.2151
 20
6.6098
 30
0.0
 10
-9.72676
 20
6.52452
 30
0.0
 10
-9.72676
 20
6.52452
 30
0.0
  0
SPLINE
  5
65
330
1F
100
AcDbEntity
  8
layer 2
 62
     1
370
     9
100
AcDbSpline
210
0.0
220
0.0
230
1.0
 70
     8
 71
     3
 72
    12
 73
     8
 74
     0
 42
0.0000000001
 43
0.0000000001
 12
1.0
 22
0.0
 32
0.0
 13
1.0
 23
0.0
 33
0.0
 40
0.0
 40
0.0
 40
0.0
 40
0.0
 40
0.3333333333333333
 40
0.3333333333333333
 40
0.3333333333333333
 40
0.3333333333333333
 40
1.0
 40
1.0
 40
1.0
 40
1.0
 10
-9.72676
 20
6.52452
 30
0.0
 10
-9.72676
 20
6.52452
 30
0.0
 10
-9.2151
 20
6.43924
 30
0.0
 10
-9.2151
 20
6.43924
 30
0.0
 10
-9.2151
 20
6.43924
 30
0.0
 10
-9.2151
 20
6.43924
 30
0.0
 10
-9.2151
 20
6.6098
 30
0.0
 10
-9.2151
 20
6.6098
 30
0.0
  0
SPLINE
  5
66
330
1F
100
AcDbEntity
  8
layer 2
 62
     1
370
     9
100
AcDbSpline
210
0.0
220
0.0
230
1.0
 70
    27
 71
     3
 72
    12
 73
     8
 74
     0
 42
0.0000000001
 43
0.0000000001
 12
1.0
 22
0.0
 32
0.0
 13
1.0
 23
0.0
 33
0.0
 40
0.0
 40
0.0
 40
0.0
 40
0.0
 40
0.3333333333333333
 40
0.3333333333333333
 40
0.3333333333333333
 40
0.3333333333333333
 40
1.0
 40
1.0
 40
1.0
 40
1.0
 10
9.25633
 20
6.6098
 30
0.0
 10
9.25633
 20
6.6098
 30
0.0
 10
9.76801
 20
6.52452
 30
0.0
 10
9.76801
 20
6.52452
 30
0.0
 10
9.76801
 20
6.52452
 30
0.0
 10
9.76801
 20
6.52452
 30
0.0
 10
9.25633
 20
6.6098
 30
0.0
 10
9.25633
 20
6.6098
 30
0.0
  0
SPLINE
  5
67
330
1F
100
AcDbEntity
  8
layer 2
 62
     1
370
     9
100
AcDbSpline
210
0.0
220
0.0
230
1.0
 70
     8
 71
     3
 72
    12
 73
     8
 74
     0
 42
0.0000000001
 43
0.0000000001
 12
1.0
 22
0.0
 32
0.0
 13
1.0
 23
0.0
 33
0.0
 40
0.0
 40
0.0
 40
0.0
 40
0.0
 40
0.3333333333333333
 40
0.3333333333333333
 40
0.3333333333333333
 40
0.3333333333333333
 40
1.0
 40
1.0
 40
1.0
 40
1.0
 10
9.76801
 20
6.52452
 30
0.0
 10
9.76801
 20
6.52452
 30
0.0
 10
9.25633
 20
6.43924
 30
0.0
 10
9.25633
 20
6.43924
 30
0.0
 10
9.25633
 20
6.43924
 30
0.0
 10
9.25633
 20
6.43924
 30
0.0
 10
9.25633
 20
6.6098
 30
0.0
 10
9.25633
 20
6.6098
 30
0.0
  0
SPLINE
  5
68
330
1F
100
AcDbEntity
  8
layer 2
 62
     1
370
     9
100
AcDbSpline
210
0.0
220
0.0
230
1.0
 70
    24
 71
     3
 72
     8
 73
     4
 74
     0
 42
0.0000000001
 43
0.0000000001
 12
1.0
 22
0.0
 32
0.0
 13
1.0
 23
0.0
 33
0.0
 40
0.0
 40
0.0
 40
0.0
 40
0.0
 40
1.0
 40
1.0
 40
1.0
 40
1.0
 10
9.25633
 20
6.6098
 30
0.0
 10
9.25633
 20
6.6098
 30
0.0
 10
9.76801
 20
6.52452
 30
0.0
 10
9.76801
 20
6.52452
 30
0.0
  0
SPLINE
  5
69
330
1F
100
AcDbEntity
  8
layer 2
 62
     1
370
     9
100
AcDbSpline
210
0.0
220
0.0
230
1.0
 70
     8
 71
     3
 72
    12
 73
     8
 74
     0
 42
0.0000000001
 43
0.0000000001
 12
1.0
 22
0.0
 32
0.0
 13
1.0
 23
0.0
 33
0.0
 40
0.0
 40
0.0
 40
0.0
 40
0.0
 40
0.3333333333333333
 40
0.3333333333333333
 40
0.3333333333333333
 40
0.3333333333333333
 40
1.0
 40
1.0
 40
1.0
 40
1.0
 10
9.76801
 20
6.52452
 30
0.0
 10
9.76801
 20
6.52452
 30
0.0
 10
9.25633
 20
6.43924
 30
0.0
 10
9.25633
 20
6.43924
 30
0.0
 10
9.25633
 20
6.43924
 30
0.0
 10
9.25633
 20
6.43924
 30
0.0
 10
9.25633
 20
6.6098
 30
0.0
 10
9.25633
 20
6.6098
 30
0.0
  0
SPLINE
  5
6A
330
1F
100
AcDbEntity
  8
layer 2
 62
     1
370
     9
100
AcDbSpline
210
0.0
220
0.0
230
1.0
 70
    11
 71
     3
 72
   124
 73
   120
 74
     0
 42
0.0000000001
 43
0.0000000001
 12
1.0
 22
0.0
 32
0.0
 13
1.0
 23
0.0
 33
0.0
 40
0.0
 40
0.0
 40
0.0
 40
0.0
 40
0.032258064516129
 40
0.032258064516129
 40
0.032258064516129
 40
0.032258064516129
 40
0.0645161290322581
 40
0.0645161290322581
 40
0.0645161290322581
 40
0.0645161290322581
 40
0.0967741935483871
 40
0.0967741935483871
 40
0.0967741935483871
 40
0.0967741935483871
 40
0.1290322580645161
 40
0.1290322580645161
 40
0.1290322580645161
 40
0.1290322580645161
 40
0.1612903225806452
 40
0.1612903225806452
 40
0.1612903225806452
 40
0.1612903225806452
 40
0.1935483870967742
 40
0.1935483870967742
 40
0.1935483870967742
 40
0.1935483870967742
 40
0.2258064516129032
 40
0.2258064516129032
 40
0.2258064516129032
 40
0.2258064516129032
 40
0.2580645161290323
 40
0.2580645161290323
 40
0.2580645161290323
 40
0.2580645161290323
 40
0.2903225806451613
 40
0.2903225806451613
 40
0.2903225806451613
 40
0.2903225806451613
 40
0.3225806451612903
 40
0.3225806451612903
 40
0.3225806451612903
 40
0.3225806451612903
 40
0.3548387096774194
 40
0.3548387096774194
 40
0.3548387096774194
 40
0.3548387096774194
 40
0.3870967741935484
 40
0.3870967741935484
 40
0.3870967741935484
 40
0.3870967741935484
 40
0.4193548387096774
 40
0.4193548387096774
 40
0.4193548387096774
 40
0.4193548387096774
 40
0.4516129032258064
 40
0.4516129032258064
 40
0.4516129032258064
 40
0.4516129032258064
 40
0.4838709677419355
 40
0.4838709677419355
 40
0.4838709677419355
 40
0.4838709677419355
 40
0.5161290322580645
 40
0.5161290322580645
 40
0.5161290322580645
 40
0.5161290322580645
 40
0.5483870967741935
 40
0.5483870967741935
 40
0.5483870967741935
 40
0.5483870967741935
 40
0.5806451612903226
 40
0.5806451612903226
 40
0.5806451612903226
 40
0.5806451612903226
 40
0.6129032258064516
 40
0.6129032258064516
 40
0.6129032258064516
 40
0.6129032258064516
 40
0.6451612903225806
 40
0.6451612903225806
 40
0.6451612903225806
 40
0.6451612903225806
 40
0.6774193548387096
 40
0.6774193548387096
 40
0.6774193548387096
 40
0.6774193548387096
 40
0.7096774193548387
 40
0.7096774193548387
 40
0.7096774193548387
 40
0.7096774193548387
 40
0.7419354838709677
 40
0.7419354838709677
 40
0.7419354838709677
 40
0.7419354838709677
 40
0.7741935483870968
 40
0.7741935483870968
 40
0.7741935483870968
 40
0.7741935483870968
 40
0.8064516129032258
 40
0.8064516129032258
 40
0.8064516129032258
 40
0.8064516129032258
 40
0.8387096774193549
 40
0.8387096774193549
 40
0.8387096774193549
 40
0.8387096774193549
 40
0.8709677419354839
 40
0.8709677419354839
 40
0.8709677419354839
 40
0.8709677419354839
 40
0.9032258064516129
 40
0.9032258064516129
 40
0.9032258064516129
 40
0.9032258064516129
 40
0.9354838709677419
 40
0.9354838709677419
 40
0.9354838709677419
 40
0.9354838709677419
 40
1.0
 40
1.0
 40
1.0
 40
1.0
 10
-0.30498
 20
6.8327
 30
0.0
 10
-0.30498
 20
6.8327
 30
0.0
 10
-0.26357
 20
6.83835
 30
0.0
 10
-0.26357
 20
6.83835
 30
0.0
 10
-0.26357
 20
6.83835
 30
0.0
 10
-0.25877
 20
6.8148
 30
0.0
 10
-0.25078
 20
6.79786
 30
0.0
 10
-0.23939
 20
6.78751
 30
0.0
 10
-0.23939
 20
6.78751
 30
0.0
 10
-0.22803
 20
6.77715
 30
0.0
 10
-0.21406
 20
6.77198
 30
0.0
 10
-0.1975
 20
6.77198
 30
0.0
 10
-0.1975
 20
6.77198
 30
0.0
 10
-0.17788
 20
6.77198
 30
0.0
 10
-0.16133
 20
6.77871
 30
0.0
 10
-0.148
 20
6.79222
 30
0.0
 10
-0.148
 20
6.79222
 30
0.0
 10
-0.13466
 20
6.80572
 30
0.0
 10
-0.12799
 20
6.82243
 30
0.0
 10
-0.12799
 20
6.84234
 30
0.0
 10
-0.12799
 20
6.84234
 30
0.0
 10
-0.12799
 20
6.86132
 30
0.0
 10
-0.13418
 20
6.87703
 30
0.0
 10
-0.14667
 20
6.88942
 30
0.0
 10
-0.14667
 20
6.88942
 30
0.0
 10
-0.15905
 20
6.90174
 30
0.0
 10
-0.17482
 20
6.90794
 30
0.0
 10
-0.19405
 20
6.90794
 30
0.0
 10
-0.19405
 20
6.90794
 30
0.0
 10
-0.2019
 20
6.90794
 30
0.0
 10
-0.21162
 20
6.90638
 30
0.0
 10
-0.22332
 20
6.9033
 30
0.0
 10
-0.22332
 20
6.9033
 30
0.0
 10
-0.22332
 20
6.9033
 30
0.0
 10
-0.21869
 20
6.93956
 30
0.0
 10
-0.21869
 20
6.93956
 30
0.0
 10
-0.21869
 20
6.93956
 30
0.0
 10
-0.21593
 20
6.93924
 30
0.0
 10
-0.21366
 20
6.93909
 30
0.0
 10
-0.21201
 20
6.93909
 30
0.0
 10
-0.21201
 20
6.93909
 30
0.0
 10
-0.19429
 20
6.93909
 30
0.0
 10
-0.17844
 20
6.94372
 30
0.0
 10
-0.16424
 20
6.95289
 30
0.0
 10
-0.16424
 20
6.95289
 30
0.0
 10
-0.15012
 20
6.96208
 30
0.0
 10
-0.14305
 20
6.9762
 30
0.0
 10
-0.14305
 20
6.99526
 30
0.0
 10
-0.14305
 20
6.99526
 30
0.0
 10
-0.14305
 20
7.0104
 30
0.0
 10
-0.14823
 20
7.02296
 30
0.0
 10
-0.1585
 20
7.03292
 30
0.0
 10
-0.1585
 20
7.03292
 30
0.0
 10
-0.16878
 20
7.04288
 30
0.0
 10
-0.18204
 20
7.04783
 30
0.0
 10
-0.19828
 20
7.04783
 30
0.0
 10
-0.19828
 20
7.04783
 30
0.0
 10
-0.21445
 20
7.04783
 30
0.0
 10
-0.22786
 20
7.04272
 30
0.0
 10
-0.23861
 20
7.03253
 30
0.0
 10
-0.23861
 20
7.03253
 30
0.0
 10
-0.24936
 20
7.02231
 30
0.0
 10
-0.25626
 20
7.00703
 30
0.0
 10
-0.25933
 20
6.98663
 30
0.0
 10
-0.25933
 20
6.98663
 30
0.0
 10
-0.25933
 20
6.98663
 30
0.0
 10
-0.30074
 20
6.99417
 30
0.0
 10
-0.30074
 20
6.99417
 30
0.0
 10
-0.30074
 20
6.99417
 30
0.0
 10
-0.29566
 20
7.02193
 30
0.0
 10
-0.2842
 20
7.04351
 30
0.0
 10
-0.26623
 20
7.0588
 30
0.0
 10
-0.26623
 20
7.0588
 30
0.0
 10
-0.24834
 20
7.07411
 30
0.0
 10
-0.22598
 20
7.08172
 30
0.0
 10
-0.1993
 20
7.08172
 30
0.0
 10
-0.1993
 20
7.08172
 30
0.0
 10
-0.18095
 20
7.08172
 30
0.0
 10
-0.164
 20
7.0778
 30
0.0
 10
-0.14854
 20
7.06987
 30
0.0
 10
-0.14854
 20
7.06987
 30
0.0
 10
-0.13301
 20
7.06203
 30
0.0
 10
-0.12116
 20
7.05128
 30
0.0
 10
-0.113
 20
7.0377
 30
0.0
 10
-0.113
 20
7.0377
 30
0.0
 10
-0.10477
 20
7.02405
 30
0.0
 10
-0.10068
 20
7.00962
 30
0.0
 10
-0.10068
 20
6.99432
 30
0.0
 10
-0.10068
 20
6.99432
 30
0.0
 10
-0.10068
 20
6.9798
 30
0.0
 10
-0.1046
 20
6.96662
 30
0.0
 10
-0.11237
 20
6.95469
 30
0.0
 10
-0.11237
 20
6.95469
 30
0.0
 10
-0.12022
 20
6.94277
 30
0.0
 10
-0.13183
 20
6.93328
 30
0.0
 10
-0.14714
 20
6.92622
 30
0.0
 10
-0.14714
 20
6.92622
 30
0.0
 10
-0.1272
 20
6.92166
 30
0.0
 10
-0.11175
 20
6.91209
 30
0.0
 10
-0.10068
 20
6.89757
 30
0.0
 10
-0.10068
 20
6.89757
 30
0.0
 10
-0.08971
 20
6.88314
 30
0.0
 10
-0.08421
 20
6.86495
 30
0.0
 10
-0.08421
 20
6.84321
 30
0.0
 10
-0.08421
 20
6.84321
 30
0.0
 10
-0.08421
 20
6.81379
 30
0.0
 10
-0.09496
 20
6.78876
 30
0.0
 10
-0.11638
 20
6.76828
 30
0.0
 10
-0.11638
 20
6.76828
 30
0.0
 10
-0.13787
 20
6.7478
 30
0.0
 10
-0.16501
 20
6.73759
 30
0.0
 10
-0.19781
 20
6.73759
 30
0.0
 10
-0.19781
 20
6.73759
 30
0.0
 10
-0.22739
 20
6.73759
 30
0.0
 10
-0.25194
 20
6.74647
 30
0.0
 10
-0.27148
 20
6.76412
 30
0.0
 10
-0.27148
 20
6.76412
 30
0.0
 10
-0.2911
 20
6.78178
 30
0.0
 10
-0.30224
 20
6.80461
 30
0.0
 10
-0.30498
 20
6.8327
 30
0.0
  0
SPLINE
  5
6B
330
1F
100
AcDbEntity
  8
layer 2
 62
     1
370
     9
100
AcDbSpline
210
0.0
220
0.0
230
1.0
 70
    11
 71
     3
 72
    52
 73
    48
 74
     0
 42
0.0000000001
 43
0.0000000001
 12
1.0
 22
0.0
 32
0.0
 13
1.0
 23
0.0
 33
0.0
 40
0.0
 40
0.0
 40
0.0
 40
0.0
 40
0.0769230769230769
 40
0.0769230769230769
 40
0.0769230769230769
 40
0.0769230769230769
 40
0.1538461538461539
 40
0.1538461538461539
 40
0.1538461538461539
 40
0.1538461538461539
 40
0.2307692307692308
 40
0.2307692307692308
 40
0.2307692307692308
 40
0.2307692307692308
 40
0.3076923076923077
 40
0.3076923076923077
 40
0.3076923076923077
 40
0.3076923076923077
 40
0.3846153846153846
 40
0.3846153846153846
 40
0.3846153846153846
 40
0.3846153846153846
 40
0.4615384615384616
 40
0.4615384615384616
 40
0.4615384615384616
 40
0.4615384615384616
 40
0.5384615384615384
 40
0.5384615384615384
 40
0.5384615384615384
 40
0.5384615384615384
 40
0.6153846153846154
 40
0.6153846153846154
 40
0.6153846153846154
 40
0.6153846153846154
 40
0.6923076923076923
 40
0.6923076923076923
 40
0.6923076923076923
 40
0.6923076923076923
 40
0.7692307692307693
 40
0.7692307692307693
 40
0.7692307692307693
 40
0.7692307692307693
 40
0.8461538461538461
 40
0.8461538461538461
 40
0.8461538461538461
 40
0.8461538461538461
 40
1.0
 40
1.0
 40
1.0
 40
1.0
 10
-0.04318
 20
6.90958
 30
0.0
 10
-0.04318
 20
6.94936
 30
0.0
 10
-0.03909
 20
6.98153
 30
0.0
 10
-0.03093
 20
7.00584
 30
0.0
 10
-0.03093
 20
7.00584
 30
0.0
 10
-0.0227
 20
7.03024
 30
0.0
 10
-0.01054
 20
7.04901
 30
0.0
 10
0.00562
 20
7.0621
 30
0.0
 10
0.00562
 20
7.0621
 30
0.0
 10
0.02171
 20
7.07521
 30
0.0
 10
0.04203
 20
7.08172
 30
0.0
 10
0.0665
 20
7.08172
 30
0.0
 10
0.0665
 20
7.08172
 30
0.0
 10
0.08455
 20
7.08172
 30
0.0
 10
0.1004
 20
7.0781
 30
0.0
 10
0.11414
 20
7.07081
 30
0.0
 10
0.11414
 20
7.07081
 30
0.0
 10
0.12778
 20
7.06351
 30
0.0
 10
0.13908
 20
7.05301
 30
0.0
 10
0.14786
 20
7.03928
 30
0.0
 10
0.14786
 20
7.03928
 30
0.0
 10
0.15666
 20
7.02562
 30
0.0
 10
0.16356
 20
7.00891
 30
0.0
 10
0.16858
 20
6.98922
 30
0.0
 10
0.16858
 20
6.98922
 30
0.0
 10
0.17369
 20
6.96953
 30
0.0
 10
0.17618
 20
6.94292
 30
0.0
 10
0.17618
 20
6.90958
 30
0.0
 10
0.17618
 20
6.90958
 30
0.0
 10
0.17618
 20
6.87005
 30
0.0
 10
0.17211
 20
6.83803
 30
0.0
 10
0.16403
 20
6.81371
 30
0.0
 10
0.16403
 20
6.81371
 30
0.0
 10
0.15595
 20
6.78931
 30
0.0
 10
0.14379
 20
6.77055
 30
0.0
 10
0.12763
 20
6.75738
 30
0.0
 10
0.12763
 20
6.75738
 30
0.0
 10
0.11155
 20
6.7442
 30
0.0
 10
0.09115
 20
6.73759
 30
0.0
 10
0.0665
 20
6.73759
 30
0.0
 10
0.0665
 20
6.73759
 30
0.0
 10
0.03411
 20
6.73759
 30
0.0
 10
0.00861
 20
6.74913
 30
0.0
 10
-0.00991
 20
6.77229
 30
0.0
 10
-0.00991
 20
6.77229
 30
0.0
 10
-0.03211
 20
6.80053
 30
0.0
 10
-0.04318
 20
6.84626
 30
0.0
 10
-0.04318
 20
6.90958
 30
0.0
  0
SPLINE
  5
6C
330
1F
100
AcDbEntity
  8
layer 2
 62
     1
370
     9
100
AcDbSpline
210
0.0
220
0.0
230
1.0
 70
    11
 71
     3
 72
    36
 73
    32
 74
     0
 42
0.0000000001
 43
0.0000000001
 12
1.0
 22
0.0
 32
0.0
 13
1.0
 23
0.0
 33
0.0
 40
0.0
 40
0.0
 40
0.0
 40
0.0
 40
0.1111111111111111
 40
0.1111111111111111
 40
0.1111111111111111
 40
0.1111111111111111
 40
0.2222222222222222
 40
0.2222222222222222
 40
0.2222222222222222
 40
0.2222222222222222
 40
0.3333333333333333
 40
0.3333333333333333
 40
0.3333333333333333
 40
0.3333333333333333
 40
0.4444444444444444
 40
0.4444444444444444
 40
0.4444444444444444
 40
0.4444444444444444
 40
0.5555555555555556
 40
0.5555555555555556
 40
0.5555555555555556
 40
0.5555555555555556
 40
0.6666666666666666
 40
0.6666666666666666
 40
0.6666666666666666
 40
0.6666666666666666
 40
0.7777777777777778
 40
0.7777777777777778
 40
0.7777777777777778
 40
0.7777777777777778
 40
1.0
 40
1.0
 40
1.0
 40
1.0
 10
-0.00081
 20
6.90943
 30
0.0
 10
-0.00081
 20
6.85396
 30
0.0
 10
0.00562
 20
6.81708
 30
0.0
 10
0.01857
 20
6.79889
 30
0.0
 10
0.01857
 20
6.79889
 30
0.0
 10
0.03152
 20
6.7806
 30
0.0
 10
0.04752
 20
6.77151
 30
0.0
 10
0.0665
 20
6.77151
 30
0.0
 10
0.0665
 20
6.77151
 30
0.0
 10
0.0855
 20
6.77151
 30
0.0
 10
0.1015
 20
6.78068
 30
0.0
 10
0.11444
 20
6.79897
 30
0.0
 10
0.11444
 20
6.79897
 30
0.0
 10
0.12738
 20
6.81733
 30
0.0
 10
0.13382
 20
6.85412
 30
0.0
 10
0.13382
 20
6.90943
 30
0.0
 10
0.13382
 20
6.90943
 30
0.0
 10
0.13382
 20
6.9649
 30
0.0
 10
0.12738
 20
7.00176
 30
0.0
 10
0.11444
 20
7.01998
 30
0.0
 10
0.11444
 20
7.01998
 30
0.0
 10
0.10158
 20
7.03826
 30
0.0
 10
0.08541
 20
7.04736
 30
0.0
 10
0.06603
 20
7.04736
 30
0.0
 10
0.06603
 20
7.04736
 30
0.0
 10
0.04705
 20
7.04736
 30
0.0
 10
0.03183
 20
7.03928
 30
0.0
 10
0.02046
 20
7.02318
 30
0.0
 10
0.02046
 20
7.02318
 30
0.0
 10
0.00626
 20
7.00272
 30
0.0
 10
-0.00081
 20
6.96474
 30
0.0
 10
-0.00081
 20
6.90943
 30
0.0
  0
SPLINE
  5
6D
330
1F
100
AcDbEntity
  8
layer 2
 62
     1
370
     9
100
AcDbSpline
210
0.0
220
0.0
230
1.0
 70
    11
 71
     3
 72
    28
 73
    24
 74
     0
 42
0.0000000001
 43
0.0000000001
 12
1.0
 22
0.0
 32
0.0
 13
1.0
 23
0.0
 33
0.0
 40
0.0
 40
0.0
 40
0.0
 40
0.0
 40
0.1428571428571428
 40
0.1428571428571428
 40
0.1428571428571428
 40
0.1428571428571428
 40
0.2857142857142857
 40
0.2857142857142857
 40
0.2857142857142857
 40
0.2857142857142857
 40
0.4285714285714285
 40
0.4285714285714285
 40
0.4285714285714285
 40
0.4285714285714285
 40
0.5714285714285714
 40
0.5714285714285714
 40
0.5714285714285714
 40
0.5714285714285714
 40
0.7142857142857143
 40
0.7142857142857143
 40
0.7142857142857143
 40
0.7142857142857143
 40
1.0
 40
1.0
 40
1.0
 40
1.0
 10
0.23198
 20
6.96122
 30
0.0
 10
0.23198
 20
6.96122
 30
0.0
 10
0.22052
 20
7.02522
 30
0.0
 10
0.22052
 20
7.02522
 30
0.0
 10
0.22052
 20
7.02522
 30
0.0
 10
0.22052
 20
7.02522
 30
0.0
 10
0.22052
 20
7.08031
 30
0.0
 10
0.22052
 20
7.08031
 30
0.0
 10
0.22052
 20
7.08031
 30
0.0
 10
0.22052
 20
7.08031
 30
0.0
 10
0.26759
 20
7.08031
 30
0.0
 10
0.26759
 20
7.08031
 30
0.0
 10
0.26759
 20
7.08031
 30
0.0
 10
0.26759
 20
7.08031
 30
0.0
 10
0.26759
 20
7.02522
 30
0.0
 10
0.26759
 20
7.02522
 30
0.0
 10
0.26759
 20
7.02522
 30
0.0
 10
0.26759
 20
7.02522
 30
0.0
 10
0.25724
 20
6.96122
 30
0.0
 10
0.25724
 20
6.96122
 30
0.0
 10
0.25724
 20
6.96122
 30
0.0
 10
0.25724
 20
6.96122
 30
0.0
 10
0.23198
 20
6.96122
 30
0.0
 10
0.23198
 20
6.96122
 30
0.0
  0
SPLINE
  5
6E
330
1F
100
AcDbEntity
  8
layer 2
 62
     1
370
     9
100
AcDbSpline
210
0.0
220
0.0
230
1.0
 70
    11
 71
     3
 72
    28
 73
    24
 74
     0
 42
0.0000000001
 43
0.0000000001
 12
1.0
 22
0.0
 32
0.0
 13
1.0
 23
0.0
 33
0.0
 40
0.0
 40
0.0
 40
0.0
 40
0.0
 40
0.1428571428571428
 40
0.1428571428571428
 40
0.1428571428571428
 40
0.1428571428571428
 40
0.2857142857142857
 40
0.2857142857142857
 40
0.2857142857142857
 40
0.2857142857142857
 40
0.4285714285714285
 40
0.4285714285714285
 40
0.4285714285714285
 40
0.4285714285714285
 40
0.5714285714285714
 40
0.5714285714285714
 40
0.5714285714285714
 40
0.5714285714285714
 40
0.7142857142857143
 40
0.7142857142857143
 40
0.7142857142857143
 40
0.7142857142857143
 40
1.0
 40
1.0
 40
1.0
 40
1.0
 10
0.308
 20
6.96122
 30
0.0
 10
0.308
 20
6.96122
 30
0.0
 10
0.29678
 20
7.02522
 30
0.0
 10
0.29678
 20
7.02522
 30
0.0
 10
0.29678
 20
7.02522
 30
0.0
 10
0.29678
 20
7.02522
 30
0.0
 10
0.29678
 20
7.08031
 30
0.0
 10
0.29678
 20
7.08031
 30
0.0
 10
0.29678
 20
7.08031
 30
0.0
 10
0.29678
 20
7.08031
 30
0.0
 10
0.34385
 20
7.08031
 30
0.0
 10
0.34385
 20
7.08031
 30
0.0
 10
0.34385
 20
7.08031
 30
0.0
 10
0.34385
 20
7.08031
 30
0.0
 10
0.34385
 20
7.02522
 30
0.0
 10
0.34385
 20
7.02522
 30
0.0
 10
0.34385
 20
7.02522
 30
0.0
 10
0.34385
 20
7.02522
 30
0.0
 10
0.33279
 20
6.96122
 30
0.0
 10
0.33279
 20
6.96122
 30
0.0
 10
0.33279
 20
6.96122
 30
0.0
 10
0.33279
 20
6.96122
 30
0.0
 10
0.308
 20
6.96122
 30
0.0
 10
0.308
 20
6.96122
 30
0.0
  0
SPLINE
  5
6F
330
1F
100
AcDbEntity
  8
layer 2
 62
     1
370
     9
100
AcDbSpline
210
0.0
220
0.0
230
1.0
 70
    24
 71
     3
 72
     8
 73
     4
 74
     0
 42
0.0000000001
 43
0.0000000001
 12
1.0
 22
0.0
 32
0.0
 13
1.0
 23
0.0
 33
0.0
 40
0.0
 40
0.0
 40
0.0
 40
0.0
 40
1.0
 40
1.0
 40
1.0
 40
1.0
 10
9.61043
 20
5.76367
 30
0.0
 10
9.61043
 20
5.76367
 30
0.0
 10
11.35147
 20
5.76367
 30
0.0
 10
11.35147
 20
5.76367
 30
0.0
  0
SPLINE
  5
70
330
1F
100
AcDbEntity
  8
layer 2
 62
     1
370
     9
100
AcDbSpline
210
0.0
220
0.0
230
1.0
 70
    24
 71
     3
 72
     8
 73
     4
 74
     0
 42
0.0000000001
 43
0.0000000001
 12
1.0
 22
0.0
 32
0.0
 13
1.0
 23
0.0
 33
0.0
 40
0.0
 40
0.0
 40
0.0
 40
0.0
 40
1.0
 40
1.0
 40
1.0
 40
1.0
 10
9.51217
 20
-4.62076
 30
0.0
 10
9.51217
 20
-4.62076
 30
0.0
 10
11.35147
 20
-4.62076
 30
0.0
 10
11.35147
 20
-4.62076
 30
0.0
  0
SPLINE
  5
71
330
1F
100
AcDbEntity
  8
layer 2
 62
     1
370
     9
100
AcDbSpline
210
0.0
220
0.0
230
1.0
 70
    24
 71
     3
 72
     8
 73
     4
 74
     0
 42
0.0000000001
 43
0.0000000001
 12
1.0
 22
0.0
 32
0.0
 13
1.0
 23
0.0
 33
0.0
 40
0.0
 40
0.0
 40
0.0
 40
0.0
 40
1.0
 40
1.0
 40
1.0
 40
1.0
 10
11.09563
 20
5.25199
 30
0.0
 10
11.09563
 20
5.25199
 30
0.0
 10
11.09563
 20
-4.10909
 30
0.0
 10
11.09563
 20
-4.10909
 30
0.0
  0
SPLINE
  5
72
330
1F
100
AcDbEntity
  8
layer 2
 62
     1
370
     9
100
AcDbSpline
210
0.0
220
0.0
230
1.0
 70
    27
 71
     3
 72
    12
 73
     8
 74
     0
 42
0.0000000001
 43
0.0000000001
 12
1.0
 22
0.0
 32
0.0
 13
1.0
 23
0.0
 33
0.0
 40
0.0
 40
0.0
 40
0.0
 40
0.0
 40
0.3333333333333333
 40
0.3333333333333333
 40
0.3333333333333333
 40
0.3333333333333333
 40
1.0
 40
1.0
 40
1.0
 40
1.0
 10
11.01035
 20
5.25199
 30
0.0
 10
11.01035
 20
5.25199
 30
0.0
 10
11.09563
 20
5.76367
 30
0.0
 10
11.09563
 20
5.76367
 30
0.0
 10
11.09563
 20
5.76367
 30
0.0
 10
11.09563
 20
5.76367
 30
0.0
 10
11.01035
 20
5.25199
 30
0.0
 10
11.01035
 20
5.25199
 30
0.0
  0
SPLINE
  5
73
330
1F
100
AcDbEntity
  8
layer 2
 62
     1
370
     9
100
AcDbSpline
210
0.0
220
0.0
230
1.0
 70
     8
 71
     3
 72
    12
 73
     8
 74
     0
 42
0.0000000001
 43
0.0000000001
 12
1.0
 22
0.0
 32
0.0
 13
1.0
 23
0.0
 33
0.0
 40
0.0
 40
0.0
 40
0.0
 40
0.0
 40
0.3333333333333333
 40
0.3333333333333333
 40
0.3333333333333333
 40
0.3333333333333333
 40
1.0
 40
1.0
 40
1.0
 40
1.0
 10
11.09563
 20
5.76367
 30
0.0
 10
11.09563
 20
5.76367
 30
0.0
 10
11.18091
 20
5.25199
 30
0.0
 10
11.18091
 20
5.25199
 30
0.0
 10
11.18091
 20
5.25199
 30
0.0
 10
11.18091
 20
5.25199
 30
0.0
 10
11.01035
 20
5.25199
 30
0.0
 10
11.01035
 20
5.25199
 30
0.0
  0
SPLINE
  5
74
330
1F
100
AcDbEntity
  8
layer 2
 62
     1
370
     9
100
AcDbSpline
210
0.0
220
0.0
230
1.0
 70
    24
 71
     3
 72
     8
 73
     4
 74
     0
 42
0.0000000001
 43
0.0000000001
 12
1.0
 22
0.0
 32
0.0
 13
1.0
 23
0.0
 33
0.0
 40
0.0
 40
0.0
 40
0.0
 40
0.0
 40
1.0
 40
1.0
 40
1.0
 40
1.0
 10
11.01035
 20
5.25199
 30
0.0
 10
11.01035
 20
5.25199
 30
0.0
 10
11.09563
 20
5.76367
 30
0.0
 10
11.09563
 20
5.76367
 30
0.0
  0
SPLINE
  5
75
330
1F
100
AcDbEntity
  8
layer 2
 62
     1
370
     9
100
AcDbSpline
210
0.0
220
0.0
230
1.0
 70
     8
 71
     3
 72
    12
 73
     8
 74
     0
 42
0.0000000001
 43
0.0000000001
 12
1.0
 22
0.0
 32
0.0
 13
1.0
 23
0.0
 33
0.0
 40
0.0
 40
0.0
 40
0.0
 40
0.0
 40
0.3333333333333333
 40
0.3333333333333333
 40
0.3333333333333333
 40
0.3333333333333333
 40
1.0
 40
1.0
 40
1.0
 40
1.0
 10
11.09563
 20
5.76367
 30
0.0
 10
11.09563
 20
5.76367
 30
0.0
 10
11.18091
 20
5.25199
 30
0.0
 10
11.18091
 20
5.25199
 30
0.0
 10
11.18091
 20
5.25199
 30
0.0
 10
11.18091
 20
5.25199
 30
0.0
 10
11.01035
 20
5.25199
 30
0.0
 10
11.01035
 20
5.25199
 30
0.0
  0
SPLINE
  5
76
330
1F
100
AcDbEntity
  8
layer 2
 62
     1
370
     9
100
AcDbSpline
210
0.0
220
0.0
230
1.0
 70
    27
 71
     3
 72
    12
 73
     8
 74
     0
 42
0.0000000001
 43
0.0000000001
 12
1.0
 22
0.0
 32
0.0
 13
1.0
 23
0.0
 33
0.0
 40
0.0
 40
0.0
 40
0.0
 40
0.0
 40
0.3333333333333333
 40
0.3333333333333333
 40
0.3333333333333333
 40
0.3333333333333333
 40
1.0
 40
1.0
 40
1.0
 40
1.0
 10
11.01035
 20
-4.10909
 30
0.0
 10
11.01035
 20
-4.10909
 30
0.0
 10
11.09563
 20
-4.62076
 30
0.0
 10
11.09563
 20
-4.62076
 30
0.0
 10
11.09563
 20
-4.62076
 30
0.0
 10
11.09563
 20
-4.62076
 30
0.0
 10
11.01035
 20
-4.10909
 30
0.0
 10
11.01035
 20
-4.10909
 30
0.0
  0
SPLINE
  5
77
330
1F
100
AcDbEntity
  8
layer 2
 62
     1
370
     9
100
AcDbSpline
210
0.0
220
0.0
230
1.0
 70
     8
 71
     3
 72
    12
 73
     8
 74
     0
 42
0.0000000001
 43
0.0000000001
 12
1.0
 22
0.0
 32
0.0
 13
1.0
 23
0.0
 33
0.0
 40
0.0
 40
0.0
 40
0.0
 40
0.0
 40
0.3333333333333333
 40
0.3333333333333333
 40
0.3333333333333333
 40
0.3333333333333333
 40
1.0
 40
1.0
 40
1.0
 40
1.0
 10
11.09563
 20
-4.62076
 30
0.0
 10
11.09563
 20
-4.62076
 30
0.0
 10
11.18091
 20
-4.10909
 30
0.0
 10
11.18091
 20
-4.10909
 30
0.0
 10
11.18091
 20
-4.10909
 30
0.0
 10
11.18091
 20
-4.10909
 30
0.0
 10
11.01035
 20
-4.10909
 30
0.0
 10
11.01035
 20
-4.10909
 30
0.0
  0
SPLINE
  5
78
330
1F
100
AcDbEntity
  8
layer 2
 62
     1
370
     9
100
AcDbSpline
210
0.0
220
0.0
230
1.0
 70
    24
 71
     3
 72
     8
 73
     4
 74
     0
 42
0.0000000001
 43
0.0000000001
 12
1.0
 22
0.0
 32
0.0
 13
1.0
 23
0.0
 33
0.0
 40
0.0
 40
0.0
 40
0.0
 40
0.0
 40
1.0
 40
1.0
 40
1.0
 40
1.0
 10
11.01035
 20
-4.10909
 30
0.0
 10
11.01035
 20
-4.10909
 30
0.0
 10
11.09563
 20
-4.62076
 30
0.0
 10
11.09563
 20
-4.62076
 30
0.0
  0
SPLINE
  5
79
330
1F
100
AcDbEntity
  8
layer 2
 62
     1
370
     9
100
AcDbSpline
210
0.0
220
0.0
230
1.0
 70
     8
 71
     3
 72
    12
 73
     8
 74
     0
 42
0.0000000001
 43
0.0000000001
 12
1.0
 22
0.0
 32
0.0
 13
1.0
 23
0.0
 33
0.0
 40
0.0
 40
0.0
 40
0.0
 40
0.0
 40
0.3333333333333333
 40
0.3333333333333333
 40
0.3333333333333333
 40
0.3333333333333333
 40
1.0
 40
1.0
 40
1.0
 40
1.0
 10
11.09563
 20
-4.62076
 30
0.0
 10
11.09563
 20
-4.62076
 30
0.0
 10
11.18091
 20
-4.10909
 30
0.0
 10
11.18091
 20
-4.10909
 30
0.0
 10
11.18091
 20
-4.10909
 30
0.0
 10
11.18091
 20
-4.10909
 30
0.0
 10
11.01035
 20
-4.10909
 30
0.0
 10
11.01035
 20
-4.10909
 30
0.0
  0
SPLINE
  5
7A
330
1F
100
AcDbEntity
  8
layer 2
 62
     1
370
     9
100
AcDbSpline
210
0.0
220
0.0
230
1.0
 70
    11
 71
     3
 72
    40
 73
    36
 74
     0
 42
0.0000000001
 43
0.0000000001
 12
1.0
 22
0.0
 32
0.0
 13
1.0
 23
0.0
 33
0.0
 40
0.0
 40
0.0
 40
0.0
 40
0.0
 40
0.1
 40
0.1
 40
0.1
 40
0.1
 40
0.2
 40
0.2
 40
0.2
 40
0.2
 40
0.3
 40
0.3
 40
0.3
 40
0.3
 40
0.4
 40
0.4
 40
0.4
 40
0.4
 40
0.5
 40
0.5
 40
0.5
 40
0.5
 40
0.6
 40
0.6
 40
0.6
 40
0.6
 40
0.7
 40
0.7
 40
0.7
 40
0.7
 40
0.8
 40
0.8
 40
0.8
 40
0.8
 40
1.0
 40
1.0
 40
1.0
 40
1.0
 10
10.87689
 20
1.43234
 30
0.0
 10
10.87689
 20
1.43234
 30
0.0
 10
10.87689
 20
1.39091
 30
0.0
 10
10.87689
 20
1.39091
 30
0.0
 10
10.87689
 20
1.39091
 30
0.0
 10
10.87689
 20
1.39091
 30
0.0
 10
10.61312
 20
1.39091
 30
0.0
 10
10.61312
 20
1.39091
 30
0.0
 10
10.61312
 20
1.39091
 30
0.0
 10
10.6227
 20
1.38095
 30
0.0
 10
10.63219
 20
1.36784
 30
0.0
 10
10.64168
 20
1.35169
 30
0.0
 10
10.64168
 20
1.35169
 30
0.0
 10
10.65117
 20
1.33553
 30
0.0
 10
10.65832
 20
1.32093
 30
0.0
 10
10.66302
 20
1.30807
 30
0.0
 10
10.66302
 20
1.30807
 30
0.0
 10
10.66302
 20
1.30807
 30
0.0
 10
10.623
 20
1.30807
 30
0.0
 10
10.623
 20
1.30807
 30
0.0
 10
10.623
 20
1.30807
 30
0.0
 10
10.61218
 20
1.33121
 30
0.0
 10
10.599
 20
1.35145
 30
0.0
 10
10.58346
 20
1.3688
 30
0.0
 10
10.58346
 20
1.3688
 30
0.0
 10
10.56801
 20
1.38613
 30
0.0
 10
10.55302
 20
1.39845
 30
0.0
 10
10.53843
 20
1.40567
 30
0.0
 10
10.53843
 20
1.40567
 30
0.0
 10
10.53843
 20
1.40567
 30
0.0
 10
10.53843
 20
1.43234
 30
0.0
 10
10.53843
 20
1.43234
 30
0.0
 10
10.53843
 20
1.43234
 30
0.0
 10
10.53843
 20
1.43234
 30
0.0
 10
10.87689
 20
1.43234
 30
0.0
 10
10.87689
 20
1.43234
 30
0.0
  0
SPLINE
  5
7B
330
1F
100
AcDbEntity
  8
layer 2
 62
     1
370
     9
100
AcDbSpline
210
0.0
220
0.0
230
1.0
 70
    11
 71
     3
 72
    80
 73
    76
 74
     0
 42
0.0000000001
 43
0.0000000001
 12
1.0
 22
0.0
 32
0.0
 13
1.0
 23
0.0
 33
0.0
 40
0.0
 40
0.0
 40
0.0
 40
0.0
 40
0.05
 40
0.05
 40
0.05
 40
0.05
 40
0.1
 40
0.1
 40
0.1
 40
0.1
 40
0.15
 40
0.15
 40
0.15
 40
0.15
 40
0.2
 40
0.2
 40
0.2
 40
0.2
 40
0.25
 40
0.25
 40
0.25
 40
0.25
 40
0.3
 40
0.3
 40
0.3
 40
0.3
 40
0.35
 40
0.35
 40
0.35
 40
0.35
 40
0.4
 40
0.4
 40
0.4
 40
0.4
 40
0.45
 40
0.45
 40
0.45
 40
0.45
 40
0.5
 40
0.5
 40
0.5
 40
0.5
 40
0.55
 40
0.55
 40
0.55
 40
0.55
 40
0.6
 40
0.6
 40
0.6
 40
0.6
 40
0.65
 40
0.65
 40
0.65
 40
0.65
 40
0.7
 40
0.7
 40
0.7
 40
0.7
 40
0.75
 40
0.75
 40
0.75
 40
0.75
 40
0.8
 40
0.8
 40
0.8
 40
0.8
 40
0.85
 40
0.85
 40
0.85
 40
0.85
 40
0.9
 40
0.9
 40
0.9
 40
0.9
 40
1.0
 40
1.0
 40
1.0
 40
1.0
 10
10.62223
 20
1.75394
 30
0.0
 10
10.62223
 20
1.75394
 30
0.0
 10
10.62552
 20
1.71298
 30
0.0
 10
10.62552
 20
1.71298
 30
0.0
 10
10.62552
 20
1.71298
 30
0.0
 10
10.60927
 20
1.7093
 30
0.0
 10
10.59743
 20
1.70403
 30
0.0
 10
10.59005
 20
1.6972
 30
0.0
 10
10.59005
 20
1.6972
 30
0.0
 10
10.57821
 20
1.68599
 30
0.0
 10
10.57232
 20
1.67211
 30
0.0
 10
10.57232
 20
1.65562
 30
0.0
 10
10.57232
 20
1.65562
 30
0.0
 10
10.57232
 20
1.64236
 30
0.0
 10
10.57602
 20
1.6306
 30
0.0
 10
10.58339
 20
1.62048
 30
0.0
 10
10.58339
 20
1.62048
 30
0.0
 10
10.59288
 20
1.60746
 30
0.0
 10
10.60668
 20
1.59726
 30
0.0
 10
10.62489
 20
1.58964
 30
0.0
 10
10.62489
 20
1.58964
 30
0.0
 10
10.64316
 20
1.58212
 30
0.0
 10
10.66914
 20
1.5782
 30
0.0
 10
10.7028
 20
1.57788
 30
0.0
 10
10.7028
 20
1.57788
 30
0.0
 10
10.68765
 20
1.58784
 30
0.0
 10
10.67636
 20
1.60009
 30
0.0
 10
10.66906
 20
1.61451
 30
0.0
 10
10.66906
 20
1.61451
 30
0.0
 10
10.66169
 20
1.62895
 30
0.0
 10
10.658
 20
1.64401
 30
0.0
 10
10.658
 20
1.65986
 30
0.0
 10
10.658
 20
1.65986
 30
0.0
 10
10.658
 20
1.68748
 30
0.0
 10
10.6682
 20
1.71102
 30
0.0
 10
10.68851
 20
1.73047
 30
0.0
 10
10.68851
 20
1.73047
 30
0.0
 10
10.70884
 20
1.74985
 30
0.0
 10
10.73504
 20
1.75958
 30
0.0
 10
10.76729
 20
1.75958
 30
0.0
 10
10.76729
 20
1.75958
 30
0.0
 10
10.78848
 20
1.75958
 30
0.0
 10
10.80808
 20
1.75503
 30
0.0
 10
10.82629
 20
1.74593
 30
0.0
 10
10.82629
 20
1.74593
 30
0.0
 10
10.8445
 20
1.73675
 30
0.0
 10
10.85838
 20
1.72428
 30
0.0
 10
10.86803
 20
1.70827
 30
0.0
 10
10.86803
 20
1.70827
 30
0.0
 10
10.87768
 20
1.69234
 30
0.0
 10
10.88254
 20
1.67423
 30
0.0
 10
10.88254
 20
1.65399
 30
0.0
 10
10.88254
 20
1.65399
 30
0.0
 10
10.88254
 20
1.61954
 30
0.0
 10
10.86984
 20
1.59137
 30
0.0
 10
10.8445
 20
1.56956
 30
0.0
 10
10.8445
 20
1.56956
 30
0.0
 10
10.81914
 20
1.54783
 30
0.0
 10
10.77734
 20
1.53692
 30
0.0
 10
10.71912
 20
1.53692
 30
0.0
 10
10.71912
 20
1.53692
 30
0.0
 10
10.654
 20
1.53692
 30
0.0
 10
10.60661
 20
1.549
 30
0.0
 10
10.57703
 20
1.5731
 30
0.0
 10
10.57703
 20
1.5731
 30
0.0
 10
10.5513
 20
1.59412
 30
0.0
 10
10.53843
 20
1.62244
 30
0.0
 10
10.53843
 20
1.65814
 30
0.0
 10
10.53843
 20
1.65814
 30
0.0
 10
10.53843
 20
1.68466
 30
0.0
 10
10.54588
 20
1.70647
 30
0.0
 10
10.56071
 20
1.72342
 30
0.0
 10
10.56071
 20
1.72342
 30
0.0
 10
10.57553
 20
1.74036
 30
0.0
 10
10.59601
 20
1.75056
 30
0.0
 10
10.62223
 20
1.75394
 30
0.0
  0
SPLINE
  5
7C
330
1F
100
AcDbEntity
  8
layer 2
 62
     1
370
     9
100
AcDbSpline
210
0.0
220
0.0
230
1.0
 70
    11
 71
     3
 72
    40
 73
    36
 74
     0
 42
0.0000000001
 43
0.0000000001
 12
1.0
 22
0.0
 32
0.0
 13
1.0
 23
0.0
 33
0.0
 40
0.0
 40
0.0
 40
0.0
 40
0.0
 40
0.1
 40
0.1
 40
0.1
 40
0.1
 40
0.2
 40
0.2
 40
0.2
 40
0.2
 40
0.3
 40
0.3
 40
0.3
 40
0.3
 40
0.4
 40
0.4
 40
0.4
 40
0.4
 40
0.5
 40
0.5
 40
0.5
 40
0.5
 40
0.6
 40
0.6
 40
0.6
 40
0.6
 40
0.7
 40
0.7
 40
0.7
 40
0.7
 40
0.8
 40
0.8
 40
0.8
 40
0.8
 40
1.0
 40
1.0
 40
1.0
 40
1.0
 10
10.76768
 20
1.58447
 30
0.0
 10
10.78195
 20
1.58447
 30
0.0
 10
10.79561
 20
1.58752
 30
0.0
 10
10.80864
 20
1.59356
 30
0.0
 10
10.80864
 20
1.59356
 30
0.0
 10
10.82166
 20
1.59962
 30
0.0
 10
10.83154
 20
1.60808
 30
0.0
 10
10.83837
 20
1.61883
 30
0.0
 10
10.83837
 20
1.61883
 30
0.0
 10
10.84519
 20
1.62966
 30
0.0
 10
10.84865
 20
1.64111
 30
0.0
 10
10.84865
 20
1.65328
 30
0.0
 10
10.84865
 20
1.65328
 30
0.0
 10
10.84865
 20
1.67093
 30
0.0
 10
10.84159
 20
1.68599
 30
0.0
 10
10.82747
 20
1.69846
 30
0.0
 10
10.82747
 20
1.69846
 30
0.0
 10
10.81335
 20
1.71095
 30
0.0
 10
10.7942
 20
1.71721
 30
0.0
 10
10.76995
 20
1.71721
 30
0.0
 10
10.76995
 20
1.71721
 30
0.0
 10
10.74665
 20
1.71721
 30
0.0
 10
10.72829
 20
1.71102
 30
0.0
 10
10.71488
 20
1.6987
 30
0.0
 10
10.71488
 20
1.6987
 30
0.0
 10
10.70146
 20
1.68638
 30
0.0
 10
10.69472
 20
1.6707
 30
0.0
 10
10.69472
 20
1.65163
 30
0.0
 10
10.69472
 20
1.65163
 30
0.0
 10
10.69472
 20
1.63295
 30
0.0
 10
10.70146
 20
1.61702
 30
0.0
 10
10.71488
 20
1.60401
 30
0.0
 10
10.71488
 20
1.60401
 30
0.0
 10
10.72829
 20
1.59097
 30
0.0
 10
10.74587
 20
1.58447
 30
0.0
 10
10.76768
 20
1.58447
 30
0.0
  0
SPLINE
  5
7D
330
1F
100
AcDbEntity
  8
layer 2
 62
     1
370
     9
100
AcDbSpline
210
0.0
220
0.0
230
1.0
 70
    11
 71
     3
 72
    28
 73
    24
 74
     0
 42
0.0000000001
 43
0.0000000001
 12
1.0
 22
0.0
 32
0.0
 13
1.0
 23
0.0
 33
0.0
 40
0.0
 40
0.0
 40
0.0
 40
0.0
 40
0.1428571428571428
 40
0.1428571428571428
 40
0.1428571428571428
 40
0.1428571428571428
 40
0.2857142857142857
 40
0.2857142857142857
 40
0.2857142857142857
 40
0.2857142857142857
 40
0.4285714285714285
 40
0.4285714285714285
 40
0.4285714285714285
 40
0.4285714285714285
 40
0.5714285714285714
 40
0.5714285714285714
 40
0.5714285714285714
 40
0.5714285714285714
 40
0.7142857142857143
 40
0.7142857142857143
 40
0.7142857142857143
 40
0.7142857142857143
 40
1.0
 40
1.0
 40
1.0
 40
1.0
 10
10.65894
 20
1.81395
 30
0.0
 10
10.65894
 20
1.81395
 30
0.0
 10
10.59492
 20
1.8025
 30
0.0
 10
10.59492
 20
1.8025
 30
0.0
 10
10.59492
 20
1.8025
 30
0.0
 10
10.59492
 20
1.8025
 30
0.0
 10
10.53984
 20
1.8025
 30
0.0
 10
10.53984
 20
1.8025
 30
0.0
 10
10.53984
 20
1.8025
 30
0.0
 10
10.53984
 20
1.8025
 30
0.0
 10
10.53984
 20
1.84957
 30
0.0
 10
10.53984
 20
1.84957
 30
0.0
 10
10.53984
 20
1.84957
 30
0.0
 10
10.53984
 20
1.84957
 30
0.0
 10
10.59492
 20
1.84957
 30
0.0
 10
10.59492
 20
1.84957
 30
0.0
 10
10.59492
 20
1.84957
 30
0.0
 10
10.59492
 20
1.84957
 30
0.0
 10
10.65894
 20
1.83922
 30
0.0
 10
10.65894
 20
1.83922
 30
0.0
 10
10.65894
 20
1.83922
 30
0.0
 10
10.65894
 20
1.83922
 30
0.0
 10
10.65894
 20
1.81395
 30
0.0
 10
10.65894
 20
1.81395
 30
0.0
  0
SPLINE
  5
7E
330
1F
100
AcDbEntity
  8
layer 2
 62
     1
370
     9
100
AcDbSpline
210
0.0
220
0.0
230
1.0
 70
    11
 71
     3
 72
    28
 73
    24
 74
     0
 42
0.0000000001
 43
0.0000000001
 12
1.0
 22
0.0
 32
0.0
 13
1.0
 23
0.0
 33
0.0
 40
0.0
 40
0.0
 40
0.0
 40
0.0
 40
0.1428571428571428
 40
0.1428571428571428
 40
0.1428571428571428
 40
0.1428571428571428
 40
0.2857142857142857
 40
0.2857142857142857
 40
0.2857142857142857
 40
0.2857142857142857
 40
0.4285714285714285
 40
0.4285714285714285
 40
0.4285714285714285
 40
0.4285714285714285
 40
0.5714285714285714
 40
0.5714285714285714
 40
0.5714285714285714
 40
0.5714285714285714
 40
0.7142857142857143
 40
0.7142857142857143
 40
0.7142857142857143
 40
0.7142857142857143
 40
1.0
 40
1.0
 40
1.0
 40
1.0
 10
10.65894
 20
1.88998
 30
0.0
 10
10.65894
 20
1.88998
 30
0.0
 10
10.59492
 20
1.87875
 30
0.0
 10
10.59492
 20
1.87875
 30
0.0
 10
10.59492
 20
1.87875
 30
0.0
 10
10.59492
 20
1.87875
 30
0.0
 10
10.53984
 20
1.87875
 30
0.0
 10
10.53984
 20
1.87875
 30
0.0
 10
10.53984
 20
1.87875
 30
0.0
 10
10.53984
 20
1.87875
 30
0.0
 10
10.53984
 20
1.92583
 30
0.0
 10
10.53984
 20
1.92583
 30
0.0
 10
10.53984
 20
1.92583
 30
0.0
 10
10.53984
 20
1.92583
 30
0.0
 10
10.59492
 20
1.92583
 30
0.0
 10
10.59492
 20
1.92583
 30
0.0
 10
10.59492
 20
1.92583
 30
0.0
 10
10.59492
 20
1.92583
 30
0.0
 10
10.65894
 20
1.91478
 30
0.0
 10
10.65894
 20
1.91478
 30
0.0
 10
10.65894
 20
1.91478
 30
0.0
 10
10.65894
 20
1.91478
 30
0.0
 10
10.65894
 20
1.88998
 30
0.0
 10
10.65894
 20
1.88998
 30
0.0
  0
SPLINE
  5
7F
330
1F
100
AcDbEntity
  8
layer 2
 62
     1
370
     9
100
AcDbSpline
210
0.0
220
0.0
230
1.0
 70
    24
 71
     3
 72
     8
 73
     4
 74
     0
 42
0.0000000001
 43
0.0000000001
 12
1.0
 22
0.0
 32
0.0
 13
1.0
 23
0.0
 33
0.0
 40
0.0
 40
0.0
 40
0.0
 40
0.0
 40
1.0
 40
1.0
 40
1.0
 40
1.0
 10
-11.31678
 20
-5.71211
 30
0.0
 10
-11.31678
 20
-5.71211
 30
0.0
 10
-9.89633
 20
-4.65052
 30
0.0
 10
-9.89633
 20
-4.65052
 30
0.0
  0
SPLINE
  5
80
330
1F
100
AcDbEntity
  8
layer 2
 62
     1
370
     9
100
AcDbSpline
210
0.0
220
0.0
230
1.0
 70
    11
 71
     3
 72
    80
 73
    76
 74
     0
 42
0.0000000001
 43
0.0000000001
 12
1.0
 22
0.0
 32
0.0
 13
1.0
 23
0.0
 33
0.0
 40
0.0
 40
0.0
 40
0.0
 40
0.0
 40
0.05
 40
0.05
 40
0.05
 40
0.05
 40
0.1
 40
0.1
 40
0.1
 40
0.1
 40
0.15
 40
0.15
 40
0.15
 40
0.15
 40
0.2
 40
0.2
 40
0.2
 40
0.2
 40
0.25
 40
0.25
 40
0.25
 40
0.25
 40
0.3
 40
0.3
 40
0.3
 40
0.3
 40
0.35
 40
0.35
 40
0.35
 40
0.35
 40
0.4
 40
0.4
 40
0.4
 40
0.4
 40
0.45
 40
0.45
 40
0.45
 40
0.45
 40
0.5
 40
0.5
 40
0.5
 40
0.5
 40
0.55
 40
0.55
 40
0.55
 40
0.55
 40
0.6
 40
0.6
 40
0.6
 40
0.6
 40
0.65
 40
0.65
 40
0.65
 40
0.65
 40
0.7
 40
0.7
 40
0.7
 40
0.7
 40
0.75
 40
0.75
 40
0.75
 40
0.75
 40
0.8
 40
0.8
 40
0.8
 40
0.8
 40
0.85
 40
0.85
 40
0.85
 40
0.85
 40
0.9
 40
0.9
 40
0.9
 40
0.9
 40
1.0
 40
1.0
 40
1.0
 40
1.0
 10
-11.14971
 20
-4.62099
 30
0.0
 10
-11.14971
 20
-4.62099
 30
0.0
 10
-11.35147
 20
-4.351
 30
0.0
 10
-11.35147
 20
-4.351
 30
0.0
 10
-11.35147
 20
-4.351
 30
0.0
 10
-11.35147
 20
-4.351
 30
0.0
 10
-11.23182
 20
-4.26158
 30
0.0
 10
-11.23182
 20
-4.26158
 30
0.0
 10
-11.23182
 20
-4.26158
 30
0.0
 10
-11.20775
 20
-4.24359
 30
0.0
 10
-11.18762
 20
-4.23237
 30
0.0
 10
-11.17151
 20
-4.22786
 30
0.0
 10
-11.17151
 20
-4.22786
 30
0.0
 10
-11.15538
 20
-4.22336
 30
0.0
 10
-11.139
 20
-4.22444
 30
0.0
 10
-11.12236
 20
-4.2311
 30
0.0
 10
-11.12236
 20
-4.2311
 30
0.0
 10
-11.10573
 20
-4.23776
 30
0.0
 10
-11.09187
 20
-4.24857
 30
0.0
 10
-11.0808
 20
-4.26341
 30
0.0
 10
-11.0808
 20
-4.26341
 30
0.0
 10
-11.06647
 20
-4.28257
 30
0.0
 10
-11.06062
 20
-4.30336
 30
0.0
 10
-11.06318
 20
-4.32576
 30
0.0
 10
-11.06318
 20
-4.32576
 30
0.0
 10
-11.06575
 20
-4.34814
 30
0.0
 10
-11.07865
 20
-4.37071
 30
0.0
 10
-11.10187
 20
-4.39365
 30
0.0
 10
-11.10187
 20
-4.39365
 30
0.0
 10
-11.08899
 20
-4.39108
 30
0.0
 10
-11.07845
 20
-4.39025
 30
0.0
 10
-11.07025
 20
-4.39099
 30
0.0
 10
-11.07025
 20
-4.39099
 30
0.0
 10
-11.05269
 20
-4.39274
 30
0.0
 10
-11.03385
 20
-4.39737
 30
0.0
 10
-11.01385
 20
-4.40486
 30
0.0
 10
-11.01385
 20
-4.40486
 30
0.0
 10
-11.01385
 20
-4.40486
 30
0.0
 10
-10.91221
 20
-4.4435
 30
0.0
 10
-10.91221
 20
-4.4435
 30
0.0
 10
-10.91221
 20
-4.4435
 30
0.0
 10
-10.91221
 20
-4.4435
 30
0.0
 10
-10.95683
 20
-4.47684
 30
0.0
 10
-10.95683
 20
-4.47684
 30
0.0
 10
-10.95683
 20
-4.47684
 30
0.0
 10
-10.95683
 20
-4.47684
 30
0.0
 10
-11.03452
 20
-4.44734
 30
0.0
 10
-11.03452
 20
-4.44734
 30
0.0
 10
-11.03452
 20
-4.44734
 30
0.0
 10
-11.05705
 20
-4.4388
 30
0.0
 10
-11.07491
 20
-4.43286
 30
0.0
 10
-11.08807
 20
-4.42927
 30
0.0
 10
-11.08807
 20
-4.42927
 30
0.0
 10
-11.10129
 20
-4.42574
 30
0.0
 10
-11.11178
 20
-4.42427
 30
0.0
 10
-11.11971
 20
-4.42482
 30
0.0
 10
-11.11971
 20
-4.42482
 30
0.0
 10
-11.12753
 20
-4.42536
 30
0.0
 10
-11.13477
 20
-4.42706
 30
0.0
 10
-11.14135
 20
-4.42982
 30
0.0
 10
-11.14135
 20
-4.42982
 30
0.0
 10
-11.14598
 20
-4.432
 30
0.0
 10
-11.1529
 20
-4.43649
 30
0.0
 10
-11.16214
 20
-4.44339
 30
0.0
 10
-11.16214
 20
-4.44339
 30
0.0
 10
-11.16214
 20
-4.44339
 30
0.0
 10
-11.20349
 20
-4.4743
 30
0.0
 10
-11.20349
 20
-4.4743
 30
0.0
 10
-11.20349
 20
-4.4743
 30
0.0
 10
-11.20349
 20
-4.4743
 30
0.0
 10
-11.11387
 20
-4.59421
 30
0.0
 10
-11.11387
 20
-4.59421
 30
0.0
 10
-11.11387
 20
-4.59421
 30
0.0
 10
-11.11387
 20
-4.59421
 30
0.0
 10
-11.14971
 20
-4.62099
 30
0.0
 10
-11.14971
 20
-4.62099
 30
0.0
  0
SPLINE
  5
81
330
1F
100
AcDbEntity
  8
layer 2
 62
     1
370
     9
100
AcDbSpline
210
0.0
220
0.0
230
1.0
 70
    11
 71
     3
 72
    36
 73
    32
 74
     0
 42
0.0000000001
 43
0.0000000001
 12
1.0
 22
0.0
 32
0.0
 13
1.0
 23
0.0
 33
0.0
 40
0.0
 40
0.0
 40
0.0
 40
0.0
 40
0.1111111111111111
 40
0.1111111111111111
 40
0.1111111111111111
 40
0.1111111111111111
 40
0.2222222222222222
 40
0.2222222222222222
 40
0.2222222222222222
 40
0.2222222222222222
 40
0.3333333333333333
 40
0.3333333333333333
 40
0.3333333333333333
 40
0.3333333333333333
 40
0.4444444444444444
 40
0.4444444444444444
 40
0.4444444444444444
 40
0.4444444444444444
 40
0.5555555555555556
 40
0.5555555555555556
 40
0.5555555555555556
 40
0.5555555555555556
 40
0.6666666666666666
 40
0.6666666666666666
 40
0.6666666666666666
 40
0.6666666666666666
 40
0.7777777777777778
 40
0.7777777777777778
 40
0.7777777777777778
 40
0.7777777777777778
 40
1.0
 40
1.0
 40
1.0
 40
1.0
 10
-11.2266
 20
-4.44338
 30
0.0
 10
-11.2266
 20
-4.44338
 30
0.0
 10
-11.14994
 20
-4.38608
 30
0.0
 10
-11.14994
 20
-4.38608
 30
0.0
 10
-11.14994
 20
-4.38608
 30
0.0
 10
-11.13359
 20
-4.37387
 30
0.0
 10
-11.12216
 20
-4.36269
 30
0.0
 10
-11.11552
 20
-4.35244
 30
0.0
 10
-11.11552
 20
-4.35244
 30
0.0
 10
-11.10884
 20
-4.34225
 30
0.0
 10
-11.10591
 20
-4.33163
 30
0.0
 10
-11.10678
 20
-4.32063
 30
0.0
 10
-11.10678
 20
-4.32063
 30
0.0
 10
-11.10754
 20
-4.30964
 30
0.0
 10
-11.11117
 20
-4.29982
 30
0.0
 10
-11.11769
 20
-4.29108
 30
0.0
 10
-11.11769
 20
-4.29108
 30
0.0
 10
-11.12724
 20
-4.27831
 30
0.0
 10
-11.13971
 20
-4.2712
 30
0.0
 10
-11.1551
 20
-4.26986
 30
0.0
 10
-11.1551
 20
-4.26986
 30
0.0
 10
-11.17049
 20
-4.26853
 30
0.0
 10
-11.18813
 20
-4.27535
 30
0.0
 10
-11.20805
 20
-4.29024
 30
0.0
 10
-11.20805
 20
-4.29024
 30
0.0
 10
-11.20805
 20
-4.29024
 30
0.0
 10
-11.29339
 20
-4.35402
 30
0.0
 10
-11.29339
 20
-4.35402
 30
0.0
 10
-11.29339
 20
-4.35402
 30
0.0
 10
-11.29339
 20
-4.35402
 30
0.0
 10
-11.2266
 20
-4.44338
 30
0.0
 10
-11.2266
 20
-4.44338
 30
0.0
  0
SPLINE
  5
82
330
1F
100
AcDbEntity
  8
layer 2
 62
     1
370
     9
100
AcDbSpline
210
0.0
220
0.0
230
1.0
 70
    11
 71
     3
 72
    40
 73
    36
 74
     0
 42
0.0000000001
 43
0.0000000001
 12
1.0
 22
0.0
 32
0.0
 13
1.0
 23
0.0
 33
0.0
 40
0.0
 40
0.0
 40
0.0
 40
0.0
 40
0.1
 40
0.1
 40
0.1
 40
0.1
 40
0.2
 40
0.2
 40
0.2
 40
0.2
 40
0.3
 40
0.3
 40
0.3
 40
0.3
 40
0.4
 40
0.4
 40
0.4
 40
0.4
 40
0.5
 40
0.5
 40
0.5
 40
0.5
 40
0.6
 40
0.6
 40
0.6
 40
0.6
 40
0.7
 40
0.7
 40
0.7
 40
0.7
 40
0.8
 40
0.8
 40
0.8
 40
0.8
 40
1.0
 40
1.0
 40
1.0
 40
1.0
 10
-10.76692
 20
-4.33491
 30
0.0
 10
-10.76692
 20
-4.33491
 30
0.0
 10
-10.8001
 20
-4.3597
 30
0.0
 10
-10.8001
 20
-4.3597
 30
0.0
 10
-10.8001
 20
-4.3597
 30
0.0
 10
-10.8001
 20
-4.3597
 30
0.0
 10
-10.95799
 20
-4.14842
 30
0.0
 10
-10.95799
 20
-4.14842
 30
0.0
 10
-10.95799
 20
-4.14842
 30
0.0
 10
-10.96025
 20
-4.16205
 30
0.0
 10
-10.96506
 20
-4.1775
 30
0.0
 10
-10.97232
 20
-4.19477
 30
0.0
 10
-10.97232
 20
-4.19477
 30
0.0
 10
-10.97959
 20
-4.21205
 30
0.0
 10
-10.987
 20
-4.22651
 30
0.0
 10
-10.99449
 20
-4.23799
 30
0.0
 10
-10.99449
 20
-4.23799
 30
0.0
 10
-10.99449
 20
-4.23799
 30
0.0
 10
-11.01844
 20
-4.20594
 30
0.0
 10
-11.01844
 20
-4.20594
 30
0.0
 10
-11.01844
 20
-4.20594
 30
0.0
 10
-11.00639
 20
-4.1834
 30
0.0
 10
-10.99806
 20
-4.16073
 30
0.0
 10
-10.99347
 20
-4.1379
 30
0.0
 10
-10.99347
 20
-4.1379
 30
0.0
 10
-10.98884
 20
-4.11515
 30
0.0
 10
-10.98794
 20
-4.09576
 30
0.0
 10
-10.9909
 20
-4.07976
 30
0.0
 10
-10.9909
 20
-4.07976
 30
0.0
 10
-10.9909
 20
-4.07976
 30
0.0
 10
-10.96953
 20
-4.06379
 30
0.0
 10
-10.96953
 20
-4.06379
 30
0.0
 10
-10.96953
 20
-4.06379
 30
0.0
 10
-10.96953
 20
-4.06379
 30
0.0
 10
-10.76692
 20
-4.33491
 30
0.0
 10
-10.76692
 20
-4.33491
 30
0.0
  0
SPLINE
  5
83
330
1F
100
AcDbEntity
  8
layer 2
 62
     1
370
     9
100
AcDbSpline
210
0.0
220
0.0
230
1.0
 70
    11
 71
     3
 72
    92
 73
    88
 74
     0
 42
0.0000000001
 43
0.0000000001
 12
1.0
 22
0.0
 32
0.0
 13
1.0
 23
0.0
 33
0.0
 40
0.0
 40
0.0
 40
0.0
 40
0.0
 40
0.0434782608695652
 40
0.0434782608695652
 40
0.0434782608695652
 40
0.0434782608695652
 40
0.0869565217391304
 40
0.0869565217391304
 40
0.0869565217391304
 40
0.0869565217391304
 40
0.1304347826086956
 40
0.1304347826086956
 40
0.1304347826086956
 40
0.1304347826086956
 40
0.1739130434782609
 40
0.1739130434782609
 40
0.1739130434782609
 40
0.1739130434782609
 40
0.2173913043478261
 40
0.2173913043478261
 40
0.2173913043478261
 40
0.2173913043478261
 40
0.2608695652173913
 40
0.2608695652173913
 40
0.2608695652173913
 40
0.2608695652173913
 40
0.3043478260869565
 40
0.3043478260869565
 40
0.3043478260869565
 40
0.3043478260869565
 40
0.3478260869565217
 40
0.3478260869565217
 40
0.3478260869565217
 40
0.3478260869565217
 40
0.391304347826087
 40
0.391304347826087
 40
0.391304347826087
 40
0.391304347826087
 40
0.4347826086956522
 40
0.4347826086956522
 40
0.4347826086956522
 40
0.4347826086956522
 40
0.4782608695652174
 40
0.4782608695652174
 40
0.4782608695652174
 40
0.4782608695652174
 40
0.5217391304347826
 40
0.5217391304347826
 40
0.5217391304347826
 40
0.5217391304347826
 40
0.5652173913043478
 40
0.5652173913043478
 40
0.5652173913043478
 40
0.5652173913043478
 40
0.6086956521739131
 40
0.6086956521739131
 40
0.6086956521739131
 40
0.6086956521739131
 40
0.6521739130434783
 40
0.6521739130434783
 40
0.6521739130434783
 40
0.6521739130434783
 40
0.6956521739130435
 40
0.6956521739130435
 40
0.6956521739130435
 40
0.6956521739130435
 40
0.7391304347826086
 40
0.7391304347826086
 40
0.7391304347826086
 40
0.7391304347826086
 40
0.782608695652174
 40
0.782608695652174
 40
0.782608695652174
 40
0.782608695652174
 40
0.8260869565217391
 40
0.8260869565217391
 40
0.8260869565217391
 40
0.8260869565217391
 40
0.8695652173913043
 40
0.8695652173913043
 40
0.8695652173913043
 40
0.8695652173913043
 40
0.9130434782608695
 40
0.9130434782608695
 40
0.9130434782608695
 40
0.9130434782608695
 40
1.0
 40
1.0
 40
1.0
 40
1.0
 10
-10.73461
 20
-4.20028
 30
0.0
 10
-10.73461
 20
-4.20028
 30
0.0
 10
-10.7019
 20
-4.17172
 30
0.0
 10
-10.7019
 20
-4.17172
 30
0.0
 10
-10.7019
 20
-4.17172
 30
0.0
 10
-10.68668
 20
-4.18669
 30
0.0
 10
-10.67122
 20
-4.19492
 30
0.0
 10
-10.65553
 20
-4.19652
 30
0.0
 10
-10.65553
 20
-4.19652
 30
0.0
 10
-10.63989
 20
-4.19806
 30
0.0
 10
-10.62532
 20
-4.19382
 30
0.0
 10
-10.61194
 20
-4.18382
 30
0.0
 10
-10.61194
 20
-4.18382
 30
0.0
 10
-10.59578
 20
-4.17176
 30
0.0
 10
-10.58679
 20
-4.15563
 30
0.0
 10
-10.58476
 20
-4.1354
 30
0.0
 10
-10.58476
 20
-4.1354
 30
0.0
 10
-10.58284
 20
-4.11516
 30
0.0
 10
-10.5893
 20
-4.0951
 30
0.0
 10
-10.60414
 20
-4.07526
 30
0.0
 10
-10.60414
 20
-4.07526
 30
0.0
 10
-10.61828
 20
-4.05634
 30
0.0
 10
-10.63462
 20
-4.04534
 30
0.0
 10
-10.6533
 20
-4.04224
 30
0.0
 10
-10.6533
 20
-4.04224
 30
0.0
 10
-10.67197
 20
-4.03916
 30
0.0
 10
-10.68993
 20
-4.04407
 30
0.0
 10
-10.70723
 20
-4.05699
 30
0.0
 10
-10.70723
 20
-4.05699
 30
0.0
 10
-10.71797
 20
-4.06502
 30
0.0
 10
-10.72575
 20
-4.07465
 30
0.0
 10
-10.73064
 20
-4.08594
 30
0.0
 10
-10.73064
 20
-4.08594
 30
0.0
 10
-10.73546
 20
-4.09718
 30
0.0
 10
-10.73738
 20
-4.10851
 30
0.0
 10
-10.73645
 20
-4.11997
 30
0.0
 10
-10.73645
 20
-4.11997
 30
0.0
 10
-10.73645
 20
-4.11997
 30
0.0
 10
-10.77113
 20
-4.13883
 30
0.0
 10
-10.77113
 20
-4.13883
 30
0.0
 10
-10.77113
 20
-4.13883
 30
0.0
 10
-10.77113
 20
-4.13883
 30
0.0
 10
-10.84882
 20
-3.98063
 30
0.0
 10
-10.84882
 20
-3.98063
 30
0.0
 10
-10.84882
 20
-3.98063
 30
0.0
 10
-10.84882
 20
-3.98063
 30
0.0
 10
-10.71495
 20
-3.88059
 30
0.0
 10
-10.71495
 20
-3.88059
 30
0.0
 10
-10.71495
 20
-3.88059
 30
0.0
 10
-10.71495
 20
-3.88059
 30
0.0
 10
-10.69129
 20
-3.91226
 30
0.0
 10
-10.69129
 20
-3.91226
 30
0.0
 10
-10.69129
 20
-3.91226
 30
0.0
 10
-10.69129
 20
-3.91226
 30
0.0
 10
-10.79869
 20
-3.99253
 30
0.0
 10
-10.79869
 20
-3.99253
 30
0.0
 10
-10.79869
 20
-3.99253
 30
0.0
 10
-10.79869
 20
-3.99253
 30
0.0
 10
-10.75864
 20
-4.07612
 30
0.0
 10
-10.75864
 20
-4.07612
 30
0.0
 10
-10.75864
 20
-4.07612
 30
0.0
 10
-10.75099
 20
-4.05267
 30
0.0
 10
-10.73825
 20
-4.03434
 30
0.0
 10
-10.72053
 20
-4.02109
 30
0.0
 10
-10.72053
 20
-4.02109
 30
0.0
 10
-10.69703
 20
-4.00353
 30
0.0
 10
-10.67106
 20
-3.99685
 30
0.0
 10
-10.64269
 20
-4.00112
 30
0.0
 10
-10.64269
 20
-4.00112
 30
0.0
 10
-10.61433
 20
-4.00539
 30
0.0
 10
-10.59054
 20
-4.02033
 30
0.0
 10
-10.57138
 20
-4.04596
 30
0.0
 10
-10.57138
 20
-4.04596
 30
0.0
 10
-10.55311
 20
-4.07041
 30
0.0
 10
-10.54443
 20
-4.09683
 30
0.0
 10
-10.54533
 20
-4.12524
 30
0.0
 10
-10.54533
 20
-4.12524
 30
0.0
 10
-10.54627
 20
-4.16002
 30
0.0
 10
-10.56174
 20
-4.18862
 30
0.0
 10
-10.59165
 20
-4.21098
 30
0.0
 10
-10.59165
 20
-4.21098
 30
0.0
 10
-10.61616
 20
-4.22929
 30
0.0
 10
-10.64131
 20
-4.23732
 30
0.0
 10
-10.66712
 20
-4.23515
 30
0.0
 10
-10.66712
 20
-4.23515
 30
0.0
 10
-10.69293
 20
-4.23299
 30
0.0
 10
-10.71541
 20
-4.22138
 30
0.0
 10
-10.73461
 20
-4.20028
 30
0.0
  0
SPLINE
  5
84
330
1F
100
AcDbEntity
  8
layer 2
 62
     1
370
     9
100
AcDbSpline
210
0.0
220
0.0
230
1.0
 70
    24
 71
     3
 72
     8
 73
     4
 74
     0
 42
0.0000000001
 43
0.0000000001
 12
1.0
 22
0.0
 32
0.0
 13
1.0
 23
0.0
 33
0.0
 40
0.0
 40
0.0
 40
0.0
 40
0.0
 40
1.0
 40
1.0
 40
1.0
 40
1.0
 10
-9.34302
 20
-4.237
 30
0.0
 10
-9.34302
 20
-4.237
 30
0.0
 10
-9.65041
 20
-4.46674
 30
0.0
 10
-9.65041
 20
-4.46674
 30
0.0
  0
SPLINE
  5
85
330
1F
100
AcDbEntity
  8
layer 2
 62
     1
370
     9
100
AcDbSpline
210
0.0
220
0.0
230
1.0
 70
    27
 71
     3
 72
    12
 73
     8
 74
     0
 42
0.0000000001
 43
0.0000000001
 12
1.0
 22
0.0
 32
0.0
 13
1.0
 23
0.0
 33
0.0
 40
0.0
 40
0.0
 40
0.0
 40
0.0
 40
0.3333333333333333
 40
0.3333333333333333
 40
0.3333333333333333
 40
0.3333333333333333
 40
1.0
 40
1.0
 40
1.0
 40
1.0
 10
-9.92696
 20
-4.60954
 30
0.0
 10
-9.92696
 20
-4.60954
 30
0.0
 10
-9.65041
 20
-4.46674
 30
0.0
 10
-9.65041
 20
-4.46674
 30
0.0
 10
-9.65041
 20
-4.46674
 30
0.0
 10
-9.65041
 20
-4.46674
 30
0.0
 10
-9.92696
 20
-4.60954
 30
0.0
 10
-9.92696
 20
-4.60954
 30
0.0
  0
SPLINE
  5
86
330
1F
100
AcDbEntity
  8
layer 2
 62
     1
370
     9
100
AcDbSpline
210
0.0
220
0.0
230
1.0
 70
     8
 71
     3
 72
    12
 73
     8
 74
     0
 42
0.0000000001
 43
0.0000000001
 12
1.0
 22
0.0
 32
0.0
 13
1.0
 23
0.0
 33
0.0
 40
0.0
 40
0.0
 40
0.0
 40
0.0
 40
0.3333333333333333
 40
0.3333333333333333
 40
0.3333333333333333
 40
0.3333333333333333
 40
1.0
 40
1.0
 40
1.0
 40
1.0
 10
-9.65041
 20
-4.46674
 30
0.0
 10
-9.65041
 20
-4.46674
 30
0.0
 10
-9.86569
 20
-4.69151
 30
0.0
 10
-9.86569
 20
-4.69151
 30
0.0
 10
-9.86569
 20
-4.69151
 30
0.0
 10
-9.86569
 20
-4.69151
 30
0.0
 10
-9.92696
 20
-4.60954
 30
0.0
 10
-9.92696
 20
-4.60954
 30
0.0
  0
SPLINE
  5
87
330
1F
100
AcDbEntity
  8
layer 2
 62
     1
370
     9
100
AcDbSpline
210
0.0
220
0.0
230
1.0
 70
    24
 71
     3
 72
     8
 73
     4
 74
     0
 42
0.0000000001
 43
0.0000000001
 12
1.0
 22
0.0
 32
0.0
 13
1.0
 23
0.0
 33
0.0
 40
0.0
 40
0.0
 40
0.0
 40
0.0
 40
1.0
 40
1.0
 40
1.0
 40
1.0
 10
-9.92696
 20
-4.60954
 30
0.0
 10
-9.92696
 20
-4.60954
 30
0.0
 10
-9.65041
 20
-4.46674
 30
0.0
 10
-9.65041
 20
-4.46674
 30
0.0
  0
SPLINE
  5
88
330
1F
100
AcDbEntity
  8
layer 2
 62
     1
370
     9
100
AcDbSpline
210
0.0
220
0.0
230
1.0
 70
     8
 71
     3
 72
    12
 73
     8
 74
     0
 42
0.0000000001
 43
0.0000000001
 12
1.0
 22
0.0
 32
0.0
 13
1.0
 23
0.0
 33
0.0
 40
0.0
 40
0.0
 40
0.0
 40
0.0
 40
0.3333333333333333
 40
0.3333333333333333
 40
0.3333333333333333
 40
0.3333333333333333
 40
1.0
 40
1.0
 40
1.0
 40
1.0
 10
-9.65041
 20
-4.46674
 30
0.0
 10
-9.65041
 20
-4.46674
 30
0.0
 10
-9.86569
 20
-4.69151
 30
0.0
 10
-9.86569
 20
-4.69151
 30
0.0
 10
-9.86569
 20
-4.69151
 30
0.0
 10
-9.86569
 20
-4.69151
 30
0.0
 10
-9.92696
 20
-4.60954
 30
0.0
 10
-9.92696
 20
-4.60954
 30
0.0
  0
ENDSEC
  0
SECTION
  2
OBJECTS
  0
DICTIONARY
  5
C
330
0
100
AcDbDictionary
281
     1
  3
ACAD_GROUP
350
D
  3
ACAD_LAYOUT
350
1A
  3
ACAD_MATERIAL
350
3B
  3
ACAD_MLEADERSTYLE
350
AA
  3
ACAD_MLINESTYLE
350
17
  3
ACAD_PLOTSETTINGS
350
19
  3
ACAD_PLOTSTYLENAME
350
E
  3
ACAD_TABLESTYLE
350
A9
  3
ACAD_VISUALSTYLE
350
2A
  0
DICTIONARY
  5
D
102
{ACAD_REACTORS
330
C
102
}
330
C
100
AcDbDictionary
281
     1
  0
DICTIONARY
  5
1A
102
{ACAD_REACTORS
330
C
102
}
330
C
100
AcDbDictionary
281
     1
  3
Layout1
350
1E
  3
Layout2
350
26
  3
Model
350
22
  0
DICTIONARY
  5
3B
102
{ACAD_REACTORS
330
C
102
}
330
C
100
AcDbDictionary
281
     1
  3
ByBlock
350
3D
  3
ByLayer
350
3C
  3
Global
350
3E
  0
DICTIONARY
  5
AA
102
{ACAD_REACTORS
330
C
102
}
330
C
100
AcDbDictionary
281
     1
  0
DICTIONARY
  5
17
102
{ACAD_REACTORS
330
C
102
}
330
C
100
AcDbDictionary
281
     1
  3
Standard
350
18
  0
DICTIONARY
  5
19
102
{ACAD_REACTORS
330
C
102
}
330
C
100
AcDbDictionary
281
     1
  0
ACDBDICTIONARYWDFLT
  5
E
102
{ACAD_REACTORS
330
C
102
}
330
C
100
AcDbDictionary
281
     1
  3
Normal
350
F
100
AcDbDictionaryWithDefault
340
F
  0
DICTIONARY
  5
A9
102
{ACAD_REACTORS
330
C
102
}
330
C
100
AcDbDictionary
281
     1
  0
DICTIONARY
  5
2A
102
{ACAD_REACTORS
330
C
102
}
330
C
100
AcDbDictionary
281
     1
  3
2dWireframe
350
2F
  3
3D Hidden
350
31
  3
3dWireframe
350
30
  3
Basic
350
32
  3
Brighten
350
36
  3
ColorChange
350
3A
  3
Conceptual
350
34
  3
Dim
350
35
  3
Facepattern
350
39
  3
Flat
350
2B
  3
FlatWithEdges
350
2C
  3
Gouraud
350
2D
  3
GouraudWithEdges
350
2E
  3
Linepattern
350
38
  3
Realistic
350
33
  3
Thicken
350
37
  0
LAYOUT
  5
1E
102
{ACAD_REACTORS
330
1A
102
}
330
1A
100
AcDbPlotSettings
  1

  2
none_device
  4

  6

 40
0.0
 41
0.0
 42
0.0
 43
0.0
 44
0.0
 45
0.0
 46
0.0
 47
0.0
 48
0.0
 49
0.0
140
0.0
141
0.0
142
1.0
143
1.0
 70
   688
 72
     0
 73
     0
 74
     5
  7

 75
    16
 76
     0
 77
     2
 78
   300
147
1.0
148
0.0
149
0.0
100
AcDbLayout
  1
Layout1
 70
     1
 71
     1
 10
0.0
 20
0.0
 11
12.0
 21
9.0
 12
0.0
 22
0.0
 32
0.0
 14
1.000000000000000E+20
 24
1.000000000000000E+20
 34
1.000000000000000E+20
 15
-1.000000000000000E+20
 25
-1.000000000000000E+20
 35
-1.000000000000000E+20
146
0.0
 13
0.0
 23
0.0
 33
0.0
 16
1.0
 26
0.0
 36
0.0
 17
0.0
 27
1.0
 37
0.0
 76
     0
330
1B
  0
LAYOUT
  5
26
102
{ACAD_REACTORS
330
1A
102
}
330
1A
100
AcDbPlotSettings
  1

  2
none_device
  4

  6

 40
0.0
 41
0.0
 42
0.0
 43
0.0
 44
0.0
 45
0.0
 46
0.0
 47
0.0
 48
0.0
 49
0.0
140
0.0
141
0.0
142
1.0
143
1.0
 70
   688
 72
     0
 73
     0
 74
     5
  7

 75
    16
 76
     0
 77
     2
 78
   300
147
1.0
148
0.0
149
0.0
100
AcDbLayout
  1
Layout2
 70
     1
 71
     2
 10
0.0
 20
0.0
 11
0.0
 21
0.0
 12
0.0
 22
0.0
 32
0.0
 14
0.0
 24
0.0
 34
0.0
 15
0.0
 25
0.0
 35
0.0
146
0.0
 13
0.0
 23
0.0
 33
0.0
 16
1.0
 26
0.0
 36
0.0
 17
0.0
 27
1.0
 37
0.0
 76
     0
330
23
  0
LAYOUT
  5
22
102
{ACAD_REACTORS
330
1A
102
}
330
1A
100
AcDbPlotSettings
  1

  2
none_device
  4

  6

 40
0.0
 41
0.0
 42
0.0
 43
0.0
 44
0.0
 45
0.0
 46
0.0
 47
0.0
 48
0.0
 49
0.0
140
0.0
141
0.0
142
1.0
143
1.0
 70
  1712
 72
     0
 73
     0
 74
     0
  7

 75
     0
 76
     0
 77
     2
 78
   300
147
1.0
148
0.0
149
0.0
100
AcDbLayout
  1
Model
 70
     1
 71
     0
 10
0.0
 20
0.0
 11
12.0
 21
9.0
 12
0.0
 22
0.0
 32
0.0
 14
-11.35452
 24
-7.08552
 34
0.0
 15
11.35147
 25
7.08553
 35
0.0
146
0.0
 13
0.0
 23
0.0
 33
0.0
 16
1.0
 26
0.0
 36
0.0
 17
0.0
 27
1.0
 37
0.0
 76
     0
330
1F
331
29
  0
MATERIAL
  5
3D
102
{ACAD_REACTORS
330
3B
102
}
330
3B
100
AcDbMaterial
  1
ByBlock
 72
     1
 94
      127
  0
MATERIAL
  5
3C
102
{ACAD_REACTORS
330
3B
102
}
330
3B
100
AcDbMaterial
  1
ByLayer
 72
     1
 94
      127
  0
MATERIAL
  5
3E
102
{ACAD_REACTORS
330
3B
102
}
330
3B
100
AcDbMaterial
  1
Global
 72
     1
 94
      127
  0
MLINESTYLE
  5
18
102
{ACAD_REACTORS
330
17
102
}
330
17
100
AcDbMlineStyle
  2
Standard
 70
     0
  3

 62
   256
 51
90.0
 52
90.0
 71
     2
 49
0.5
 62
   256
  6
BYLAYER
 49
-0.5
 62
   256
  6
BYLAYER
  0
ACDBPLACEHOLDER
  5
F
102
{ACAD_REACTORS
330
E
102
}
330
E
  0
VISUALSTYLE
  5
2F
102
{ACAD_REACTORS
330
2A
102
}
102
{ACAD_XDICTIONARY
360
91
102
}
330
2A
100
AcDbVisualStyle
  2
2dWireframe
 70
     4
 71
     0
 72
     2
 73
     0
 90
        0
 40
-0.6
 41
-30.0
 62
     5
 63
     7
421
 16777215
 74
     1
 91
        4
 64
     7
 65
   257
 75
     1
175
     1
 42
1.0
 92
        0
 66
   257
 43
1.0
 76
     1
 77
     6
 78
     2
 67
     7
 79
     5
170
     0
171
     0
290
     0
174
     0
 93
        1
 44
0.0
173
     0
291
     0
 45
0.0
  0
VISUALSTYLE
  5
31
102
{ACAD_REACTORS
330
2A
102
}
102
{ACAD_XDICTIONARY
360
95
102
}
330
2A
100
AcDbVisualStyle
  2
3D Hidden
 70
     6
 71
     1
 72
     2
 73
     2
 90
        0
 40
-0.6
 41
-30.0
 62
     5
 63
     7
421
 16777215
 74
     2
 91
        2
 64
     7
 65
   257
 75
     2
175
     1
 42
40.0
 92
        0
 66
   257
 43
1.0
 76
     1
 77
     6
 78
     2
 67
     7
 79
     3
170
     0
171
     0
290
     0
174
     0
 93
        1
 44
0.0
173
     0
291
     0
 45
0.0
  0
VISUALSTYLE
  5
30
102
{ACAD_REACTORS
330
2A
102
}
102
{ACAD_XDICTIONARY
360
93
102
}
330
2A
100
AcDbVisualStyle
  2
3dWireframe
 70
     5
 71
     0
 72
     2
 73
     0
 90
        0
 40
-0.6
 41
-30.0
 62
     5
 63
     7
421
 16777215
 74
     1
 91
        4
 64
     7
 65
   257
 75
     1
175
     1
 42
1.0
 92
        0
 66
   257
 43
1.0
 76
     1
 77
     6
 78
     2
 67
     7
 79
     5
170
     0
171
     0
290
     0
174
     0
 93
        1
 44
0.0
173
     0
291
     0
 45
0.0
  0
VISUALSTYLE
  5
32
102
{ACAD_REACTORS
330
2A
102
}
102
{ACAD_XDICTIONARY
360
97
102
}
330
2A
100
AcDbVisualStyle
  2
Basic
 70
     7
 71
     1
 72
     0
 73
     1
 90
        0
 40
-0.6
 41
-30.0
 62
     5
 63
     7
421
 16777215
 74
     0
 91
        4
 64
     7
 65
   257
 75
     1
175
     1
 42
1.0
 92
        8
 66
     7
 43
1.0
 76
     1
 77
     6
 78
     2
 67
     7
 79
     5
170
     0
171
     0
290
     0
174
     0
 93
        1
 44
0.0
173
     0
291
     1
 45
0.0
  0
VISUALSTYLE
  5
36
102
{ACAD_REACTORS
330
2A
102
}
102
{ACAD_XDICTIONARY
360
9F
102
}
330
2A
100
AcDbVisualStyle
  2
Brighten
 70
    12
 71
     2
 72
     2
 73
     0
 90
        0
 40
-0.6
 41
-30.0
 62
     5
 63
     7
421
 16777215
 74
     1
 91
        4
 64
     7
 65
   257
 75
     1
175
     1
 42
1.0
 92
        8
 66
     7
 43
1.0
 76
     1
 77
     6
 78
     2
 67
     7
 79
     5
170
     0
171
     0
290
     0
174
     0
 93
        1
 44
50.0
173
     0
291
     1
 45
0.0
  0
VISUALSTYLE
  5
3A
102
{ACAD_REACTORS
330
2A
102
}
102
{ACAD_XDICTIONARY
360
A7
102
}
330
2A
100
AcDbVisualStyle
  2
ColorChange
 70
    16
 71
     2
 72
     2
 73
     3
 90
        0
 40
-0.6
 41
-30.0
 62
     5
 63
     8
421
  8421504
 74
     1
 91
        4
 64
     7
 65
   257
 75
     1
175
     1
 42
1.0
 92
        8
 66
     8
424
  8421504
 43
1.0
 76
     1
 77
     6
 78
     2
 67
     7
 79
     5
170
     0
171
     0
290
     0
174
     0
 93
        1
 44
0.0
173
     0
291
     1
 45
0.0
  0
VISUALSTYLE
  5
34
102
{ACAD_REACTORS
330
2A
102
}
102
{ACAD_XDICTIONARY
360
9B
102
}
330
2A
100
AcDbVisualStyle
  2
Conceptual
 70
     9
 71
     3
 72
     2
 73
     0
 90
        0
 40
-0.6
 41
-30.0
 62
     5
 63
     7
421
 16777215
 74
     2
 91
        2
 64
     7
 65
   257
 75
     1
175
     1
 42
40.0
 92
        8
 66
     7
 43
1.0
 76
     1
 77
     6
 78
     2
 67
     7
 79
     3
170
     0
171
     0
290
     0
174
     0
 93
        1
 44
0.0
173
     0
291
     0
 45
0.0
  0
VISUALSTYLE
  5
35
102
{ACAD_REACTORS
330
2A
102
}
102
{ACAD_XDICTIONARY
360
9D
102
}
330
2A
100
AcDbVisualStyle
  2
Dim
 70
    11
 71
     2
 72
     2
 73
     0
 90
        0
 40
-0.6
 41
-30.0
 62
     5
 63
     7
421
 16777215
 74
     1
 91
        4
 64
     7
 65
   257
 75
     1
175
     1
 42
1.0
 92
        8
 66
     7
 43
1.0
 76
     1
 77
     6
 78
     2
 67
     7
 79
     5
170
     0
171
     0
290
     0
174
     0
 93
        1
 44
-50.0
173
     0
291
     1
 45
0.0
  0
VISUALSTYLE
  5
39
102
{ACAD_REACTORS
330
2A
102
}
102
{ACAD_XDICTIONARY
360
A5
102
}
330
2A
100
AcDbVisualStyle
  2
Facepattern
 70
    15
 71
     2
 72
     2
 73
     0
 90
        0
 40
-0.6
 41
-30.0
 62
     5
 63
     7
421
 16777215
 74
     1
 91
        4
 64
     7
 65
   257
 75
     1
175
     1
 42
1.0
 92
        8
 66
     7
 43
1.0
 76
     1
 77
     6
 78
     2
 67
     7
 79
     5
170
     0
171
     0
290
     0
174
     0
 93
        1
 44
0.0
173
     0
291
     1
 45
0.0
  0
VISUALSTYLE
  5
2B
102
{ACAD_REACTORS
330
2A
102
}
102
{ACAD_XDICTIONARY
360
89
102
}
330
2A
100
AcDbVisualStyle
  2
Flat
 70
     0
 71
     2
 72
     1
 73
     1
 90
        2
 40
-0.6
 41
30.0
 62
     5
 63
     7
421
 16777215
 74
     0
 91
        4
 64
     7
 65
   257
 75
     1
175
     1
 42
1.0
 92
        8
 66
     7
 43
1.0
 76
     1
 77
     6
 78
     2
 67
     7
 79
     5
170
     0
171
     0
290
     0
174
     0
 93
       13
 44
0.0
173
     0
291
     1
 45
0.0
  0
VISUALSTYLE
  5
2C
102
{ACAD_REACTORS
330
2A
102
}
102
{ACAD_XDICTIONARY
360
8B
102
}
330
2A
100
AcDbVisualStyle
  2
FlatWithEdges
 70
     1
 71
     2
 72
     1
 73
     1
 90
        2
 40
-0.6
 41
30.0
 62
     5
 63
     7
421
 16777215
 74
     1
 91
        4
 64
     7
 65
   257
 75
     1
175
     1
 42
1.0
 92
        0
 66
   257
 43
1.0
 76
     1
 77
     6
 78
     2
 67
     7
 79
     5
170
     0
171
     0
290
     0
174
     0
 93
       13
 44
0.0
173
     0
291
     1
 45
0.0
  0
VISUALSTYLE
  5
2D
102
{ACAD_REACTORS
330
2A
102
}
102
{ACAD_XDICTIONARY
360
8D
102
}
330
2A
100
AcDbVisualStyle
  2
Gouraud
 70
     2
 71
     2
 72
     2
 73
     1
 90
        2
 40
-0.6
 41
30.0
 62
     5
 63
     7
421
 16777215
 74
     0
 91
        4
 64
     7
 65
   257
 75
     1
175
     1
 42
1.0
 92
        0
 66
     7
 43
1.0
 76
     1
 77
     6
 78
     2
 67
     7
 79
     5
170
     0
171
     0
290
     0
174
     0
 93
       13
 44
0.0
173
     0
291
     1
 45
0.0
  0
VISUALSTYLE
  5
2E
102
{ACAD_REACTORS
330
2A
102
}
102
{ACAD_XDICTIONARY
360
8F
102
}
330
2A
100
AcDbVisualStyle
  2
GouraudWithEdges
 70
     3
 71
     2
 72
     2
 73
     1
 90
        2
 40
-0.6
 41
30.0
 62
     5
 63
     7
421
 16777215
 74
     1
 91
        4
 64
     7
 65
   257
 75
     1
175
     1
 42
1.0
 92
        0
 66
   257
 43
1.0
 76
     1
 77
     6
 78
     2
 67
     7
 79
     5
170
     0
171
     0
290
     0
174
     0
 93
       13
 44
0.0
173
     0
291
     1
 45
0.0
  0
VISUALSTYLE
  5
38
102
{ACAD_REACTORS
330
2A
102
}
102
{ACAD_XDICTIONARY
360
A3
102
}
330
2A
100
AcDbVisualStyle
  2
Linepattern
 70
    14
 71
     2
 72
     2
 73
     0
 90
        0
 40
-0.6
 41
-30.0
 62
     5
 63
     7
421
 16777215
 74
     1
 91
        4
 64
     7
 65
   257
 75
     7
175
     7
 42
1.0
 92
        8
 66
     7
 43
1.0
 76
     1
 77
     6
 78
     2
 67
     7
 79
     5
170
     0
171
     0
290
     0
174
     0
 93
        1
 44
0.0
173
     0
291
     1
 45
0.0
  0
VISUALSTYLE
  5
33
102
{ACAD_REACTORS
330
2A
102
}
102
{ACAD_XDICTIONARY
360
99
102
}
330
2A
100
AcDbVisualStyle
  2
Realistic
 70
     8
 71
     2
 72
     2
 73
     0
 90
        0
 40
-0.6
 41
-30.0
 62
     5
 63
     7
421
 16777215
 74
     1
 91
        0
 64
     7
 65
   257
 75
     1
175
     1
 42
1.0
 92
        8
 66
     8
424
  7895160
 43
1.0
 76
     1
 77
     6
 78
     2
 67
     7
 79
     5
170
     0
171
     0
290
     0
174
     0
 93
       13
 44
0.0
173
     0
291
     0
 45
0.0
  0
VISUALSTYLE
  5
37
102
{ACAD_REACTORS
330
2A
102
}
102
{ACAD_XDICTIONARY
360
A1
102
}
330
2A
100
AcDbVisualStyle
  2
Thicken
 70
    13
 71
     2
 72
     2
 73
     0
 90
        0
 40
-0.6
 41
-30.0
 62
     5
 63
     7
421
 16777215
 74
     1
 91
        4
 64
     7
 65
   257
 75
     1
175
     1
 42
1.0
 92
       12
 66
     7
 43
1.0
 76
     1
 77
     6
 78
     2
 67
     7
 79
     5
170
     0
171
     0
290
     0
174
     0
 93
        1
 44
0.0
173
     0
291
     1
 45
0.0
  0
DICTIONARY
  5
91
330
2F
100
AcDbDictionary
280
     1
281
     1
  3
ACAD_XREC_ROUNDTRIP
360
92
  0
DICTIONARY
  5
95
330
31
100
AcDbDictionary
280
     1
281
     1
  3
ACAD_XREC_ROUNDTRIP
360
96
  0
DICTIONARY
  5
93
330
30
100
AcDbDictionary
280
     1
281
     1
  3
ACAD_XREC_ROUNDTRIP
360
94
  0
DICTIONARY
  5
97
330
32
100
AcDbDictionary
280
     1
281
     1
  3
ACAD_XREC_ROUNDTRIP
360
98
  0
DICTIONARY
  5
9F
330
36
100
AcDbDictionary
280
     1
281
     1
  3
ACAD_XREC_ROUNDTRIP
360
A0
  0
DICTIONARY
  5
A7
330
3A
100
AcDbDictionary
280
     1
281
     1
  3
ACAD_XREC_ROUNDTRIP
360
A8
  0
DICTIONARY
  5
9B
330
34
100
AcDbDictionary
280
     1
281
     1
  3
ACAD_XREC_ROUNDTRIP
360
9C
  0
DICTIONARY
  5
9D
330
35
100
AcDbDictionary
280
     1
281
     1
  3
ACAD_XREC_ROUNDTRIP
360
9E
  0
DICTIONARY
  5
A5
330
39
100
AcDbDictionary
280
     1
281
     1
  3
ACAD_XREC_ROUNDTRIP
360
A6
  0
DICTIONARY
  5
89
330
2B
100
AcDbDictionary
280
     1
281
     1
  3
ACAD_XREC_ROUNDTRIP
360
8A
  0
DICTIONARY
  5
8B
330
2C
100
AcDbDictionary
280
     1
281
     1
  3
ACAD_XREC_ROUNDTRIP
360
8C
  0
DICTIONARY
  5
8D
330
2D
100
AcDbDictionary
280
     1
281
     1
  3
ACAD_XREC_ROUNDTRIP
360
8E
  0
DICTIONARY
  5
8F
330
2E
100
AcDbDictionary
280
     1
281
     1
  3
ACAD_XREC_ROUNDTRIP
360
90
  0
DICTIONARY
  5
A3
330
38
100
AcDbDictionary
280
     1
281
     1
  3
ACAD_XREC_ROUNDTRIP
360
A4
  0
DICTIONARY
  5
99
330
33
100
AcDbDictionary
280
     1
281
     1
  3
ACAD_XREC_ROUNDTRIP
360
9A
  0
DICTIONARY
  5
A1
330
37
100
AcDbDictionary
280
     1
281
     1
  3
ACAD_XREC_ROUNDTRIP
360
A2
  0
XRECORD
  5
92
102
{ACAD_REACTORS
330
91
102
}
330
91
100
AcDbXrecord
280
     1
102
RTVSPropertyOp0
 70
     1
102
RTVSPropertyOp1
 70
     1
102
RTVSPropertyOp2
 70
     1
102
RTVSPropertyOp3
 70
     1
102
RTVSPropertyOp4
 70
     1
102
RTVSPropertyOp5
 70
     1
102
RTVSPropertyOp6
 70
     1
102
RTVSPropertyOp7
 70
     1
102
RTVSPropertyOp8
 70
     1
102
RTVSPropertyOp9
 70
     1
102
RTVSPropertyOp10
 70
     1
102
RTVSPropertyOp11
 70
     1
102
RTVSPropertyOp12
 70
     1
102
RTVSPropertyOp13
 70
     1
102
RTVSPropertyOp14
 70
     1
102
RTVSPropertyOp15
 70
     1
102
RTVSPropertyOp16
 70
     1
102
RTVSPropertyOp17
 70
     1
102
RTVSPropertyOp18
 70
     1
102
RTVSPropertyOp19
 70
     1
102
RTVSPropertyOp20
 70
     1
102
RTVSPropertyOp21
 70
     1
102
RTVSPropertyOp22
 70
     1
102
RTVSPropertyOp23
 70
     1
102
RTVSPropertyOp24
 70
     1
102
RTVSPropertyOp25
 70
     1
102
RTVSPropertyOp26
 70
     1
102
RTVSPropertyOp27
 70
     1
102
RTVSPropertyOp28
 70
     1
102
RTVSPropertyOp29
 70
     1
102
RTVSPropertyOp30
 70
     1
102
RTVSPropertyOp31
 70
     1
102
RTVSPropertyOp32
 70
     1
  0
XRECORD
  5
96
102
{ACAD_REACTORS
330
95
102
}
330
95
100
AcDbXrecord
280
     1
102
RTVSPropertyOp0
 70
     1
102
RTVSPropertyOp1
 70
     1
102
RTVSPropertyOp2
 70
     1
102
RTVSPropertyOp3
 70
     1
102
RTVSPropertyOp4
 70
     1
102
RTVSPropertyOp5
 70
     1
102
RTVSPropertyOp6
 70
     1
102
RTVSPropertyOp7
 70
     1
102
RTVSPropertyOp8
 70
     1
102
RTVSPropertyOp9
 70
     1
102
RTVSPropertyOp10
 70
     1
102
RTVSPropertyOp11
 70
     1
102
RTVSPropertyOp12
 70
     1
102
RTVSPropertyOp13
 70
     1
102
RTVSPropertyOp14
 70
     1
102
RTVSPropertyOp15
 70
     1
102
RTVSPropertyOp16
 70
     1
102
RTVSPropertyOp17
 70
     1
102
RTVSPropertyOp18
 70
     1
102
RTVSPropertyOp19
 70
     1
102
RTVSPropertyOp20
 70
     1
102
RTVSPropertyOp21
 70
     1
102
RTVSPropertyOp22
 70
     1
102
RTVSPropertyOp23
 70
     1
102
RTVSPropertyOp24
 70
     1
102
RTVSPropertyOp25
 70
     1
102
RTVSPropertyOp26
 70
     1
102
RTVSPropertyOp27
 70
     1
102
RTVSPropertyOp28
 70
     1
102
RTVSPropertyOp29
 70
     1
102
RTVSPropertyOp30
 70
     1
102
RTVSPropertyOp31
 70
     1
102
RTVSPropertyOp32
 70
     1
  0
XRECORD
  5
94
102
{ACAD_REACTORS
330
93
102
}
330
93
100
AcDbXrecord
280
     1
102
RTVSPropertyOp0
 70
     1
102
RTVSPropertyOp1
 70
     1
102
RTVSPropertyOp2
 70
     1
102
RTVSPropertyOp3
 70
     1
102
RTVSPropertyOp4
 70
     1
102
RTVSPropertyOp5
 70
     1
102
RTVSPropertyOp6
 70
     1
102
RTVSPropertyOp7
 70
     1
102
RTVSPropertyOp8
 70
     1
102
RTVSPropertyOp9
 70
     1
102
RTVSPropertyOp10
 70
     1
102
RTVSPropertyOp11
 70
     1
102
RTVSPropertyOp12
 70
     1
102
RTVSPropertyOp13
 70
     1
102
RTVSPropertyOp14
 70
     1
102
RTVSPropertyOp15
 70
     1
102
RTVSPropertyOp16
 70
     1
102
RTVSPropertyOp17
 70
     1
102
RTVSPropertyOp18
 70
     1
102
RTVSPropertyOp19
 70
     1
102
RTVSPropertyOp20
 70
     1
102
RTVSPropertyOp21
 70
     1
102
RTVSPropertyOp22
 70
     1
102
RTVSPropertyOp23
 70
     1
102
RTVSPropertyOp24
 70
     1
102
RTVSPropertyOp25
 70
     1
102
RTVSPropertyOp26
 70
     1
102
RTVSPropertyOp27
 70
     1
102
RTVSPropertyOp28
 70
     1
102
RTVSPropertyOp29
 70
     1
102
RTVSPropertyOp30
 70
     1
102
RTVSPropertyOp31
 70
     1
102
RTVSPropertyOp32
 70
     1
  0
XRECORD
  5
98
102
{ACAD_REACTORS
330
97
102
}
330
97
100
AcDbXrecord
280
     1
102
RTVSPropertyOp0
 70
     1
102
RTVSPropertyOp1
 70
     1
102
RTVSPropertyOp2
 70
     1
102
RTVSPropertyOp3
 70
     1
102
RTVSPropertyOp4
 70
     1
102
RTVSPropertyOp5
 70
     1
102
RTVSPropertyOp6
 70
     1
102
RTVSPropertyOp7
 70
     1
102
RTVSPropertyOp8
 70
     1
102
RTVSPropertyOp9
 70
     1
102
RTVSPropertyOp10
 70
     1
102
RTVSPropertyOp11
 70
     1
102
RTVSPropertyOp12
 70
     1
102
RTVSPropertyOp13
 70
     1
102
RTVSPropertyOp14
 70
     1
102
RTVSPropertyOp15
 70
     1
102
RTVSPropertyOp16
 70
     1
102
RTVSPropertyOp17
 70
     1
102
RTVSPropertyOp18
 70
     1
102
RTVSPropertyOp19
 70
     1
102
RTVSPropertyOp20
 70
     1
102
RTVSPropertyOp21
 70
     1
102
RTVSPropertyOp22
 70
     1
102
RTVSPropertyOp23
 70
     1
102
RTVSPropertyOp24
 70
     1
102
RTVSPropertyOp25
 70
     1
102
RTVSPropertyOp26
 70
     1
102
RTVSPropertyOp27
 70
     1
102
RTVSPropertyOp28
 70
     1
102
RTVSPropertyOp29
 70
     1
102
RTVSPropertyOp30
 70
     1
102
RTVSPropertyOp31
 70
     1
102
RTVSPropertyOp32
 70
     1
  0
XRECORD
  5
A0
102
{ACAD_REACTORS
330
9F
102
}
330
9F
100
AcDbXrecord
280
     1
102
RTVSPropertyOp0
 70
     1
102
RTVSPropertyOp1
 70
     1
102
RTVSPropertyOp2
 70
     1
102
RTVSPropertyOp3
 70
     1
102
RTVSPropertyOp4
 70
     1
102
RTVSPropertyOp5
 70
     1
102
RTVSPropertyOp6
 70
     1
102
RTVSPropertyOp7
 70
     1
102
RTVSPropertyOp8
 70
     1
102
RTVSPropertyOp9
 70
     1
102
RTVSPropertyOp10
 70
     1
102
RTVSPropertyOp11
 70
     1
102
RTVSPropertyOp12
 70
     1
102
RTVSPropertyOp13
 70
     1
102
RTVSPropertyOp14
 70
     1
102
RTVSPropertyOp15
 70
     1
102
RTVSPropertyOp16
 70
     1
102
RTVSPropertyOp17
 70
     1
102
RTVSPropertyOp18
 70
     1
102
RTVSPropertyOp19
 70
     1
102
RTVSPropertyOp20
 70
     1
102
RTVSPropertyOp21
 70
     1
102
RTVSPropertyOp22
 70
     1
102
RTVSPropertyOp23
 70
     1
102
RTVSPropertyOp24
 70
     1
102
RTVSPropertyOp25
 70
     1
102
RTVSPropertyOp26
 70
     1
102
RTVSPropertyOp27
 70
     1
102
RTVSPropertyOp28
 70
     1
102
RTVSPropertyOp29
 70
     1
102
RTVSPropertyOp30
 70
     1
102
RTVSPropertyOp31
 70
     1
102
RTVSPropertyOp32
 70
     1
  0
XRECORD
  5
A8
102
{ACAD_REACTORS
330
A7
102
}
330
A7
100
AcDbXrecord
280
     1
102
RTVSPropertyOp0
 70
     1
102
RTVSPropertyOp1
 70
     1
102
RTVSPropertyOp2
 70
     1
102
RTVSPropertyOp3
 70
     1
102
RTVSPropertyOp4
 70
     1
102
RTVSPropertyOp5
 70
     1
102
RTVSPropertyOp6
 70
     1
102
RTVSPropertyOp7
 70
     1
102
RTVSPropertyOp8
 70
     1
102
RTVSPropertyOp9
 70
     1
102
RTVSPropertyOp10
 70
     1
102
RTVSPropertyOp11
 70
     1
102
RTVSPropertyOp12
 70
     1
102
RTVSPropertyOp13
 70
     1
102
RTVSPropertyOp14
 70
     1
102
RTVSPropertyOp15
 70
     1
102
RTVSPropertyOp16
 70
     1
102
RTVSPropertyOp17
 70
     1
102
RTVSPropertyOp18
 70
     1
102
RTVSPropertyOp19
 70
     1
102
RTVSPropertyOp20
 70
     1
102
RTVSPropertyOp21
 70
     1
102
RTVSPropertyOp22
 70
     1
102
RTVSPropertyOp23
 70
     1
102
RTVSPropertyOp24
 70
     1
102
RTVSPropertyOp25
 70
     1
102
RTVSPropertyOp26
 70
     1
102
RTVSPropertyOp27
 70
     1
102
RTVSPropertyOp28
 70
     1
102
RTVSPropertyOp29
 70
     1
102
RTVSPropertyOp30
 70
     1
102
RTVSPropertyOp31
 70
     1
102
RTVSPropertyOp32
 70
     1
  0
XRECORD
  5
9C
102
{ACAD_REACTORS
330
9B
102
}
330
9B
100
AcDbXrecord
280
     1
102
RTVSPropertyOp0
 70
     1
102
RTVSPropertyOp1
 70
     1
102
RTVSPropertyOp2
 70
     1
102
RTVSPropertyOp3
 70
     1
102
RTVSPropertyOp4
 70
     1
102
RTVSPropertyOp5
 70
     1
102
RTVSPropertyOp6
 70
     1
102
RTVSPropertyOp7
 70
     1
102
RTVSPropertyOp8
 70
     1
102
RTVSPropertyOp9
 70
     1
102
RTVSPropertyOp10
 70
     1
102
RTVSPropertyOp11
 70
     1
102
RTVSPropertyOp12
 70
     1
102
RTVSPropertyOp13
 70
     1
102
RTVSPropertyOp14
 70
     1
102
RTVSPropertyOp15
 70
     1
102
RTVSPropertyOp16
 70
     1
102
RTVSPropertyOp17
 70
     1
102
RTVSPropertyOp18
 70
     1
102
RTVSPropertyOp19
 70
     1
102
RTVSPropertyOp20
 70
     1
102
RTVSPropertyOp21
 70
     1
102
RTVSPropertyOp22
 70
     1
102
RTVSPropertyOp23
 70
     1
102
RTVSPropertyOp24
 70
     1
102
RTVSPropertyOp25
 70
     1
102
RTVSPropertyOp26
 70
     1
102
RTVSPropertyOp27
 70
     1
102
RTVSPropertyOp28
 70
     1
102
RTVSPropertyOp29
 70
     1
102
RTVSPropertyOp30
 70
     1
102
RTVSPropertyOp31
 70
     1
102
RTVSPropertyOp32
 70
     1
  0
XRECORD
  5
9E
102
{ACAD_REACTORS
330
9D
102
}
330
9D
100
AcDbXrecord
280
     1
102
RTVSPropertyOp0
 70
     1
102
RTVSPropertyOp1
 70
     1
102
RTVSPropertyOp2
 70
     1
102
RTVSPropertyOp3
 70
     1
102
RTVSPropertyOp4
 70
     1
102
RTVSPropertyOp5
 70
     1
102
RTVSPropertyOp6
 70
     1
102
RTVSPropertyOp7
 70
     1
102
RTVSPropertyOp8
 70
     1
102
RTVSPropertyOp9
 70
     1
102
RTVSPropertyOp10
 70
     1
102
RTVSPropertyOp11
 70
     1
102
RTVSPropertyOp12
 70
     1
102
RTVSPropertyOp13
 70
     1
102
RTVSPropertyOp14
 70
     1
102
RTVSPropertyOp15
 70
     1
102
RTVSPropertyOp16
 70
     1
102
RTVSPropertyOp17
 70
     1
102
RTVSPropertyOp18
 70
     1
102
RTVSPropertyOp19
 70
     1
102
RTVSPropertyOp20
 70
     1
102
RTVSPropertyOp21
 70
     1
102
RTVSPropertyOp22
 70
     1
102
RTVSPropertyOp23
 70
     1
102
RTVSPropertyOp24
 70
     1
102
RTVSPropertyOp25
 70
     1
102
RTVSPropertyOp26
 70
     1
102
RTVSPropertyOp27
 70
     1
102
RTVSPropertyOp28
 70
     1
102
RTVSPropertyOp29
 70
     1
102
RTVSPropertyOp30
 70
     1
102
RTVSPropertyOp31
 70
     1
102
RTVSPropertyOp32
 70
     1
  0
XRECORD
  5
A6
102
{ACAD_REACTORS
330
A5
102
}
330
A5
100
AcDbXrecord
280
     1
102
RTVSPropertyOp0
 70
     1
102
RTVSPropertyOp1
 70
     1
102
RTVSPropertyOp2
 70
     1
102
RTVSPropertyOp3
 70
     1
102
RTVSPropertyOp4
 70
     1
102
RTVSPropertyOp5
 70
     1
102
RTVSPropertyOp6
 70
     1
102
RTVSPropertyOp7
 70
     1
102
RTVSPropertyOp8
 70
     1
102
RTVSPropertyOp9
 70
     1
102
RTVSPropertyOp10
 70
     1
102
RTVSPropertyOp11
 70
     1
102
RTVSPropertyOp12
 70
     1
102
RTVSPropertyOp13
 70
     1
102
RTVSPropertyOp14
 70
     1
102
RTVSPropertyOp15
 70
     1
102
RTVSPropertyOp16
 70
     1
102
RTVSPropertyOp17
 70
     1
102
RTVSPropertyOp18
 70
     1
102
RTVSPropertyOp19
 70
     1
102
RTVSPropertyOp20
 70
     1
102
RTVSPropertyOp21
 70
     1
102
RTVSPropertyOp22
 70
     1
102
RTVSPropertyOp23
 70
     1
102
RTVSPropertyOp24
 70
     1
102
RTVSPropertyOp25
 70
     1
102
RTVSPropertyOp26
 70
     1
102
RTVSPropertyOp27
 70
     1
102
RTVSPropertyOp28
 70
     1
102
RTVSPropertyOp29
 70
     1
102
RTVSPropertyOp30
 70
     1
102
RTVSPropertyOp31
 70
     1
102
RTVSPropertyOp32
 70
     1
  0
XRECORD
  5
8A
102
{ACAD_REACTORS
330
89
102
}
330
89
100
AcDbXrecord
280
     1
102
RTVSPropertyOp0
 70
     1
102
RTVSPropertyOp1
 70
     1
102
RTVSPropertyOp2
 70
     1
102
RTVSPropertyOp3
 70
     1
102
RTVSPropertyOp4
 70
     1
102
RTVSPropertyOp5
 70
     1
102
RTVSPropertyOp6
 70
     1
102
RTVSPropertyOp7
 70
     1
102
RTVSPropertyOp8
 70
     1
102
RTVSPropertyOp9
 70
     1
102
RTVSPropertyOp10
 70
     1
102
RTVSPropertyOp11
 70
     1
102
RTVSPropertyOp12
 70
     1
102
RTVSPropertyOp13
 70
     1
102
RTVSPropertyOp14
 70
     1
102
RTVSPropertyOp15
 70
     1
102
RTVSPropertyOp16
 70
     1
102
RTVSPropertyOp17
 70
     1
102
RTVSPropertyOp18
 70
     1
102
RTVSPropertyOp19
 70
     1
102
RTVSPropertyOp20
 70
     1
102
RTVSPropertyOp21
 70
     1
102
RTVSPropertyOp22
 70
     1
102
RTVSPropertyOp23
 70
     1
102
RTVSPropertyOp24
 70
     1
102
RTVSPropertyOp25
 70
     1
102
RTVSPropertyOp26
 70
     1
102
RTVSPropertyOp27
 70
     1
102
RTVSPropertyOp28
 70
     1
102
RTVSPropertyOp29
 70
     1
102
RTVSPropertyOp30
 70
     1
102
RTVSPropertyOp31
 70
     1
102
RTVSPropertyOp32
 70
     1
  0
XRECORD
  5
8C
102
{ACAD_REACTORS
330
8B
102
}
330
8B
100
AcDbXrecord
280
     1
102
RTVSPropertyOp0
 70
     1
102
RTVSPropertyOp1
 70
     1
102
RTVSPropertyOp2
 70
     1
102
RTVSPropertyOp3
 70
     1
102
RTVSPropertyOp4
 70
     1
102
RTVSPropertyOp5
 70
     1
102
RTVSPropertyOp6
 70
     1
102
RTVSPropertyOp7
 70
     1
102
RTVSPropertyOp8
 70
     1
102
RTVSPropertyOp9
 70
     1
102
RTVSPropertyOp10
 70
     1
102
RTVSPropertyOp11
 70
     1
102
RTVSPropertyOp12
 70
     1
102
RTVSPropertyOp13
 70
     1
102
RTVSPropertyOp14
 70
     1
102
RTVSPropertyOp15
 70
     1
102
RTVSPropertyOp16
 70
     1
102
RTVSPropertyOp17
 70
     1
102
RTVSPropertyOp18
 70
     1
102
RTVSPropertyOp19
 70
     1
102
RTVSPropertyOp20
 70
     1
102
RTVSPropertyOp21
 70
     1
102
RTVSPropertyOp22
 70
     1
102
RTVSPropertyOp23
 70
     1
102
RTVSPropertyOp24
 70
     1
102
RTVSPropertyOp25
 70
     1
102
RTVSPropertyOp26
 70
     1
102
RTVSPropertyOp27
 70
     1
102
RTVSPropertyOp28
 70
     1
102
RTVSPropertyOp29
 70
     1
102
RTVSPropertyOp30
 70
     1
102
RTVSPropertyOp31
 70
     1
102
RTVSPropertyOp32
 70
     1
  0
XRECORD
  5
8E
102
{ACAD_REACTORS
330
8D
102
}
330
8D
100
AcDbXrecord
280
     1
102
RTVSPropertyOp0
 70
     1
102
RTVSPropertyOp1
 70
     1
102
RTVSPropertyOp2
 70
     1
102
RTVSPropertyOp3
 70
     1
102
RTVSPropertyOp4
 70
     1
102
RTVSPropertyOp5
 70
     1
102
RTVSPropertyOp6
 70
     1
102
RTVSPropertyOp7
 70
     1
102
RTVSPropertyOp8
 70
     1
102
RTVSPropertyOp9
 70
     1
102
RTVSPropertyOp10
 70
     1
102
RTVSPropertyOp11
 70
     1
102
RTVSPropertyOp12
 70
     1
102
RTVSPropertyOp13
 70
     1
102
RTVSPropertyOp14
 70
     1
102
RTVSPropertyOp15
 70
     1
102
RTVSPropertyOp16
 70
     1
102
RTVSPropertyOp17
 70
     1
102
RTVSPropertyOp18
 70
     1
102
RTVSPropertyOp19
 70
     1
102
RTVSPropertyOp20
 70
     1
102
RTVSPropertyOp21
 70
     1
102
RTVSPropertyOp22
 70
     1
102
RTVSPropertyOp23
 70
     1
102
RTVSPropertyOp24
 70
     1
102
RTVSPropertyOp25
 70
     1
102
RTVSPropertyOp26
 70
     1
102
RTVSPropertyOp27
 70
     1
102
RTVSPropertyOp28
 70
     1
102
RTVSPropertyOp29
 70
     1
102
RTVSPropertyOp30
 70
     1
102
RTVSPropertyOp31
 70
     1
102
RTVSPropertyOp32
 70
     1
  0
XRECORD
  5
90
102
{ACAD_REACTORS
330
8F
102
}
330
8F
100
AcDbXrecord
280
     1
102
RTVSPropertyOp0
 70
     1
102
RTVSPropertyOp1
 70
     1
102
RTVSPropertyOp2
 70
     1
102
RTVSPropertyOp3
 70
     1
102
RTVSPropertyOp4
 70
     1
102
RTVSPropertyOp5
 70
     1
102
RTVSPropertyOp6
 70
     1
102
RTVSPropertyOp7
 70
     1
102
RTVSPropertyOp8
 70
     1
102
RTVSPropertyOp9
 70
     1
102
RTVSPropertyOp10
 70
     1
102
RTVSPropertyOp11
 70
     1
102
RTVSPropertyOp12
 70
     1
102
RTVSPropertyOp13
 70
     1
102
RTVSPropertyOp14
 70
     1
102
RTVSPropertyOp15
 70
     1
102
RTVSPropertyOp16
 70
     1
102
RTVSPropertyOp17
 70
     1
102
RTVSPropertyOp18
 70
     1
102
RTVSPropertyOp19
 70
     1
102
RTVSPropertyOp20
 70
     1
102
RTVSPropertyOp21
 70
     1
102
RTVSPropertyOp22
 70
     1
102
RTVSPropertyOp23
 70
     1
102
RTVSPropertyOp24
 70
     1
102
RTVSPropertyOp25
 70
     1
102
RTVSPropertyOp26
 70
     1
102
RTVSPropertyOp27
 70
     1
102
RTVSPropertyOp28
 70
     1
102
RTVSPropertyOp29
 70
     1
102
RTVSPropertyOp30
 70
     1
102
RTVSPropertyOp31
 70
     1
102
RTVSPropertyOp32
 70
     1
  0
XRECORD
  5
A4
102
{ACAD_REACTORS
330
A3
102
}
330
A3
100
AcDbXrecord
280
     1
102
RTVSPropertyOp0
 70
     1
102
RTVSPropertyOp1
 70
     1
102
RTVSPropertyOp2
 70
     1
102
RTVSPropertyOp3
 70
     1
102
RTVSPropertyOp4
 70
     1
102
RTVSPropertyOp5
 70
     1
102
RTVSPropertyOp6
 70
     1
102
RTVSPropertyOp7
 70
     1
102
RTVSPropertyOp8
 70
     1
102
RTVSPropertyOp9
 70
     1
102
RTVSPropertyOp10
 70
     1
102
RTVSPropertyOp11
 70
     1
102
RTVSPropertyOp12
 70
     1
102
RTVSPropertyOp13
 70
     1
102
RTVSPropertyOp14
 70
     1
102
RTVSPropertyOp15
 70
     1
102
RTVSPropertyOp16
 70
     1
102
RTVSPropertyOp17
 70
     1
102
RTVSPropertyOp18
 70
     1
102
RTVSPropertyOp19
 70
     1
102
RTVSPropertyOp20
 70
     1
102
RTVSPropertyOp21
 70
     1
102
RTVSPropertyOp22
 70
     1
102
RTVSPropertyOp23
 70
     1
102
RTVSPropertyOp24
 70
     1
102
RTVSPropertyOp25
 70
     1
102
RTVSPropertyOp26
 70
     1
102
RTVSPropertyOp27
 70
     1
102
RTVSPropertyOp28
 70
     1
102
RTVSPropertyOp29
 70
     1
102
RTVSPropertyOp30
 70
     1
102
RTVSPropertyOp31
 70
     1
102
RTVSPropertyOp32
 70
     1
  0
XRECORD
  5
9A
102
{ACAD_REACTORS
330
99
102
}
330
99
100
AcDbXrecord
280
     1
102
RTVSPropertyOp0
 70
     1
102
RTVSPropertyOp1
 70
     1
102
RTVSPropertyOp2
 70
     1
102
RTVSPropertyOp3
 70
     1
102
RTVSPropertyOp4
 70
     1
102
RTVSPropertyOp5
 70
     1
102
RTVSPropertyOp6
 70
     1
102
RTVSPropertyOp7
 70
     1
102
RTVSPropertyOp8
 70
     1
102
RTVSPropertyOp9
 70
     1
102
RTVSPropertyOp10
 70
     1
102
RTVSPropertyOp11
 70
     1
102
RTVSPropertyOp12
 70
     1
102
RTVSPropertyOp13
 70
     1
102
RTVSPropertyOp14
 70
     1
102
RTVSPropertyOp15
 70
     1
102
RTVSPropertyOp16
 70
     1
102
RTVSPropertyOp17
 70
     1
102
RTVSPropertyOp18
 70
     1
102
RTVSPropertyOp19
 70
     1
102
RTVSPropertyOp20
 70
     1
102
RTVSPropertyOp21
 70
     1
102
RTVSPropertyOp22
 70
     1
102
RTVSPropertyOp23
 70
     1
102
RTVSPropertyOp24
 70
     1
102
RTVSPropertyOp25
 70
     1
102
RTVSPropertyOp26
 70
     1
102
RTVSPropertyOp27
 70
     1
102
RTVSPropertyOp28
 70
     1
102
RTVSPropertyOp29
 70
     1
102
RTVSPropertyOp30
 70
     1
102
RTVSPropertyOp31
 70
     1
102
RTVSPropertyOp32
 70
     1
  0
XRECORD
  5
A2
102
{ACAD_REACTORS
330
A1
102
}
330
A1
100
AcDbXrecord
280
     1
102
RTVSPropertyOp0
 70
     1
102
RTVSPropertyOp1
 70
     1
102
RTVSPropertyOp2
 70
     1
102
RTVSPropertyOp3
 70
     1
102
RTVSPropertyOp4
 70
     1
102
RTVSPropertyOp5
 70
     1
102
RTVSPropertyOp6
 70
     1
102
RTVSPropertyOp7
 70
     1
102
RTVSPropertyOp8
 70
     1
102
RTVSPropertyOp9
 70
     1
102
RTVSPropertyOp10
 70
     1
102
RTVSPropertyOp11
 70
     1
102
RTVSPropertyOp12
 70
     1
102
RTVSPropertyOp13
 70
     1
102
RTVSPropertyOp14
 70
     1
102
RTVSPropertyOp15
 70
     1
102
RTVSPropertyOp16
 70
     1
102
RTVSPropertyOp17
 70
     1
102
RTVSPropertyOp18
 70
     1
102
RTVSPropertyOp19
 70
     1
102
RTVSPropertyOp20
 70
     1
102
RTVSPropertyOp21
 70
     1
102
RTVSPropertyOp22
 70
     1
102
RTVSPropertyOp23
 70
     1
102
RTVSPropertyOp24
 70
     1
102
RTVSPropertyOp25
 70
     1
102
RTVSPropertyOp26
 70
     1
102
RTVSPropertyOp27
 70
     1
102
RTVSPropertyOp28
 70
     1
102
RTVSPropertyOp29
 70
     1
102
RTVSPropertyOp30
 70
     1
102
RTVSPropertyOp31
 70
     1
102
RTVSPropertyOp32
 70
     1
  0
ENDSEC
  0
EOF
