  0
SECTION
  2
HEADER
  9
$ACADVER
  1
AC1021
  9
$ACADMAINTVER
 70
    25
  9
$DWGCODEPAGE
  3
ANSI_1252
  9
$INSBASE
 10
0.0
 20
0.0
 30
0.0
  9
$EXTMIN
 10
-10.78148
 20
-7.65697
 30
0.0
  9
$EXTMAX
 10
10.77878
 20
7.65697
 30
0.0
  9
$LIMMIN
 10
0.0
 20
0.0
  9
$LIMMAX
 10
12.0
 20
9.0
  9
$ORTHOMODE
 70
     0
  9
$REGENMODE
 70
     1
  9
$FILLMODE
 70
     1
  9
$QTEXTMODE
 70
     0
  9
$MIRRTEXT
 70
     1
  9
$LTSCALE
 40
1.0
  9
$ATTMODE
 70
     1
  9
$TEXTSIZE
 40
0.2
  9
$TRACEWID
 40
0.05
  9
$TEXTSTYLE
  7
Standard
  9
$CLAYER
  8
0
  9
$CELTYPE
  6
ByLayer
  9
$CECOLOR
 62
   256
  9
$CELTSCALE
 40
1.0
  9
$DISPSILH
 70
     0
  9
$DIMSCALE
 40
1.0
  9
$DIMASZ
 40
0.18
  9
$DIMEXO
 40
0.0625
  9
$DIMDLI
 40
0.38
  9
$DIMRND
 40
0.0
  9
$DIMDLE
 40
0.0
  9
$DIMEXE
 40
0.18
  9
$DIMTP
 40
0.0
  9
$DIMTM
 40
0.0
  9
$DIMTXT
 40
0.18
  9
$DIMCEN
 40
0.09
  9
$DIMTSZ
 40
0.0
  9
$DIMTOL
 70
     0
  9
$DIMLIM
 70
     0
  9
$DIMTIH
 70
     1
  9
$DIMTOH
 70
     1
  9
$DIMSE1
 70
     0
  9
$DIMSE2
 70
     0
  9
$DIMTAD
 70
     0
  9
$DIMZIN
 70
     0
  9
$DIMBLK
  1

  9
$DIMASO
 70
     1
  9
$DIMSHO
 70
     1
  9
$DIMPOST
  1

  9
$DIMAPOST
  1

  9
$DIMALT
 70
     0
  9
$DIMALTD
 70
     2
  9
$DIMALTF
 40
25.4
  9
$DIMLFAC
 40
1.0
  9
$DIMTOFL
 70
     0
  9
$DIMTVP
 40
0.0
  9
$DIMTIX
 70
     0
  9
$DIMSOXD
 70
     0
  9
$DIMSAH
 70
     0
  9
$DIMBLK1
  1

  9
$DIMBLK2
  1

  9
$DIMSTYLE
  2
Standard
  9
$DIMCLRD
 70
     0
  9
$DIMCLRE
 70
     0
  9
$DIMCLRT
 70
     0
  9
$DIMTFAC
 40
1.0
  9
$DIMGAP
 40
0.09
  9
$DIMJUST
 70
     0
  9
$DIMSD1
 70
     0
  9
$DIMSD2
 70
     0
  9
$DIMTOLJ
 70
     1
  9
$DIMTZIN
 70
     0
  9
$DIMALTZ
 70
     0
  9
$DIMALTTZ
 70
     0
  9
$DIMUPT
 70
     0
  9
$DIMDEC
 70
     4
  9
$DIMTDEC
 70
     4
  9
$DIMALTU
 70
     2
  9
$DIMALTTD
 70
     2
  9
$DIMTXSTY
  7
Standard
  9
$DIMAUNIT
 70
     0
  9
$DIMADEC
 70
     0
  9
$DIMALTRND
 40
0.0
  9
$DIMAZIN
 70
     0
  9
$DIMDSEP
 70
    46
  9
$DIMATFIT
 70
     3
  9
$DIMFRAC
 70
     0
  9
$DIMLDRBLK
  1

  9
$DIMLUNIT
 70
     2
  9
$DIMLWD
 70
    -2
  9
$DIMLWE
 70
    -2
  9
$DIMTMOVE
 70
     0
  9
$DIMFXL
 40
1.0
  9
$DIMFXLON
 70
     0
  9
$DIMJOGANG
 40
0.7853981633974483
  9
$DIMTFILL
 70
     0
  9
$DIMTFILLCLR
 70
     0
  9
$DIMARCSYM
 70
     0
  9
$DIMLTYPE
  6

  9
$DIMLTEX1
  6

  9
$DIMLTEX2
  6

  9
$LUNITS
 70
     2
  9
$LUPREC
 70
     4
  9
$SKETCHINC
 40
0.1
  9
$FILLETRAD
 40
0.5
  9
$AUNITS
 70
     0
  9
$AUPREC
 70
     0
  9
$MENU
  1
.
  9
$ELEVATION
 40
0.0
  9
$PELEVATION
 40
0.0
  9
$THICKNESS
 40
0.0
  9
$LIMCHECK
 70
     0
  9
$CHAMFERA
 40
0.5
  9
$CHAMFERB
 40
0.5
  9
$CHAMFERC
 40
1.0
  9
$CHAMFERD
 40
0.0
  9
$SKPOLY
 70
     0
  9
$TDCREATE
 40
2456231.937144514
  9
$TDUCREATE
 40
2456232.103811181
  9
$TDUPDATE
 40
2456231.937144584
  9
$TDUUPDATE
 40
2456232.10381125
  9
$TDINDWG
 40
0.0000000116
  9
$TDUSRTIMER
 40
0.0000000116
  9
$USRTIMER
 70
     1
  9
$ANGBASE
 50
0.0
  9
$ANGDIR
 70
     0
  9
$PDMODE
 70
     0
  9
$PDSIZE
 40
0.0
  9
$PLINEWID
 40
0.0
  9
$SPLFRAME
 70
     0
  9
$SPLINETYPE
 70
     6
  9
$SPLINESEGS
 70
     8
  9
$HANDSEED
  5
AC
  9
$SURFTAB1
 70
     6
  9
$SURFTAB2
 70
     6
  9
$SURFTYPE
 70
     6
  9
$SURFU
 70
     6
  9
$SURFV
 70
     6
  9
$UCSBASE
  2

  9
$UCSNAME
  2

  9
$UCSORG
 10
0.0
 20
0.0
 30
0.0
  9
$UCSXDIR
 10
1.0
 20
0.0
 30
0.0
  9
$UCSYDIR
 10
0.0
 20
1.0
 30
0.0
  9
$UCSORTHOREF
  2

  9
$UCSORTHOVIEW
 70
     0
  9
$UCSORGTOP
 10
0.0
 20
0.0
 30
0.0
  9
$UCSORGBOTTOM
 10
0.0
 20
0.0
 30
0.0
  9
$UCSORGLEFT
 10
0.0
 20
0.0
 30
0.0
  9
$UCSORGRIGHT
 10
0.0
 20
0.0
 30
0.0
  9
$UCSORGFRONT
 10
0.0
 20
0.0
 30
0.0
  9
$UCSORGBACK
 10
0.0
 20
0.0
 30
0.0
  9
$PUCSBASE
  2

  9
$PUCSNAME
  2

  9
$PUCSORG
 10
0.0
 20
0.0
 30
0.0
  9
$PUCSXDIR
 10
1.0
 20
0.0
 30
0.0
  9
$PUCSYDIR
 10
0.0
 20
1.0
 30
0.0
  9
$PUCSORTHOREF
  2

  9
$PUCSORTHOVIEW
 70
     0
  9
$PUCSORGTOP
 10
0.0
 20
0.0
 30
0.0
  9
$PUCSORGBOTTOM
 10
0.0
 20
0.0
 30
0.0
  9
$PUCSORGLEFT
 10
0.0
 20
0.0
 30
0.0
  9
$PUCSORGRIGHT
 10
0.0
 20
0.0
 30
0.0
  9
$PUCSORGFRONT
 10
0.0
 20
0.0
 30
0.0
  9
$PUCSORGBACK
 10
0.0
 20
0.0
 30
0.0
  9
$USERI1
 70
     0
  9
$USERI2
 70
     0
  9
$USERI3
 70
     0
  9
$USERI4
 70
     0
  9
$USERI5
 70
     0
  9
$USERR1
 40
0.0
  9
$USERR2
 40
0.0
  9
$USERR3
 40
0.0
  9
$USERR4
 40
0.0
  9
$USERR5
 40
0.0
  9
$WORLDVIEW
 70
     1
  9
$SHADEDGE
 70
     3
  9
$SHADEDIF
 70
    70
  9
$TILEMODE
 70
     1
  9
$MAXACTVP
 70
    64
  9
$PINSBASE
 10
0.0
 20
0.0
 30
0.0
  9
$PLIMCHECK
 70
     0
  9
$PEXTMIN
 10
1.000000000000000E+20
 20
1.000000000000000E+20
 30
1.000000000000000E+20
  9
$PEXTMAX
 10
-1.000000000000000E+20
 20
-1.000000000000000E+20
 30
-1.000000000000000E+20
  9
$PLIMMIN
 10
0.0
 20
0.0
  9
$PLIMMAX
 10
12.0
 20
9.0
  9
$UNITMODE
 70
     0
  9
$VISRETAIN
 70
     1
  9
$PLINEGEN
 70
     0
  9
$PSLTSCALE
 70
     1
  9
$TREEDEPTH
 70
  3020
  9
$CMLSTYLE
  2
Standard
  9
$CMLJUST
 70
     0
  9
$CMLSCALE
 40
1.0
  9
$PROXYGRAPHICS
 70
     1
  9
$MEASUREMENT
 70
     0
  9
$CELWEIGHT
370
    -1
  9
$ENDCAPS
280
     0
  9
$JOINSTYLE
280
     0
  9
$LWDISPLAY
290
     0
  9
$INSUNITS
 70
     5
  9
$HYPERLINKBASE
  1

  9
$STYLESHEET
  1

  9
$XEDIT
290
     1
  9
$CEPSNTYPE
380
     0
  9
$PSTYLEMODE
290
     1
  9
$FINGERPRINTGUID
  2
{0ED6D02E-1061-4268-9274-BAEEE9A31087}
  9
$VERSIONGUID
  2
{FAEB1C32-E019-11D5-929B-00C0DF256EC4}
  9
$EXTNAMES
290
     1
  9
$PSVPSCALE
 40
0.0
  9
$OLESTARTUP
290
     0
  9
$SORTENTS
280
   127
  9
$INDEXCTL
280
     0
  9
$HIDETEXT
280
     1
  9
$XCLIPFRAME
290
     0
  9
$HALOGAP
280
     0
  9
$OBSCOLOR
 70
   257
  9
$OBSLTYPE
280
     0
  9
$INTERSECTIONDISPLAY
280
     0
  9
$INTERSECTIONCOLOR
 70
   257
  9
$DIMASSOC
280
     2
  9
$PROJECTNAME
  1

  9
$CAMERADISPLAY
290
     0
  9
$LENSLENGTH
 40
50.0
  9
$CAMERAHEIGHT
 40
0.0
  9
$STEPSPERSEC
 40
2.0
  9
$STEPSIZE
 40
6.0
  9
$3DDWFPREC
 40
2.0
  9
$PSOLWIDTH
 40
0.25
  9
$PSOLHEIGHT
 40
4.0
  9
$LOFTANG1
 40
1.570796326794897
  9
$LOFTANG2
 40
1.570796326794897
  9
$LOFTMAG1
 40
0.0
  9
$LOFTMAG2
 40
0.0
  9
$LOFTPARAM
 70
     7
  9
$LOFTNORMALS
280
     1
  9
$LATITUDE
 40
37.795
  9
$LONGITUDE
 40
-122.394
  9
$NORTHDIRECTION
 40
0.0
  9
$TIMEZONE
 70
 -8000
  9
$LIGHTGLYPHDISPLAY
280
     1
  9
$TILEMODELIGHTSYNCH
280
     1
  9
$SOLIDHIST
280
     1
  9
$SHOWHIST
280
     1
  9
$DWFFRAME
280
     2
  9
$DGNFRAME
280
     2
  9
$REALWORLDSCALE
290
     1
  9
$INTERFERECOLOR
 62
   256
  9
$CSHADOW
280
     0
  9
$SHADOWPLANELOCATION
 40
0.0
  0
ENDSEC
  0
SECTION
  2
CLASSES
  0
CLASS
  1
ACDBDICTIONARYWDFLT
  2
AcDbDictionaryWithDefault
  3
ObjectDBX Classes
 90
        0
 91
        4
280
     0
281
     0
  0
CLASS
  1
VISUALSTYLE
  2
AcDbVisualStyle
  3
ObjectDBX Classes
 90
     4095
 91
        4
280
     0
281
     0
  0
CLASS
  1
MATERIAL
  2
AcDbMaterial
  3
ObjectDBX Classes
 90
     1153
 91
        4
280
     0
281
     0
  0
ENDSEC
  0
SECTION
  2
TABLES
  0
TABLE
  2
VPORT
  5
8
330
0
100
AcDbSymbolTable
 70
     1
  0
VPORT
  5
29
330
8
100
AcDbSymbolTableRecord
100
AcDbViewportTableRecord
  2
*Active
 70
     0
 10
0.0
 20
0.0
 11
1.0
 21
1.0
 12
10.42990654205607
 22
4.5
 13
0.0
 23
0.0
 14
0.5
 24
0.5
 15
0.5
 25
0.5
 16
0.0
 26
0.0
 36
1.0
 17
0.0
 27
0.0
 37
0.0
 40
9.0
 41
1.972972972850329
 42
50.0
 43
0.0
 44
0.0
 50
0.0
 51
0.0
 71
     0
 72
   100
 73
     1
 74
     3
 75
     0
 76
     0
 77
     0
 78
     0
281
     0
 65
     1
110
0.0
120
0.0
130
0.0
111
1.0
121
0.0
131
0.0
112
0.0
122
1.0
132
0.0
 79
     0
146
0.0
 60
     3
 61
     5
292
     1
282
     1
141
0.0
142
0.0
 63
   250
  0
ENDTAB
  0
TABLE
  2
LTYPE
  5
5
330
0
100
AcDbSymbolTable
 70
     1
  0
LTYPE
  5
14
330
5
100
AcDbSymbolTableRecord
100
AcDbLinetypeTableRecord
  2
ByBlock
 70
     0
  3

 72
    65
 73
     0
 40
0.0
  0
LTYPE
  5
15
330
5
100
AcDbSymbolTableRecord
100
AcDbLinetypeTableRecord
  2
ByLayer
 70
     0
  3

 72
    65
 73
     0
 40
0.0
  0
LTYPE
  5
16
330
5
100
AcDbSymbolTableRecord
100
AcDbLinetypeTableRecord
  2
Continuous
 70
     0
  3
Solid line
 72
    65
 73
     0
 40
0.0
  0
ENDTAB
  0
TABLE
  2
LAYER
  5
2
330
0
100
AcDbSymbolTable
 70
     3
  0
LAYER
  5
10
330
2
100
AcDbSymbolTableRecord
100
AcDbLayerTableRecord
  2
0
 70
     0
 62
     7
  6
Continuous
370
    -3
390
F
347
3E
  0
LAYER
  5
40
330
2
100
AcDbSymbolTableRecord
100
AcDbLayerTableRecord
  2
Layer 1
 70
     0
 62
     7
  6
Continuous
370
    -3
390
F
347
3E
  0
LAYER
  5
60
330
2
100
AcDbSymbolTableRecord
100
AcDbLayerTableRecord
  2
layer 2
 70
     0
 62
     7
  6
Continuous
370
    -3
390
F
347
3E
  0
ENDTAB
  0
TABLE
  2
STYLE
  5
3
330
0
100
AcDbSymbolTable
 70
     1
  0
STYLE
  5
11
330
3
100
AcDbSymbolTableRecord
100
AcDbTextStyleTableRecord
  2
Standard
 70
     0
 40
0.0
 41
1.0
 50
0.0
 71
     0
 42
0.2
  3
txt
  4

  0
ENDTAB
  0
TABLE
  2
VIEW
  5
6
330
0
100
AcDbSymbolTable
 70
     0
  0
ENDTAB
  0
TABLE
  2
UCS
  5
7
330
0
100
AcDbSymbolTable
 70
     0
  0
ENDTAB
  0
TABLE
  2
APPID
  5
9
330
0
100
AcDbSymbolTable
 70
     2
  0
APPID
  5
12
330
9
100
AcDbSymbolTableRecord
100
AcDbRegAppTableRecord
  2
ACAD
 70
     0
  0
APPID
  5
3F
330
9
100
AcDbSymbolTableRecord
100
AcDbRegAppTableRecord
  2
ODA
 70
     0
  0
ENDTAB
  0
TABLE
  2
DIMSTYLE
  5
A
330
0
100
AcDbSymbolTable
 70
     1
100
AcDbDimStyleTable
  0
DIMSTYLE
105
27
330
A
100
AcDbSymbolTableRecord
100
AcDbDimStyleTableRecord
  2
Standard
 70
     0
178
     0
340
11
  0
ENDTAB
  0
TABLE
  2
BLOCK_RECORD
  5
1
330
0
100
AcDbSymbolTable
 70
     1
  0
BLOCK_RECORD
  5
1F
330
1
100
AcDbSymbolTableRecord
100
AcDbBlockTableRecord
  2
*Model_Space
340
22
 70
     0
280
     1
281
     0
  0
BLOCK_RECORD
  5
1B
330
1
100
AcDbSymbolTableRecord
100
AcDbBlockTableRecord
  2
*Paper_Space
340
1E
 70
     0
280
     1
281
     0
  0
BLOCK_RECORD
  5
23
330
1
100
AcDbSymbolTableRecord
100
AcDbBlockTableRecord
  2
*Paper_Space0
340
26
 70
     0
280
     1
281
     0
  0
ENDTAB
  0
ENDSEC
  0
SECTION
  2
BLOCKS
  0
BLOCK
  5
20
330
1F
100
AcDbEntity
  8
0
100
AcDbBlockBegin
  2
*Model_Space
 70
     0
 10
0.0
 20
0.0
 30
0.0
  3
*Model_Space
  1

  0
ENDBLK
  5
21
330
1F
100
AcDbEntity
  8
0
100
AcDbBlockEnd
  0
BLOCK
  5
1C
330
1B
100
AcDbEntity
 67
     1
  8
0
100
AcDbBlockBegin
  2
*Paper_Space
 70
     0
 10
0.0
 20
0.0
 30
0.0
  3
*Paper_Space
  1

  0
ENDBLK
  5
1D
330
1B
100
AcDbEntity
 67
     1
  8
0
100
AcDbBlockEnd
  0
BLOCK
  5
24
330
23
100
AcDbEntity
  8
0
100
AcDbBlockBegin
  2
*Paper_Space0
 70
     0
 10
0.0
 20
0.0
 30
0.0
  3
*Paper_Space0
  1

  0
ENDBLK
  5
25
330
23
100
AcDbEntity
  8
0
100
AcDbBlockEnd
  0
ENDSEC
  0
SECTION
  2
ENTITIES
  0
SPLINE
  5
41
330
1F
100
AcDbEntity
  8
Layer 1
 62
   250
370
     9
100
AcDbSpline
210
0.0
220
0.0
230
1.0
 70
    11
 71
     3
 72
    92
 73
    88
 74
     0
 42
0.0000000001
 43
0.0000000001
 12
1.0
 22
0.0
 32
0.0
 13
1.0
 23
0.0
 33
0.0
 40
0.0
 40
0.0
 40
0.0
 40
0.0
 40
0.0434782608695652
 40
0.0434782608695652
 40
0.0434782608695652
 40
0.0434782608695652
 40
0.0869565217391304
 40
0.0869565217391304
 40
0.0869565217391304
 40
0.0869565217391304
 40
0.1304347826086956
 40
0.1304347826086956
 40
0.1304347826086956
 40
0.1304347826086956
 40
0.1739130434782609
 40
0.1739130434782609
 40
0.1739130434782609
 40
0.1739130434782609
 40
0.2173913043478261
 40
0.2173913043478261
 40
0.2173913043478261
 40
0.2173913043478261
 40
0.2608695652173913
 40
0.2608695652173913
 40
0.2608695652173913
 40
0.2608695652173913
 40
0.3043478260869565
 40
0.3043478260869565
 40
0.3043478260869565
 40
0.3043478260869565
 40
0.3478260869565217
 40
0.3478260869565217
 40
0.3478260869565217
 40
0.3478260869565217
 40
0.391304347826087
 40
0.391304347826087
 40
0.391304347826087
 40
0.391304347826087
 40
0.4347826086956522
 40
0.4347826086956522
 40
0.4347826086956522
 40
0.4347826086956522
 40
0.4782608695652174
 40
0.4782608695652174
 40
0.4782608695652174
 40
0.4782608695652174
 40
0.5217391304347826
 40
0.5217391304347826
 40
0.5217391304347826
 40
0.5217391304347826
 40
0.5652173913043478
 40
0.5652173913043478
 40
0.5652173913043478
 40
0.5652173913043478
 40
0.6086956521739131
 40
0.6086956521739131
 40
0.6086956521739131
 40
0.6086956521739131
 40
0.6521739130434783
 40
0.6521739130434783
 40
0.6521739130434783
 40
0.6521739130434783
 40
0.6956521739130435
 40
0.6956521739130435
 40
0.6956521739130435
 40
0.6956521739130435
 40
0.7391304347826086
 40
0.7391304347826086
 40
0.7391304347826086
 40
0.7391304347826086
 40
0.782608695652174
 40
0.782608695652174
 40
0.782608695652174
 40
0.782608695652174
 40
0.8260869565217391
 40
0.8260869565217391
 40
0.8260869565217391
 40
0.8260869565217391
 40
0.8695652173913043
 40
0.8695652173913043
 40
0.8695652173913043
 40
0.8695652173913043
 40
0.9130434782608695
 40
0.9130434782608695
 40
0.9130434782608695
 40
0.9130434782608695
 40
1.0
 40
1.0
 40
1.0
 40
1.0
 10
-3.46973
 20
-7.57188
 30
0.0
 10
-3.46973
 20
-7.57188
 30
0.0
 10
-3.46973
 20
-7.64299
 30
0.0
 10
-3.46973
 20
-7.64299
 30
0.0
 10
-3.46973
 20
-7.64299
 30
0.0
 10
-3.46973
 20
-7.64299
 30
0.0
 10
-3.87106
 20
-7.64299
 30
0.0
 10
-3.87106
 20
-7.64299
 30
0.0
 10
-3.87106
 20
-7.64299
 30
0.0
 10
-3.87162
 20
-7.62508
 30
0.0
 10
-3.86866
 20
-7.60786
 30
0.0
 10
-3.86231
 20
-7.59121
 30
0.0
 10
-3.86231
 20
-7.59121
 30
0.0
 10
-3.85201
 20
-7.56397
 30
0.0
 10
-3.8355
 20
-7.53703
 30
0.0
 10
-3.81278
 20
-7.51064
 30
0.0
 10
-3.81278
 20
-7.51064
 30
0.0
 10
-3.79006
 20
-7.48425
 30
0.0
 10
-3.7576
 20
-7.45377
 30
0.0
 10
-3.71541
 20
-7.4192
 30
0.0
 10
-3.71541
 20
-7.4192
 30
0.0
 10
-3.64979
 20
-7.36515
 30
0.0
 10
-3.6052
 20
-7.32239
 30
0.0
 10
-3.58192
 20
-7.29079
 30
0.0
 10
-3.58192
 20
-7.29079
 30
0.0
 10
-3.55849
 20
-7.25918
 30
0.0
 10
-3.54678
 20
-7.22926
 30
0.0
 10
-3.54678
 20
-7.20104
 30
0.0
 10
-3.54678
 20
-7.20104
 30
0.0
 10
-3.54678
 20
-7.17155
 30
0.0
 10
-3.55737
 20
-7.14671
 30
0.0
 10
-3.57853
 20
-7.12639
 30
0.0
 10
-3.57853
 20
-7.12639
 30
0.0
 10
-3.5997
 20
-7.10621
 30
0.0
 10
-3.62736
 20
-7.09605
 30
0.0
 10
-3.66136
 20
-7.09605
 30
0.0
 10
-3.66136
 20
-7.09605
 30
0.0
 10
-3.69735
 20
-7.09605
 30
0.0
 10
-3.72613
 20
-7.10678
 30
0.0
 10
-3.74772
 20
-7.12822
 30
0.0
 10
-3.74772
 20
-7.12822
 30
0.0
 10
-3.76932
 20
-7.14953
 30
0.0
 10
-3.78018
 20
-7.17917
 30
0.0
 10
-3.78046
 20
-7.21712
 30
0.0
 10
-3.78046
 20
-7.21712
 30
0.0
 10
-3.78046
 20
-7.21712
 30
0.0
 10
-3.85666
 20
-7.2095
 30
0.0
 10
-3.85666
 20
-7.2095
 30
0.0
 10
-3.85666
 20
-7.2095
 30
0.0
 10
-3.85144
 20
-7.1525
 30
0.0
 10
-3.83169
 20
-7.10903
 30
0.0
 10
-3.79754
 20
-7.07912
 30
0.0
 10
-3.79754
 20
-7.07912
 30
0.0
 10
-3.76325
 20
-7.0492
 30
0.0
 10
-3.71739
 20
-7.03424
 30
0.0
 10
-3.65967
 20
-7.03424
 30
0.0
 10
-3.65967
 20
-7.03424
 30
0.0
 10
-3.60153
 20
-7.03424
 30
0.0
 10
-3.55539
 20
-7.05033
 30
0.0
 10
-3.52152
 20
-7.08265
 30
0.0
 10
-3.52152
 20
-7.08265
 30
0.0
 10
-3.48752
 20
-7.11496
 30
0.0
 10
-3.47058
 20
-7.15504
 30
0.0
 10
-3.47058
 20
-7.20273
 30
0.0
 10
-3.47058
 20
-7.20273
 30
0.0
 10
-3.47058
 20
-7.227
 30
0.0
 10
-3.47552
 20
-7.25085
 30
0.0
 10
-3.48554
 20
-7.27428
 30
0.0
 10
-3.48554
 20
-7.27428
 30
0.0
 10
-3.49542
 20
-7.29784
 30
0.0
 10
-3.51193
 20
-7.32254
 30
0.0
 10
-3.53493
 20
-7.3485
 30
0.0
 10
-3.53493
 20
-7.3485
 30
0.0
 10
-3.55807
 20
-7.37432
 30
0.0
 10
-3.59631
 20
-7.41002
 30
0.0
 10
-3.64965
 20
-7.45518
 30
0.0
 10
-3.64965
 20
-7.45518
 30
0.0
 10
-3.69438
 20
-7.49272
 30
0.0
 10
-3.72317
 20
-7.51812
 30
0.0
 10
-3.73587
 20
-7.53152
 30
0.0
 10
-3.73587
 20
-7.53152
 30
0.0
 10
-3.74857
 20
-7.54492
 30
0.0
 10
-3.75901
 20
-7.55833
 30
0.0
 10
-3.76734
 20
-7.57188
 30
0.0
 10
-3.76734
 20
-7.57188
 30
0.0
 10
-3.76734
 20
-7.57188
 30
0.0
 10
-3.46973
 20
-7.57188
 30
0.0
 10
-3.46973
 20
-7.57188
 30
0.0
  0
SPLINE
  5
42
330
1F
100
AcDbEntity
  8
Layer 1
 62
   250
370
     9
100
AcDbSpline
210
0.0
220
0.0
230
1.0
 70
    11
 71
     3
 72
    52
 73
    48
 74
     0
 42
0.0000000001
 43
0.0000000001
 12
1.0
 22
0.0
 32
0.0
 13
1.0
 23
0.0
 33
0.0
 40
0.0
 40
0.0
 40
0.0
 40
0.0
 40
0.0769230769230769
 40
0.0769230769230769
 40
0.0769230769230769
 40
0.0769230769230769
 40
0.1538461538461539
 40
0.1538461538461539
 40
0.1538461538461539
 40
0.1538461538461539
 40
0.2307692307692308
 40
0.2307692307692308
 40
0.2307692307692308
 40
0.2307692307692308
 40
0.3076923076923077
 40
0.3076923076923077
 40
0.3076923076923077
 40
0.3076923076923077
 40
0.3846153846153846
 40
0.3846153846153846
 40
0.3846153846153846
 40
0.3846153846153846
 40
0.4615384615384616
 40
0.4615384615384616
 40
0.4615384615384616
 40
0.4615384615384616
 40
0.5384615384615384
 40
0.5384615384615384
 40
0.5384615384615384
 40
0.5384615384615384
 40
0.6153846153846154
 40
0.6153846153846154
 40
0.6153846153846154
 40
0.6153846153846154
 40
0.6923076923076923
 40
0.6923076923076923
 40
0.6923076923076923
 40
0.6923076923076923
 40
0.7692307692307693
 40
0.7692307692307693
 40
0.7692307692307693
 40
0.7692307692307693
 40
0.8461538461538461
 40
0.8461538461538461
 40
0.8461538461538461
 40
0.8461538461538461
 40
1.0
 40
1.0
 40
1.0
 40
1.0
 10
-3.38916
 20
-7.34384
 30
0.0
 10
-3.38916
 20
-7.2723
 30
0.0
 10
-3.38182
 20
-7.21444
 30
0.0
 10
-3.36715
 20
-7.1707
 30
0.0
 10
-3.36715
 20
-7.1707
 30
0.0
 10
-3.35233
 20
-7.12681
 30
0.0
 10
-3.33046
 20
-7.09309
 30
0.0
 10
-3.30139
 20
-7.06952
 30
0.0
 10
-3.30139
 20
-7.06952
 30
0.0
 10
-3.27246
 20
-7.04596
 30
0.0
 10
-3.23591
 20
-7.03424
 30
0.0
 10
-3.19189
 20
-7.03424
 30
0.0
 10
-3.19189
 20
-7.03424
 30
0.0
 10
-3.15943
 20
-7.03424
 30
0.0
 10
-3.13093
 20
-7.04074
 30
0.0
 10
-3.10623
 20
-7.05386
 30
0.0
 10
-3.10623
 20
-7.05386
 30
0.0
 10
-3.08168
 20
-7.06698
 30
0.0
 10
-3.06136
 20
-7.08589
 30
0.0
 10
-3.04555
 20
-7.11059
 30
0.0
 10
-3.04555
 20
-7.11059
 30
0.0
 10
-3.02975
 20
-7.13514
 30
0.0
 10
-3.01733
 20
-7.1652
 30
0.0
 10
-3.0083
 20
-7.20061
 30
0.0
 10
-3.0083
 20
-7.20061
 30
0.0
 10
-2.99913
 20
-7.23603
 30
0.0
 10
-2.99461
 20
-7.28387
 30
0.0
 10
-2.99461
 20
-7.34384
 30
0.0
 10
-2.99461
 20
-7.34384
 30
0.0
 10
-2.99461
 20
-7.41495
 30
0.0
 10
-3.00195
 20
-7.47254
 30
0.0
 10
-3.01648
 20
-7.51628
 30
0.0
 10
-3.01648
 20
-7.51628
 30
0.0
 10
-3.03102
 20
-7.56017
 30
0.0
 10
-3.05289
 20
-7.59389
 30
0.0
 10
-3.08196
 20
-7.6176
 30
0.0
 10
-3.08196
 20
-7.6176
 30
0.0
 10
-3.11089
 20
-7.6413
 30
0.0
 10
-3.14758
 20
-7.65316
 30
0.0
 10
-3.19189
 20
-7.65316
 30
0.0
 10
-3.19189
 20
-7.65316
 30
0.0
 10
-3.25016
 20
-7.65316
 30
0.0
 10
-3.29603
 20
-7.63242
 30
0.0
 10
-3.32933
 20
-7.59079
 30
0.0
 10
-3.32933
 20
-7.59079
 30
0.0
 10
-3.36926
 20
-7.53999
 30
0.0
 10
-3.38916
 20
-7.45772
 30
0.0
 10
-3.38916
 20
-7.34384
 30
0.0
  0
SPLINE
  5
43
330
1F
100
AcDbEntity
  8
Layer 1
 62
   250
370
     9
100
AcDbSpline
210
0.0
220
0.0
230
1.0
 70
    11
 71
     3
 72
    36
 73
    32
 74
     0
 42
0.0000000001
 43
0.0000000001
 12
1.0
 22
0.0
 32
0.0
 13
1.0
 23
0.0
 33
0.0
 40
0.0
 40
0.0
 40
0.0
 40
0.0
 40
0.1111111111111111
 40
0.1111111111111111
 40
0.1111111111111111
 40
0.1111111111111111
 40
0.2222222222222222
 40
0.2222222222222222
 40
0.2222222222222222
 40
0.2222222222222222
 40
0.3333333333333333
 40
0.3333333333333333
 40
0.3333333333333333
 40
0.3333333333333333
 40
0.4444444444444444
 40
0.4444444444444444
 40
0.4444444444444444
 40
0.4444444444444444
 40
0.5555555555555556
 40
0.5555555555555556
 40
0.5555555555555556
 40
0.5555555555555556
 40
0.6666666666666666
 40
0.6666666666666666
 40
0.6666666666666666
 40
0.6666666666666666
 40
0.7777777777777778
 40
0.7777777777777778
 40
0.7777777777777778
 40
0.7777777777777778
 40
1.0
 40
1.0
 40
1.0
 40
1.0
 10
-3.31296
 20
-7.34413
 30
0.0
 10
-3.31296
 20
-7.44389
 30
0.0
 10
-3.30139
 20
-7.5102
 30
0.0
 10
-3.2781
 20
-7.54295
 30
0.0
 10
-3.2781
 20
-7.54295
 30
0.0
 10
-3.25482
 20
-7.57583
 30
0.0
 10
-3.22603
 20
-7.5922
 30
0.0
 10
-3.19189
 20
-7.5922
 30
0.0
 10
-3.19189
 20
-7.5922
 30
0.0
 10
-3.15774
 20
-7.5922
 30
0.0
 10
-3.12895
 20
-7.57569
 30
0.0
 10
-3.10567
 20
-7.54281
 30
0.0
 10
-3.10567
 20
-7.54281
 30
0.0
 10
-3.08238
 20
-7.50978
 30
0.0
 10
-3.07081
 20
-7.44361
 30
0.0
 10
-3.07081
 20
-7.34413
 30
0.0
 10
-3.07081
 20
-7.34413
 30
0.0
 10
-3.07081
 20
-7.24436
 30
0.0
 10
-3.08238
 20
-7.17804
 30
0.0
 10
-3.10567
 20
-7.1453
 30
0.0
 10
-3.10567
 20
-7.1453
 30
0.0
 10
-3.12881
 20
-7.11242
 30
0.0
 10
-3.15788
 20
-7.09605
 30
0.0
 10
-3.19273
 20
-7.09605
 30
0.0
 10
-3.19273
 20
-7.09605
 30
0.0
 10
-3.22688
 20
-7.09605
 30
0.0
 10
-3.25426
 20
-7.11059
 30
0.0
 10
-3.27472
 20
-7.13951
 30
0.0
 10
-3.27472
 20
-7.13951
 30
0.0
 10
-3.30026
 20
-7.17634
 30
0.0
 10
-3.31296
 20
-7.24464
 30
0.0
 10
-3.31296
 20
-7.34413
 30
0.0
  0
SPLINE
  5
44
330
1F
100
AcDbEntity
  8
Layer 1
 62
   250
370
     9
100
AcDbSpline
210
0.0
220
0.0
230
1.0
 70
    11
 71
     3
 72
    68
 73
    64
 74
     0
 42
0.0000000001
 43
0.0000000001
 12
1.0
 22
0.0
 32
0.0
 13
1.0
 23
0.0
 33
0.0
 40
0.0
 40
0.0
 40
0.0
 40
0.0
 40
0.0588235294117647
 40
0.0588235294117647
 40
0.0588235294117647
 40
0.0588235294117647
 40
0.1176470588235294
 40
0.1176470588235294
 40
0.1176470588235294
 40
0.1176470588235294
 40
0.1764705882352941
 40
0.1764705882352941
 40
0.1764705882352941
 40
0.1764705882352941
 40
0.2352941176470588
 40
0.2352941176470588
 40
0.2352941176470588
 40
0.2352941176470588
 40
0.2941176470588235
 40
0.2941176470588235
 40
0.2941176470588235
 40
0.2941176470588235
 40
0.3529411764705883
 40
0.3529411764705883
 40
0.3529411764705883
 40
0.3529411764705883
 40
0.4117647058823529
 40
0.4117647058823529
 40
0.4117647058823529
 40
0.4117647058823529
 40
0.4705882352941176
 40
0.4705882352941176
 40
0.4705882352941176
 40
0.4705882352941176
 40
0.5294117647058824
 40
0.5294117647058824
 40
0.5294117647058824
 40
0.5294117647058824
 40
0.5882352941176471
 40
0.5882352941176471
 40
0.5882352941176471
 40
0.5882352941176471
 40
0.6470588235294118
 40
0.6470588235294118
 40
0.6470588235294118
 40
0.6470588235294118
 40
0.7058823529411765
 40
0.7058823529411765
 40
0.7058823529411765
 40
0.7058823529411765
 40
0.7647058823529411
 40
0.7647058823529411
 40
0.7647058823529411
 40
0.7647058823529411
 40
0.8235294117647058
 40
0.8235294117647058
 40
0.8235294117647058
 40
0.8235294117647058
 40
0.8823529411764706
 40
0.8823529411764706
 40
0.8823529411764706
 40
0.8823529411764706
 40
1.0
 40
1.0
 40
1.0
 40
1.0
 10
-2.80355
 20
-7.31435
 30
0.0
 10
-2.83445
 20
-7.30306
 30
0.0
 10
-2.85731
 20
-7.28683
 30
0.0
 10
-2.87227
 20
-7.26595
 30
0.0
 10
-2.87227
 20
-7.26595
 30
0.0
 10
-2.88708
 20
-7.24492
 30
0.0
 10
-2.89456
 20
-7.21981
 30
0.0
 10
-2.89456
 20
-7.1906
 30
0.0
 10
-2.89456
 20
-7.1906
 30
0.0
 10
-2.89456
 20
-7.14643
 30
0.0
 10
-2.87876
 20
-7.10946
 30
0.0
 10
-2.84715
 20
-7.0794
 30
0.0
 10
-2.84715
 20
-7.0794
 30
0.0
 10
-2.8154
 20
-7.04934
 30
0.0
 10
-2.77335
 20
-7.03424
 30
0.0
 10
-2.72071
 20
-7.03424
 30
0.0
 10
-2.72071
 20
-7.03424
 30
0.0
 10
-2.66794
 20
-7.03424
 30
0.0
 10
-2.62532
 20
-7.04963
 30
0.0
 10
-2.59315
 20
-7.08039
 30
0.0
 10
-2.59315
 20
-7.08039
 30
0.0
 10
-2.56098
 20
-7.11115
 30
0.0
 10
-2.54489
 20
-7.14854
 30
0.0
 10
-2.54489
 20
-7.19271
 30
0.0
 10
-2.54489
 20
-7.19271
 30
0.0
 10
-2.54489
 20
-7.22079
 30
0.0
 10
-2.55223
 20
-7.24535
 30
0.0
 10
-2.5669
 20
-7.26609
 30
0.0
 10
-2.5669
 20
-7.26609
 30
0.0
 10
-2.58158
 20
-7.28698
 30
0.0
 10
-2.60387
 20
-7.30306
 30
0.0
 10
-2.63393
 20
-7.31435
 30
0.0
 10
-2.63393
 20
-7.31435
 30
0.0
 10
-2.59682
 20
-7.32649
 30
0.0
 10
-2.56874
 20
-7.34596
 30
0.0
 10
-2.5494
 20
-7.37305
 30
0.0
 10
-2.5494
 20
-7.37305
 30
0.0
 10
-2.53007
 20
-7.40001
 30
0.0
 10
-2.52033
 20
-7.43217
 30
0.0
 10
-2.52033
 20
-7.46971
 30
0.0
 10
-2.52033
 20
-7.46971
 30
0.0
 10
-2.52033
 20
-7.5215
 30
0.0
 10
-2.53868
 20
-7.56496
 30
0.0
 10
-2.57523
 20
-7.60024
 30
0.0
 10
-2.57523
 20
-7.60024
 30
0.0
 10
-2.61192
 20
-7.63552
 30
0.0
 10
-2.66004
 20
-7.65316
 30
0.0
 10
-2.71973
 20
-7.65316
 30
0.0
 10
-2.71973
 20
-7.65316
 30
0.0
 10
-2.77942
 20
-7.65316
 30
0.0
 10
-2.82754
 20
-7.63552
 30
0.0
 10
-2.86422
 20
-7.6001
 30
0.0
 10
-2.86422
 20
-7.6001
 30
0.0
 10
-2.90077
 20
-7.56468
 30
0.0
 10
-2.91912
 20
-7.52052
 30
0.0
 10
-2.91912
 20
-7.46759
 30
0.0
 10
-2.91912
 20
-7.46759
 30
0.0
 10
-2.91912
 20
-7.42823
 30
0.0
 10
-2.9091
 20
-7.39521
 30
0.0
 10
-2.88906
 20
-7.36868
 30
0.0
 10
-2.88906
 20
-7.36868
 30
0.0
 10
-2.86902
 20
-7.34201
 30
0.0
 10
-2.84052
 20
-7.32395
 30
0.0
 10
-2.80355
 20
-7.31435
 30
0.0
  0
SPLINE
  5
45
330
1F
100
AcDbEntity
  8
Layer 1
 62
   250
370
     9
100
AcDbSpline
210
0.0
220
0.0
230
1.0
 70
    11
 71
     3
 72
    36
 73
    32
 74
     0
 42
0.0000000001
 43
0.0000000001
 12
1.0
 22
0.0
 32
0.0
 13
1.0
 23
0.0
 33
0.0
 40
0.0
 40
0.0
 40
0.0
 40
0.0
 40
0.1111111111111111
 40
0.1111111111111111
 40
0.1111111111111111
 40
0.1111111111111111
 40
0.2222222222222222
 40
0.2222222222222222
 40
0.2222222222222222
 40
0.2222222222222222
 40
0.3333333333333333
 40
0.3333333333333333
 40
0.3333333333333333
 40
0.3333333333333333
 40
0.4444444444444444
 40
0.4444444444444444
 40
0.4444444444444444
 40
0.4444444444444444
 40
0.5555555555555556
 40
0.5555555555555556
 40
0.5555555555555556
 40
0.5555555555555556
 40
0.6666666666666666
 40
0.6666666666666666
 40
0.6666666666666666
 40
0.6666666666666666
 40
0.7777777777777778
 40
0.7777777777777778
 40
0.7777777777777778
 40
0.7777777777777778
 40
1.0
 40
1.0
 40
1.0
 40
1.0
 10
-2.81836
 20
-7.18791
 30
0.0
 10
-2.81836
 20
-7.2167
 30
0.0
 10
-2.80919
 20
-7.24013
 30
0.0
 10
-2.79099
 20
-7.25833
 30
0.0
 10
-2.79099
 20
-7.25833
 30
0.0
 10
-2.77264
 20
-7.27653
 30
0.0
 10
-2.74865
 20
-7.28571
 30
0.0
 10
-2.71888
 20
-7.28571
 30
0.0
 10
-2.71888
 20
-7.28571
 30
0.0
 10
-2.68995
 20
-7.28571
 30
0.0
 10
-2.66653
 20
-7.27667
 30
0.0
 10
-2.64832
 20
-7.25861
 30
0.0
 10
-2.64832
 20
-7.25861
 30
0.0
 10
-2.63012
 20
-7.24055
 30
0.0
 10
-2.62109
 20
-7.21839
 30
0.0
 10
-2.62109
 20
-7.19215
 30
0.0
 10
-2.62109
 20
-7.19215
 30
0.0
 10
-2.62109
 20
-7.16477
 30
0.0
 10
-2.6304
 20
-7.14177
 30
0.0
 10
-2.64917
 20
-7.12314
 30
0.0
 10
-2.64917
 20
-7.12314
 30
0.0
 10
-2.6678
 20
-7.10452
 30
0.0
 10
-2.69136
 20
-7.0952
 30
0.0
 10
-2.71973
 20
-7.0952
 30
0.0
 10
-2.71973
 20
-7.0952
 30
0.0
 10
-2.74837
 20
-7.0952
 30
0.0
 10
-2.77194
 20
-7.10438
 30
0.0
 10
-2.79056
 20
-7.12258
 30
0.0
 10
-2.79056
 20
-7.12258
 30
0.0
 10
-2.80905
 20
-7.14078
 30
0.0
 10
-2.81836
 20
-7.16251
 30
0.0
 10
-2.81836
 20
-7.18791
 30
0.0
  0
SPLINE
  5
46
330
1F
100
AcDbEntity
  8
Layer 1
 62
   250
370
     9
100
AcDbSpline
210
0.0
220
0.0
230
1.0
 70
    11
 71
     3
 72
    40
 73
    36
 74
     0
 42
0.0000000001
 43
0.0000000001
 12
1.0
 22
0.0
 32
0.0
 13
1.0
 23
0.0
 33
0.0
 40
0.0
 40
0.0
 40
0.0
 40
0.0
 40
0.1
 40
0.1
 40
0.1
 40
0.1
 40
0.2
 40
0.2
 40
0.2
 40
0.2
 40
0.3
 40
0.3
 40
0.3
 40
0.3
 40
0.4
 40
0.4
 40
0.4
 40
0.4
 40
0.5
 40
0.5
 40
0.5
 40
0.5
 40
0.6
 40
0.6
 40
0.6
 40
0.6
 40
0.7
 40
0.7
 40
0.7
 40
0.7
 40
0.8
 40
0.8
 40
0.8
 40
0.8
 40
1.0
 40
1.0
 40
1.0
 40
1.0
 10
-2.84292
 20
-7.46816
 30
0.0
 10
-2.84292
 20
-7.48946
 30
0.0
 10
-2.83798
 20
-7.50992
 30
0.0
 10
-2.8281
 20
-7.52983
 30
0.0
 10
-2.8281
 20
-7.52983
 30
0.0
 10
-2.81822
 20
-7.54957
 30
0.0
 10
-2.80326
 20
-7.56496
 30
0.0
 10
-2.78323
 20
-7.57583
 30
0.0
 10
-2.78323
 20
-7.57583
 30
0.0
 10
-2.76333
 20
-7.5867
 30
0.0
 10
-2.74188
 20
-7.5922
 30
0.0
 10
-2.71916
 20
-7.5922
 30
0.0
 10
-2.71916
 20
-7.5922
 30
0.0
 10
-2.68332
 20
-7.5922
 30
0.0
 10
-2.65397
 20
-7.58077
 30
0.0
 10
-2.63097
 20
-7.55791
 30
0.0
 10
-2.63097
 20
-7.55791
 30
0.0
 10
-2.60797
 20
-7.53505
 30
0.0
 10
-2.59654
 20
-7.50598
 30
0.0
 10
-2.59654
 20
-7.47069
 30
0.0
 10
-2.59654
 20
-7.47069
 30
0.0
 10
-2.59654
 20
-7.43486
 30
0.0
 10
-2.60839
 20
-7.40523
 30
0.0
 10
-2.63195
 20
-7.3818
 30
0.0
 10
-2.63195
 20
-7.3818
 30
0.0
 10
-2.65566
 20
-7.35838
 30
0.0
 10
-2.68558
 20
-7.34667
 30
0.0
 10
-2.72156
 20
-7.34667
 30
0.0
 10
-2.72156
 20
-7.34667
 30
0.0
 10
-2.75684
 20
-7.34667
 30
0.0
 10
-2.78577
 20
-7.35824
 30
0.0
 10
-2.80863
 20
-7.38138
 30
0.0
 10
-2.80863
 20
-7.38138
 30
0.0
 10
-2.83149
 20
-7.40452
 30
0.0
 10
-2.84292
 20
-7.43345
 30
0.0
 10
-2.84292
 20
-7.46816
 30
0.0
  0
SPLINE
  5
47
330
1F
100
AcDbEntity
  8
Layer 1
 62
   250
370
     9
100
AcDbSpline
210
0.0
220
0.0
230
1.0
 70
    11
 71
     3
 72
    52
 73
    48
 74
     0
 42
0.0000000001
 43
0.0000000001
 12
1.0
 22
0.0
 32
0.0
 13
1.0
 23
0.0
 33
0.0
 40
0.0
 40
0.0
 40
0.0
 40
0.0
 40
0.0769230769230769
 40
0.0769230769230769
 40
0.0769230769230769
 40
0.0769230769230769
 40
0.1538461538461539
 40
0.1538461538461539
 40
0.1538461538461539
 40
0.1538461538461539
 40
0.2307692307692308
 40
0.2307692307692308
 40
0.2307692307692308
 40
0.2307692307692308
 40
0.3076923076923077
 40
0.3076923076923077
 40
0.3076923076923077
 40
0.3076923076923077
 40
0.3846153846153846
 40
0.3846153846153846
 40
0.3846153846153846
 40
0.3846153846153846
 40
0.4615384615384616
 40
0.4615384615384616
 40
0.4615384615384616
 40
0.4615384615384616
 40
0.5384615384615384
 40
0.5384615384615384
 40
0.5384615384615384
 40
0.5384615384615384
 40
0.6153846153846154
 40
0.6153846153846154
 40
0.6153846153846154
 40
0.6153846153846154
 40
0.6923076923076923
 40
0.6923076923076923
 40
0.6923076923076923
 40
0.6923076923076923
 40
0.7692307692307693
 40
0.7692307692307693
 40
0.7692307692307693
 40
0.7692307692307693
 40
0.8461538461538461
 40
0.8461538461538461
 40
0.8461538461538461
 40
0.8461538461538461
 40
1.0
 40
1.0
 40
1.0
 40
1.0
 10
-2.44738
 20
-7.34384
 30
0.0
 10
-2.44738
 20
-7.2723
 30
0.0
 10
-2.44004
 20
-7.21444
 30
0.0
 10
-2.42537
 20
-7.1707
 30
0.0
 10
-2.42537
 20
-7.1707
 30
0.0
 10
-2.41055
 20
-7.12681
 30
0.0
 10
-2.38868
 20
-7.09309
 30
0.0
 10
-2.35961
 20
-7.06952
 30
0.0
 10
-2.35961
 20
-7.06952
 30
0.0
 10
-2.33068
 20
-7.04596
 30
0.0
 10
-2.29413
 20
-7.03424
 30
0.0
 10
-2.25011
 20
-7.03424
 30
0.0
 10
-2.25011
 20
-7.03424
 30
0.0
 10
-2.21765
 20
-7.03424
 30
0.0
 10
-2.18915
 20
-7.04074
 30
0.0
 10
-2.16445
 20
-7.05386
 30
0.0
 10
-2.16445
 20
-7.05386
 30
0.0
 10
-2.1399
 20
-7.06698
 30
0.0
 10
-2.11958
 20
-7.08589
 30
0.0
 10
-2.10377
 20
-7.11059
 30
0.0
 10
-2.10377
 20
-7.11059
 30
0.0
 10
-2.08797
 20
-7.13514
 30
0.0
 10
-2.07555
 20
-7.1652
 30
0.0
 10
-2.06652
 20
-7.20061
 30
0.0
 10
-2.06652
 20
-7.20061
 30
0.0
 10
-2.05735
 20
-7.23603
 30
0.0
 10
-2.05283
 20
-7.28387
 30
0.0
 10
-2.05283
 20
-7.34384
 30
0.0
 10
-2.05283
 20
-7.34384
 30
0.0
 10
-2.05283
 20
-7.41495
 30
0.0
 10
-2.06017
 20
-7.47254
 30
0.0
 10
-2.0747
 20
-7.51628
 30
0.0
 10
-2.0747
 20
-7.51628
 30
0.0
 10
-2.08924
 20
-7.56017
 30
0.0
 10
-2.11111
 20
-7.59389
 30
0.0
 10
-2.14018
 20
-7.6176
 30
0.0
 10
-2.14018
 20
-7.6176
 30
0.0
 10
-2.16911
 20
-7.6413
 30
0.0
 10
-2.2058
 20
-7.65316
 30
0.0
 10
-2.25011
 20
-7.65316
 30
0.0
 10
-2.25011
 20
-7.65316
 30
0.0
 10
-2.30838
 20
-7.65316
 30
0.0
 10
-2.35425
 20
-7.63242
 30
0.0
 10
-2.38755
 20
-7.59079
 30
0.0
 10
-2.38755
 20
-7.59079
 30
0.0
 10
-2.42748
 20
-7.53999
 30
0.0
 10
-2.44738
 20
-7.45772
 30
0.0
 10
-2.44738
 20
-7.34384
 30
0.0
  0
SPLINE
  5
48
330
1F
100
AcDbEntity
  8
Layer 1
 62
   250
370
     9
100
AcDbSpline
210
0.0
220
0.0
230
1.0
 70
    11
 71
     3
 72
    36
 73
    32
 74
     0
 42
0.0000000001
 43
0.0000000001
 12
1.0
 22
0.0
 32
0.0
 13
1.0
 23
0.0
 33
0.0
 40
0.0
 40
0.0
 40
0.0
 40
0.0
 40
0.1111111111111111
 40
0.1111111111111111
 40
0.1111111111111111
 40
0.1111111111111111
 40
0.2222222222222222
 40
0.2222222222222222
 40
0.2222222222222222
 40
0.2222222222222222
 40
0.3333333333333333
 40
0.3333333333333333
 40
0.3333333333333333
 40
0.3333333333333333
 40
0.4444444444444444
 40
0.4444444444444444
 40
0.4444444444444444
 40
0.4444444444444444
 40
0.5555555555555556
 40
0.5555555555555556
 40
0.5555555555555556
 40
0.5555555555555556
 40
0.6666666666666666
 40
0.6666666666666666
 40
0.6666666666666666
 40
0.6666666666666666
 40
0.7777777777777778
 40
0.7777777777777778
 40
0.7777777777777778
 40
0.7777777777777778
 40
1.0
 40
1.0
 40
1.0
 40
1.0
 10
-2.37118
 20
-7.34413
 30
0.0
 10
-2.37118
 20
-7.44389
 30
0.0
 10
-2.35961
 20
-7.5102
 30
0.0
 10
-2.33632
 20
-7.54295
 30
0.0
 10
-2.33632
 20
-7.54295
 30
0.0
 10
-2.31304
 20
-7.57583
 30
0.0
 10
-2.28425
 20
-7.5922
 30
0.0
 10
-2.25011
 20
-7.5922
 30
0.0
 10
-2.25011
 20
-7.5922
 30
0.0
 10
-2.21596
 20
-7.5922
 30
0.0
 10
-2.18717
 20
-7.57569
 30
0.0
 10
-2.16389
 20
-7.54281
 30
0.0
 10
-2.16389
 20
-7.54281
 30
0.0
 10
-2.1406
 20
-7.50978
 30
0.0
 10
-2.12903
 20
-7.44361
 30
0.0
 10
-2.12903
 20
-7.34413
 30
0.0
 10
-2.12903
 20
-7.34413
 30
0.0
 10
-2.12903
 20
-7.24436
 30
0.0
 10
-2.1406
 20
-7.17804
 30
0.0
 10
-2.16389
 20
-7.1453
 30
0.0
 10
-2.16389
 20
-7.1453
 30
0.0
 10
-2.18703
 20
-7.11242
 30
0.0
 10
-2.2161
 20
-7.09605
 30
0.0
 10
-2.25095
 20
-7.09605
 30
0.0
 10
-2.25095
 20
-7.09605
 30
0.0
 10
-2.2851
 20
-7.09605
 30
0.0
 10
-2.31248
 20
-7.11059
 30
0.0
 10
-2.33294
 20
-7.13951
 30
0.0
 10
-2.33294
 20
-7.13951
 30
0.0
 10
-2.35848
 20
-7.17634
 30
0.0
 10
-2.37118
 20
-7.24464
 30
0.0
 10
-2.37118
 20
-7.34413
 30
0.0
  0
SPLINE
  5
49
330
1F
100
AcDbEntity
  8
Layer 1
 62
   250
370
     9
100
AcDbSpline
210
0.0
220
0.0
230
1.0
 70
    11
 71
     3
 72
    52
 73
    48
 74
     0
 42
0.0000000001
 43
0.0000000001
 12
1.0
 22
0.0
 32
0.0
 13
1.0
 23
0.0
 33
0.0
 40
0.0
 40
0.0
 40
0.0
 40
0.0
 40
0.0769230769230769
 40
0.0769230769230769
 40
0.0769230769230769
 40
0.0769230769230769
 40
0.1538461538461539
 40
0.1538461538461539
 40
0.1538461538461539
 40
0.1538461538461539
 40
0.2307692307692308
 40
0.2307692307692308
 40
0.2307692307692308
 40
0.2307692307692308
 40
0.3076923076923077
 40
0.3076923076923077
 40
0.3076923076923077
 40
0.3076923076923077
 40
0.3846153846153846
 40
0.3846153846153846
 40
0.3846153846153846
 40
0.3846153846153846
 40
0.4615384615384616
 40
0.4615384615384616
 40
0.4615384615384616
 40
0.4615384615384616
 40
0.5384615384615384
 40
0.5384615384615384
 40
0.5384615384615384
 40
0.5384615384615384
 40
0.6153846153846154
 40
0.6153846153846154
 40
0.6153846153846154
 40
0.6153846153846154
 40
0.6923076923076923
 40
0.6923076923076923
 40
0.6923076923076923
 40
0.6923076923076923
 40
0.7692307692307693
 40
0.7692307692307693
 40
0.7692307692307693
 40
0.7692307692307693
 40
0.8461538461538461
 40
0.8461538461538461
 40
0.8461538461538461
 40
0.8461538461538461
 40
1.0
 40
1.0
 40
1.0
 40
1.0
 10
-1.97649
 20
-7.34384
 30
0.0
 10
-1.97649
 20
-7.2723
 30
0.0
 10
-1.96915
 20
-7.21444
 30
0.0
 10
-1.95448
 20
-7.1707
 30
0.0
 10
-1.95448
 20
-7.1707
 30
0.0
 10
-1.93966
 20
-7.12681
 30
0.0
 10
-1.91779
 20
-7.09309
 30
0.0
 10
-1.88872
 20
-7.06952
 30
0.0
 10
-1.88872
 20
-7.06952
 30
0.0
 10
-1.85979
 20
-7.04596
 30
0.0
 10
-1.82324
 20
-7.03424
 30
0.0
 10
-1.77922
 20
-7.03424
 30
0.0
 10
-1.77922
 20
-7.03424
 30
0.0
 10
-1.74676
 20
-7.03424
 30
0.0
 10
-1.71826
 20
-7.04074
 30
0.0
 10
-1.69356
 20
-7.05386
 30
0.0
 10
-1.69356
 20
-7.05386
 30
0.0
 10
-1.66901
 20
-7.06698
 30
0.0
 10
-1.64869
 20
-7.08589
 30
0.0
 10
-1.63288
 20
-7.11059
 30
0.0
 10
-1.63288
 20
-7.11059
 30
0.0
 10
-1.61708
 20
-7.13514
 30
0.0
 10
-1.60466
 20
-7.1652
 30
0.0
 10
-1.59563
 20
-7.20061
 30
0.0
 10
-1.59563
 20
-7.20061
 30
0.0
 10
-1.58646
 20
-7.23603
 30
0.0
 10
-1.58194
 20
-7.28387
 30
0.0
 10
-1.58194
 20
-7.34384
 30
0.0
 10
-1.58194
 20
-7.34384
 30
0.0
 10
-1.58194
 20
-7.41495
 30
0.0
 10
-1.58928
 20
-7.47254
 30
0.0
 10
-1.60381
 20
-7.51628
 30
0.0
 10
-1.60381
 20
-7.51628
 30
0.0
 10
-1.61835
 20
-7.56017
 30
0.0
 10
-1.64022
 20
-7.59389
 30
0.0
 10
-1.66929
 20
-7.6176
 30
0.0
 10
-1.66929
 20
-7.6176
 30
0.0
 10
-1.69822
 20
-7.6413
 30
0.0
 10
-1.73491
 20
-7.65316
 30
0.0
 10
-1.77922
 20
-7.65316
 30
0.0
 10
-1.77922
 20
-7.65316
 30
0.0
 10
-1.83749
 20
-7.65316
 30
0.0
 10
-1.88336
 20
-7.63242
 30
0.0
 10
-1.91666
 20
-7.59079
 30
0.0
 10
-1.91666
 20
-7.59079
 30
0.0
 10
-1.95659
 20
-7.53999
 30
0.0
 10
-1.97649
 20
-7.45772
 30
0.0
 10
-1.97649
 20
-7.34384
 30
0.0
  0
SPLINE
  5
4A
330
1F
100
AcDbEntity
  8
Layer 1
 62
   250
370
     9
100
AcDbSpline
210
0.0
220
0.0
230
1.0
 70
    11
 71
     3
 72
    36
 73
    32
 74
     0
 42
0.0000000001
 43
0.0000000001
 12
1.0
 22
0.0
 32
0.0
 13
1.0
 23
0.0
 33
0.0
 40
0.0
 40
0.0
 40
0.0
 40
0.0
 40
0.1111111111111111
 40
0.1111111111111111
 40
0.1111111111111111
 40
0.1111111111111111
 40
0.2222222222222222
 40
0.2222222222222222
 40
0.2222222222222222
 40
0.2222222222222222
 40
0.3333333333333333
 40
0.3333333333333333
 40
0.3333333333333333
 40
0.3333333333333333
 40
0.4444444444444444
 40
0.4444444444444444
 40
0.4444444444444444
 40
0.4444444444444444
 40
0.5555555555555556
 40
0.5555555555555556
 40
0.5555555555555556
 40
0.5555555555555556
 40
0.6666666666666666
 40
0.6666666666666666
 40
0.6666666666666666
 40
0.6666666666666666
 40
0.7777777777777778
 40
0.7777777777777778
 40
0.7777777777777778
 40
0.7777777777777778
 40
1.0
 40
1.0
 40
1.0
 40
1.0
 10
-1.90029
 20
-7.34413
 30
0.0
 10
-1.90029
 20
-7.44389
 30
0.0
 10
-1.88872
 20
-7.5102
 30
0.0
 10
-1.86543
 20
-7.54295
 30
0.0
 10
-1.86543
 20
-7.54295
 30
0.0
 10
-1.84215
 20
-7.57583
 30
0.0
 10
-1.81336
 20
-7.5922
 30
0.0
 10
-1.77922
 20
-7.5922
 30
0.0
 10
-1.77922
 20
-7.5922
 30
0.0
 10
-1.74507
 20
-7.5922
 30
0.0
 10
-1.71628
 20
-7.57569
 30
0.0
 10
-1.693
 20
-7.54281
 30
0.0
 10
-1.693
 20
-7.54281
 30
0.0
 10
-1.66971
 20
-7.50978
 30
0.0
 10
-1.65814
 20
-7.44361
 30
0.0
 10
-1.65814
 20
-7.34413
 30
0.0
 10
-1.65814
 20
-7.34413
 30
0.0
 10
-1.65814
 20
-7.24436
 30
0.0
 10
-1.66971
 20
-7.17804
 30
0.0
 10
-1.693
 20
-7.1453
 30
0.0
 10
-1.693
 20
-7.1453
 30
0.0
 10
-1.71614
 20
-7.11242
 30
0.0
 10
-1.74521
 20
-7.09605
 30
0.0
 10
-1.78006
 20
-7.09605
 30
0.0
 10
-1.78006
 20
-7.09605
 30
0.0
 10
-1.81421
 20
-7.09605
 30
0.0
 10
-1.84159
 20
-7.11059
 30
0.0
 10
-1.86205
 20
-7.13951
 30
0.0
 10
-1.86205
 20
-7.13951
 30
0.0
 10
-1.88759
 20
-7.17634
 30
0.0
 10
-1.90029
 20
-7.24464
 30
0.0
 10
-1.90029
 20
-7.34413
 30
0.0
  0
SPLINE
  5
4B
330
1F
100
AcDbEntity
  8
Layer 1
 62
   250
370
     9
100
AcDbSpline
210
0.0
220
0.0
230
1.0
 70
    11
 71
     3
 72
    48
 73
    44
 74
     0
 42
0.0000000001
 43
0.0000000001
 12
1.0
 22
0.0
 32
0.0
 13
1.0
 23
0.0
 33
0.0
 40
0.0
 40
0.0
 40
0.0
 40
0.0
 40
0.0833333333333333
 40
0.0833333333333333
 40
0.0833333333333333
 40
0.0833333333333333
 40
0.1666666666666667
 40
0.1666666666666667
 40
0.1666666666666667
 40
0.1666666666666667
 40
0.25
 40
0.25
 40
0.25
 40
0.25
 40
0.3333333333333333
 40
0.3333333333333333
 40
0.3333333333333333
 40
0.3333333333333333
 40
0.4166666666666667
 40
0.4166666666666667
 40
0.4166666666666667
 40
0.4166666666666667
 40
0.5
 40
0.5
 40
0.5
 40
0.5
 40
0.5833333333333334
 40
0.5833333333333334
 40
0.5833333333333334
 40
0.5833333333333334
 40
0.6666666666666666
 40
0.6666666666666666
 40
0.6666666666666666
 40
0.6666666666666666
 40
0.75
 40
0.75
 40
0.75
 40
0.75
 40
0.8333333333333334
 40
0.8333333333333334
 40
0.8333333333333334
 40
0.8333333333333334
 40
1.0
 40
1.0
 40
1.0
 40
1.0
 10
-1.26769
 20
-7.64299
 30
0.0
 10
-1.26769
 20
-7.64299
 30
0.0
 10
-1.26769
 20
-7.49822
 30
0.0
 10
-1.26769
 20
-7.49822
 30
0.0
 10
-1.26769
 20
-7.49822
 30
0.0
 10
-1.26769
 20
-7.49822
 30
0.0
 10
-1.531
 20
-7.49822
 30
0.0
 10
-1.531
 20
-7.49822
 30
0.0
 10
-1.531
 20
-7.49822
 30
0.0
 10
-1.531
 20
-7.49822
 30
0.0
 10
-1.531
 20
-7.42963
 30
0.0
 10
-1.531
 20
-7.42963
 30
0.0
 10
-1.531
 20
-7.42963
 30
0.0
 10
-1.531
 20
-7.42963
 30
0.0
 10
-1.25414
 20
-7.03678
 30
0.0
 10
-1.25414
 20
-7.03678
 30
0.0
 10
-1.25414
 20
-7.03678
 30
0.0
 10
-1.25414
 20
-7.03678
 30
0.0
 10
-1.19318
 20
-7.03678
 30
0.0
 10
-1.19318
 20
-7.03678
 30
0.0
 10
-1.19318
 20
-7.03678
 30
0.0
 10
-1.19318
 20
-7.03678
 30
0.0
 10
-1.19318
 20
-7.42963
 30
0.0
 10
-1.19318
 20
-7.42963
 30
0.0
 10
-1.19318
 20
-7.42963
 30
0.0
 10
-1.19318
 20
-7.42963
 30
0.0
 10
-1.11105
 20
-7.42963
 30
0.0
 10
-1.11105
 20
-7.42963
 30
0.0
 10
-1.11105
 20
-7.42963
 30
0.0
 10
-1.11105
 20
-7.42963
 30
0.0
 10
-1.11105
 20
-7.49822
 30
0.0
 10
-1.11105
 20
-7.49822
 30
0.0
 10
-1.11105
 20
-7.49822
 30
0.0
 10
-1.11105
 20
-7.49822
 30
0.0
 10
-1.19318
 20
-7.49822
 30
0.0
 10
-1.19318
 20
-7.49822
 30
0.0
 10
-1.19318
 20
-7.49822
 30
0.0
 10
-1.19318
 20
-7.49822
 30
0.0
 10
-1.19318
 20
-7.64299
 30
0.0
 10
-1.19318
 20
-7.64299
 30
0.0
 10
-1.19318
 20
-7.64299
 30
0.0
 10
-1.19318
 20
-7.64299
 30
0.0
 10
-1.26769
 20
-7.64299
 30
0.0
 10
-1.26769
 20
-7.64299
 30
0.0
  0
SPLINE
  5
4C
330
1F
100
AcDbEntity
  8
Layer 1
 62
   250
370
     9
100
AcDbSpline
210
0.0
220
0.0
230
1.0
 70
    11
 71
     3
 72
    16
 73
    12
 74
     0
 42
0.0000000001
 43
0.0000000001
 12
1.0
 22
0.0
 32
0.0
 13
1.0
 23
0.0
 33
0.0
 40
0.0
 40
0.0
 40
0.0
 40
0.0
 40
0.25
 40
0.25
 40
0.25
 40
0.25
 40
0.5
 40
0.5
 40
0.5
 40
0.5
 40
1.0
 40
1.0
 40
1.0
 40
1.0
 10
-1.26769
 20
-7.42963
 30
0.0
 10
-1.26769
 20
-7.42963
 30
0.0
 10
-1.26769
 20
-7.15687
 30
0.0
 10
-1.26769
 20
-7.15687
 30
0.0
 10
-1.26769
 20
-7.15687
 30
0.0
 10
-1.26769
 20
-7.15687
 30
0.0
 10
-1.45776
 20
-7.42963
 30
0.0
 10
-1.45776
 20
-7.42963
 30
0.0
 10
-1.45776
 20
-7.42963
 30
0.0
 10
-1.45776
 20
-7.42963
 30
0.0
 10
-1.26769
 20
-7.42963
 30
0.0
 10
-1.26769
 20
-7.42963
 30
0.0
  0
SPLINE
  5
4D
330
1F
100
AcDbEntity
  8
Layer 1
 62
   250
370
     9
100
AcDbSpline
210
0.0
220
0.0
230
1.0
 70
    11
 71
     3
 72
    36
 73
    32
 74
     0
 42
0.0000000001
 43
0.0000000001
 12
1.0
 22
0.0
 32
0.0
 13
1.0
 23
0.0
 33
0.0
 40
0.0
 40
0.0
 40
0.0
 40
0.0
 40
0.1111111111111111
 40
0.1111111111111111
 40
0.1111111111111111
 40
0.1111111111111111
 40
0.2222222222222222
 40
0.2222222222222222
 40
0.2222222222222222
 40
0.2222222222222222
 40
0.3333333333333333
 40
0.3333333333333333
 40
0.3333333333333333
 40
0.3333333333333333
 40
0.4444444444444444
 40
0.4444444444444444
 40
0.4444444444444444
 40
0.4444444444444444
 40
0.5555555555555556
 40
0.5555555555555556
 40
0.5555555555555556
 40
0.5555555555555556
 40
0.6666666666666666
 40
0.6666666666666666
 40
0.6666666666666666
 40
0.6666666666666666
 40
0.7777777777777778
 40
0.7777777777777778
 40
0.7777777777777778
 40
0.7777777777777778
 40
1.0
 40
1.0
 40
1.0
 40
1.0
 10
-0.63099
 20
-7.64299
 30
0.0
 10
-0.63099
 20
-7.64299
 30
0.0
 10
-0.63099
 20
-7.1079
 30
0.0
 10
-0.63099
 20
-7.1079
 30
0.0
 10
-0.63099
 20
-7.1079
 30
0.0
 10
-0.63099
 20
-7.1079
 30
0.0
 10
-0.83081
 20
-7.1079
 30
0.0
 10
-0.83081
 20
-7.1079
 30
0.0
 10
-0.83081
 20
-7.1079
 30
0.0
 10
-0.83081
 20
-7.1079
 30
0.0
 10
-0.83081
 20
-7.03678
 30
0.0
 10
-0.83081
 20
-7.03678
 30
0.0
 10
-0.83081
 20
-7.03678
 30
0.0
 10
-0.83081
 20
-7.03678
 30
0.0
 10
-0.35074
 20
-7.03678
 30
0.0
 10
-0.35074
 20
-7.03678
 30
0.0
 10
-0.35074
 20
-7.03678
 30
0.0
 10
-0.35074
 20
-7.03678
 30
0.0
 10
-0.35074
 20
-7.1079
 30
0.0
 10
-0.35074
 20
-7.1079
 30
0.0
 10
-0.35074
 20
-7.1079
 30
0.0
 10
-0.35074
 20
-7.1079
 30
0.0
 10
-0.55056
 20
-7.1079
 30
0.0
 10
-0.55056
 20
-7.1079
 30
0.0
 10
-0.55056
 20
-7.1079
 30
0.0
 10
-0.55056
 20
-7.1079
 30
0.0
 10
-0.55056
 20
-7.64299
 30
0.0
 10
-0.55056
 20
-7.64299
 30
0.0
 10
-0.55056
 20
-7.64299
 30
0.0
 10
-0.55056
 20
-7.64299
 30
0.0
 10
-0.63099
 20
-7.64299
 30
0.0
 10
-0.63099
 20
-7.64299
 30
0.0
  0
SPLINE
  5
4E
330
1F
100
AcDbEntity
  8
Layer 1
 62
   250
370
     9
100
AcDbSpline
210
0.0
220
0.0
230
1.0
 70
    11
 71
     3
 72
    52
 73
    48
 74
     0
 42
0.0000000001
 43
0.0000000001
 12
1.0
 22
0.0
 32
0.0
 13
1.0
 23
0.0
 33
0.0
 40
0.0
 40
0.0
 40
0.0
 40
0.0
 40
0.0769230769230769
 40
0.0769230769230769
 40
0.0769230769230769
 40
0.0769230769230769
 40
0.1538461538461539
 40
0.1538461538461539
 40
0.1538461538461539
 40
0.1538461538461539
 40
0.2307692307692308
 40
0.2307692307692308
 40
0.2307692307692308
 40
0.2307692307692308
 40
0.3076923076923077
 40
0.3076923076923077
 40
0.3076923076923077
 40
0.3076923076923077
 40
0.3846153846153846
 40
0.3846153846153846
 40
0.3846153846153846
 40
0.3846153846153846
 40
0.4615384615384616
 40
0.4615384615384616
 40
0.4615384615384616
 40
0.4615384615384616
 40
0.5384615384615384
 40
0.5384615384615384
 40
0.5384615384615384
 40
0.5384615384615384
 40
0.6153846153846154
 40
0.6153846153846154
 40
0.6153846153846154
 40
0.6153846153846154
 40
0.6923076923076923
 40
0.6923076923076923
 40
0.6923076923076923
 40
0.6923076923076923
 40
0.7692307692307693
 40
0.7692307692307693
 40
0.7692307692307693
 40
0.7692307692307693
 40
0.8461538461538461
 40
0.8461538461538461
 40
0.8461538461538461
 40
0.8461538461538461
 40
1.0
 40
1.0
 40
1.0
 40
1.0
 10
-0.26622
 20
-7.64299
 30
0.0
 10
-0.26622
 20
-7.64299
 30
0.0
 10
-0.26622
 20
-7.03678
 30
0.0
 10
-0.26622
 20
-7.03678
 30
0.0
 10
-0.26622
 20
-7.03678
 30
0.0
 10
-0.26622
 20
-7.03678
 30
0.0
 10
0.17151
 20
-7.03678
 30
0.0
 10
0.17151
 20
-7.03678
 30
0.0
 10
0.17151
 20
-7.03678
 30
0.0
 10
0.17151
 20
-7.03678
 30
0.0
 10
0.17151
 20
-7.1079
 30
0.0
 10
0.17151
 20
-7.1079
 30
0.0
 10
0.17151
 20
-7.1079
 30
0.0
 10
0.17151
 20
-7.1079
 30
0.0
 10
-0.18579
 20
-7.1079
 30
0.0
 10
-0.18579
 20
-7.1079
 30
0.0
 10
-0.18579
 20
-7.1079
 30
0.0
 10
-0.18579
 20
-7.1079
 30
0.0
 10
-0.18579
 20
-7.29417
 30
0.0
 10
-0.18579
 20
-7.29417
 30
0.0
 10
-0.18579
 20
-7.29417
 30
0.0
 10
-0.18579
 20
-7.29417
 30
0.0
 10
0.14865
 20
-7.29417
 30
0.0
 10
0.14865
 20
-7.29417
 30
0.0
 10
0.14865
 20
-7.29417
 30
0.0
 10
0.14865
 20
-7.29417
 30
0.0
 10
0.14865
 20
-7.36529
 30
0.0
 10
0.14865
 20
-7.36529
 30
0.0
 10
0.14865
 20
-7.36529
 30
0.0
 10
0.14865
 20
-7.36529
 30
0.0
 10
-0.18579
 20
-7.36529
 30
0.0
 10
-0.18579
 20
-7.36529
 30
0.0
 10
-0.18579
 20
-7.36529
 30
0.0
 10
-0.18579
 20
-7.36529
 30
0.0
 10
-0.18579
 20
-7.57188
 30
0.0
 10
-0.18579
 20
-7.57188
 30
0.0
 10
-0.18579
 20
-7.57188
 30
0.0
 10
-0.18579
 20
-7.57188
 30
0.0
 10
0.1859
 20
-7.57188
 30
0.0
 10
0.1859
 20
-7.57188
 30
0.0
 10
0.1859
 20
-7.57188
 30
0.0
 10
0.1859
 20
-7.57188
 30
0.0
 10
0.1859
 20
-7.64299
 30
0.0
 10
0.1859
 20
-7.64299
 30
0.0
 10
0.1859
 20
-7.64299
 30
0.0
 10
0.1859
 20
-7.64299
 30
0.0
 10
-0.26622
 20
-7.64299
 30
0.0
 10
-0.26622
 20
-7.64299
 30
0.0
  0
SPLINE
  5
4F
330
1F
100
AcDbEntity
  8
Layer 1
 62
   250
370
     9
100
AcDbSpline
210
0.0
220
0.0
230
1.0
 70
    11
 71
     3
 72
    64
 73
    60
 74
     0
 42
0.0000000001
 43
0.0000000001
 12
1.0
 22
0.0
 32
0.0
 13
1.0
 23
0.0
 33
0.0
 40
0.0
 40
0.0
 40
0.0
 40
0.0
 40
0.0625
 40
0.0625
 40
0.0625
 40
0.0625
 40
0.125
 40
0.125
 40
0.125
 40
0.125
 40
0.1875
 40
0.1875
 40
0.1875
 40
0.1875
 40
0.25
 40
0.25
 40
0.25
 40
0.25
 40
0.3125
 40
0.3125
 40
0.3125
 40
0.3125
 40
0.375
 40
0.375
 40
0.375
 40
0.375
 40
0.4375
 40
0.4375
 40
0.4375
 40
0.4375
 40
0.5
 40
0.5
 40
0.5
 40
0.5
 40
0.5625
 40
0.5625
 40
0.5625
 40
0.5625
 40
0.625
 40
0.625
 40
0.625
 40
0.625
 40
0.6875
 40
0.6875
 40
0.6875
 40
0.6875
 40
0.75
 40
0.75
 40
0.75
 40
0.75
 40
0.8125
 40
0.8125
 40
0.8125
 40
0.8125
 40
0.875
 40
0.875
 40
0.875
 40
0.875
 40
1.0
 40
1.0
 40
1.0
 40
1.0
 10
0.29512
 20
-7.64299
 30
0.0
 10
0.29512
 20
-7.64299
 30
0.0
 10
0.29512
 20
-7.03678
 30
0.0
 10
0.29512
 20
-7.03678
 30
0.0
 10
0.29512
 20
-7.03678
 30
0.0
 10
0.29512
 20
-7.03678
 30
0.0
 10
0.41535
 20
-7.03678
 30
0.0
 10
0.41535
 20
-7.03678
 30
0.0
 10
0.41535
 20
-7.03678
 30
0.0
 10
0.41535
 20
-7.03678
 30
0.0
 10
0.55872
 20
-7.4659
 30
0.0
 10
0.55872
 20
-7.4659
 30
0.0
 10
0.55872
 20
-7.4659
 30
0.0
 10
0.57198
 20
-7.50584
 30
0.0
 10
0.58158
 20
-7.53576
 30
0.0
 10
0.58764
 20
-7.55565
 30
0.0
 10
0.58764
 20
-7.55565
 30
0.0
 10
0.59456
 20
-7.53364
 30
0.0
 10
0.60542
 20
-7.50118
 30
0.0
 10
0.6201
 20
-7.45843
 30
0.0
 10
0.6201
 20
-7.45843
 30
0.0
 10
0.6201
 20
-7.45843
 30
0.0
 10
0.76601
 20
-7.03678
 30
0.0
 10
0.76601
 20
-7.03678
 30
0.0
 10
0.76601
 20
-7.03678
 30
0.0
 10
0.76601
 20
-7.03678
 30
0.0
 10
0.8734
 20
-7.03678
 30
0.0
 10
0.8734
 20
-7.03678
 30
0.0
 10
0.8734
 20
-7.03678
 30
0.0
 10
0.8734
 20
-7.03678
 30
0.0
 10
0.8734
 20
-7.64299
 30
0.0
 10
0.8734
 20
-7.64299
 30
0.0
 10
0.8734
 20
-7.64299
 30
0.0
 10
0.8734
 20
-7.64299
 30
0.0
 10
0.79635
 20
-7.64299
 30
0.0
 10
0.79635
 20
-7.64299
 30
0.0
 10
0.79635
 20
-7.64299
 30
0.0
 10
0.79635
 20
-7.64299
 30
0.0
 10
0.79635
 20
-7.13584
 30
0.0
 10
0.79635
 20
-7.13584
 30
0.0
 10
0.79635
 20
-7.13584
 30
0.0
 10
0.79635
 20
-7.13584
 30
0.0
 10
0.61939
 20
-7.64299
 30
0.0
 10
0.61939
 20
-7.64299
 30
0.0
 10
0.61939
 20
-7.64299
 30
0.0
 10
0.61939
 20
-7.64299
 30
0.0
 10
0.54715
 20
-7.64299
 30
0.0
 10
0.54715
 20
-7.64299
 30
0.0
 10
0.54715
 20
-7.64299
 30
0.0
 10
0.54715
 20
-7.64299
 30
0.0
 10
0.37217
 20
-7.12653
 30
0.0
 10
0.37217
 20
-7.12653
 30
0.0
 10
0.37217
 20
-7.12653
 30
0.0
 10
0.37217
 20
-7.12653
 30
0.0
 10
0.37217
 20
-7.64299
 30
0.0
 10
0.37217
 20
-7.64299
 30
0.0
 10
0.37217
 20
-7.64299
 30
0.0
 10
0.37217
 20
-7.64299
 30
0.0
 10
0.29512
 20
-7.64299
 30
0.0
 10
0.29512
 20
-7.64299
 30
0.0
  0
SPLINE
  5
50
330
1F
100
AcDbEntity
  8
Layer 1
 62
   250
370
     9
100
AcDbSpline
210
0.0
220
0.0
230
1.0
 70
    11
 71
     3
 72
    48
 73
    44
 74
     0
 42
0.0000000001
 43
0.0000000001
 12
1.0
 22
0.0
 32
0.0
 13
1.0
 23
0.0
 33
0.0
 40
0.0
 40
0.0
 40
0.0
 40
0.0
 40
0.0833333333333333
 40
0.0833333333333333
 40
0.0833333333333333
 40
0.0833333333333333
 40
0.1666666666666667
 40
0.1666666666666667
 40
0.1666666666666667
 40
0.1666666666666667
 40
0.25
 40
0.25
 40
0.25
 40
0.25
 40
0.3333333333333333
 40
0.3333333333333333
 40
0.3333333333333333
 40
0.3333333333333333
 40
0.4166666666666667
 40
0.4166666666666667
 40
0.4166666666666667
 40
0.4166666666666667
 40
0.5
 40
0.5
 40
0.5
 40
0.5
 40
0.5833333333333334
 40
0.5833333333333334
 40
0.5833333333333334
 40
0.5833333333333334
 40
0.6666666666666666
 40
0.6666666666666666
 40
0.6666666666666666
 40
0.6666666666666666
 40
0.75
 40
0.75
 40
0.75
 40
0.75
 40
0.8333333333333334
 40
0.8333333333333334
 40
0.8333333333333334
 40
0.8333333333333334
 40
1.0
 40
1.0
 40
1.0
 40
1.0
 10
1.00209
 20
-7.64299
 30
0.0
 10
1.00209
 20
-7.64299
 30
0.0
 10
1.00209
 20
-7.03678
 30
0.0
 10
1.00209
 20
-7.03678
 30
0.0
 10
1.00209
 20
-7.03678
 30
0.0
 10
1.00209
 20
-7.03678
 30
0.0
 10
1.23098
 20
-7.03678
 30
0.0
 10
1.23098
 20
-7.03678
 30
0.0
 10
1.23098
 20
-7.03678
 30
0.0
 10
1.27119
 20
-7.03678
 30
0.0
 10
1.30196
 20
-7.03876
 30
0.0
 10
1.32326
 20
-7.04257
 30
0.0
 10
1.32326
 20
-7.04257
 30
0.0
 10
1.35304
 20
-7.04751
 30
0.0
 10
1.37802
 20
-7.05696
 30
0.0
 10
1.39819
 20
-7.07079
 30
0.0
 10
1.39819
 20
-7.07079
 30
0.0
 10
1.41837
 20
-7.08476
 30
0.0
 10
1.4346
 20
-7.10424
 30
0.0
 10
1.44688
 20
-7.12921
 30
0.0
 10
1.44688
 20
-7.12921
 30
0.0
 10
1.45915
 20
-7.15419
 30
0.0
 10
1.46522
 20
-7.18171
 30
0.0
 10
1.46522
 20
-7.21176
 30
0.0
 10
1.46522
 20
-7.21176
 30
0.0
 10
1.46522
 20
-7.26313
 30
0.0
 10
1.44885
 20
-7.30673
 30
0.0
 10
1.41597
 20
-7.34229
 30
0.0
 10
1.41597
 20
-7.34229
 30
0.0
 10
1.38324
 20
-7.37799
 30
0.0
 10
1.32383
 20
-7.39576
 30
0.0
 10
1.23803
 20
-7.39576
 30
0.0
 10
1.23803
 20
-7.39576
 30
0.0
 10
1.23803
 20
-7.39576
 30
0.0
 10
1.08253
 20
-7.39576
 30
0.0
 10
1.08253
 20
-7.39576
 30
0.0
 10
1.08253
 20
-7.39576
 30
0.0
 10
1.08253
 20
-7.39576
 30
0.0
 10
1.08253
 20
-7.64299
 30
0.0
 10
1.08253
 20
-7.64299
 30
0.0
 10
1.08253
 20
-7.64299
 30
0.0
 10
1.08253
 20
-7.64299
 30
0.0
 10
1.00209
 20
-7.64299
 30
0.0
 10
1.00209
 20
-7.64299
 30
0.0
  0
SPLINE
  5
51
330
1F
100
AcDbEntity
  8
Layer 1
 62
   250
370
     9
100
AcDbSpline
210
0.0
220
0.0
230
1.0
 70
    11
 71
     3
 72
    36
 73
    32
 74
     0
 42
0.0000000001
 43
0.0000000001
 12
1.0
 22
0.0
 32
0.0
 13
1.0
 23
0.0
 33
0.0
 40
0.0
 40
0.0
 40
0.0
 40
0.0
 40
0.1111111111111111
 40
0.1111111111111111
 40
0.1111111111111111
 40
0.1111111111111111
 40
0.2222222222222222
 40
0.2222222222222222
 40
0.2222222222222222
 40
0.2222222222222222
 40
0.3333333333333333
 40
0.3333333333333333
 40
0.3333333333333333
 40
0.3333333333333333
 40
0.4444444444444444
 40
0.4444444444444444
 40
0.4444444444444444
 40
0.4444444444444444
 40
0.5555555555555556
 40
0.5555555555555556
 40
0.5555555555555556
 40
0.5555555555555556
 40
0.6666666666666666
 40
0.6666666666666666
 40
0.6666666666666666
 40
0.6666666666666666
 40
0.7777777777777778
 40
0.7777777777777778
 40
0.7777777777777778
 40
0.7777777777777778
 40
1.0
 40
1.0
 40
1.0
 40
1.0
 10
1.08253
 20
-7.32465
 30
0.0
 10
1.08253
 20
-7.32465
 30
0.0
 10
1.23916
 20
-7.32465
 30
0.0
 10
1.23916
 20
-7.32465
 30
0.0
 10
1.23916
 20
-7.32465
 30
0.0
 10
1.29109
 20
-7.32465
 30
0.0
 10
1.32778
 20
-7.31506
 30
0.0
 10
1.34965
 20
-7.29572
 30
0.0
 10
1.34965
 20
-7.29572
 30
0.0
 10
1.37138
 20
-7.27639
 30
0.0
 10
1.38225
 20
-7.2493
 30
0.0
 10
1.38225
 20
-7.21416
 30
0.0
 10
1.38225
 20
-7.21416
 30
0.0
 10
1.38225
 20
-7.1889
 30
0.0
 10
1.3759
 20
-7.16717
 30
0.0
 10
1.36306
 20
-7.14911
 30
0.0
 10
1.36306
 20
-7.14911
 30
0.0
 10
1.35022
 20
-7.13105
 30
0.0
 10
1.33328
 20
-7.11905
 30
0.0
 10
1.3124
 20
-7.11327
 30
0.0
 10
1.3124
 20
-7.11327
 30
0.0
 10
1.29885
 20
-7.10974
 30
0.0
 10
1.27387
 20
-7.1079
 30
0.0
 10
1.23761
 20
-7.1079
 30
0.0
 10
1.23761
 20
-7.1079
 30
0.0
 10
1.23761
 20
-7.1079
 30
0.0
 10
1.08253
 20
-7.1079
 30
0.0
 10
1.08253
 20
-7.1079
 30
0.0
 10
1.08253
 20
-7.1079
 30
0.0
 10
1.08253
 20
-7.1079
 30
0.0
 10
1.08253
 20
-7.32465
 30
0.0
 10
1.08253
 20
-7.32465
 30
0.0
  0
SPLINE
  5
52
330
1F
100
AcDbEntity
  8
Layer 1
 62
   250
370
     9
100
AcDbSpline
210
0.0
220
0.0
230
1.0
 70
    11
 71
     3
 72
    28
 73
    24
 74
     0
 42
0.0000000001
 43
0.0000000001
 12
1.0
 22
0.0
 32
0.0
 13
1.0
 23
0.0
 33
0.0
 40
0.0
 40
0.0
 40
0.0
 40
0.0
 40
0.1428571428571428
 40
0.1428571428571428
 40
0.1428571428571428
 40
0.1428571428571428
 40
0.2857142857142857
 40
0.2857142857142857
 40
0.2857142857142857
 40
0.2857142857142857
 40
0.4285714285714285
 40
0.4285714285714285
 40
0.4285714285714285
 40
0.4285714285714285
 40
0.5714285714285714
 40
0.5714285714285714
 40
0.5714285714285714
 40
0.5714285714285714
 40
0.7142857142857143
 40
0.7142857142857143
 40
0.7142857142857143
 40
0.7142857142857143
 40
1.0
 40
1.0
 40
1.0
 40
1.0
 10
1.56344
 20
-7.64299
 30
0.0
 10
1.56344
 20
-7.64299
 30
0.0
 10
1.56344
 20
-7.03678
 30
0.0
 10
1.56344
 20
-7.03678
 30
0.0
 10
1.56344
 20
-7.03678
 30
0.0
 10
1.56344
 20
-7.03678
 30
0.0
 10
1.64387
 20
-7.03678
 30
0.0
 10
1.64387
 20
-7.03678
 30
0.0
 10
1.64387
 20
-7.03678
 30
0.0
 10
1.64387
 20
-7.03678
 30
0.0
 10
1.64387
 20
-7.57188
 30
0.0
 10
1.64387
 20
-7.57188
 30
0.0
 10
1.64387
 20
-7.57188
 30
0.0
 10
1.64387
 20
-7.57188
 30
0.0
 10
1.9419
 20
-7.57188
 30
0.0
 10
1.9419
 20
-7.57188
 30
0.0
 10
1.9419
 20
-7.57188
 30
0.0
 10
1.9419
 20
-7.57188
 30
0.0
 10
1.9419
 20
-7.64299
 30
0.0
 10
1.9419
 20
-7.64299
 30
0.0
 10
1.9419
 20
-7.64299
 30
0.0
 10
1.9419
 20
-7.64299
 30
0.0
 10
1.56344
 20
-7.64299
 30
0.0
 10
1.56344
 20
-7.64299
 30
0.0
  0
SPLINE
  5
53
330
1F
100
AcDbEntity
  8
Layer 1
 62
   250
370
     9
100
AcDbSpline
210
0.0
220
0.0
230
1.0
 70
    11
 71
     3
 72
    36
 73
    32
 74
     0
 42
0.0000000001
 43
0.0000000001
 12
1.0
 22
0.0
 32
0.0
 13
1.0
 23
0.0
 33
0.0
 40
0.0
 40
0.0
 40
0.0
 40
0.0
 40
0.1111111111111111
 40
0.1111111111111111
 40
0.1111111111111111
 40
0.1111111111111111
 40
0.2222222222222222
 40
0.2222222222222222
 40
0.2222222222222222
 40
0.2222222222222222
 40
0.3333333333333333
 40
0.3333333333333333
 40
0.3333333333333333
 40
0.3333333333333333
 40
0.4444444444444444
 40
0.4444444444444444
 40
0.4444444444444444
 40
0.4444444444444444
 40
0.5555555555555556
 40
0.5555555555555556
 40
0.5555555555555556
 40
0.5555555555555556
 40
0.6666666666666666
 40
0.6666666666666666
 40
0.6666666666666666
 40
0.6666666666666666
 40
0.7777777777777778
 40
0.7777777777777778
 40
0.7777777777777778
 40
0.7777777777777778
 40
1.0
 40
1.0
 40
1.0
 40
1.0
 10
1.97125
 20
-7.64299
 30
0.0
 10
1.97125
 20
-7.64299
 30
0.0
 10
2.2038
 20
-7.03678
 30
0.0
 10
2.2038
 20
-7.03678
 30
0.0
 10
2.2038
 20
-7.03678
 30
0.0
 10
2.2038
 20
-7.03678
 30
0.0
 10
2.292
 20
-7.03678
 30
0.0
 10
2.292
 20
-7.03678
 30
0.0
 10
2.292
 20
-7.03678
 30
0.0
 10
2.292
 20
-7.03678
 30
0.0
 10
2.5388
 20
-7.64299
 30
0.0
 10
2.5388
 20
-7.64299
 30
0.0
 10
2.5388
 20
-7.64299
 30
0.0
 10
2.5388
 20
-7.64299
 30
0.0
 10
2.4475
 20
-7.64299
 30
0.0
 10
2.4475
 20
-7.64299
 30
0.0
 10
2.4475
 20
-7.64299
 30
0.0
 10
2.4475
 20
-7.64299
 30
0.0
 10
2.37737
 20
-7.45927
 30
0.0
 10
2.37737
 20
-7.45927
 30
0.0
 10
2.37737
 20
-7.45927
 30
0.0
 10
2.37737
 20
-7.45927
 30
0.0
 10
2.1221
 20
-7.45927
 30
0.0
 10
2.1221
 20
-7.45927
 30
0.0
 10
2.1221
 20
-7.45927
 30
0.0
 10
2.1221
 20
-7.45927
 30
0.0
 10
2.05634
 20
-7.64299
 30
0.0
 10
2.05634
 20
-7.64299
 30
0.0
 10
2.05634
 20
-7.64299
 30
0.0
 10
2.05634
 20
-7.64299
 30
0.0
 10
1.97125
 20
-7.64299
 30
0.0
 10
1.97125
 20
-7.64299
 30
0.0
  0
SPLINE
  5
54
330
1F
100
AcDbEntity
  8
Layer 1
 62
   250
370
     9
100
AcDbSpline
210
0.0
220
0.0
230
1.0
 70
    11
 71
     3
 72
    24
 73
    20
 74
     0
 42
0.0000000001
 43
0.0000000001
 12
1.0
 22
0.0
 32
0.0
 13
1.0
 23
0.0
 33
0.0
 40
0.0
 40
0.0
 40
0.0
 40
0.0
 40
0.1666666666666667
 40
0.1666666666666667
 40
0.1666666666666667
 40
0.1666666666666667
 40
0.3333333333333333
 40
0.3333333333333333
 40
0.3333333333333333
 40
0.3333333333333333
 40
0.5
 40
0.5
 40
0.5
 40
0.5
 40
0.6666666666666666
 40
0.6666666666666666
 40
0.6666666666666666
 40
0.6666666666666666
 40
1.0
 40
1.0
 40
1.0
 40
1.0
 10
2.14566
 20
-7.39407
 30
0.0
 10
2.14566
 20
-7.39407
 30
0.0
 10
2.35225
 20
-7.39407
 30
0.0
 10
2.35225
 20
-7.39407
 30
0.0
 10
2.35225
 20
-7.39407
 30
0.0
 10
2.35225
 20
-7.39407
 30
0.0
 10
2.28903
 20
-7.22602
 30
0.0
 10
2.28903
 20
-7.22602
 30
0.0
 10
2.28903
 20
-7.22602
 30
0.0
 10
2.26998
 20
-7.17493
 30
0.0
 10
2.25559
 20
-7.13274
 30
0.0
 10
2.24557
 20
-7.09944
 30
0.0
 10
2.24557
 20
-7.09944
 30
0.0
 10
2.23725
 20
-7.13895
 30
0.0
 10
2.2261
 20
-7.17775
 30
0.0
 10
2.21213
 20
-7.21614
 30
0.0
 10
2.21213
 20
-7.21614
 30
0.0
 10
2.21213
 20
-7.21614
 30
0.0
 10
2.14566
 20
-7.39407
 30
0.0
 10
2.14566
 20
-7.39407
 30
0.0
  0
SPLINE
  5
55
330
1F
100
AcDbEntity
  8
Layer 1
 62
   250
370
     9
100
AcDbSpline
210
0.0
220
0.0
230
1.0
 70
    11
 71
     3
 72
    36
 73
    32
 74
     0
 42
0.0000000001
 43
0.0000000001
 12
1.0
 22
0.0
 32
0.0
 13
1.0
 23
0.0
 33
0.0
 40
0.0
 40
0.0
 40
0.0
 40
0.0
 40
0.1111111111111111
 40
0.1111111111111111
 40
0.1111111111111111
 40
0.1111111111111111
 40
0.2222222222222222
 40
0.2222222222222222
 40
0.2222222222222222
 40
0.2222222222222222
 40
0.3333333333333333
 40
0.3333333333333333
 40
0.3333333333333333
 40
0.3333333333333333
 40
0.4444444444444444
 40
0.4444444444444444
 40
0.4444444444444444
 40
0.4444444444444444
 40
0.5555555555555556
 40
0.5555555555555556
 40
0.5555555555555556
 40
0.5555555555555556
 40
0.6666666666666666
 40
0.6666666666666666
 40
0.6666666666666666
 40
0.6666666666666666
 40
0.7777777777777778
 40
0.7777777777777778
 40
0.7777777777777778
 40
0.7777777777777778
 40
1.0
 40
1.0
 40
1.0
 40
1.0
 10
2.69375
 20
-7.64299
 30
0.0
 10
2.69375
 20
-7.64299
 30
0.0
 10
2.69375
 20
-7.1079
 30
0.0
 10
2.69375
 20
-7.1079
 30
0.0
 10
2.69375
 20
-7.1079
 30
0.0
 10
2.69375
 20
-7.1079
 30
0.0
 10
2.49393
 20
-7.1079
 30
0.0
 10
2.49393
 20
-7.1079
 30
0.0
 10
2.49393
 20
-7.1079
 30
0.0
 10
2.49393
 20
-7.1079
 30
0.0
 10
2.49393
 20
-7.03678
 30
0.0
 10
2.49393
 20
-7.03678
 30
0.0
 10
2.49393
 20
-7.03678
 30
0.0
 10
2.49393
 20
-7.03678
 30
0.0
 10
2.974
 20
-7.03678
 30
0.0
 10
2.974
 20
-7.03678
 30
0.0
 10
2.974
 20
-7.03678
 30
0.0
 10
2.974
 20
-7.03678
 30
0.0
 10
2.974
 20
-7.1079
 30
0.0
 10
2.974
 20
-7.1079
 30
0.0
 10
2.974
 20
-7.1079
 30
0.0
 10
2.974
 20
-7.1079
 30
0.0
 10
2.77418
 20
-7.1079
 30
0.0
 10
2.77418
 20
-7.1079
 30
0.0
 10
2.77418
 20
-7.1079
 30
0.0
 10
2.77418
 20
-7.1079
 30
0.0
 10
2.77418
 20
-7.64299
 30
0.0
 10
2.77418
 20
-7.64299
 30
0.0
 10
2.77418
 20
-7.64299
 30
0.0
 10
2.77418
 20
-7.64299
 30
0.0
 10
2.69375
 20
-7.64299
 30
0.0
 10
2.69375
 20
-7.64299
 30
0.0
  0
SPLINE
  5
56
330
1F
100
AcDbEntity
  8
Layer 1
 62
   250
370
     9
100
AcDbSpline
210
0.0
220
0.0
230
1.0
 70
    11
 71
     3
 72
    52
 73
    48
 74
     0
 42
0.0000000001
 43
0.0000000001
 12
1.0
 22
0.0
 32
0.0
 13
1.0
 23
0.0
 33
0.0
 40
0.0
 40
0.0
 40
0.0
 40
0.0
 40
0.0769230769230769
 40
0.0769230769230769
 40
0.0769230769230769
 40
0.0769230769230769
 40
0.1538461538461539
 40
0.1538461538461539
 40
0.1538461538461539
 40
0.1538461538461539
 40
0.2307692307692308
 40
0.2307692307692308
 40
0.2307692307692308
 40
0.2307692307692308
 40
0.3076923076923077
 40
0.3076923076923077
 40
0.3076923076923077
 40
0.3076923076923077
 40
0.3846153846153846
 40
0.3846153846153846
 40
0.3846153846153846
 40
0.3846153846153846
 40
0.4615384615384616
 40
0.4615384615384616
 40
0.4615384615384616
 40
0.4615384615384616
 40
0.5384615384615384
 40
0.5384615384615384
 40
0.5384615384615384
 40
0.5384615384615384
 40
0.6153846153846154
 40
0.6153846153846154
 40
0.6153846153846154
 40
0.6153846153846154
 40
0.6923076923076923
 40
0.6923076923076923
 40
0.6923076923076923
 40
0.6923076923076923
 40
0.7692307692307693
 40
0.7692307692307693
 40
0.7692307692307693
 40
0.7692307692307693
 40
0.8461538461538461
 40
0.8461538461538461
 40
0.8461538461538461
 40
0.8461538461538461
 40
1.0
 40
1.0
 40
1.0
 40
1.0
 10
3.05852
 20
-7.64299
 30
0.0
 10
3.05852
 20
-7.64299
 30
0.0
 10
3.05852
 20
-7.03678
 30
0.0
 10
3.05852
 20
-7.03678
 30
0.0
 10
3.05852
 20
-7.03678
 30
0.0
 10
3.05852
 20
-7.03678
 30
0.0
 10
3.49625
 20
-7.03678
 30
0.0
 10
3.49625
 20
-7.03678
 30
0.0
 10
3.49625
 20
-7.03678
 30
0.0
 10
3.49625
 20
-7.03678
 30
0.0
 10
3.49625
 20
-7.1079
 30
0.0
 10
3.49625
 20
-7.1079
 30
0.0
 10
3.49625
 20
-7.1079
 30
0.0
 10
3.49625
 20
-7.1079
 30
0.0
 10
3.13895
 20
-7.1079
 30
0.0
 10
3.13895
 20
-7.1079
 30
0.0
 10
3.13895
 20
-7.1079
 30
0.0
 10
3.13895
 20
-7.1079
 30
0.0
 10
3.13895
 20
-7.29417
 30
0.0
 10
3.13895
 20
-7.29417
 30
0.0
 10
3.13895
 20
-7.29417
 30
0.0
 10
3.13895
 20
-7.29417
 30
0.0
 10
3.47339
 20
-7.29417
 30
0.0
 10
3.47339
 20
-7.29417
 30
0.0
 10
3.47339
 20
-7.29417
 30
0.0
 10
3.47339
 20
-7.29417
 30
0.0
 10
3.47339
 20
-7.36529
 30
0.0
 10
3.47339
 20
-7.36529
 30
0.0
 10
3.47339
 20
-7.36529
 30
0.0
 10
3.47339
 20
-7.36529
 30
0.0
 10
3.13895
 20
-7.36529
 30
0.0
 10
3.13895
 20
-7.36529
 30
0.0
 10
3.13895
 20
-7.36529
 30
0.0
 10
3.13895
 20
-7.36529
 30
0.0
 10
3.13895
 20
-7.57188
 30
0.0
 10
3.13895
 20
-7.57188
 30
0.0
 10
3.13895
 20
-7.57188
 30
0.0
 10
3.13895
 20
-7.57188
 30
0.0
 10
3.51064
 20
-7.57188
 30
0.0
 10
3.51064
 20
-7.57188
 30
0.0
 10
3.51064
 20
-7.57188
 30
0.0
 10
3.51064
 20
-7.57188
 30
0.0
 10
3.51064
 20
-7.64299
 30
0.0
 10
3.51064
 20
-7.64299
 30
0.0
 10
3.51064
 20
-7.64299
 30
0.0
 10
3.51064
 20
-7.64299
 30
0.0
 10
3.05852
 20
-7.64299
 30
0.0
 10
3.05852
 20
-7.64299
 30
0.0
  0
SPLINE
  5
57
330
1F
100
AcDbEntity
  8
Layer 1
 62
     3
370
     9
100
AcDbSpline
210
0.0
220
0.0
230
1.0
 70
    24
 71
     3
 72
     8
 73
     4
 74
     0
 42
0.0000000001
 43
0.0000000001
 12
1.0
 22
0.0
 32
0.0
 13
1.0
 23
0.0
 33
0.0
 40
0.0
 40
0.0
 40
0.0
 40
0.0
 40
1.0
 40
1.0
 40
1.0
 40
1.0
 10
-8.67298
 20
6.16252
 30
0.0
 10
-8.67298
 20
6.16252
 30
0.0
 10
8.7929
 20
6.16252
 30
0.0
 10
8.7929
 20
6.16252
 30
0.0
  0
SPLINE
  5
58
330
1F
100
AcDbEntity
  8
Layer 1
 62
     3
370
     9
100
AcDbSpline
210
0.0
220
0.0
230
1.0
 70
     8
 71
     3
 72
    12
 73
     8
 74
     0
 42
0.0000000001
 43
0.0000000001
 12
1.0
 22
0.0
 32
0.0
 13
1.0
 23
0.0
 33
0.0
 40
0.0
 40
0.0
 40
0.0
 40
0.0
 40
0.3333333333333333
 40
0.3333333333333333
 40
0.3333333333333333
 40
0.3333333333333333
 40
1.0
 40
1.0
 40
1.0
 40
1.0
 10
-8.67298
 20
6.16252
 30
0.0
 10
-8.78783
 20
6.16252
 30
0.0
 10
-8.89797
 20
6.1169
 30
0.0
 10
-8.97918
 20
6.03569
 30
0.0
 10
-8.97918
 20
6.03569
 30
0.0
 10
-9.06039
 20
5.95448
 30
0.0
 10
-9.10602
 20
5.84433
 30
0.0
 10
-9.10602
 20
5.72949
 30
0.0
  0
SPLINE
  5
59
330
1F
100
AcDbEntity
  8
Layer 1
 62
     3
370
     9
100
AcDbSpline
210
0.0
220
0.0
230
1.0
 70
     8
 71
     3
 72
    12
 73
     8
 74
     0
 42
0.0000000001
 43
0.0000000001
 12
1.0
 22
0.0
 32
0.0
 13
1.0
 23
0.0
 33
0.0
 40
0.0
 40
0.0
 40
0.0
 40
0.0
 40
0.3333333333333333
 40
0.3333333333333333
 40
0.3333333333333333
 40
0.3333333333333333
 40
1.0
 40
1.0
 40
1.0
 40
1.0
 10
9.22594
 20
5.72949
 30
0.0
 10
9.22594
 20
5.84433
 30
0.0
 10
9.18032
 20
5.95448
 30
0.0
 10
9.0991
 20
6.03569
 30
0.0
 10
9.0991
 20
6.03569
 30
0.0
 10
9.0179
 20
6.1169
 30
0.0
 10
8.90775
 20
6.16252
 30
0.0
 10
8.7929
 20
6.16252
 30
0.0
  0
SPLINE
  5
5A
330
1F
100
AcDbEntity
  8
Layer 1
 62
     3
370
     9
100
AcDbSpline
210
0.0
220
0.0
230
1.0
 70
    24
 71
     3
 72
     8
 73
     4
 74
     0
 42
0.0000000001
 43
0.0000000001
 12
1.0
 22
0.0
 32
0.0
 13
1.0
 23
0.0
 33
0.0
 40
0.0
 40
0.0
 40
0.0
 40
0.0
 40
1.0
 40
1.0
 40
1.0
 40
1.0
 10
9.22594
 20
5.72949
 30
0.0
 10
9.22594
 20
5.72949
 30
0.0
 10
9.22594
 20
-5.1369
 30
0.0
 10
9.22594
 20
-5.1369
 30
0.0
  0
SPLINE
  5
5B
330
1F
100
AcDbEntity
  8
Layer 1
 62
     3
370
     9
100
AcDbSpline
210
0.0
220
0.0
230
1.0
 70
    24
 71
     3
 72
     8
 73
     4
 74
     0
 42
0.0000000001
 43
0.0000000001
 12
1.0
 22
0.0
 32
0.0
 13
1.0
 23
0.0
 33
0.0
 40
0.0
 40
0.0
 40
0.0
 40
0.0
 40
1.0
 40
1.0
 40
1.0
 40
1.0
 10
8.7929
 20
-5.56994
 30
0.0
 10
8.7929
 20
-5.56994
 30
0.0
 10
-8.67298
 20
-5.56994
 30
0.0
 10
-8.67298
 20
-5.56994
 30
0.0
  0
SPLINE
  5
5C
330
1F
100
AcDbEntity
  8
Layer 1
 62
     3
370
     9
100
AcDbSpline
210
0.0
220
0.0
230
1.0
 70
     8
 71
     3
 72
    12
 73
     8
 74
     0
 42
0.0000000001
 43
0.0000000001
 12
1.0
 22
0.0
 32
0.0
 13
1.0
 23
0.0
 33
0.0
 40
0.0
 40
0.0
 40
0.0
 40
0.0
 40
0.3333333333333333
 40
0.3333333333333333
 40
0.3333333333333333
 40
0.3333333333333333
 40
1.0
 40
1.0
 40
1.0
 40
1.0
 10
-9.10602
 20
-5.1369
 30
0.0
 10
-9.10602
 20
-5.25175
 30
0.0
 10
-9.06039
 20
-5.36189
 30
0.0
 10
-8.97918
 20
-5.4431
 30
0.0
 10
-8.97918
 20
-5.4431
 30
0.0
 10
-8.89797
 20
-5.52432
 30
0.0
 10
-8.78783
 20
-5.56994
 30
0.0
 10
-8.67298
 20
-5.56994
 30
0.0
  0
SPLINE
  5
5D
330
1F
100
AcDbEntity
  8
Layer 1
 62
     3
370
     9
100
AcDbSpline
210
0.0
220
0.0
230
1.0
 70
     8
 71
     3
 72
     8
 73
     4
 74
     0
 42
0.0000000001
 43
0.0000000001
 12
1.0
 22
0.0
 32
0.0
 13
1.0
 23
0.0
 33
0.0
 40
0.0
 40
0.0
 40
0.0
 40
0.0
 40
1.0
 40
1.0
 40
1.0
 40
1.0
 10
8.7929
 20
-5.56994
 30
0.0
 10
9.03206
 20
-5.56994
 30
0.0
 10
9.22594
 20
-5.37606
 30
0.0
 10
9.22594
 20
-5.1369
 30
0.0
  0
SPLINE
  5
5E
330
1F
100
AcDbEntity
  8
Layer 1
 62
     3
370
     9
100
AcDbSpline
210
0.0
220
0.0
230
1.0
 70
    24
 71
     3
 72
     8
 73
     4
 74
     0
 42
0.0000000001
 43
0.0000000001
 12
1.0
 22
0.0
 32
0.0
 13
1.0
 23
0.0
 33
0.0
 40
0.0
 40
0.0
 40
0.0
 40
0.0
 40
1.0
 40
1.0
 40
1.0
 40
1.0
 10
-9.10602
 20
-5.1369
 30
0.0
 10
-9.10602
 20
-5.1369
 30
0.0
 10
-9.10602
 20
5.72949
 30
0.0
 10
-9.10602
 20
5.72949
 30
0.0
  0
SPLINE
  5
5F
330
1F
100
AcDbEntity
  8
Layer 1
 62
     3
370
     9
100
AcDbSpline
210
0.0
220
0.0
230
1.0
 70
    24
 71
     3
 72
     8
 73
     4
 74
     0
 42
0.0000000001
 43
0.0000000001
 12
1.0
 22
0.0
 32
0.0
 13
1.0
 23
0.0
 33
0.0
 40
0.0
 40
0.0
 40
0.0
 40
0.0
 40
1.0
 40
1.0
 40
1.0
 40
1.0
 10
8.7929
 20
6.16252
 30
0.0
 10
8.7929
 20
6.16252
 30
0.0
 10
-8.67298
 20
6.16252
 30
0.0
 10
-8.67298
 20
6.16252
 30
0.0
  0
SPLINE
  5
61
330
1F
100
AcDbEntity
  8
layer 2
 62
     1
370
     9
100
AcDbSpline
210
0.0
220
0.0
230
1.0
 70
    24
 71
     3
 72
     8
 73
     4
 74
     0
 42
0.0000000001
 43
0.0000000001
 12
1.0
 22
0.0
 32
0.0
 13
1.0
 23
0.0
 33
0.0
 40
0.0
 40
0.0
 40
0.0
 40
0.0
 40
1.0
 40
1.0
 40
1.0
 40
1.0
 10
-9.10602
 20
5.87383
 30
0.0
 10
-9.10602
 20
5.87383
 30
0.0
 10
-9.10602
 20
7.31309
 30
0.0
 10
-9.10602
 20
7.31309
 30
0.0
  0
SPLINE
  5
62
330
1F
100
AcDbEntity
  8
layer 2
 62
     1
370
     9
100
AcDbSpline
210
0.0
220
0.0
230
1.0
 70
    24
 71
     3
 72
     8
 73
     4
 74
     0
 42
0.0000000001
 43
0.0000000001
 12
1.0
 22
0.0
 32
0.0
 13
1.0
 23
0.0
 33
0.0
 40
0.0
 40
0.0
 40
0.0
 40
0.0
 40
1.0
 40
1.0
 40
1.0
 40
1.0
 10
9.22594
 20
5.87383
 30
0.0
 10
9.22594
 20
5.87383
 30
0.0
 10
9.22594
 20
7.31309
 30
0.0
 10
9.22594
 20
7.31309
 30
0.0
  0
SPLINE
  5
63
330
1F
100
AcDbEntity
  8
layer 2
 62
     1
370
     9
100
AcDbSpline
210
0.0
220
0.0
230
1.0
 70
    24
 71
     3
 72
     8
 73
     4
 74
     0
 42
0.0000000001
 43
0.0000000001
 12
1.0
 22
0.0
 32
0.0
 13
1.0
 23
0.0
 33
0.0
 40
0.0
 40
0.0
 40
0.0
 40
0.0
 40
1.0
 40
1.0
 40
1.0
 40
1.0
 10
-8.52863
 20
7.0244
 30
0.0
 10
-8.52863
 20
7.0244
 30
0.0
 10
8.64855
 20
7.0244
 30
0.0
 10
8.64855
 20
7.0244
 30
0.0
  0
SPLINE
  5
64
330
1F
100
AcDbEntity
  8
layer 2
 62
     1
370
     9
100
AcDbSpline
210
0.0
220
0.0
230
1.0
 70
    27
 71
     3
 72
    12
 73
     8
 74
     0
 42
0.0000000001
 43
0.0000000001
 12
1.0
 22
0.0
 32
0.0
 13
1.0
 23
0.0
 33
0.0
 40
0.0
 40
0.0
 40
0.0
 40
0.0
 40
0.3333333333333333
 40
0.3333333333333333
 40
0.3333333333333333
 40
0.3333333333333333
 40
1.0
 40
1.0
 40
1.0
 40
1.0
 10
-8.52863
 20
7.12063
 30
0.0
 10
-8.52863
 20
7.12063
 30
0.0
 10
-9.10602
 20
7.0244
 30
0.0
 10
-9.10602
 20
7.0244
 30
0.0
 10
-9.10602
 20
7.0244
 30
0.0
 10
-9.10602
 20
7.0244
 30
0.0
 10
-8.52863
 20
7.12063
 30
0.0
 10
-8.52863
 20
7.12063
 30
0.0
  0
SPLINE
  5
65
330
1F
100
AcDbEntity
  8
layer 2
 62
     1
370
     9
100
AcDbSpline
210
0.0
220
0.0
230
1.0
 70
     8
 71
     3
 72
    12
 73
     8
 74
     0
 42
0.0000000001
 43
0.0000000001
 12
1.0
 22
0.0
 32
0.0
 13
1.0
 23
0.0
 33
0.0
 40
0.0
 40
0.0
 40
0.0
 40
0.0
 40
0.3333333333333333
 40
0.3333333333333333
 40
0.3333333333333333
 40
0.3333333333333333
 40
1.0
 40
1.0
 40
1.0
 40
1.0
 10
-9.10602
 20
7.0244
 30
0.0
 10
-9.10602
 20
7.0244
 30
0.0
 10
-8.52863
 20
6.92817
 30
0.0
 10
-8.52863
 20
6.92817
 30
0.0
 10
-8.52863
 20
6.92817
 30
0.0
 10
-8.52863
 20
6.92817
 30
0.0
 10
-8.52863
 20
7.12063
 30
0.0
 10
-8.52863
 20
7.12063
 30
0.0
  0
SPLINE
  5
66
330
1F
100
AcDbEntity
  8
layer 2
 62
     1
370
     9
100
AcDbSpline
210
0.0
220
0.0
230
1.0
 70
    24
 71
     3
 72
     8
 73
     4
 74
     0
 42
0.0000000001
 43
0.0000000001
 12
1.0
 22
0.0
 32
0.0
 13
1.0
 23
0.0
 33
0.0
 40
0.0
 40
0.0
 40
0.0
 40
0.0
 40
1.0
 40
1.0
 40
1.0
 40
1.0
 10
-8.52863
 20
7.12063
 30
0.0
 10
-8.52863
 20
7.12063
 30
0.0
 10
-9.10602
 20
7.0244
 30
0.0
 10
-9.10602
 20
7.0244
 30
0.0
  0
SPLINE
  5
67
330
1F
100
AcDbEntity
  8
layer 2
 62
     1
370
     9
100
AcDbSpline
210
0.0
220
0.0
230
1.0
 70
     8
 71
     3
 72
    12
 73
     8
 74
     0
 42
0.0000000001
 43
0.0000000001
 12
1.0
 22
0.0
 32
0.0
 13
1.0
 23
0.0
 33
0.0
 40
0.0
 40
0.0
 40
0.0
 40
0.0
 40
0.3333333333333333
 40
0.3333333333333333
 40
0.3333333333333333
 40
0.3333333333333333
 40
1.0
 40
1.0
 40
1.0
 40
1.0
 10
-9.10602
 20
7.0244
 30
0.0
 10
-9.10602
 20
7.0244
 30
0.0
 10
-8.52863
 20
6.92817
 30
0.0
 10
-8.52863
 20
6.92817
 30
0.0
 10
-8.52863
 20
6.92817
 30
0.0
 10
-8.52863
 20
6.92817
 30
0.0
 10
-8.52863
 20
7.12063
 30
0.0
 10
-8.52863
 20
7.12063
 30
0.0
  0
SPLINE
  5
68
330
1F
100
AcDbEntity
  8
layer 2
 62
     1
370
     9
100
AcDbSpline
210
0.0
220
0.0
230
1.0
 70
    27
 71
     3
 72
    12
 73
     8
 74
     0
 42
0.0000000001
 43
0.0000000001
 12
1.0
 22
0.0
 32
0.0
 13
1.0
 23
0.0
 33
0.0
 40
0.0
 40
0.0
 40
0.0
 40
0.0
 40
0.3333333333333333
 40
0.3333333333333333
 40
0.3333333333333333
 40
0.3333333333333333
 40
1.0
 40
1.0
 40
1.0
 40
1.0
 10
8.64855
 20
7.12063
 30
0.0
 10
8.64855
 20
7.12063
 30
0.0
 10
9.22594
 20
7.0244
 30
0.0
 10
9.22594
 20
7.0244
 30
0.0
 10
9.22594
 20
7.0244
 30
0.0
 10
9.22594
 20
7.0244
 30
0.0
 10
8.64855
 20
7.12063
 30
0.0
 10
8.64855
 20
7.12063
 30
0.0
  0
SPLINE
  5
69
330
1F
100
AcDbEntity
  8
layer 2
 62
     1
370
     9
100
AcDbSpline
210
0.0
220
0.0
230
1.0
 70
     8
 71
     3
 72
    12
 73
     8
 74
     0
 42
0.0000000001
 43
0.0000000001
 12
1.0
 22
0.0
 32
0.0
 13
1.0
 23
0.0
 33
0.0
 40
0.0
 40
0.0
 40
0.0
 40
0.0
 40
0.3333333333333333
 40
0.3333333333333333
 40
0.3333333333333333
 40
0.3333333333333333
 40
1.0
 40
1.0
 40
1.0
 40
1.0
 10
9.22594
 20
7.0244
 30
0.0
 10
9.22594
 20
7.0244
 30
0.0
 10
8.64855
 20
6.92817
 30
0.0
 10
8.64855
 20
6.92817
 30
0.0
 10
8.64855
 20
6.92817
 30
0.0
 10
8.64855
 20
6.92817
 30
0.0
 10
8.64855
 20
7.12063
 30
0.0
 10
8.64855
 20
7.12063
 30
0.0
  0
SPLINE
  5
6A
330
1F
100
AcDbEntity
  8
layer 2
 62
     1
370
     9
100
AcDbSpline
210
0.0
220
0.0
230
1.0
 70
    24
 71
     3
 72
     8
 73
     4
 74
     0
 42
0.0000000001
 43
0.0000000001
 12
1.0
 22
0.0
 32
0.0
 13
1.0
 23
0.0
 33
0.0
 40
0.0
 40
0.0
 40
0.0
 40
0.0
 40
1.0
 40
1.0
 40
1.0
 40
1.0
 10
8.64855
 20
7.12063
 30
0.0
 10
8.64855
 20
7.12063
 30
0.0
 10
9.22594
 20
7.0244
 30
0.0
 10
9.22594
 20
7.0244
 30
0.0
  0
SPLINE
  5
6B
330
1F
100
AcDbEntity
  8
layer 2
 62
     1
370
     9
100
AcDbSpline
210
0.0
220
0.0
230
1.0
 70
     8
 71
     3
 72
    12
 73
     8
 74
     0
 42
0.0000000001
 43
0.0000000001
 12
1.0
 22
0.0
 32
0.0
 13
1.0
 23
0.0
 33
0.0
 40
0.0
 40
0.0
 40
0.0
 40
0.0
 40
0.3333333333333333
 40
0.3333333333333333
 40
0.3333333333333333
 40
0.3333333333333333
 40
1.0
 40
1.0
 40
1.0
 40
1.0
 10
9.22594
 20
7.0244
 30
0.0
 10
9.22594
 20
7.0244
 30
0.0
 10
8.64855
 20
6.92817
 30
0.0
 10
8.64855
 20
6.92817
 30
0.0
 10
8.64855
 20
6.92817
 30
0.0
 10
8.64855
 20
6.92817
 30
0.0
 10
8.64855
 20
7.12063
 30
0.0
 10
8.64855
 20
7.12063
 30
0.0
  0
SPLINE
  5
6C
330
1F
100
AcDbEntity
  8
layer 2
 62
     1
370
     9
100
AcDbSpline
210
0.0
220
0.0
230
1.0
 70
    11
 71
     3
 72
    92
 73
    88
 74
     0
 42
0.0000000001
 43
0.0000000001
 12
1.0
 22
0.0
 32
0.0
 13
1.0
 23
0.0
 33
0.0
 40
0.0
 40
0.0
 40
0.0
 40
0.0
 40
0.0434782608695652
 40
0.0434782608695652
 40
0.0434782608695652
 40
0.0434782608695652
 40
0.0869565217391304
 40
0.0869565217391304
 40
0.0869565217391304
 40
0.0869565217391304
 40
0.1304347826086956
 40
0.1304347826086956
 40
0.1304347826086956
 40
0.1304347826086956
 40
0.1739130434782609
 40
0.1739130434782609
 40
0.1739130434782609
 40
0.1739130434782609
 40
0.2173913043478261
 40
0.2173913043478261
 40
0.2173913043478261
 40
0.2173913043478261
 40
0.2608695652173913
 40
0.2608695652173913
 40
0.2608695652173913
 40
0.2608695652173913
 40
0.3043478260869565
 40
0.3043478260869565
 40
0.3043478260869565
 40
0.3043478260869565
 40
0.3478260869565217
 40
0.3478260869565217
 40
0.3478260869565217
 40
0.3478260869565217
 40
0.391304347826087
 40
0.391304347826087
 40
0.391304347826087
 40
0.391304347826087
 40
0.4347826086956522
 40
0.4347826086956522
 40
0.4347826086956522
 40
0.4347826086956522
 40
0.4782608695652174
 40
0.4782608695652174
 40
0.4782608695652174
 40
0.4782608695652174
 40
0.5217391304347826
 40
0.5217391304347826
 40
0.5217391304347826
 40
0.5217391304347826
 40
0.5652173913043478
 40
0.5652173913043478
 40
0.5652173913043478
 40
0.5652173913043478
 40
0.6086956521739131
 40
0.6086956521739131
 40
0.6086956521739131
 40
0.6086956521739131
 40
0.6521739130434783
 40
0.6521739130434783
 40
0.6521739130434783
 40
0.6521739130434783
 40
0.6956521739130435
 40
0.6956521739130435
 40
0.6956521739130435
 40
0.6956521739130435
 40
0.7391304347826086
 40
0.7391304347826086
 40
0.7391304347826086
 40
0.7391304347826086
 40
0.782608695652174
 40
0.782608695652174
 40
0.782608695652174
 40
0.782608695652174
 40
0.8260869565217391
 40
0.8260869565217391
 40
0.8260869565217391
 40
0.8260869565217391
 40
0.8695652173913043
 40
0.8695652173913043
 40
0.8695652173913043
 40
0.8695652173913043
 40
0.9130434782608695
 40
0.9130434782608695
 40
0.9130434782608695
 40
0.9130434782608695
 40
1.0
 40
1.0
 40
1.0
 40
1.0
 10
-0.06257
 20
7.31585
 30
0.0
 10
-0.06257
 20
7.31585
 30
0.0
 10
-0.06257
 20
7.27123
 30
0.0
 10
-0.06257
 20
7.27123
 30
0.0
 10
-0.06257
 20
7.27123
 30
0.0
 10
-0.06257
 20
7.27123
 30
0.0
 10
-0.31435
 20
7.27123
 30
0.0
 10
-0.31435
 20
7.27123
 30
0.0
 10
-0.31435
 20
7.27123
 30
0.0
 10
-0.31471
 20
7.28248
 30
0.0
 10
-0.31285
 20
7.29328
 30
0.0
 10
-0.30887
 20
7.30373
 30
0.0
 10
-0.30887
 20
7.30373
 30
0.0
 10
-0.3024
 20
7.32081
 30
0.0
 10
-0.29204
 20
7.33772
 30
0.0
 10
-0.27779
 20
7.35428
 30
0.0
 10
-0.27779
 20
7.35428
 30
0.0
 10
-0.26354
 20
7.37083
 30
0.0
 10
-0.24317
 20
7.38996
 30
0.0
 10
-0.2167
 20
7.41165
 30
0.0
 10
-0.2167
 20
7.41165
 30
0.0
 10
-0.17554
 20
7.44556
 30
0.0
 10
-0.14756
 20
7.47238
 30
0.0
 10
-0.13295
 20
7.49221
 30
0.0
 10
-0.13295
 20
7.49221
 30
0.0
 10
-0.11825
 20
7.51204
 30
0.0
 10
-0.11091
 20
7.53081
 30
0.0
 10
-0.11091
 20
7.54852
 30
0.0
 10
-0.11091
 20
7.54852
 30
0.0
 10
-0.11091
 20
7.56702
 30
0.0
 10
-0.11755
 20
7.5826
 30
0.0
 10
-0.13083
 20
7.59535
 30
0.0
 10
-0.13083
 20
7.59535
 30
0.0
 10
-0.14411
 20
7.60801
 30
0.0
 10
-0.16146
 20
7.61439
 30
0.0
 10
-0.18279
 20
7.61439
 30
0.0
 10
-0.18279
 20
7.61439
 30
0.0
 10
-0.20537
 20
7.61439
 30
0.0
 10
-0.22343
 20
7.60766
 30
0.0
 10
-0.23698
 20
7.5942
 30
0.0
 10
-0.23698
 20
7.5942
 30
0.0
 10
-0.25052
 20
7.58083
 30
0.0
 10
-0.25734
 20
7.56224
 30
0.0
 10
-0.25752
 20
7.53842
 30
0.0
 10
-0.25752
 20
7.53842
 30
0.0
 10
-0.25752
 20
7.53842
 30
0.0
 10
-0.30532
 20
7.54321
 30
0.0
 10
-0.30532
 20
7.54321
 30
0.0
 10
-0.30532
 20
7.54321
 30
0.0
 10
-0.30205
 20
7.57897
 30
0.0
 10
-0.28965
 20
7.60624
 30
0.0
 10
-0.26823
 20
7.62501
 30
0.0
 10
-0.26823
 20
7.62501
 30
0.0
 10
-0.24672
 20
7.64378
 30
0.0
 10
-0.21794
 20
7.65316
 30
0.0
 10
-0.18173
 20
7.65316
 30
0.0
 10
-0.18173
 20
7.65316
 30
0.0
 10
-0.14526
 20
7.65316
 30
0.0
 10
-0.11631
 20
7.64307
 30
0.0
 10
-0.09506
 20
7.6228
 30
0.0
 10
-0.09506
 20
7.6228
 30
0.0
 10
-0.07372
 20
7.60252
 30
0.0
 10
-0.0631
 20
7.57738
 30
0.0
 10
-0.0631
 20
7.54746
 30
0.0
 10
-0.0631
 20
7.54746
 30
0.0
 10
-0.0631
 20
7.53223
 30
0.0
 10
-0.0662
 20
7.51727
 30
0.0
 10
-0.07248
 20
7.50257
 30
0.0
 10
-0.07248
 20
7.50257
 30
0.0
 10
-0.07868
 20
7.48779
 30
0.0
 10
-0.08904
 20
7.47229
 30
0.0
 10
-0.10347
 20
7.456
 30
0.0
 10
-0.10347
 20
7.456
 30
0.0
 10
-0.11799
 20
7.4398
 30
0.0
 10
-0.14198
 20
7.4174
 30
0.0
 10
-0.17545
 20
7.38907
 30
0.0
 10
-0.17545
 20
7.38907
 30
0.0
 10
-0.20351
 20
7.36552
 30
0.0
 10
-0.22157
 20
7.34959
 30
0.0
 10
-0.22954
 20
7.34118
 30
0.0
 10
-0.22954
 20
7.34118
 30
0.0
 10
-0.23751
 20
7.33276
 30
0.0
 10
-0.24406
 20
7.32435
 30
0.0
 10
-0.24928
 20
7.31585
 30
0.0
 10
-0.24928
 20
7.31585
 30
0.0
 10
-0.24928
 20
7.31585
 30
0.0
 10
-0.06257
 20
7.31585
 30
0.0
 10
-0.06257
 20
7.31585
 30
0.0
  0
SPLINE
  5
6D
330
1F
100
AcDbEntity
  8
layer 2
 62
     1
370
     9
100
AcDbSpline
210
0.0
220
0.0
230
1.0
 70
    11
 71
     3
 72
    92
 73
    88
 74
     0
 42
0.0000000001
 43
0.0000000001
 12
1.0
 22
0.0
 32
0.0
 13
1.0
 23
0.0
 33
0.0
 40
0.0
 40
0.0
 40
0.0
 40
0.0
 40
0.0434782608695652
 40
0.0434782608695652
 40
0.0434782608695652
 40
0.0434782608695652
 40
0.0869565217391304
 40
0.0869565217391304
 40
0.0869565217391304
 40
0.0869565217391304
 40
0.1304347826086956
 40
0.1304347826086956
 40
0.1304347826086956
 40
0.1304347826086956
 40
0.1739130434782609
 40
0.1739130434782609
 40
0.1739130434782609
 40
0.1739130434782609
 40
0.2173913043478261
 40
0.2173913043478261
 40
0.2173913043478261
 40
0.2173913043478261
 40
0.2608695652173913
 40
0.2608695652173913
 40
0.2608695652173913
 40
0.2608695652173913
 40
0.3043478260869565
 40
0.3043478260869565
 40
0.3043478260869565
 40
0.3043478260869565
 40
0.3478260869565217
 40
0.3478260869565217
 40
0.3478260869565217
 40
0.3478260869565217
 40
0.391304347826087
 40
0.391304347826087
 40
0.391304347826087
 40
0.391304347826087
 40
0.4347826086956522
 40
0.4347826086956522
 40
0.4347826086956522
 40
0.4347826086956522
 40
0.4782608695652174
 40
0.4782608695652174
 40
0.4782608695652174
 40
0.4782608695652174
 40
0.5217391304347826
 40
0.5217391304347826
 40
0.5217391304347826
 40
0.5217391304347826
 40
0.5652173913043478
 40
0.5652173913043478
 40
0.5652173913043478
 40
0.5652173913043478
 40
0.6086956521739131
 40
0.6086956521739131
 40
0.6086956521739131
 40
0.6086956521739131
 40
0.6521739130434783
 40
0.6521739130434783
 40
0.6521739130434783
 40
0.6521739130434783
 40
0.6956521739130435
 40
0.6956521739130435
 40
0.6956521739130435
 40
0.6956521739130435
 40
0.7391304347826086
 40
0.7391304347826086
 40
0.7391304347826086
 40
0.7391304347826086
 40
0.782608695652174
 40
0.782608695652174
 40
0.782608695652174
 40
0.782608695652174
 40
0.8260869565217391
 40
0.8260869565217391
 40
0.8260869565217391
 40
0.8260869565217391
 40
0.8695652173913043
 40
0.8695652173913043
 40
0.8695652173913043
 40
0.8695652173913043
 40
0.9130434782608695
 40
0.9130434782608695
 40
0.9130434782608695
 40
0.9130434782608695
 40
1.0
 40
1.0
 40
1.0
 40
1.0
 10
-0.01202
 20
7.3711
 30
0.0
 10
-0.01202
 20
7.3711
 30
0.0
 10
0.03685
 20
7.37482
 30
0.0
 10
0.03685
 20
7.37482
 30
0.0
 10
0.03685
 20
7.37482
 30
0.0
 10
0.04048
 20
7.351
 30
0.0
 10
0.0489
 20
7.33312
 30
0.0
 10
0.062
 20
7.32108
 30
0.0
 10
0.062
 20
7.32108
 30
0.0
 10
0.0751
 20
7.30913
 30
0.0
 10
0.09113
 20
7.30311
 30
0.0
 10
0.10998
 20
7.30311
 30
0.0
 10
0.10998
 20
7.30311
 30
0.0
 10
0.13273
 20
7.30311
 30
0.0
 10
0.15177
 20
7.31161
 30
0.0
 10
0.16726
 20
7.32851
 30
0.0
 10
0.16726
 20
7.32851
 30
0.0
 10
0.18267
 20
7.34551
 30
0.0
 10
0.19037
 20
7.368
 30
0.0
 10
0.19037
 20
7.39598
 30
0.0
 10
0.19037
 20
7.39598
 30
0.0
 10
0.19037
 20
7.42262
 30
0.0
 10
0.18302
 20
7.44361
 30
0.0
 10
0.16824
 20
7.45901
 30
0.0
 10
0.16824
 20
7.45901
 30
0.0
 10
0.15345
 20
7.47442
 30
0.0
 10
0.13389
 20
7.48212
 30
0.0
 10
0.10954
 20
7.48212
 30
0.0
 10
0.10954
 20
7.48212
 30
0.0
 10
0.0944
 20
7.48212
 30
0.0
 10
0.08085
 20
7.47867
 30
0.0
 10
0.06882
 20
7.47176
 30
0.0
 10
0.06882
 20
7.47176
 30
0.0
 10
0.05686
 20
7.46485
 30
0.0
 10
0.04748
 20
7.45591
 30
0.0
 10
0.04057
 20
7.44493
 30
0.0
 10
0.04057
 20
7.44493
 30
0.0
 10
0.04057
 20
7.44493
 30
0.0
 10
-0.00352
 20
7.45131
 30
0.0
 10
-0.00352
 20
7.45131
 30
0.0
 10
-0.00352
 20
7.45131
 30
0.0
 10
-0.00352
 20
7.45131
 30
0.0
 10
0.03314
 20
7.64679
 30
0.0
 10
0.03314
 20
7.64679
 30
0.0
 10
0.03314
 20
7.64679
 30
0.0
 10
0.03314
 20
7.64679
 30
0.0
 10
0.22171
 20
7.64679
 30
0.0
 10
0.22171
 20
7.64679
 30
0.0
 10
0.22171
 20
7.64679
 30
0.0
 10
0.22171
 20
7.64679
 30
0.0
 10
0.22171
 20
7.60217
 30
0.0
 10
0.22171
 20
7.60217
 30
0.0
 10
0.22171
 20
7.60217
 30
0.0
 10
0.22171
 20
7.60217
 30
0.0
 10
0.07041
 20
7.60217
 30
0.0
 10
0.07041
 20
7.60217
 30
0.0
 10
0.07041
 20
7.60217
 30
0.0
 10
0.07041
 20
7.60217
 30
0.0
 10
0.05013
 20
7.49956
 30
0.0
 10
0.05013
 20
7.49956
 30
0.0
 10
0.05013
 20
7.49956
 30
0.0
 10
0.07289
 20
7.51558
 30
0.0
 10
0.09679
 20
7.52355
 30
0.0
 10
0.12176
 20
7.52355
 30
0.0
 10
0.12176
 20
7.52355
 30
0.0
 10
0.15487
 20
7.52355
 30
0.0
 10
0.18284
 20
7.51204
 30
0.0
 10
0.2056
 20
7.48902
 30
0.0
 10
0.2056
 20
7.48902
 30
0.0
 10
0.22835
 20
7.46601
 30
0.0
 10
0.23977
 20
7.43644
 30
0.0
 10
0.23977
 20
7.40031
 30
0.0
 10
0.23977
 20
7.40031
 30
0.0
 10
0.23977
 20
7.36588
 30
0.0
 10
0.22977
 20
7.33613
 30
0.0
 10
0.20976
 20
7.31107
 30
0.0
 10
0.20976
 20
7.31107
 30
0.0
 10
0.18541
 20
7.28026
 30
0.0
 10
0.15212
 20
7.26486
 30
0.0
 10
0.10998
 20
7.26486
 30
0.0
 10
0.10998
 20
7.26486
 30
0.0
 10
0.07546
 20
7.26486
 30
0.0
 10
0.0473
 20
7.2746
 30
0.0
 10
0.02543
 20
7.29399
 30
0.0
 10
0.02543
 20
7.29399
 30
0.0
 10
0.00357
 20
7.31337
 30
0.0
 10
-0.00892
 20
7.33905
 30
0.0
 10
-0.01202
 20
7.3711
 30
0.0
  0
SPLINE
  5
6E
330
1F
100
AcDbEntity
  8
layer 2
 62
     1
370
     9
100
AcDbSpline
210
0.0
220
0.0
230
1.0
 70
    11
 71
     3
 72
    28
 73
    24
 74
     0
 42
0.0000000001
 43
0.0000000001
 12
1.0
 22
0.0
 32
0.0
 13
1.0
 23
0.0
 33
0.0
 40
0.0
 40
0.0
 40
0.0
 40
0.0
 40
0.1428571428571428
 40
0.1428571428571428
 40
0.1428571428571428
 40
0.1428571428571428
 40
0.2857142857142857
 40
0.2857142857142857
 40
0.2857142857142857
 40
0.2857142857142857
 40
0.4285714285714285
 40
0.4285714285714285
 40
0.4285714285714285
 40
0.4285714285714285
 40
0.5714285714285714
 40
0.5714285714285714
 40
0.5714285714285714
 40
0.5714285714285714
 40
0.7142857142857143
 40
0.7142857142857143
 40
0.7142857142857143
 40
0.7142857142857143
 40
1.0
 40
1.0
 40
1.0
 40
1.0
 10
0.29847
 20
7.51718
 30
0.0
 10
0.29847
 20
7.51718
 30
0.0
 10
0.28554
 20
7.58942
 30
0.0
 10
0.28554
 20
7.58942
 30
0.0
 10
0.28554
 20
7.58942
 30
0.0
 10
0.28554
 20
7.58942
 30
0.0
 10
0.28554
 20
7.65157
 30
0.0
 10
0.28554
 20
7.65157
 30
0.0
 10
0.28554
 20
7.65157
 30
0.0
 10
0.28554
 20
7.65157
 30
0.0
 10
0.33866
 20
7.65157
 30
0.0
 10
0.33866
 20
7.65157
 30
0.0
 10
0.33866
 20
7.65157
 30
0.0
 10
0.33866
 20
7.65157
 30
0.0
 10
0.33866
 20
7.58942
 30
0.0
 10
0.33866
 20
7.58942
 30
0.0
 10
0.33866
 20
7.58942
 30
0.0
 10
0.33866
 20
7.58942
 30
0.0
 10
0.32698
 20
7.51718
 30
0.0
 10
0.32698
 20
7.51718
 30
0.0
 10
0.32698
 20
7.51718
 30
0.0
 10
0.32698
 20
7.51718
 30
0.0
 10
0.29847
 20
7.51718
 30
0.0
 10
0.29847
 20
7.51718
 30
0.0
  0
SPLINE
  5
6F
330
1F
100
AcDbEntity
  8
layer 2
 62
     1
370
     9
100
AcDbSpline
210
0.0
220
0.0
230
1.0
 70
    11
 71
     3
 72
    28
 73
    24
 74
     0
 42
0.0000000001
 43
0.0000000001
 12
1.0
 22
0.0
 32
0.0
 13
1.0
 23
0.0
 33
0.0
 40
0.0
 40
0.0
 40
0.0
 40
0.0
 40
0.1428571428571428
 40
0.1428571428571428
 40
0.1428571428571428
 40
0.1428571428571428
 40
0.2857142857142857
 40
0.2857142857142857
 40
0.2857142857142857
 40
0.2857142857142857
 40
0.4285714285714285
 40
0.4285714285714285
 40
0.4285714285714285
 40
0.4285714285714285
 40
0.5714285714285714
 40
0.5714285714285714
 40
0.5714285714285714
 40
0.5714285714285714
 40
0.7142857142857143
 40
0.7142857142857143
 40
0.7142857142857143
 40
0.7142857142857143
 40
1.0
 40
1.0
 40
1.0
 40
1.0
 10
0.38426
 20
7.51718
 30
0.0
 10
0.38426
 20
7.51718
 30
0.0
 10
0.3716
 20
7.58942
 30
0.0
 10
0.3716
 20
7.58942
 30
0.0
 10
0.3716
 20
7.58942
 30
0.0
 10
0.3716
 20
7.58942
 30
0.0
 10
0.3716
 20
7.65157
 30
0.0
 10
0.3716
 20
7.65157
 30
0.0
 10
0.3716
 20
7.65157
 30
0.0
 10
0.3716
 20
7.65157
 30
0.0
 10
0.42472
 20
7.65157
 30
0.0
 10
0.42472
 20
7.65157
 30
0.0
 10
0.42472
 20
7.65157
 30
0.0
 10
0.42472
 20
7.65157
 30
0.0
 10
0.42472
 20
7.58942
 30
0.0
 10
0.42472
 20
7.58942
 30
0.0
 10
0.42472
 20
7.58942
 30
0.0
 10
0.42472
 20
7.58942
 30
0.0
 10
0.41223
 20
7.51718
 30
0.0
 10
0.41223
 20
7.51718
 30
0.0
 10
0.41223
 20
7.51718
 30
0.0
 10
0.41223
 20
7.51718
 30
0.0
 10
0.38426
 20
7.51718
 30
0.0
 10
0.38426
 20
7.51718
 30
0.0
  0
SPLINE
  5
70
330
1F
100
AcDbEntity
  8
layer 2
 62
     1
370
     9
100
AcDbSpline
210
0.0
220
0.0
230
1.0
 70
    24
 71
     3
 72
     8
 73
     4
 74
     0
 42
0.0000000001
 43
0.0000000001
 12
1.0
 22
0.0
 32
0.0
 13
1.0
 23
0.0
 33
0.0
 40
0.0
 40
0.0
 40
0.0
 40
0.0
 40
1.0
 40
1.0
 40
1.0
 40
1.0
 10
9.07821
 20
6.13893
 30
0.0
 10
9.07821
 20
6.13893
 30
0.0
 10
10.77878
 20
6.13893
 30
0.0
 10
10.77878
 20
6.13893
 30
0.0
  0
SPLINE
  5
71
330
1F
100
AcDbEntity
  8
layer 2
 62
     1
370
     9
100
AcDbSpline
210
0.0
220
0.0
230
1.0
 70
    24
 71
     3
 72
     8
 73
     4
 74
     0
 42
0.0000000001
 43
0.0000000001
 12
1.0
 22
0.0
 32
0.0
 13
1.0
 23
0.0
 33
0.0
 40
0.0
 40
0.0
 40
0.0
 40
0.0
 40
1.0
 40
1.0
 40
1.0
 40
1.0
 10
9.07821
 20
-5.56994
 30
0.0
 10
9.07821
 20
-5.56994
 30
0.0
 10
10.77878
 20
-5.56994
 30
0.0
 10
10.77878
 20
-5.56994
 30
0.0
  0
SPLINE
  5
72
330
1F
100
AcDbEntity
  8
layer 2
 62
     1
370
     9
100
AcDbSpline
210
0.0
220
0.0
230
1.0
 70
    24
 71
     3
 72
     8
 73
     4
 74
     0
 42
0.0000000001
 43
0.0000000001
 12
1.0
 22
0.0
 32
0.0
 13
1.0
 23
0.0
 33
0.0
 40
0.0
 40
0.0
 40
0.0
 40
0.0
 40
1.0
 40
1.0
 40
1.0
 40
1.0
 10
10.49009
 20
5.56155
 30
0.0
 10
10.49009
 20
5.56155
 30
0.0
 10
10.49009
 20
-4.99255
 30
0.0
 10
10.49009
 20
-4.99255
 30
0.0
  0
SPLINE
  5
73
330
1F
100
AcDbEntity
  8
layer 2
 62
     1
370
     9
100
AcDbSpline
210
0.0
220
0.0
230
1.0
 70
    27
 71
     3
 72
    12
 73
     8
 74
     0
 42
0.0000000001
 43
0.0000000001
 12
1.0
 22
0.0
 32
0.0
 13
1.0
 23
0.0
 33
0.0
 40
0.0
 40
0.0
 40
0.0
 40
0.0
 40
0.3333333333333333
 40
0.3333333333333333
 40
0.3333333333333333
 40
0.3333333333333333
 40
1.0
 40
1.0
 40
1.0
 40
1.0
 10
10.39386
 20
5.56155
 30
0.0
 10
10.39386
 20
5.56155
 30
0.0
 10
10.49009
 20
6.13893
 30
0.0
 10
10.49009
 20
6.13893
 30
0.0
 10
10.49009
 20
6.13893
 30
0.0
 10
10.49009
 20
6.13893
 30
0.0
 10
10.39386
 20
5.56155
 30
0.0
 10
10.39386
 20
5.56155
 30
0.0
  0
SPLINE
  5
74
330
1F
100
AcDbEntity
  8
layer 2
 62
     1
370
     9
100
AcDbSpline
210
0.0
220
0.0
230
1.0
 70
     8
 71
     3
 72
    12
 73
     8
 74
     0
 42
0.0000000001
 43
0.0000000001
 12
1.0
 22
0.0
 32
0.0
 13
1.0
 23
0.0
 33
0.0
 40
0.0
 40
0.0
 40
0.0
 40
0.0
 40
0.3333333333333333
 40
0.3333333333333333
 40
0.3333333333333333
 40
0.3333333333333333
 40
1.0
 40
1.0
 40
1.0
 40
1.0
 10
10.49009
 20
6.13893
 30
0.0
 10
10.49009
 20
6.13893
 30
0.0
 10
10.58632
 20
5.56155
 30
0.0
 10
10.58632
 20
5.56155
 30
0.0
 10
10.58632
 20
5.56155
 30
0.0
 10
10.58632
 20
5.56155
 30
0.0
 10
10.39386
 20
5.56155
 30
0.0
 10
10.39386
 20
5.56155
 30
0.0
  0
SPLINE
  5
75
330
1F
100
AcDbEntity
  8
layer 2
 62
     1
370
     9
100
AcDbSpline
210
0.0
220
0.0
230
1.0
 70
    24
 71
     3
 72
     8
 73
     4
 74
     0
 42
0.0000000001
 43
0.0000000001
 12
1.0
 22
0.0
 32
0.0
 13
1.0
 23
0.0
 33
0.0
 40
0.0
 40
0.0
 40
0.0
 40
0.0
 40
1.0
 40
1.0
 40
1.0
 40
1.0
 10
10.39386
 20
5.56155
 30
0.0
 10
10.39386
 20
5.56155
 30
0.0
 10
10.49009
 20
6.13893
 30
0.0
 10
10.49009
 20
6.13893
 30
0.0
  0
SPLINE
  5
76
330
1F
100
AcDbEntity
  8
layer 2
 62
     1
370
     9
100
AcDbSpline
210
0.0
220
0.0
230
1.0
 70
     8
 71
     3
 72
    12
 73
     8
 74
     0
 42
0.0000000001
 43
0.0000000001
 12
1.0
 22
0.0
 32
0.0
 13
1.0
 23
0.0
 33
0.0
 40
0.0
 40
0.0
 40
0.0
 40
0.0
 40
0.3333333333333333
 40
0.3333333333333333
 40
0.3333333333333333
 40
0.3333333333333333
 40
1.0
 40
1.0
 40
1.0
 40
1.0
 10
10.49009
 20
6.13893
 30
0.0
 10
10.49009
 20
6.13893
 30
0.0
 10
10.58632
 20
5.56155
 30
0.0
 10
10.58632
 20
5.56155
 30
0.0
 10
10.58632
 20
5.56155
 30
0.0
 10
10.58632
 20
5.56155
 30
0.0
 10
10.39386
 20
5.56155
 30
0.0
 10
10.39386
 20
5.56155
 30
0.0
  0
SPLINE
  5
77
330
1F
100
AcDbEntity
  8
layer 2
 62
     1
370
     9
100
AcDbSpline
210
0.0
220
0.0
230
1.0
 70
    27
 71
     3
 72
    12
 73
     8
 74
     0
 42
0.0000000001
 43
0.0000000001
 12
1.0
 22
0.0
 32
0.0
 13
1.0
 23
0.0
 33
0.0
 40
0.0
 40
0.0
 40
0.0
 40
0.0
 40
0.3333333333333333
 40
0.3333333333333333
 40
0.3333333333333333
 40
0.3333333333333333
 40
1.0
 40
1.0
 40
1.0
 40
1.0
 10
10.39386
 20
-4.99255
 30
0.0
 10
10.39386
 20
-4.99255
 30
0.0
 10
10.49009
 20
-5.56994
 30
0.0
 10
10.49009
 20
-5.56994
 30
0.0
 10
10.49009
 20
-5.56994
 30
0.0
 10
10.49009
 20
-5.56994
 30
0.0
 10
10.39386
 20
-4.99255
 30
0.0
 10
10.39386
 20
-4.99255
 30
0.0
  0
SPLINE
  5
78
330
1F
100
AcDbEntity
  8
layer 2
 62
     1
370
     9
100
AcDbSpline
210
0.0
220
0.0
230
1.0
 70
     8
 71
     3
 72
    12
 73
     8
 74
     0
 42
0.0000000001
 43
0.0000000001
 12
1.0
 22
0.0
 32
0.0
 13
1.0
 23
0.0
 33
0.0
 40
0.0
 40
0.0
 40
0.0
 40
0.0
 40
0.3333333333333333
 40
0.3333333333333333
 40
0.3333333333333333
 40
0.3333333333333333
 40
1.0
 40
1.0
 40
1.0
 40
1.0
 10
10.49009
 20
-5.56994
 30
0.0
 10
10.49009
 20
-5.56994
 30
0.0
 10
10.58632
 20
-4.99255
 30
0.0
 10
10.58632
 20
-4.99255
 30
0.0
 10
10.58632
 20
-4.99255
 30
0.0
 10
10.58632
 20
-4.99255
 30
0.0
 10
10.39386
 20
-4.99255
 30
0.0
 10
10.39386
 20
-4.99255
 30
0.0
  0
SPLINE
  5
79
330
1F
100
AcDbEntity
  8
layer 2
 62
     1
370
     9
100
AcDbSpline
210
0.0
220
0.0
230
1.0
 70
    24
 71
     3
 72
     8
 73
     4
 74
     0
 42
0.0000000001
 43
0.0000000001
 12
1.0
 22
0.0
 32
0.0
 13
1.0
 23
0.0
 33
0.0
 40
0.0
 40
0.0
 40
0.0
 40
0.0
 40
1.0
 40
1.0
 40
1.0
 40
1.0
 10
10.39386
 20
-4.99255
 30
0.0
 10
10.39386
 20
-4.99255
 30
0.0
 10
10.49009
 20
-5.56994
 30
0.0
 10
10.49009
 20
-5.56994
 30
0.0
  0
SPLINE
  5
7A
330
1F
100
AcDbEntity
  8
layer 2
 62
     1
370
     9
100
AcDbSpline
210
0.0
220
0.0
230
1.0
 70
     8
 71
     3
 72
    12
 73
     8
 74
     0
 42
0.0000000001
 43
0.0000000001
 12
1.0
 22
0.0
 32
0.0
 13
1.0
 23
0.0
 33
0.0
 40
0.0
 40
0.0
 40
0.0
 40
0.0
 40
0.3333333333333333
 40
0.3333333333333333
 40
0.3333333333333333
 40
0.3333333333333333
 40
1.0
 40
1.0
 40
1.0
 40
1.0
 10
10.49009
 20
-5.56994
 30
0.0
 10
10.49009
 20
-5.56994
 30
0.0
 10
10.58632
 20
-4.99255
 30
0.0
 10
10.58632
 20
-4.99255
 30
0.0
 10
10.58632
 20
-4.99255
 30
0.0
 10
10.58632
 20
-4.99255
 30
0.0
 10
10.39386
 20
-4.99255
 30
0.0
 10
10.39386
 20
-4.99255
 30
0.0
  0
SPLINE
  5
7B
330
1F
100
AcDbEntity
  8
layer 2
 62
     1
370
     9
100
AcDbSpline
210
0.0
220
0.0
230
1.0
 70
    11
 71
     3
 72
    40
 73
    36
 74
     0
 42
0.0000000001
 43
0.0000000001
 12
1.0
 22
0.0
 32
0.0
 13
1.0
 23
0.0
 33
0.0
 40
0.0
 40
0.0
 40
0.0
 40
0.0
 40
0.1
 40
0.1
 40
0.1
 40
0.1
 40
0.2
 40
0.2
 40
0.2
 40
0.2
 40
0.3
 40
0.3
 40
0.3
 40
0.3
 40
0.4
 40
0.4
 40
0.4
 40
0.4
 40
0.5
 40
0.5
 40
0.5
 40
0.5
 40
0.6
 40
0.6
 40
0.6
 40
0.6
 40
0.7
 40
0.7
 40
0.7
 40
0.7
 40
0.8
 40
0.8
 40
0.8
 40
0.8
 40
1.0
 40
1.0
 40
1.0
 40
1.0
 10
10.24326
 20
1.25595
 30
0.0
 10
10.24326
 20
1.25595
 30
0.0
 10
10.24326
 20
1.20921
 30
0.0
 10
10.24326
 20
1.20921
 30
0.0
 10
10.24326
 20
1.20921
 30
0.0
 10
10.24326
 20
1.20921
 30
0.0
 10
9.94562
 20
1.20921
 30
0.0
 10
9.94562
 20
1.20921
 30
0.0
 10
9.94562
 20
1.20921
 30
0.0
 10
9.95642
 20
1.19796
 30
0.0
 10
9.96713
 20
1.18318
 30
0.0
 10
9.97784
 20
1.16494
 30
0.0
 10
9.97784
 20
1.16494
 30
0.0
 10
9.98855
 20
1.1467
 30
0.0
 10
9.99661
 20
1.13024
 30
0.0
 10
10.00192
 20
1.11572
 30
0.0
 10
10.00192
 20
1.11572
 30
0.0
 10
10.00192
 20
1.11572
 30
0.0
 10
9.95677
 20
1.11572
 30
0.0
 10
9.95677
 20
1.11572
 30
0.0
 10
9.95677
 20
1.11572
 30
0.0
 10
9.94455
 20
1.14184
 30
0.0
 10
9.92968
 20
1.16468
 30
0.0
 10
9.91215
 20
1.18424
 30
0.0
 10
9.91215
 20
1.18424
 30
0.0
 10
9.89471
 20
1.20381
 30
0.0
 10
9.8778
 20
1.21771
 30
0.0
 10
9.86133
 20
1.22585
 30
0.0
 10
9.86133
 20
1.22585
 30
0.0
 10
9.86133
 20
1.22585
 30
0.0
 10
9.86133
 20
1.25595
 30
0.0
 10
9.86133
 20
1.25595
 30
0.0
 10
9.86133
 20
1.25595
 30
0.0
 10
9.86133
 20
1.25595
 30
0.0
 10
10.24326
 20
1.25595
 30
0.0
 10
10.24326
 20
1.25595
 30
0.0
  0
SPLINE
  5
7C
330
1F
100
AcDbEntity
  8
layer 2
 62
     1
370
     9
100
AcDbSpline
210
0.0
220
0.0
230
1.0
 70
    11
 71
     3
 72
    80
 73
    76
 74
     0
 42
0.0000000001
 43
0.0000000001
 12
1.0
 22
0.0
 32
0.0
 13
1.0
 23
0.0
 33
0.0
 40
0.0
 40
0.0
 40
0.0
 40
0.0
 40
0.05
 40
0.05
 40
0.05
 40
0.05
 40
0.1
 40
0.1
 40
0.1
 40
0.1
 40
0.15
 40
0.15
 40
0.15
 40
0.15
 40
0.2
 40
0.2
 40
0.2
 40
0.2
 40
0.25
 40
0.25
 40
0.25
 40
0.25
 40
0.3
 40
0.3
 40
0.3
 40
0.3
 40
0.35
 40
0.35
 40
0.35
 40
0.35
 40
0.4
 40
0.4
 40
0.4
 40
0.4
 40
0.45
 40
0.45
 40
0.45
 40
0.45
 40
0.5
 40
0.5
 40
0.5
 40
0.5
 40
0.55
 40
0.55
 40
0.55
 40
0.55
 40
0.6
 40
0.6
 40
0.6
 40
0.6
 40
0.65
 40
0.65
 40
0.65
 40
0.65
 40
0.7
 40
0.7
 40
0.7
 40
0.7
 40
0.75
 40
0.75
 40
0.75
 40
0.75
 40
0.8
 40
0.8
 40
0.8
 40
0.8
 40
0.85
 40
0.85
 40
0.85
 40
0.85
 40
0.9
 40
0.9
 40
0.9
 40
0.9
 40
1.0
 40
1.0
 40
1.0
 40
1.0
 10
9.95589
 20
1.61885
 30
0.0
 10
9.95589
 20
1.61885
 30
0.0
 10
9.9596
 20
1.57264
 30
0.0
 10
9.9596
 20
1.57264
 30
0.0
 10
9.9596
 20
1.57264
 30
0.0
 10
9.94128
 20
1.56848
 30
0.0
 10
9.92791
 20
1.56254
 30
0.0
 10
9.91959
 20
1.55484
 30
0.0
 10
9.91959
 20
1.55484
 30
0.0
 10
9.90622
 20
1.54218
 30
0.0
 10
9.89958
 20
1.52651
 30
0.0
 10
9.89958
 20
1.50792
 30
0.0
 10
9.89958
 20
1.50792
 30
0.0
 10
9.89958
 20
1.49296
 30
0.0
 10
9.90374
 20
1.47968
 30
0.0
 10
9.91206
 20
1.46826
 30
0.0
 10
9.91206
 20
1.46826
 30
0.0
 10
9.92278
 20
1.45356
 30
0.0
 10
9.93836
 20
1.44205
 30
0.0
 10
9.9589
 20
1.43346
 30
0.0
 10
9.9589
 20
1.43346
 30
0.0
 10
9.97952
 20
1.42496
 30
0.0
 10
10.00883
 20
1.42054
 30
0.0
 10
10.04681
 20
1.42018
 30
0.0
 10
10.04681
 20
1.42018
 30
0.0
 10
10.02972
 20
1.43143
 30
0.0
 10
10.01697
 20
1.44524
 30
0.0
 10
10.00874
 20
1.46153
 30
0.0
 10
10.00874
 20
1.46153
 30
0.0
 10
10.00042
 20
1.47782
 30
0.0
 10
9.99626
 20
1.49482
 30
0.0
 10
9.99626
 20
1.5127
 30
0.0
 10
9.99626
 20
1.5127
 30
0.0
 10
9.99626
 20
1.54386
 30
0.0
 10
10.00777
 20
1.57042
 30
0.0
 10
10.03069
 20
1.59238
 30
0.0
 10
10.03069
 20
1.59238
 30
0.0
 10
10.05363
 20
1.61424
 30
0.0
 10
10.0832
 20
1.62522
 30
0.0
 10
10.11958
 20
1.62522
 30
0.0
 10
10.11958
 20
1.62522
 30
0.0
 10
10.14349
 20
1.62522
 30
0.0
 10
10.16562
 20
1.62009
 30
0.0
 10
10.18616
 20
1.60982
 30
0.0
 10
10.18616
 20
1.60982
 30
0.0
 10
10.2067
 20
1.59946
 30
0.0
 10
10.22237
 20
1.58538
 30
0.0
 10
10.23326
 20
1.56732
 30
0.0
 10
10.23326
 20
1.56732
 30
0.0
 10
10.24415
 20
1.54935
 30
0.0
 10
10.24964
 20
1.5289
 30
0.0
 10
10.24964
 20
1.50606
 30
0.0
 10
10.24964
 20
1.50606
 30
0.0
 10
10.24964
 20
1.46719
 30
0.0
 10
10.23529
 20
1.43541
 30
0.0
 10
10.2067
 20
1.4108
 30
0.0
 10
10.2067
 20
1.4108
 30
0.0
 10
10.1781
 20
1.38628
 30
0.0
 10
10.13091
 20
1.37397
 30
0.0
 10
10.06522
 20
1.37397
 30
0.0
 10
10.06522
 20
1.37397
 30
0.0
 10
9.99174
 20
1.37397
 30
0.0
 10
9.93827
 20
1.3876
 30
0.0
 10
9.90489
 20
1.41478
 30
0.0
 10
9.90489
 20
1.41478
 30
0.0
 10
9.87585
 20
1.43851
 30
0.0
 10
9.86133
 20
1.47047
 30
0.0
 10
9.86133
 20
1.51075
 30
0.0
 10
9.86133
 20
1.51075
 30
0.0
 10
9.86133
 20
1.54067
 30
0.0
 10
9.86974
 20
1.56529
 30
0.0
 10
9.88648
 20
1.58441
 30
0.0
 10
9.88648
 20
1.58441
 30
0.0
 10
9.90321
 20
1.60353
 30
0.0
 10
9.92631
 20
1.61504
 30
0.0
 10
9.95589
 20
1.61885
 30
0.0
  0
SPLINE
  5
7D
330
1F
100
AcDbEntity
  8
layer 2
 62
     1
370
     9
100
AcDbSpline
210
0.0
220
0.0
230
1.0
 70
    11
 71
     3
 72
    40
 73
    36
 74
     0
 42
0.0000000001
 43
0.0000000001
 12
1.0
 22
0.0
 32
0.0
 13
1.0
 23
0.0
 33
0.0
 40
0.0
 40
0.0
 40
0.0
 40
0.0
 40
0.1
 40
0.1
 40
0.1
 40
0.1
 40
0.2
 40
0.2
 40
0.2
 40
0.2
 40
0.3
 40
0.3
 40
0.3
 40
0.3
 40
0.4
 40
0.4
 40
0.4
 40
0.4
 40
0.5
 40
0.5
 40
0.5
 40
0.5
 40
0.6
 40
0.6
 40
0.6
 40
0.6
 40
0.7
 40
0.7
 40
0.7
 40
0.7
 40
0.8
 40
0.8
 40
0.8
 40
0.8
 40
1.0
 40
1.0
 40
1.0
 40
1.0
 10
10.12002
 20
1.42762
 30
0.0
 10
10.13614
 20
1.42762
 30
0.0
 10
10.15154
 20
1.43107
 30
0.0
 10
10.16624
 20
1.43789
 30
0.0
 10
10.16624
 20
1.43789
 30
0.0
 10
10.18094
 20
1.44471
 30
0.0
 10
10.19209
 20
1.45427
 30
0.0
 10
10.19979
 20
1.4664
 30
0.0
 10
10.19979
 20
1.4664
 30
0.0
 10
10.2075
 20
1.47861
 30
0.0
 10
10.21139
 20
1.49154
 30
0.0
 10
10.21139
 20
1.50526
 30
0.0
 10
10.21139
 20
1.50526
 30
0.0
 10
10.21139
 20
1.52518
 30
0.0
 10
10.20342
 20
1.54218
 30
0.0
 10
10.18749
 20
1.55626
 30
0.0
 10
10.18749
 20
1.55626
 30
0.0
 10
10.17155
 20
1.57033
 30
0.0
 10
10.14995
 20
1.57742
 30
0.0
 10
10.12259
 20
1.57742
 30
0.0
 10
10.12259
 20
1.57742
 30
0.0
 10
10.0963
 20
1.57742
 30
0.0
 10
10.07558
 20
1.57042
 30
0.0
 10
10.06044
 20
1.55652
 30
0.0
 10
10.06044
 20
1.55652
 30
0.0
 10
10.0453
 20
1.54262
 30
0.0
 10
10.03769
 20
1.52492
 30
0.0
 10
10.03769
 20
1.5034
 30
0.0
 10
10.03769
 20
1.5034
 30
0.0
 10
10.03769
 20
1.48233
 30
0.0
 10
10.0453
 20
1.46436
 30
0.0
 10
10.06044
 20
1.44966
 30
0.0
 10
10.06044
 20
1.44966
 30
0.0
 10
10.07558
 20
1.43497
 30
0.0
 10
10.09541
 20
1.42762
 30
0.0
 10
10.12002
 20
1.42762
 30
0.0
  0
SPLINE
  5
7E
330
1F
100
AcDbEntity
  8
layer 2
 62
     1
370
     9
100
AcDbSpline
210
0.0
220
0.0
230
1.0
 70
    11
 71
     3
 72
    28
 73
    24
 74
     0
 42
0.0000000001
 43
0.0000000001
 12
1.0
 22
0.0
 32
0.0
 13
1.0
 23
0.0
 33
0.0
 40
0.0
 40
0.0
 40
0.0
 40
0.0
 40
0.1428571428571428
 40
0.1428571428571428
 40
0.1428571428571428
 40
0.1428571428571428
 40
0.2857142857142857
 40
0.2857142857142857
 40
0.2857142857142857
 40
0.2857142857142857
 40
0.4285714285714285
 40
0.4285714285714285
 40
0.4285714285714285
 40
0.4285714285714285
 40
0.5714285714285714
 40
0.5714285714285714
 40
0.5714285714285714
 40
0.5714285714285714
 40
0.7142857142857143
 40
0.7142857142857143
 40
0.7142857142857143
 40
0.7142857142857143
 40
1.0
 40
1.0
 40
1.0
 40
1.0
 10
9.99732
 20
1.68658
 30
0.0
 10
9.99732
 20
1.68658
 30
0.0
 10
9.92508
 20
1.67365
 30
0.0
 10
9.92508
 20
1.67365
 30
0.0
 10
9.92508
 20
1.67365
 30
0.0
 10
9.92508
 20
1.67365
 30
0.0
 10
9.86293
 20
1.67365
 30
0.0
 10
9.86293
 20
1.67365
 30
0.0
 10
9.86293
 20
1.67365
 30
0.0
 10
9.86293
 20
1.67365
 30
0.0
 10
9.86293
 20
1.72677
 30
0.0
 10
9.86293
 20
1.72677
 30
0.0
 10
9.86293
 20
1.72677
 30
0.0
 10
9.86293
 20
1.72677
 30
0.0
 10
9.92508
 20
1.72677
 30
0.0
 10
9.92508
 20
1.72677
 30
0.0
 10
9.92508
 20
1.72677
 30
0.0
 10
9.92508
 20
1.72677
 30
0.0
 10
9.99732
 20
1.71508
 30
0.0
 10
9.99732
 20
1.71508
 30
0.0
 10
9.99732
 20
1.71508
 30
0.0
 10
9.99732
 20
1.71508
 30
0.0
 10
9.99732
 20
1.68658
 30
0.0
 10
9.99732
 20
1.68658
 30
0.0
  0
SPLINE
  5
7F
330
1F
100
AcDbEntity
  8
layer 2
 62
     1
370
     9
100
AcDbSpline
210
0.0
220
0.0
230
1.0
 70
    11
 71
     3
 72
    28
 73
    24
 74
     0
 42
0.0000000001
 43
0.0000000001
 12
1.0
 22
0.0
 32
0.0
 13
1.0
 23
0.0
 33
0.0
 40
0.0
 40
0.0
 40
0.0
 40
0.0
 40
0.1428571428571428
 40
0.1428571428571428
 40
0.1428571428571428
 40
0.1428571428571428
 40
0.2857142857142857
 40
0.2857142857142857
 40
0.2857142857142857
 40
0.2857142857142857
 40
0.4285714285714285
 40
0.4285714285714285
 40
0.4285714285714285
 40
0.4285714285714285
 40
0.5714285714285714
 40
0.5714285714285714
 40
0.5714285714285714
 40
0.5714285714285714
 40
0.7142857142857143
 40
0.7142857142857143
 40
0.7142857142857143
 40
0.7142857142857143
 40
1.0
 40
1.0
 40
1.0
 40
1.0
 10
9.99732
 20
1.77236
 30
0.0
 10
9.99732
 20
1.77236
 30
0.0
 10
9.92508
 20
1.7597
 30
0.0
 10
9.92508
 20
1.7597
 30
0.0
 10
9.92508
 20
1.7597
 30
0.0
 10
9.92508
 20
1.7597
 30
0.0
 10
9.86293
 20
1.7597
 30
0.0
 10
9.86293
 20
1.7597
 30
0.0
 10
9.86293
 20
1.7597
 30
0.0
 10
9.86293
 20
1.7597
 30
0.0
 10
9.86293
 20
1.81282
 30
0.0
 10
9.86293
 20
1.81282
 30
0.0
 10
9.86293
 20
1.81282
 30
0.0
 10
9.86293
 20
1.81282
 30
0.0
 10
9.92508
 20
1.81282
 30
0.0
 10
9.92508
 20
1.81282
 30
0.0
 10
9.92508
 20
1.81282
 30
0.0
 10
9.92508
 20
1.81282
 30
0.0
 10
9.99732
 20
1.80034
 30
0.0
 10
9.99732
 20
1.80034
 30
0.0
 10
9.99732
 20
1.80034
 30
0.0
 10
9.99732
 20
1.80034
 30
0.0
 10
9.99732
 20
1.77236
 30
0.0
 10
9.99732
 20
1.77236
 30
0.0
  0
SPLINE
  5
80
330
1F
100
AcDbEntity
  8
layer 2
 62
     1
370
     9
100
AcDbSpline
210
0.0
220
0.0
230
1.0
 70
    24
 71
     3
 72
     8
 73
     4
 74
     0
 42
0.0000000001
 43
0.0000000001
 12
1.0
 22
0.0
 32
0.0
 13
1.0
 23
0.0
 33
0.0
 40
0.0
 40
0.0
 40
0.0
 40
0.0
 40
1.0
 40
1.0
 40
1.0
 40
1.0
 10
-10.64233
 20
-7.09979
 30
0.0
 10
-10.64233
 20
-7.09979
 30
0.0
 10
-9.22505
 20
-5.68716
 30
0.0
 10
-9.22505
 20
-5.68716
 30
0.0
  0
SPLINE
  5
81
330
1F
100
AcDbEntity
  8
layer 2
 62
     1
370
     9
100
AcDbSpline
210
0.0
220
0.0
230
1.0
 70
    11
 71
     3
 72
    80
 73
    76
 74
     0
 42
0.0000000001
 43
0.0000000001
 12
1.0
 22
0.0
 32
0.0
 13
1.0
 23
0.0
 33
0.0
 40
0.0
 40
0.0
 40
0.0
 40
0.0
 40
0.05
 40
0.05
 40
0.05
 40
0.05
 40
0.1
 40
0.1
 40
0.1
 40
0.1
 40
0.15
 40
0.15
 40
0.15
 40
0.15
 40
0.2
 40
0.2
 40
0.2
 40
0.2
 40
0.25
 40
0.25
 40
0.25
 40
0.25
 40
0.3
 40
0.3
 40
0.3
 40
0.3
 40
0.35
 40
0.35
 40
0.35
 40
0.35
 40
0.4
 40
0.4
 40
0.4
 40
0.4
 40
0.45
 40
0.45
 40
0.45
 40
0.45
 40
0.5
 40
0.5
 40
0.5
 40
0.5
 40
0.55
 40
0.55
 40
0.55
 40
0.55
 40
0.6
 40
0.6
 40
0.6
 40
0.6
 40
0.65
 40
0.65
 40
0.65
 40
0.65
 40
0.7
 40
0.7
 40
0.7
 40
0.7
 40
0.75
 40
0.75
 40
0.75
 40
0.75
 40
0.8
 40
0.8
 40
0.8
 40
0.8
 40
0.85
 40
0.85
 40
0.85
 40
0.85
 40
0.9
 40
0.9
 40
0.9
 40
0.9
 40
1.0
 40
1.0
 40
1.0
 40
1.0
 10
-10.51028
 20
-5.74342
 30
0.0
 10
-10.51028
 20
-5.74342
 30
0.0
 10
-10.77878
 20
-5.47404
 30
0.0
 10
-10.77878
 20
-5.47404
 30
0.0
 10
-10.77878
 20
-5.47404
 30
0.0
 10
-10.77878
 20
-5.47404
 30
0.0
 10
-10.65939
 20
-5.35504
 30
0.0
 10
-10.65939
 20
-5.35504
 30
0.0
 10
-10.65939
 20
-5.35504
 30
0.0
 10
-10.63537
 20
-5.3311
 30
0.0
 10
-10.61469
 20
-5.31536
 30
0.0
 10
-10.5974
 20
-5.30775
 30
0.0
 10
-10.5974
 20
-5.30775
 30
0.0
 10
-10.58011
 20
-5.30015
 30
0.0
 10
-10.56164
 20
-5.29873
 30
0.0
 10
-10.54199
 20
-5.30352
 30
0.0
 10
-10.54199
 20
-5.30352
 30
0.0
 10
-10.52234
 20
-5.30831
 30
0.0
 10
-10.50514
 20
-5.31817
 30
0.0
 10
-10.49039
 20
-5.33297
 30
0.0
 10
-10.49039
 20
-5.33297
 30
0.0
 10
-10.47133
 20
-5.3521
 30
0.0
 10
-10.46148
 20
-5.3744
 30
0.0
 10
-10.46076
 20
-5.39981
 30
0.0
 10
-10.46076
 20
-5.39981
 30
0.0
 10
-10.46006
 20
-5.42523
 30
0.0
 10
-10.47087
 20
-5.45251
 30
0.0
 10
-10.49314
 20
-5.48183
 30
0.0
 10
-10.49314
 20
-5.48183
 30
0.0
 10
-10.47917
 20
-5.47691
 30
0.0
 10
-10.46752
 20
-5.4743
 30
0.0
 10
-10.45826
 20
-5.47381
 30
0.0
 10
-10.45826
 20
-5.47381
 30
0.0
 10
-10.43835
 20
-5.47297
 30
0.0
 10
-10.41657
 20
-5.47513
 30
0.0
 10
-10.39304
 20
-5.48031
 30
0.0
 10
-10.39304
 20
-5.48031
 30
0.0
 10
-10.39304
 20
-5.48031
 30
0.0
 10
-10.27333
 20
-5.50724
 30
0.0
 10
-10.27333
 20
-5.50724
 30
0.0
 10
-10.27333
 20
-5.50724
 30
0.0
 10
-10.27333
 20
-5.50724
 30
0.0
 10
-10.31785
 20
-5.55161
 30
0.0
 10
-10.31785
 20
-5.55161
 30
0.0
 10
-10.31785
 20
-5.55161
 30
0.0
 10
-10.31785
 20
-5.55161
 30
0.0
 10
-10.40933
 20
-5.53105
 30
0.0
 10
-10.40933
 20
-5.53105
 30
0.0
 10
-10.40933
 20
-5.53105
 30
0.0
 10
-10.43587
 20
-5.52512
 30
0.0
 10
-10.45677
 20
-5.52133
 30
0.0
 10
-10.47204
 20
-5.51943
 30
0.0
 10
-10.47204
 20
-5.51943
 30
0.0
 10
-10.48738
 20
-5.51759
 30
0.0
 10
-10.49933
 20
-5.51763
 30
0.0
 10
-10.5081
 20
-5.51949
 30
0.0
 10
-10.5081
 20
-5.51949
 30
0.0
 10
-10.51675
 20
-5.52136
 30
0.0
 10
-10.52457
 20
-5.52441
 30
0.0
 10
-10.53147
 20
-5.52853
 30
0.0
 10
-10.53147
 20
-5.52853
 30
0.0
 10
-10.53629
 20
-5.53172
 30
0.0
 10
-10.54331
 20
-5.53784
 30
0.0
 10
-10.55253
 20
-5.54703
 30
0.0
 10
-10.55253
 20
-5.54703
 30
0.0
 10
-10.55253
 20
-5.54703
 30
0.0
 10
-10.59379
 20
-5.58815
 30
0.0
 10
-10.59379
 20
-5.58815
 30
0.0
 10
-10.59379
 20
-5.58815
 30
0.0
 10
-10.59379
 20
-5.58815
 30
0.0
 10
-10.47454
 20
-5.70779
 30
0.0
 10
-10.47454
 20
-5.70779
 30
0.0
 10
-10.47454
 20
-5.70779
 30
0.0
 10
-10.47454
 20
-5.70779
 30
0.0
 10
-10.51028
 20
-5.74342
 30
0.0
 10
-10.51028
 20
-5.74342
 30
0.0
  0
SPLINE
  5
82
330
1F
100
AcDbEntity
  8
layer 2
 62
     1
370
     9
100
AcDbSpline
210
0.0
220
0.0
230
1.0
 70
    11
 71
     3
 72
    36
 73
    32
 74
     0
 42
0.0000000001
 43
0.0000000001
 12
1.0
 22
0.0
 32
0.0
 13
1.0
 23
0.0
 33
0.0
 40
0.0
 40
0.0
 40
0.0
 40
0.0
 40
0.1111111111111111
 40
0.1111111111111111
 40
0.1111111111111111
 40
0.1111111111111111
 40
0.2222222222222222
 40
0.2222222222222222
 40
0.2222222222222222
 40
0.2222222222222222
 40
0.3333333333333333
 40
0.3333333333333333
 40
0.3333333333333333
 40
0.3333333333333333
 40
0.4444444444444444
 40
0.4444444444444444
 40
0.4444444444444444
 40
0.4444444444444444
 40
0.5555555555555556
 40
0.5555555555555556
 40
0.5555555555555556
 40
0.5555555555555556
 40
0.6666666666666666
 40
0.6666666666666666
 40
0.6666666666666666
 40
0.6666666666666666
 40
0.7777777777777778
 40
0.7777777777777778
 40
0.7777777777777778
 40
0.7777777777777778
 40
1.0
 40
1.0
 40
1.0
 40
1.0
 10
-10.62454
 20
-5.5573
 30
0.0
 10
-10.62454
 20
-5.5573
 30
0.0
 10
-10.54804
 20
-5.48106
 30
0.0
 10
-10.54804
 20
-5.48106
 30
0.0
 10
-10.54804
 20
-5.48106
 30
0.0
 10
-10.53174
 20
-5.4648
 30
0.0
 10
-10.52076
 20
-5.45049
 30
0.0
 10
-10.51498
 20
-5.43797
 30
0.0
 10
-10.51498
 20
-5.43797
 30
0.0
 10
-10.50914
 20
-5.42553
 30
0.0
 10
-10.50755
 20
-5.4132
 30
0.0
 10
-10.51028
 20
-5.40105
 30
0.0
 10
-10.51028
 20
-5.40105
 30
0.0
 10
-10.51289
 20
-5.3889
 30
0.0
 10
-10.51851
 20
-5.3785
 30
0.0
 10
-10.5272
 20
-5.36978
 30
0.0
 10
-10.5272
 20
-5.36978
 30
0.0
 10
-10.53989
 20
-5.35705
 30
0.0
 10
-10.55497
 20
-5.35108
 30
0.0
 10
-10.57237
 20
-5.35206
 30
0.0
 10
-10.57237
 20
-5.35206
 30
0.0
 10
-10.58978
 20
-5.35303
 30
0.0
 10
-10.60838
 20
-5.36345
 30
0.0
 10
-10.62826
 20
-5.38326
 30
0.0
 10
-10.62826
 20
-5.38326
 30
0.0
 10
-10.62826
 20
-5.38326
 30
0.0
 10
-10.71341
 20
-5.46814
 30
0.0
 10
-10.71341
 20
-5.46814
 30
0.0
 10
-10.71341
 20
-5.46814
 30
0.0
 10
-10.71341
 20
-5.46814
 30
0.0
 10
-10.62454
 20
-5.5573
 30
0.0
 10
-10.62454
 20
-5.5573
 30
0.0
  0
SPLINE
  5
83
330
1F
100
AcDbEntity
  8
layer 2
 62
     1
370
     9
100
AcDbSpline
210
0.0
220
0.0
230
1.0
 70
    11
 71
     3
 72
    40
 73
    36
 74
     0
 42
0.0000000001
 43
0.0000000001
 12
1.0
 22
0.0
 32
0.0
 13
1.0
 23
0.0
 33
0.0
 40
0.0
 40
0.0
 40
0.0
 40
0.0
 40
0.1
 40
0.1
 40
0.1
 40
0.1
 40
0.2
 40
0.2
 40
0.2
 40
0.2
 40
0.3
 40
0.3
 40
0.3
 40
0.3
 40
0.4
 40
0.4
 40
0.4
 40
0.4
 40
0.5
 40
0.5
 40
0.5
 40
0.5
 40
0.6
 40
0.6
 40
0.6
 40
0.6
 40
0.7
 40
0.7
 40
0.7
 40
0.7
 40
0.8
 40
0.8
 40
0.8
 40
0.8
 40
1.0
 40
1.0
 40
1.0
 40
1.0
 10
-10.12835
 20
-5.36274
 30
0.0
 10
-10.12835
 20
-5.36274
 30
0.0
 10
-10.16146
 20
-5.39574
 30
0.0
 10
-10.16146
 20
-5.39574
 30
0.0
 10
-10.16146
 20
-5.39574
 30
0.0
 10
-10.16146
 20
-5.39574
 30
0.0
 10
-10.37158
 20
-5.18492
 30
0.0
 10
-10.37158
 20
-5.18492
 30
0.0
 10
-10.37158
 20
-5.18492
 30
0.0
 10
-10.37192
 20
-5.20051
 30
0.0
 10
-10.37483
 20
-5.21854
 30
0.0
 10
-10.38018
 20
-5.239
 30
0.0
 10
-10.38018
 20
-5.239
 30
0.0
 10
-10.38554
 20
-5.25946
 30
0.0
 10
-10.39151
 20
-5.27679
 30
0.0
 10
-10.39805
 20
-5.2908
 30
0.0
 10
-10.39805
 20
-5.2908
 30
0.0
 10
-10.39805
 20
-5.2908
 30
0.0
 10
-10.42992
 20
-5.25882
 30
0.0
 10
-10.42992
 20
-5.25882
 30
0.0
 10
-10.42992
 20
-5.25882
 30
0.0
 10
-10.42005
 20
-5.23173
 30
0.0
 10
-10.41437
 20
-5.20507
 30
0.0
 10
-10.41289
 20
-5.17885
 30
0.0
 10
-10.41289
 20
-5.17885
 30
0.0
 10
-10.41134
 20
-5.15268
 30
0.0
 10
-10.41343
 20
-5.13089
 30
0.0
 10
-10.41929
 20
-5.11348
 30
0.0
 10
-10.41929
 20
-5.11348
 30
0.0
 10
-10.41929
 20
-5.11348
 30
0.0
 10
-10.39797
 20
-5.09223
 30
0.0
 10
-10.39797
 20
-5.09223
 30
0.0
 10
-10.39797
 20
-5.09223
 30
0.0
 10
-10.39797
 20
-5.09223
 30
0.0
 10
-10.12835
 20
-5.36274
 30
0.0
 10
-10.12835
 20
-5.36274
 30
0.0
  0
SPLINE
  5
84
330
1F
100
AcDbEntity
  8
layer 2
 62
     1
370
     9
100
AcDbSpline
210
0.0
220
0.0
230
1.0
 70
    11
 71
     3
 72
    92
 73
    88
 74
     0
 42
0.0000000001
 43
0.0000000001
 12
1.0
 22
0.0
 32
0.0
 13
1.0
 23
0.0
 33
0.0
 40
0.0
 40
0.0
 40
0.0
 40
0.0
 40
0.0434782608695652
 40
0.0434782608695652
 40
0.0434782608695652
 40
0.0434782608695652
 40
0.0869565217391304
 40
0.0869565217391304
 40
0.0869565217391304
 40
0.0869565217391304
 40
0.1304347826086956
 40
0.1304347826086956
 40
0.1304347826086956
 40
0.1304347826086956
 40
0.1739130434782609
 40
0.1739130434782609
 40
0.1739130434782609
 40
0.1739130434782609
 40
0.2173913043478261
 40
0.2173913043478261
 40
0.2173913043478261
 40
0.2173913043478261
 40
0.2608695652173913
 40
0.2608695652173913
 40
0.2608695652173913
 40
0.2608695652173913
 40
0.3043478260869565
 40
0.3043478260869565
 40
0.3043478260869565
 40
0.3043478260869565
 40
0.3478260869565217
 40
0.3478260869565217
 40
0.3478260869565217
 40
0.3478260869565217
 40
0.391304347826087
 40
0.391304347826087
 40
0.391304347826087
 40
0.391304347826087
 40
0.4347826086956522
 40
0.4347826086956522
 40
0.4347826086956522
 40
0.4347826086956522
 40
0.4782608695652174
 40
0.4782608695652174
 40
0.4782608695652174
 40
0.4782608695652174
 40
0.5217391304347826
 40
0.5217391304347826
 40
0.5217391304347826
 40
0.5217391304347826
 40
0.5652173913043478
 40
0.5652173913043478
 40
0.5652173913043478
 40
0.5652173913043478
 40
0.6086956521739131
 40
0.6086956521739131
 40
0.6086956521739131
 40
0.6086956521739131
 40
0.6521739130434783
 40
0.6521739130434783
 40
0.6521739130434783
 40
0.6521739130434783
 40
0.6956521739130435
 40
0.6956521739130435
 40
0.6956521739130435
 40
0.6956521739130435
 40
0.7391304347826086
 40
0.7391304347826086
 40
0.7391304347826086
 40
0.7391304347826086
 40
0.782608695652174
 40
0.782608695652174
 40
0.782608695652174
 40
0.782608695652174
 40
0.8260869565217391
 40
0.8260869565217391
 40
0.8260869565217391
 40
0.8260869565217391
 40
0.8695652173913043
 40
0.8695652173913043
 40
0.8695652173913043
 40
0.8695652173913043
 40
0.9130434782608695
 40
0.9130434782608695
 40
0.9130434782608695
 40
0.9130434782608695
 40
1.0
 40
1.0
 40
1.0
 40
1.0
 10
-10.11376
 20
-5.20719
 30
0.0
 10
-10.11376
 20
-5.20719
 30
0.0
 10
-10.08177
 20
-5.17006
 30
0.0
 10
-10.08177
 20
-5.17006
 30
0.0
 10
-10.08177
 20
-5.17006
 30
0.0
 10
-10.06239
 20
-5.18437
 30
0.0
 10
-10.0438
 20
-5.1911
 30
0.0
 10
-10.02603
 20
-5.19037
 30
0.0
 10
-10.02603
 20
-5.19037
 30
0.0
 10
-10.00831
 20
-5.18959
 30
0.0
 10
-9.99271
 20
-5.18254
 30
0.0
 10
-9.97935
 20
-5.16923
 30
0.0
 10
-9.97935
 20
-5.16923
 30
0.0
 10
-9.96324
 20
-5.15317
 30
0.0
 10
-9.95576
 20
-5.13371
 30
0.0
 10
-9.95672
 20
-5.1108
 30
0.0
 10
-9.95672
 20
-5.1108
 30
0.0
 10
-9.95781
 20
-5.08788
 30
0.0
 10
-9.96823
 20
-5.06652
 30
0.0
 10
-9.98798
 20
-5.0467
 30
0.0
 10
-9.98798
 20
-5.0467
 30
0.0
 10
-10.00679
 20
-5.02783
 30
0.0
 10
-10.02681
 20
-5.01815
 30
0.0
 10
-10.04815
 20
-5.01768
 30
0.0
 10
-10.04815
 20
-5.01768
 30
0.0
 10
-10.0695
 20
-5.01721
 30
0.0
 10
-10.08879
 20
-5.02557
 30
0.0
 10
-10.10604
 20
-5.04275
 30
0.0
 10
-10.10604
 20
-5.04275
 30
0.0
 10
-10.11676
 20
-5.05344
 30
0.0
 10
-10.12392
 20
-5.06545
 30
0.0
 10
-10.12757
 20
-5.07884
 30
0.0
 10
-10.12757
 20
-5.07884
 30
0.0
 10
-10.13116
 20
-5.09217
 30
0.0
 10
-10.1315
 20
-5.10512
 30
0.0
 10
-10.12864
 20
-5.11777
 30
0.0
 10
-10.12864
 20
-5.11777
 30
0.0
 10
-10.12864
 20
-5.11777
 30
0.0
 10
-10.16436
 20
-5.14439
 30
0.0
 10
-10.16436
 20
-5.14439
 30
0.0
 10
-10.16436
 20
-5.14439
 30
0.0
 10
-10.16436
 20
-5.14439
 30
0.0
 10
-10.2764
 20
-4.98006
 30
0.0
 10
-10.2764
 20
-4.98006
 30
0.0
 10
-10.2764
 20
-4.98006
 30
0.0
 10
-10.2764
 20
-4.98006
 30
0.0
 10
-10.14284
 20
-4.84694
 30
0.0
 10
-10.14284
 20
-4.84694
 30
0.0
 10
-10.14284
 20
-4.84694
 30
0.0
 10
-10.14284
 20
-4.84694
 30
0.0
 10
-10.11134
 20
-4.87854
 30
0.0
 10
-10.11134
 20
-4.87854
 30
0.0
 10
-10.11134
 20
-4.87854
 30
0.0
 10
-10.11134
 20
-4.87854
 30
0.0
 10
-10.2185
 20
-4.98535
 30
0.0
 10
-10.2185
 20
-4.98535
 30
0.0
 10
-10.2185
 20
-4.98535
 30
0.0
 10
-10.2185
 20
-4.98535
 30
0.0
 10
-10.16042
 20
-5.07234
 30
0.0
 10
-10.16042
 20
-5.07234
 30
0.0
 10
-10.16042
 20
-5.07234
 30
0.0
 10
-10.15562
 20
-5.04492
 30
0.0
 10
-10.14432
 20
-5.02241
 30
0.0
 10
-10.12664
 20
-5.00478
 30
0.0
 10
-10.12664
 20
-5.00478
 30
0.0
 10
-10.10318
 20
-4.98141
 30
0.0
 10
-10.07525
 20
-4.96981
 30
0.0
 10
-10.04288
 20
-4.97005
 30
0.0
 10
-10.04288
 20
-4.97005
 30
0.0
 10
-10.01051
 20
-4.97029
 30
0.0
 10
-9.98155
 20
-4.98317
 30
0.0
 10
-9.95605
 20
-5.00875
 30
0.0
 10
-9.95605
 20
-5.00875
 30
0.0
 10
-9.93174
 20
-5.03315
 30
0.0
 10
-9.91782
 20
-5.06128
 30
0.0
 10
-9.91431
 20
-5.09315
 30
0.0
 10
-9.91431
 20
-5.09315
 30
0.0
 10
-9.9098
 20
-5.13216
 30
0.0
 10
-9.92251
 20
-5.16657
 30
0.0
 10
-9.95235
 20
-5.19632
 30
0.0
 10
-9.95235
 20
-5.19632
 30
0.0
 10
-9.97681
 20
-5.22069
 30
0.0
 10
-10.00362
 20
-5.23367
 30
0.0
 10
-10.0328
 20
-5.23538
 30
0.0
 10
-10.0328
 20
-5.23538
 30
0.0
 10
-10.06197
 20
-5.23708
 30
0.0
 10
-10.08894
 20
-5.2277
 30
0.0
 10
-10.11376
 20
-5.20719
 30
0.0
  0
SPLINE
  5
85
330
1F
100
AcDbEntity
  8
layer 2
 62
     1
370
     9
100
AcDbSpline
210
0.0
220
0.0
230
1.0
 70
    24
 71
     3
 72
     8
 73
     4
 74
     0
 42
0.0000000001
 43
0.0000000001
 12
1.0
 22
0.0
 32
0.0
 13
1.0
 23
0.0
 33
0.0
 40
0.0
 40
0.0
 40
0.0
 40
0.0
 40
1.0
 40
1.0
 40
1.0
 40
1.0
 10
-8.67298
 20
-5.1369
 30
0.0
 10
-8.67298
 20
-5.1369
 30
0.0
 10
-8.97968
 20
-5.4426
 30
0.0
 10
-8.97968
 20
-5.4426
 30
0.0
  0
SPLINE
  5
86
330
1F
100
AcDbEntity
  8
layer 2
 62
     1
370
     9
100
AcDbSpline
210
0.0
220
0.0
230
1.0
 70
    27
 71
     3
 72
    12
 73
     8
 74
     0
 42
0.0000000001
 43
0.0000000001
 12
1.0
 22
0.0
 32
0.0
 13
1.0
 23
0.0
 33
0.0
 40
0.0
 40
0.0
 40
0.0
 40
0.0
 40
0.3333333333333333
 40
0.3333333333333333
 40
0.3333333333333333
 40
0.3333333333333333
 40
1.0
 40
1.0
 40
1.0
 40
1.0
 10
-9.26581
 20
-5.64627
 30
0.0
 10
-9.26581
 20
-5.64627
 30
0.0
 10
-8.97968
 20
-5.4426
 30
0.0
 10
-8.97968
 20
-5.4426
 30
0.0
 10
-8.97968
 20
-5.4426
 30
0.0
 10
-8.97968
 20
-5.4426
 30
0.0
 10
-9.26581
 20
-5.64627
 30
0.0
 10
-9.26581
 20
-5.64627
 30
0.0
  0
SPLINE
  5
87
330
1F
100
AcDbEntity
  8
layer 2
 62
     1
370
     9
100
AcDbSpline
210
0.0
220
0.0
230
1.0
 70
     8
 71
     3
 72
    12
 73
     8
 74
     0
 42
0.0000000001
 43
0.0000000001
 12
1.0
 22
0.0
 32
0.0
 13
1.0
 23
0.0
 33
0.0
 40
0.0
 40
0.0
 40
0.0
 40
0.0
 40
0.3333333333333333
 40
0.3333333333333333
 40
0.3333333333333333
 40
0.3333333333333333
 40
1.0
 40
1.0
 40
1.0
 40
1.0
 10
-8.97968
 20
-5.4426
 30
0.0
 10
-8.97968
 20
-5.4426
 30
0.0
 10
-9.18429
 20
-5.72805
 30
0.0
 10
-9.18429
 20
-5.72805
 30
0.0
 10
-9.18429
 20
-5.72805
 30
0.0
 10
-9.18429
 20
-5.72805
 30
0.0
 10
-9.26581
 20
-5.64627
 30
0.0
 10
-9.26581
 20
-5.64627
 30
0.0
  0
SPLINE
  5
88
330
1F
100
AcDbEntity
  8
layer 2
 62
     1
370
     9
100
AcDbSpline
210
0.0
220
0.0
230
1.0
 70
    24
 71
     3
 72
     8
 73
     4
 74
     0
 42
0.0000000001
 43
0.0000000001
 12
1.0
 22
0.0
 32
0.0
 13
1.0
 23
0.0
 33
0.0
 40
0.0
 40
0.0
 40
0.0
 40
0.0
 40
1.0
 40
1.0
 40
1.0
 40
1.0
 10
-9.26581
 20
-5.64627
 30
0.0
 10
-9.26581
 20
-5.64627
 30
0.0
 10
-8.97968
 20
-5.4426
 30
0.0
 10
-8.97968
 20
-5.4426
 30
0.0
  0
SPLINE
  5
89
330
1F
100
AcDbEntity
  8
layer 2
 62
     1
370
     9
100
AcDbSpline
210
0.0
220
0.0
230
1.0
 70
     8
 71
     3
 72
    12
 73
     8
 74
     0
 42
0.0000000001
 43
0.0000000001
 12
1.0
 22
0.0
 32
0.0
 13
1.0
 23
0.0
 33
0.0
 40
0.0
 40
0.0
 40
0.0
 40
0.0
 40
0.3333333333333333
 40
0.3333333333333333
 40
0.3333333333333333
 40
0.3333333333333333
 40
1.0
 40
1.0
 40
1.0
 40
1.0
 10
-8.97968
 20
-5.4426
 30
0.0
 10
-8.97968
 20
-5.4426
 30
0.0
 10
-9.18429
 20
-5.72805
 30
0.0
 10
-9.18429
 20
-5.72805
 30
0.0
 10
-9.18429
 20
-5.72805
 30
0.0
 10
-9.18429
 20
-5.72805
 30
0.0
 10
-9.26581
 20
-5.64627
 30
0.0
 10
-9.26581
 20
-5.64627
 30
0.0
  0
ENDSEC
  0
SECTION
  2
OBJECTS
  0
DICTIONARY
  5
C
330
0
100
AcDbDictionary
281
     1
  3
ACAD_GROUP
350
D
  3
ACAD_LAYOUT
350
1A
  3
ACAD_MATERIAL
350
3B
  3
ACAD_MLEADERSTYLE
350
AB
  3
ACAD_MLINESTYLE
350
17
  3
ACAD_PLOTSETTINGS
350
19
  3
ACAD_PLOTSTYLENAME
350
E
  3
ACAD_TABLESTYLE
350
AA
  3
ACAD_VISUALSTYLE
350
2A
  0
DICTIONARY
  5
D
102
{ACAD_REACTORS
330
C
102
}
330
C
100
AcDbDictionary
281
     1
  0
DICTIONARY
  5
1A
102
{ACAD_REACTORS
330
C
102
}
330
C
100
AcDbDictionary
281
     1
  3
Layout1
350
1E
  3
Layout2
350
26
  3
Model
350
22
  0
DICTIONARY
  5
3B
102
{ACAD_REACTORS
330
C
102
}
330
C
100
AcDbDictionary
281
     1
  3
ByBlock
350
3D
  3
ByLayer
350
3C
  3
Global
350
3E
  0
DICTIONARY
  5
AB
102
{ACAD_REACTORS
330
C
102
}
330
C
100
AcDbDictionary
281
     1
  0
DICTIONARY
  5
17
102
{ACAD_REACTORS
330
C
102
}
330
C
100
AcDbDictionary
281
     1
  3
Standard
350
18
  0
DICTIONARY
  5
19
102
{ACAD_REACTORS
330
C
102
}
330
C
100
AcDbDictionary
281
     1
  0
ACDBDICTIONARYWDFLT
  5
E
102
{ACAD_REACTORS
330
C
102
}
330
C
100
AcDbDictionary
281
     1
  3
Normal
350
F
100
AcDbDictionaryWithDefault
340
F
  0
DICTIONARY
  5
AA
102
{ACAD_REACTORS
330
C
102
}
330
C
100
AcDbDictionary
281
     1
  0
DICTIONARY
  5
2A
102
{ACAD_REACTORS
330
C
102
}
330
C
100
AcDbDictionary
281
     1
  3
2dWireframe
350
2F
  3
3D Hidden
350
31
  3
3dWireframe
350
30
  3
Basic
350
32
  3
Brighten
350
36
  3
ColorChange
350
3A
  3
Conceptual
350
34
  3
Dim
350
35
  3
Facepattern
350
39
  3
Flat
350
2B
  3
FlatWithEdges
350
2C
  3
Gouraud
350
2D
  3
GouraudWithEdges
350
2E
  3
Linepattern
350
38
  3
Realistic
350
33
  3
Thicken
350
37
  0
LAYOUT
  5
1E
102
{ACAD_REACTORS
330
1A
102
}
330
1A
100
AcDbPlotSettings
  1

  2
none_device
  4

  6

 40
0.0
 41
0.0
 42
0.0
 43
0.0
 44
0.0
 45
0.0
 46
0.0
 47
0.0
 48
0.0
 49
0.0
140
0.0
141
0.0
142
1.0
143
1.0
 70
   688
 72
     0
 73
     0
 74
     5
  7

 75
    16
 76
     0
 77
     2
 78
   300
147
1.0
148
0.0
149
0.0
100
AcDbLayout
  1
Layout1
 70
     1
 71
     1
 10
0.0
 20
0.0
 11
12.0
 21
9.0
 12
0.0
 22
0.0
 32
0.0
 14
1.000000000000000E+20
 24
1.000000000000000E+20
 34
1.000000000000000E+20
 15
-1.000000000000000E+20
 25
-1.000000000000000E+20
 35
-1.000000000000000E+20
146
0.0
 13
0.0
 23
0.0
 33
0.0
 16
1.0
 26
0.0
 36
0.0
 17
0.0
 27
1.0
 37
0.0
 76
     0
330
1B
  0
LAYOUT
  5
26
102
{ACAD_REACTORS
330
1A
102
}
330
1A
100
AcDbPlotSettings
  1

  2
none_device
  4

  6

 40
0.0
 41
0.0
 42
0.0
 43
0.0
 44
0.0
 45
0.0
 46
0.0
 47
0.0
 48
0.0
 49
0.0
140
0.0
141
0.0
142
1.0
143
1.0
 70
   688
 72
     0
 73
     0
 74
     5
  7

 75
    16
 76
     0
 77
     2
 78
   300
147
1.0
148
0.0
149
0.0
100
AcDbLayout
  1
Layout2
 70
     1
 71
     2
 10
0.0
 20
0.0
 11
0.0
 21
0.0
 12
0.0
 22
0.0
 32
0.0
 14
0.0
 24
0.0
 34
0.0
 15
0.0
 25
0.0
 35
0.0
146
0.0
 13
0.0
 23
0.0
 33
0.0
 16
1.0
 26
0.0
 36
0.0
 17
0.0
 27
1.0
 37
0.0
 76
     0
330
23
  0
LAYOUT
  5
22
102
{ACAD_REACTORS
330
1A
102
}
330
1A
100
AcDbPlotSettings
  1

  2
none_device
  4

  6

 40
0.0
 41
0.0
 42
0.0
 43
0.0
 44
0.0
 45
0.0
 46
0.0
 47
0.0
 48
0.0
 49
0.0
140
0.0
141
0.0
142
1.0
143
1.0
 70
  1712
 72
     0
 73
     0
 74
     0
  7

 75
     0
 76
     0
 77
     2
 78
   300
147
1.0
148
0.0
149
0.0
100
AcDbLayout
  1
Model
 70
     1
 71
     0
 10
0.0
 20
0.0
 11
12.0
 21
9.0
 12
0.0
 22
0.0
 32
0.0
 14
-10.78148
 24
-7.65697
 34
0.0
 15
10.77878
 25
7.65697
 35
0.0
146
0.0
 13
0.0
 23
0.0
 33
0.0
 16
1.0
 26
0.0
 36
0.0
 17
0.0
 27
1.0
 37
0.0
 76
     0
330
1F
331
29
  0
MATERIAL
  5
3D
102
{ACAD_REACTORS
330
3B
102
}
330
3B
100
AcDbMaterial
  1
ByBlock
 72
     1
 94
      127
  0
MATERIAL
  5
3C
102
{ACAD_REACTORS
330
3B
102
}
330
3B
100
AcDbMaterial
  1
ByLayer
 72
     1
 94
      127
  0
MATERIAL
  5
3E
102
{ACAD_REACTORS
330
3B
102
}
330
3B
100
AcDbMaterial
  1
Global
 72
     1
 94
      127
  0
MLINESTYLE
  5
18
102
{ACAD_REACTORS
330
17
102
}
330
17
100
AcDbMlineStyle
  2
Standard
 70
     0
  3

 62
   256
 51
90.0
 52
90.0
 71
     2
 49
0.5
 62
   256
  6
BYLAYER
 49
-0.5
 62
   256
  6
BYLAYER
  0
ACDBPLACEHOLDER
  5
F
102
{ACAD_REACTORS
330
E
102
}
330
E
  0
VISUALSTYLE
  5
2F
102
{ACAD_REACTORS
330
2A
102
}
102
{ACAD_XDICTIONARY
360
92
102
}
330
2A
100
AcDbVisualStyle
  2
2dWireframe
 70
     4
 71
     0
 72
     2
 73
     0
 90
        0
 40
-0.6
 41
-30.0
 62
     5
 63
     7
421
 16777215
 74
     1
 91
        4
 64
     7
 65
   257
 75
     1
175
     1
 42
1.0
 92
        0
 66
   257
 43
1.0
 76
     1
 77
     6
 78
     2
 67
     7
 79
     5
170
     0
171
     0
290
     0
174
     0
 93
        1
 44
0.0
173
     0
291
     0
 45
0.0
  0
VISUALSTYLE
  5
31
102
{ACAD_REACTORS
330
2A
102
}
102
{ACAD_XDICTIONARY
360
96
102
}
330
2A
100
AcDbVisualStyle
  2
3D Hidden
 70
     6
 71
     1
 72
     2
 73
     2
 90
        0
 40
-0.6
 41
-30.0
 62
     5
 63
     7
421
 16777215
 74
     2
 91
        2
 64
     7
 65
   257
 75
     2
175
     1
 42
40.0
 92
        0
 66
   257
 43
1.0
 76
     1
 77
     6
 78
     2
 67
     7
 79
     3
170
     0
171
     0
290
     0
174
     0
 93
        1
 44
0.0
173
     0
291
     0
 45
0.0
  0
VISUALSTYLE
  5
30
102
{ACAD_REACTORS
330
2A
102
}
102
{ACAD_XDICTIONARY
360
94
102
}
330
2A
100
AcDbVisualStyle
  2
3dWireframe
 70
     5
 71
     0
 72
     2
 73
     0
 90
        0
 40
-0.6
 41
-30.0
 62
     5
 63
     7
421
 16777215
 74
     1
 91
        4
 64
     7
 65
   257
 75
     1
175
     1
 42
1.0
 92
        0
 66
   257
 43
1.0
 76
     1
 77
     6
 78
     2
 67
     7
 79
     5
170
     0
171
     0
290
     0
174
     0
 93
        1
 44
0.0
173
     0
291
     0
 45
0.0
  0
VISUALSTYLE
  5
32
102
{ACAD_REACTORS
330
2A
102
}
102
{ACAD_XDICTIONARY
360
98
102
}
330
2A
100
AcDbVisualStyle
  2
Basic
 70
     7
 71
     1
 72
     0
 73
     1
 90
        0
 40
-0.6
 41
-30.0
 62
     5
 63
     7
421
 16777215
 74
     0
 91
        4
 64
     7
 65
   257
 75
     1
175
     1
 42
1.0
 92
        8
 66
     7
 43
1.0
 76
     1
 77
     6
 78
     2
 67
     7
 79
     5
170
     0
171
     0
290
     0
174
     0
 93
        1
 44
0.0
173
     0
291
     1
 45
0.0
  0
VISUALSTYLE
  5
36
102
{ACAD_REACTORS
330
2A
102
}
102
{ACAD_XDICTIONARY
360
A0
102
}
330
2A
100
AcDbVisualStyle
  2
Brighten
 70
    12
 71
     2
 72
     2
 73
     0
 90
        0
 40
-0.6
 41
-30.0
 62
     5
 63
     7
421
 16777215
 74
     1
 91
        4
 64
     7
 65
   257
 75
     1
175
     1
 42
1.0
 92
        8
 66
     7
 43
1.0
 76
     1
 77
     6
 78
     2
 67
     7
 79
     5
170
     0
171
     0
290
     0
174
     0
 93
        1
 44
50.0
173
     0
291
     1
 45
0.0
  0
VISUALSTYLE
  5
3A
102
{ACAD_REACTORS
330
2A
102
}
102
{ACAD_XDICTIONARY
360
A8
102
}
330
2A
100
AcDbVisualStyle
  2
ColorChange
 70
    16
 71
     2
 72
     2
 73
     3
 90
        0
 40
-0.6
 41
-30.0
 62
     5
 63
     8
421
  8421504
 74
     1
 91
        4
 64
     7
 65
   257
 75
     1
175
     1
 42
1.0
 92
        8
 66
     8
424
  8421504
 43
1.0
 76
     1
 77
     6
 78
     2
 67
     7
 79
     5
170
     0
171
     0
290
     0
174
     0
 93
        1
 44
0.0
173
     0
291
     1
 45
0.0
  0
VISUALSTYLE
  5
34
102
{ACAD_REACTORS
330
2A
102
}
102
{ACAD_XDICTIONARY
360
9C
102
}
330
2A
100
AcDbVisualStyle
  2
Conceptual
 70
     9
 71
     3
 72
     2
 73
     0
 90
        0
 40
-0.6
 41
-30.0
 62
     5
 63
     7
421
 16777215
 74
     2
 91
        2
 64
     7
 65
   257
 75
     1
175
     1
 42
40.0
 92
        8
 66
     7
 43
1.0
 76
     1
 77
     6
 78
     2
 67
     7
 79
     3
170
     0
171
     0
290
     0
174
     0
 93
        1
 44
0.0
173
     0
291
     0
 45
0.0
  0
VISUALSTYLE
  5
35
102
{ACAD_REACTORS
330
2A
102
}
102
{ACAD_XDICTIONARY
360
9E
102
}
330
2A
100
AcDbVisualStyle
  2
Dim
 70
    11
 71
     2
 72
     2
 73
     0
 90
        0
 40
-0.6
 41
-30.0
 62
     5
 63
     7
421
 16777215
 74
     1
 91
        4
 64
     7
 65
   257
 75
     1
175
     1
 42
1.0
 92
        8
 66
     7
 43
1.0
 76
     1
 77
     6
 78
     2
 67
     7
 79
     5
170
     0
171
     0
290
     0
174
     0
 93
        1
 44
-50.0
173
     0
291
     1
 45
0.0
  0
VISUALSTYLE
  5
39
102
{ACAD_REACTORS
330
2A
102
}
102
{ACAD_XDICTIONARY
360
A6
102
}
330
2A
100
AcDbVisualStyle
  2
Facepattern
 70
    15
 71
     2
 72
     2
 73
     0
 90
        0
 40
-0.6
 41
-30.0
 62
     5
 63
     7
421
 16777215
 74
     1
 91
        4
 64
     7
 65
   257
 75
     1
175
     1
 42
1.0
 92
        8
 66
     7
 43
1.0
 76
     1
 77
     6
 78
     2
 67
     7
 79
     5
170
     0
171
     0
290
     0
174
     0
 93
        1
 44
0.0
173
     0
291
     1
 45
0.0
  0
VISUALSTYLE
  5
2B
102
{ACAD_REACTORS
330
2A
102
}
102
{ACAD_XDICTIONARY
360
8A
102
}
330
2A
100
AcDbVisualStyle
  2
Flat
 70
     0
 71
     2
 72
     1
 73
     1
 90
        2
 40
-0.6
 41
30.0
 62
     5
 63
     7
421
 16777215
 74
     0
 91
        4
 64
     7
 65
   257
 75
     1
175
     1
 42
1.0
 92
        8
 66
     7
 43
1.0
 76
     1
 77
     6
 78
     2
 67
     7
 79
     5
170
     0
171
     0
290
     0
174
     0
 93
       13
 44
0.0
173
     0
291
     1
 45
0.0
  0
VISUALSTYLE
  5
2C
102
{ACAD_REACTORS
330
2A
102
}
102
{ACAD_XDICTIONARY
360
8C
102
}
330
2A
100
AcDbVisualStyle
  2
FlatWithEdges
 70
     1
 71
     2
 72
     1
 73
     1
 90
        2
 40
-0.6
 41
30.0
 62
     5
 63
     7
421
 16777215
 74
     1
 91
        4
 64
     7
 65
   257
 75
     1
175
     1
 42
1.0
 92
        0
 66
   257
 43
1.0
 76
     1
 77
     6
 78
     2
 67
     7
 79
     5
170
     0
171
     0
290
     0
174
     0
 93
       13
 44
0.0
173
     0
291
     1
 45
0.0
  0
VISUALSTYLE
  5
2D
102
{ACAD_REACTORS
330
2A
102
}
102
{ACAD_XDICTIONARY
360
8E
102
}
330
2A
100
AcDbVisualStyle
  2
Gouraud
 70
     2
 71
     2
 72
     2
 73
     1
 90
        2
 40
-0.6
 41
30.0
 62
     5
 63
     7
421
 16777215
 74
     0
 91
        4
 64
     7
 65
   257
 75
     1
175
     1
 42
1.0
 92
        0
 66
     7
 43
1.0
 76
     1
 77
     6
 78
     2
 67
     7
 79
     5
170
     0
171
     0
290
     0
174
     0
 93
       13
 44
0.0
173
     0
291
     1
 45
0.0
  0
VISUALSTYLE
  5
2E
102
{ACAD_REACTORS
330
2A
102
}
102
{ACAD_XDICTIONARY
360
90
102
}
330
2A
100
AcDbVisualStyle
  2
GouraudWithEdges
 70
     3
 71
     2
 72
     2
 73
     1
 90
        2
 40
-0.6
 41
30.0
 62
     5
 63
     7
421
 16777215
 74
     1
 91
        4
 64
     7
 65
   257
 75
     1
175
     1
 42
1.0
 92
        0
 66
   257
 43
1.0
 76
     1
 77
     6
 78
     2
 67
     7
 79
     5
170
     0
171
     0
290
     0
174
     0
 93
       13
 44
0.0
173
     0
291
     1
 45
0.0
  0
VISUALSTYLE
  5
38
102
{ACAD_REACTORS
330
2A
102
}
102
{ACAD_XDICTIONARY
360
A4
102
}
330
2A
100
AcDbVisualStyle
  2
Linepattern
 70
    14
 71
     2
 72
     2
 73
     0
 90
        0
 40
-0.6
 41
-30.0
 62
     5
 63
     7
421
 16777215
 74
     1
 91
        4
 64
     7
 65
   257
 75
     7
175
     7
 42
1.0
 92
        8
 66
     7
 43
1.0
 76
     1
 77
     6
 78
     2
 67
     7
 79
     5
170
     0
171
     0
290
     0
174
     0
 93
        1
 44
0.0
173
     0
291
     1
 45
0.0
  0
VISUALSTYLE
  5
33
102
{ACAD_REACTORS
330
2A
102
}
102
{ACAD_XDICTIONARY
360
9A
102
}
330
2A
100
AcDbVisualStyle
  2
Realistic
 70
     8
 71
     2
 72
     2
 73
     0
 90
        0
 40
-0.6
 41
-30.0
 62
     5
 63
     7
421
 16777215
 74
     1
 91
        0
 64
     7
 65
   257
 75
     1
175
     1
 42
1.0
 92
        8
 66
     8
424
  7895160
 43
1.0
 76
     1
 77
     6
 78
     2
 67
     7
 79
     5
170
     0
171
     0
290
     0
174
     0
 93
       13
 44
0.0
173
     0
291
     0
 45
0.0
  0
VISUALSTYLE
  5
37
102
{ACAD_REACTORS
330
2A
102
}
102
{ACAD_XDICTIONARY
360
A2
102
}
330
2A
100
AcDbVisualStyle
  2
Thicken
 70
    13
 71
     2
 72
     2
 73
     0
 90
        0
 40
-0.6
 41
-30.0
 62
     5
 63
     7
421
 16777215
 74
     1
 91
        4
 64
     7
 65
   257
 75
     1
175
     1
 42
1.0
 92
       12
 66
     7
 43
1.0
 76
     1
 77
     6
 78
     2
 67
     7
 79
     5
170
     0
171
     0
290
     0
174
     0
 93
        1
 44
0.0
173
     0
291
     1
 45
0.0
  0
DICTIONARY
  5
92
330
2F
100
AcDbDictionary
280
     1
281
     1
  3
ACAD_XREC_ROUNDTRIP
360
93
  0
DICTIONARY
  5
96
330
31
100
AcDbDictionary
280
     1
281
     1
  3
ACAD_XREC_ROUNDTRIP
360
97
  0
DICTIONARY
  5
94
330
30
100
AcDbDictionary
280
     1
281
     1
  3
ACAD_XREC_ROUNDTRIP
360
95
  0
DICTIONARY
  5
98
330
32
100
AcDbDictionary
280
     1
281
     1
  3
ACAD_XREC_ROUNDTRIP
360
99
  0
DICTIONARY
  5
A0
330
36
100
AcDbDictionary
280
     1
281
     1
  3
ACAD_XREC_ROUNDTRIP
360
A1
  0
DICTIONARY
  5
A8
330
3A
100
AcDbDictionary
280
     1
281
     1
  3
ACAD_XREC_ROUNDTRIP
360
A9
  0
DICTIONARY
  5
9C
330
34
100
AcDbDictionary
280
     1
281
     1
  3
ACAD_XREC_ROUNDTRIP
360
9D
  0
DICTIONARY
  5
9E
330
35
100
AcDbDictionary
280
     1
281
     1
  3
ACAD_XREC_ROUNDTRIP
360
9F
  0
DICTIONARY
  5
A6
330
39
100
AcDbDictionary
280
     1
281
     1
  3
ACAD_XREC_ROUNDTRIP
360
A7
  0
DICTIONARY
  5
8A
330
2B
100
AcDbDictionary
280
     1
281
     1
  3
ACAD_XREC_ROUNDTRIP
360
8B
  0
DICTIONARY
  5
8C
330
2C
100
AcDbDictionary
280
     1
281
     1
  3
ACAD_XREC_ROUNDTRIP
360
8D
  0
DICTIONARY
  5
8E
330
2D
100
AcDbDictionary
280
     1
281
     1
  3
ACAD_XREC_ROUNDTRIP
360
8F
  0
DICTIONARY
  5
90
330
2E
100
AcDbDictionary
280
     1
281
     1
  3
ACAD_XREC_ROUNDTRIP
360
91
  0
DICTIONARY
  5
A4
330
38
100
AcDbDictionary
280
     1
281
     1
  3
ACAD_XREC_ROUNDTRIP
360
A5
  0
DICTIONARY
  5
9A
330
33
100
AcDbDictionary
280
     1
281
     1
  3
ACAD_XREC_ROUNDTRIP
360
9B
  0
DICTIONARY
  5
A2
330
37
100
AcDbDictionary
280
     1
281
     1
  3
ACAD_XREC_ROUNDTRIP
360
A3
  0
XRECORD
  5
93
102
{ACAD_REACTORS
330
92
102
}
330
92
100
AcDbXrecord
280
     1
102
RTVSPropertyOp0
 70
     1
102
RTVSPropertyOp1
 70
     1
102
RTVSPropertyOp2
 70
     1
102
RTVSPropertyOp3
 70
     1
102
RTVSPropertyOp4
 70
     1
102
RTVSPropertyOp5
 70
     1
102
RTVSPropertyOp6
 70
     1
102
RTVSPropertyOp7
 70
     1
102
RTVSPropertyOp8
 70
     1
102
RTVSPropertyOp9
 70
     1
102
RTVSPropertyOp10
 70
     1
102
RTVSPropertyOp11
 70
     1
102
RTVSPropertyOp12
 70
     1
102
RTVSPropertyOp13
 70
     1
102
RTVSPropertyOp14
 70
     1
102
RTVSPropertyOp15
 70
     1
102
RTVSPropertyOp16
 70
     1
102
RTVSPropertyOp17
 70
     1
102
RTVSPropertyOp18
 70
     1
102
RTVSPropertyOp19
 70
     1
102
RTVSPropertyOp20
 70
     1
102
RTVSPropertyOp21
 70
     1
102
RTVSPropertyOp22
 70
     1
102
RTVSPropertyOp23
 70
     1
102
RTVSPropertyOp24
 70
     1
102
RTVSPropertyOp25
 70
     1
102
RTVSPropertyOp26
 70
     1
102
RTVSPropertyOp27
 70
     1
102
RTVSPropertyOp28
 70
     1
102
RTVSPropertyOp29
 70
     1
102
RTVSPropertyOp30
 70
     1
102
RTVSPropertyOp31
 70
     1
102
RTVSPropertyOp32
 70
     1
  0
XRECORD
  5
97
102
{ACAD_REACTORS
330
96
102
}
330
96
100
AcDbXrecord
280
     1
102
RTVSPropertyOp0
 70
     1
102
RTVSPropertyOp1
 70
     1
102
RTVSPropertyOp2
 70
     1
102
RTVSPropertyOp3
 70
     1
102
RTVSPropertyOp4
 70
     1
102
RTVSPropertyOp5
 70
     1
102
RTVSPropertyOp6
 70
     1
102
RTVSPropertyOp7
 70
     1
102
RTVSPropertyOp8
 70
     1
102
RTVSPropertyOp9
 70
     1
102
RTVSPropertyOp10
 70
     1
102
RTVSPropertyOp11
 70
     1
102
RTVSPropertyOp12
 70
     1
102
RTVSPropertyOp13
 70
     1
102
RTVSPropertyOp14
 70
     1
102
RTVSPropertyOp15
 70
     1
102
RTVSPropertyOp16
 70
     1
102
RTVSPropertyOp17
 70
     1
102
RTVSPropertyOp18
 70
     1
102
RTVSPropertyOp19
 70
     1
102
RTVSPropertyOp20
 70
     1
102
RTVSPropertyOp21
 70
     1
102
RTVSPropertyOp22
 70
     1
102
RTVSPropertyOp23
 70
     1
102
RTVSPropertyOp24
 70
     1
102
RTVSPropertyOp25
 70
     1
102
RTVSPropertyOp26
 70
     1
102
RTVSPropertyOp27
 70
     1
102
RTVSPropertyOp28
 70
     1
102
RTVSPropertyOp29
 70
     1
102
RTVSPropertyOp30
 70
     1
102
RTVSPropertyOp31
 70
     1
102
RTVSPropertyOp32
 70
     1
  0
XRECORD
  5
95
102
{ACAD_REACTORS
330
94
102
}
330
94
100
AcDbXrecord
280
     1
102
RTVSPropertyOp0
 70
     1
102
RTVSPropertyOp1
 70
     1
102
RTVSPropertyOp2
 70
     1
102
RTVSPropertyOp3
 70
     1
102
RTVSPropertyOp4
 70
     1
102
RTVSPropertyOp5
 70
     1
102
RTVSPropertyOp6
 70
     1
102
RTVSPropertyOp7
 70
     1
102
RTVSPropertyOp8
 70
     1
102
RTVSPropertyOp9
 70
     1
102
RTVSPropertyOp10
 70
     1
102
RTVSPropertyOp11
 70
     1
102
RTVSPropertyOp12
 70
     1
102
RTVSPropertyOp13
 70
     1
102
RTVSPropertyOp14
 70
     1
102
RTVSPropertyOp15
 70
     1
102
RTVSPropertyOp16
 70
     1
102
RTVSPropertyOp17
 70
     1
102
RTVSPropertyOp18
 70
     1
102
RTVSPropertyOp19
 70
     1
102
RTVSPropertyOp20
 70
     1
102
RTVSPropertyOp21
 70
     1
102
RTVSPropertyOp22
 70
     1
102
RTVSPropertyOp23
 70
     1
102
RTVSPropertyOp24
 70
     1
102
RTVSPropertyOp25
 70
     1
102
RTVSPropertyOp26
 70
     1
102
RTVSPropertyOp27
 70
     1
102
RTVSPropertyOp28
 70
     1
102
RTVSPropertyOp29
 70
     1
102
RTVSPropertyOp30
 70
     1
102
RTVSPropertyOp31
 70
     1
102
RTVSPropertyOp32
 70
     1
  0
XRECORD
  5
99
102
{ACAD_REACTORS
330
98
102
}
330
98
100
AcDbXrecord
280
     1
102
RTVSPropertyOp0
 70
     1
102
RTVSPropertyOp1
 70
     1
102
RTVSPropertyOp2
 70
     1
102
RTVSPropertyOp3
 70
     1
102
RTVSPropertyOp4
 70
     1
102
RTVSPropertyOp5
 70
     1
102
RTVSPropertyOp6
 70
     1
102
RTVSPropertyOp7
 70
     1
102
RTVSPropertyOp8
 70
     1
102
RTVSPropertyOp9
 70
     1
102
RTVSPropertyOp10
 70
     1
102
RTVSPropertyOp11
 70
     1
102
RTVSPropertyOp12
 70
     1
102
RTVSPropertyOp13
 70
     1
102
RTVSPropertyOp14
 70
     1
102
RTVSPropertyOp15
 70
     1
102
RTVSPropertyOp16
 70
     1
102
RTVSPropertyOp17
 70
     1
102
RTVSPropertyOp18
 70
     1
102
RTVSPropertyOp19
 70
     1
102
RTVSPropertyOp20
 70
     1
102
RTVSPropertyOp21
 70
     1
102
RTVSPropertyOp22
 70
     1
102
RTVSPropertyOp23
 70
     1
102
RTVSPropertyOp24
 70
     1
102
RTVSPropertyOp25
 70
     1
102
RTVSPropertyOp26
 70
     1
102
RTVSPropertyOp27
 70
     1
102
RTVSPropertyOp28
 70
     1
102
RTVSPropertyOp29
 70
     1
102
RTVSPropertyOp30
 70
     1
102
RTVSPropertyOp31
 70
     1
102
RTVSPropertyOp32
 70
     1
  0
XRECORD
  5
A1
102
{ACAD_REACTORS
330
A0
102
}
330
A0
100
AcDbXrecord
280
     1
102
RTVSPropertyOp0
 70
     1
102
RTVSPropertyOp1
 70
     1
102
RTVSPropertyOp2
 70
     1
102
RTVSPropertyOp3
 70
     1
102
RTVSPropertyOp4
 70
     1
102
RTVSPropertyOp5
 70
     1
102
RTVSPropertyOp6
 70
     1
102
RTVSPropertyOp7
 70
     1
102
RTVSPropertyOp8
 70
     1
102
RTVSPropertyOp9
 70
     1
102
RTVSPropertyOp10
 70
     1
102
RTVSPropertyOp11
 70
     1
102
RTVSPropertyOp12
 70
     1
102
RTVSPropertyOp13
 70
     1
102
RTVSPropertyOp14
 70
     1
102
RTVSPropertyOp15
 70
     1
102
RTVSPropertyOp16
 70
     1
102
RTVSPropertyOp17
 70
     1
102
RTVSPropertyOp18
 70
     1
102
RTVSPropertyOp19
 70
     1
102
RTVSPropertyOp20
 70
     1
102
RTVSPropertyOp21
 70
     1
102
RTVSPropertyOp22
 70
     1
102
RTVSPropertyOp23
 70
     1
102
RTVSPropertyOp24
 70
     1
102
RTVSPropertyOp25
 70
     1
102
RTVSPropertyOp26
 70
     1
102
RTVSPropertyOp27
 70
     1
102
RTVSPropertyOp28
 70
     1
102
RTVSPropertyOp29
 70
     1
102
RTVSPropertyOp30
 70
     1
102
RTVSPropertyOp31
 70
     1
102
RTVSPropertyOp32
 70
     1
  0
XRECORD
  5
A9
102
{ACAD_REACTORS
330
A8
102
}
330
A8
100
AcDbXrecord
280
     1
102
RTVSPropertyOp0
 70
     1
102
RTVSPropertyOp1
 70
     1
102
RTVSPropertyOp2
 70
     1
102
RTVSPropertyOp3
 70
     1
102
RTVSPropertyOp4
 70
     1
102
RTVSPropertyOp5
 70
     1
102
RTVSPropertyOp6
 70
     1
102
RTVSPropertyOp7
 70
     1
102
RTVSPropertyOp8
 70
     1
102
RTVSPropertyOp9
 70
     1
102
RTVSPropertyOp10
 70
     1
102
RTVSPropertyOp11
 70
     1
102
RTVSPropertyOp12
 70
     1
102
RTVSPropertyOp13
 70
     1
102
RTVSPropertyOp14
 70
     1
102
RTVSPropertyOp15
 70
     1
102
RTVSPropertyOp16
 70
     1
102
RTVSPropertyOp17
 70
     1
102
RTVSPropertyOp18
 70
     1
102
RTVSPropertyOp19
 70
     1
102
RTVSPropertyOp20
 70
     1
102
RTVSPropertyOp21
 70
     1
102
RTVSPropertyOp22
 70
     1
102
RTVSPropertyOp23
 70
     1
102
RTVSPropertyOp24
 70
     1
102
RTVSPropertyOp25
 70
     1
102
RTVSPropertyOp26
 70
     1
102
RTVSPropertyOp27
 70
     1
102
RTVSPropertyOp28
 70
     1
102
RTVSPropertyOp29
 70
     1
102
RTVSPropertyOp30
 70
     1
102
RTVSPropertyOp31
 70
     1
102
RTVSPropertyOp32
 70
     1
  0
XRECORD
  5
9D
102
{ACAD_REACTORS
330
9C
102
}
330
9C
100
AcDbXrecord
280
     1
102
RTVSPropertyOp0
 70
     1
102
RTVSPropertyOp1
 70
     1
102
RTVSPropertyOp2
 70
     1
102
RTVSPropertyOp3
 70
     1
102
RTVSPropertyOp4
 70
     1
102
RTVSPropertyOp5
 70
     1
102
RTVSPropertyOp6
 70
     1
102
RTVSPropertyOp7
 70
     1
102
RTVSPropertyOp8
 70
     1
102
RTVSPropertyOp9
 70
     1
102
RTVSPropertyOp10
 70
     1
102
RTVSPropertyOp11
 70
     1
102
RTVSPropertyOp12
 70
     1
102
RTVSPropertyOp13
 70
     1
102
RTVSPropertyOp14
 70
     1
102
RTVSPropertyOp15
 70
     1
102
RTVSPropertyOp16
 70
     1
102
RTVSPropertyOp17
 70
     1
102
RTVSPropertyOp18
 70
     1
102
RTVSPropertyOp19
 70
     1
102
RTVSPropertyOp20
 70
     1
102
RTVSPropertyOp21
 70
     1
102
RTVSPropertyOp22
 70
     1
102
RTVSPropertyOp23
 70
     1
102
RTVSPropertyOp24
 70
     1
102
RTVSPropertyOp25
 70
     1
102
RTVSPropertyOp26
 70
     1
102
RTVSPropertyOp27
 70
     1
102
RTVSPropertyOp28
 70
     1
102
RTVSPropertyOp29
 70
     1
102
RTVSPropertyOp30
 70
     1
102
RTVSPropertyOp31
 70
     1
102
RTVSPropertyOp32
 70
     1
  0
XRECORD
  5
9F
102
{ACAD_REACTORS
330
9E
102
}
330
9E
100
AcDbXrecord
280
     1
102
RTVSPropertyOp0
 70
     1
102
RTVSPropertyOp1
 70
     1
102
RTVSPropertyOp2
 70
     1
102
RTVSPropertyOp3
 70
     1
102
RTVSPropertyOp4
 70
     1
102
RTVSPropertyOp5
 70
     1
102
RTVSPropertyOp6
 70
     1
102
RTVSPropertyOp7
 70
     1
102
RTVSPropertyOp8
 70
     1
102
RTVSPropertyOp9
 70
     1
102
RTVSPropertyOp10
 70
     1
102
RTVSPropertyOp11
 70
     1
102
RTVSPropertyOp12
 70
     1
102
RTVSPropertyOp13
 70
     1
102
RTVSPropertyOp14
 70
     1
102
RTVSPropertyOp15
 70
     1
102
RTVSPropertyOp16
 70
     1
102
RTVSPropertyOp17
 70
     1
102
RTVSPropertyOp18
 70
     1
102
RTVSPropertyOp19
 70
     1
102
RTVSPropertyOp20
 70
     1
102
RTVSPropertyOp21
 70
     1
102
RTVSPropertyOp22
 70
     1
102
RTVSPropertyOp23
 70
     1
102
RTVSPropertyOp24
 70
     1
102
RTVSPropertyOp25
 70
     1
102
RTVSPropertyOp26
 70
     1
102
RTVSPropertyOp27
 70
     1
102
RTVSPropertyOp28
 70
     1
102
RTVSPropertyOp29
 70
     1
102
RTVSPropertyOp30
 70
     1
102
RTVSPropertyOp31
 70
     1
102
RTVSPropertyOp32
 70
     1
  0
XRECORD
  5
A7
102
{ACAD_REACTORS
330
A6
102
}
330
A6
100
AcDbXrecord
280
     1
102
RTVSPropertyOp0
 70
     1
102
RTVSPropertyOp1
 70
     1
102
RTVSPropertyOp2
 70
     1
102
RTVSPropertyOp3
 70
     1
102
RTVSPropertyOp4
 70
     1
102
RTVSPropertyOp5
 70
     1
102
RTVSPropertyOp6
 70
     1
102
RTVSPropertyOp7
 70
     1
102
RTVSPropertyOp8
 70
     1
102
RTVSPropertyOp9
 70
     1
102
RTVSPropertyOp10
 70
     1
102
RTVSPropertyOp11
 70
     1
102
RTVSPropertyOp12
 70
     1
102
RTVSPropertyOp13
 70
     1
102
RTVSPropertyOp14
 70
     1
102
RTVSPropertyOp15
 70
     1
102
RTVSPropertyOp16
 70
     1
102
RTVSPropertyOp17
 70
     1
102
RTVSPropertyOp18
 70
     1
102
RTVSPropertyOp19
 70
     1
102
RTVSPropertyOp20
 70
     1
102
RTVSPropertyOp21
 70
     1
102
RTVSPropertyOp22
 70
     1
102
RTVSPropertyOp23
 70
     1
102
RTVSPropertyOp24
 70
     1
102
RTVSPropertyOp25
 70
     1
102
RTVSPropertyOp26
 70
     1
102
RTVSPropertyOp27
 70
     1
102
RTVSPropertyOp28
 70
     1
102
RTVSPropertyOp29
 70
     1
102
RTVSPropertyOp30
 70
     1
102
RTVSPropertyOp31
 70
     1
102
RTVSPropertyOp32
 70
     1
  0
XRECORD
  5
8B
102
{ACAD_REACTORS
330
8A
102
}
330
8A
100
AcDbXrecord
280
     1
102
RTVSPropertyOp0
 70
     1
102
RTVSPropertyOp1
 70
     1
102
RTVSPropertyOp2
 70
     1
102
RTVSPropertyOp3
 70
     1
102
RTVSPropertyOp4
 70
     1
102
RTVSPropertyOp5
 70
     1
102
RTVSPropertyOp6
 70
     1
102
RTVSPropertyOp7
 70
     1
102
RTVSPropertyOp8
 70
     1
102
RTVSPropertyOp9
 70
     1
102
RTVSPropertyOp10
 70
     1
102
RTVSPropertyOp11
 70
     1
102
RTVSPropertyOp12
 70
     1
102
RTVSPropertyOp13
 70
     1
102
RTVSPropertyOp14
 70
     1
102
RTVSPropertyOp15
 70
     1
102
RTVSPropertyOp16
 70
     1
102
RTVSPropertyOp17
 70
     1
102
RTVSPropertyOp18
 70
     1
102
RTVSPropertyOp19
 70
     1
102
RTVSPropertyOp20
 70
     1
102
RTVSPropertyOp21
 70
     1
102
RTVSPropertyOp22
 70
     1
102
RTVSPropertyOp23
 70
     1
102
RTVSPropertyOp24
 70
     1
102
RTVSPropertyOp25
 70
     1
102
RTVSPropertyOp26
 70
     1
102
RTVSPropertyOp27
 70
     1
102
RTVSPropertyOp28
 70
     1
102
RTVSPropertyOp29
 70
     1
102
RTVSPropertyOp30
 70
     1
102
RTVSPropertyOp31
 70
     1
102
RTVSPropertyOp32
 70
     1
  0
XRECORD
  5
8D
102
{ACAD_REACTORS
330
8C
102
}
330
8C
100
AcDbXrecord
280
     1
102
RTVSPropertyOp0
 70
     1
102
RTVSPropertyOp1
 70
     1
102
RTVSPropertyOp2
 70
     1
102
RTVSPropertyOp3
 70
     1
102
RTVSPropertyOp4
 70
     1
102
RTVSPropertyOp5
 70
     1
102
RTVSPropertyOp6
 70
     1
102
RTVSPropertyOp7
 70
     1
102
RTVSPropertyOp8
 70
     1
102
RTVSPropertyOp9
 70
     1
102
RTVSPropertyOp10
 70
     1
102
RTVSPropertyOp11
 70
     1
102
RTVSPropertyOp12
 70
     1
102
RTVSPropertyOp13
 70
     1
102
RTVSPropertyOp14
 70
     1
102
RTVSPropertyOp15
 70
     1
102
RTVSPropertyOp16
 70
     1
102
RTVSPropertyOp17
 70
     1
102
RTVSPropertyOp18
 70
     1
102
RTVSPropertyOp19
 70
     1
102
RTVSPropertyOp20
 70
     1
102
RTVSPropertyOp21
 70
     1
102
RTVSPropertyOp22
 70
     1
102
RTVSPropertyOp23
 70
     1
102
RTVSPropertyOp24
 70
     1
102
RTVSPropertyOp25
 70
     1
102
RTVSPropertyOp26
 70
     1
102
RTVSPropertyOp27
 70
     1
102
RTVSPropertyOp28
 70
     1
102
RTVSPropertyOp29
 70
     1
102
RTVSPropertyOp30
 70
     1
102
RTVSPropertyOp31
 70
     1
102
RTVSPropertyOp32
 70
     1
  0
XRECORD
  5
8F
102
{ACAD_REACTORS
330
8E
102
}
330
8E
100
AcDbXrecord
280
     1
102
RTVSPropertyOp0
 70
     1
102
RTVSPropertyOp1
 70
     1
102
RTVSPropertyOp2
 70
     1
102
RTVSPropertyOp3
 70
     1
102
RTVSPropertyOp4
 70
     1
102
RTVSPropertyOp5
 70
     1
102
RTVSPropertyOp6
 70
     1
102
RTVSPropertyOp7
 70
     1
102
RTVSPropertyOp8
 70
     1
102
RTVSPropertyOp9
 70
     1
102
RTVSPropertyOp10
 70
     1
102
RTVSPropertyOp11
 70
     1
102
RTVSPropertyOp12
 70
     1
102
RTVSPropertyOp13
 70
     1
102
RTVSPropertyOp14
 70
     1
102
RTVSPropertyOp15
 70
     1
102
RTVSPropertyOp16
 70
     1
102
RTVSPropertyOp17
 70
     1
102
RTVSPropertyOp18
 70
     1
102
RTVSPropertyOp19
 70
     1
102
RTVSPropertyOp20
 70
     1
102
RTVSPropertyOp21
 70
     1
102
RTVSPropertyOp22
 70
     1
102
RTVSPropertyOp23
 70
     1
102
RTVSPropertyOp24
 70
     1
102
RTVSPropertyOp25
 70
     1
102
RTVSPropertyOp26
 70
     1
102
RTVSPropertyOp27
 70
     1
102
RTVSPropertyOp28
 70
     1
102
RTVSPropertyOp29
 70
     1
102
RTVSPropertyOp30
 70
     1
102
RTVSPropertyOp31
 70
     1
102
RTVSPropertyOp32
 70
     1
  0
XRECORD
  5
91
102
{ACAD_REACTORS
330
90
102
}
330
90
100
AcDbXrecord
280
     1
102
RTVSPropertyOp0
 70
     1
102
RTVSPropertyOp1
 70
     1
102
RTVSPropertyOp2
 70
     1
102
RTVSPropertyOp3
 70
     1
102
RTVSPropertyOp4
 70
     1
102
RTVSPropertyOp5
 70
     1
102
RTVSPropertyOp6
 70
     1
102
RTVSPropertyOp7
 70
     1
102
RTVSPropertyOp8
 70
     1
102
RTVSPropertyOp9
 70
     1
102
RTVSPropertyOp10
 70
     1
102
RTVSPropertyOp11
 70
     1
102
RTVSPropertyOp12
 70
     1
102
RTVSPropertyOp13
 70
     1
102
RTVSPropertyOp14
 70
     1
102
RTVSPropertyOp15
 70
     1
102
RTVSPropertyOp16
 70
     1
102
RTVSPropertyOp17
 70
     1
102
RTVSPropertyOp18
 70
     1
102
RTVSPropertyOp19
 70
     1
102
RTVSPropertyOp20
 70
     1
102
RTVSPropertyOp21
 70
     1
102
RTVSPropertyOp22
 70
     1
102
RTVSPropertyOp23
 70
     1
102
RTVSPropertyOp24
 70
     1
102
RTVSPropertyOp25
 70
     1
102
RTVSPropertyOp26
 70
     1
102
RTVSPropertyOp27
 70
     1
102
RTVSPropertyOp28
 70
     1
102
RTVSPropertyOp29
 70
     1
102
RTVSPropertyOp30
 70
     1
102
RTVSPropertyOp31
 70
     1
102
RTVSPropertyOp32
 70
     1
  0
XRECORD
  5
A5
102
{ACAD_REACTORS
330
A4
102
}
330
A4
100
AcDbXrecord
280
     1
102
RTVSPropertyOp0
 70
     1
102
RTVSPropertyOp1
 70
     1
102
RTVSPropertyOp2
 70
     1
102
RTVSPropertyOp3
 70
     1
102
RTVSPropertyOp4
 70
     1
102
RTVSPropertyOp5
 70
     1
102
RTVSPropertyOp6
 70
     1
102
RTVSPropertyOp7
 70
     1
102
RTVSPropertyOp8
 70
     1
102
RTVSPropertyOp9
 70
     1
102
RTVSPropertyOp10
 70
     1
102
RTVSPropertyOp11
 70
     1
102
RTVSPropertyOp12
 70
     1
102
RTVSPropertyOp13
 70
     1
102
RTVSPropertyOp14
 70
     1
102
RTVSPropertyOp15
 70
     1
102
RTVSPropertyOp16
 70
     1
102
RTVSPropertyOp17
 70
     1
102
RTVSPropertyOp18
 70
     1
102
RTVSPropertyOp19
 70
     1
102
RTVSPropertyOp20
 70
     1
102
RTVSPropertyOp21
 70
     1
102
RTVSPropertyOp22
 70
     1
102
RTVSPropertyOp23
 70
     1
102
RTVSPropertyOp24
 70
     1
102
RTVSPropertyOp25
 70
     1
102
RTVSPropertyOp26
 70
     1
102
RTVSPropertyOp27
 70
     1
102
RTVSPropertyOp28
 70
     1
102
RTVSPropertyOp29
 70
     1
102
RTVSPropertyOp30
 70
     1
102
RTVSPropertyOp31
 70
     1
102
RTVSPropertyOp32
 70
     1
  0
XRECORD
  5
9B
102
{ACAD_REACTORS
330
9A
102
}
330
9A
100
AcDbXrecord
280
     1
102
RTVSPropertyOp0
 70
     1
102
RTVSPropertyOp1
 70
     1
102
RTVSPropertyOp2
 70
     1
102
RTVSPropertyOp3
 70
     1
102
RTVSPropertyOp4
 70
     1
102
RTVSPropertyOp5
 70
     1
102
RTVSPropertyOp6
 70
     1
102
RTVSPropertyOp7
 70
     1
102
RTVSPropertyOp8
 70
     1
102
RTVSPropertyOp9
 70
     1
102
RTVSPropertyOp10
 70
     1
102
RTVSPropertyOp11
 70
     1
102
RTVSPropertyOp12
 70
     1
102
RTVSPropertyOp13
 70
     1
102
RTVSPropertyOp14
 70
     1
102
RTVSPropertyOp15
 70
     1
102
RTVSPropertyOp16
 70
     1
102
RTVSPropertyOp17
 70
     1
102
RTVSPropertyOp18
 70
     1
102
RTVSPropertyOp19
 70
     1
102
RTVSPropertyOp20
 70
     1
102
RTVSPropertyOp21
 70
     1
102
RTVSPropertyOp22
 70
     1
102
RTVSPropertyOp23
 70
     1
102
RTVSPropertyOp24
 70
     1
102
RTVSPropertyOp25
 70
     1
102
RTVSPropertyOp26
 70
     1
102
RTVSPropertyOp27
 70
     1
102
RTVSPropertyOp28
 70
     1
102
RTVSPropertyOp29
 70
     1
102
RTVSPropertyOp30
 70
     1
102
RTVSPropertyOp31
 70
     1
102
RTVSPropertyOp32
 70
     1
  0
XRECORD
  5
A3
102
{ACAD_REACTORS
330
A2
102
}
330
A2
100
AcDbXrecord
280
     1
102
RTVSPropertyOp0
 70
     1
102
RTVSPropertyOp1
 70
     1
102
RTVSPropertyOp2
 70
     1
102
RTVSPropertyOp3
 70
     1
102
RTVSPropertyOp4
 70
     1
102
RTVSPropertyOp5
 70
     1
102
RTVSPropertyOp6
 70
     1
102
RTVSPropertyOp7
 70
     1
102
RTVSPropertyOp8
 70
     1
102
RTVSPropertyOp9
 70
     1
102
RTVSPropertyOp10
 70
     1
102
RTVSPropertyOp11
 70
     1
102
RTVSPropertyOp12
 70
     1
102
RTVSPropertyOp13
 70
     1
102
RTVSPropertyOp14
 70
     1
102
RTVSPropertyOp15
 70
     1
102
RTVSPropertyOp16
 70
     1
102
RTVSPropertyOp17
 70
     1
102
RTVSPropertyOp18
 70
     1
102
RTVSPropertyOp19
 70
     1
102
RTVSPropertyOp20
 70
     1
102
RTVSPropertyOp21
 70
     1
102
RTVSPropertyOp22
 70
     1
102
RTVSPropertyOp23
 70
     1
102
RTVSPropertyOp24
 70
     1
102
RTVSPropertyOp25
 70
     1
102
RTVSPropertyOp26
 70
     1
102
RTVSPropertyOp27
 70
     1
102
RTVSPropertyOp28
 70
     1
102
RTVSPropertyOp29
 70
     1
102
RTVSPropertyOp30
 70
     1
102
RTVSPropertyOp31
 70
     1
102
RTVSPropertyOp32
 70
     1
  0
ENDSEC
  0
EOF
