  0
SECTION
  2
HEADER
  9
$ACADVER
  1
AC1024
  9
$ACADMAINTVER
 70
     6
  9
$DWGCODEPAGE
  3
UNDEFINED
  9
$INSBASE
 10
0.0
 20
0.0
 30
0.0
  9
$EXTMIN
 10
1.000000000000000E+20
 20
1.000000000000000E+20
 30
1.000000000000000E+20
  9
$EXTMAX
 10
-1.000000000000000E+20
 20
-1.000000000000000E+20
 30
-1.000000000000000E+20
  9
$LIMMIN
 10
0.0
 20
0.0
  9
$LIMMAX
 10
12.0
 20
9.0
  9
$ORTHOMODE
 70
     0
  9
$REGENMODE
 70
     1
  9
$FILLMODE
 70
     1
  9
$QTEXTMODE
 70
     0
  9
$MIRRTEXT
 70
     1
  9
$LTSCALE
 40
1.0
  9
$ATTMODE
 70
     1
  9
$TEXTSIZE
 40
0.2
  9
$TRACEWID
 40
0.05
  9
$TEXTSTYLE
  7
Standard
  9
$CLAYER
  8
0
  9
$CELTYPE
  6
ByLayer
  9
$CECOLOR
 62
   256
  9
$CELTSCALE
 40
1.0
  9
$DISPSILH
 70
     0
  9
$DIMSCALE
 40
1.0
  9
$DIMASZ
 40
0.18
  9
$DIMEXO
 40
0.0625
  9
$DIMDLI
 40
0.38
  9
$DIMRND
 40
0.0
  9
$DIMDLE
 40
0.0
  9
$DIMEXE
 40
0.18
  9
$DIMTP
 40
0.0
  9
$DIMTM
 40
0.0
  9
$DIMTXT
 40
0.18
  9
$DIMCEN
 40
0.09
  9
$DIMTSZ
 40
0.0
  9
$DIMTOL
 70
     0
  9
$DIMLIM
 70
     0
  9
$DIMTIH
 70
     1
  9
$DIMTOH
 70
     1
  9
$DIMSE1
 70
     0
  9
$DIMSE2
 70
     0
  9
$DIMTAD
 70
     0
  9
$DIMZIN
 70
     0
  9
$DIMBLK
  1

  9
$DIMASO
 70
     1
  9
$DIMSHO
 70
     1
  9
$DIMPOST
  1

  9
$DIMAPOST
  1

  9
$DIMALT
 70
     0
  9
$DIMALTD
 70
     2
  9
$DIMALTF
 40
25.4
  9
$DIMLFAC
 40
1.0
  9
$DIMTOFL
 70
     0
  9
$DIMTVP
 40
0.0
  9
$DIMTIX
 70
     0
  9
$DIMSOXD
 70
     0
  9
$DIMSAH
 70
     0
  9
$DIMBLK1
  1

  9
$DIMBLK2
  1

  9
$DIMSTYLE
  2
Standard
  9
$DIMCLRD
 70
     0
  9
$DIMCLRE
 70
     0
  9
$DIMCLRT
 70
     0
  9
$DIMTFAC
 40
1.0
  9
$DIMGAP
 40
0.09
  9
$DIMJUST
 70
     0
  9
$DIMSD1
 70
     0
  9
$DIMSD2
 70
     0
  9
$DIMTOLJ
 70
     1
  9
$DIMTZIN
 70
     0
  9
$DIMALTZ
 70
     0
  9
$DIMALTTZ
 70
     0
  9
$DIMUPT
 70
     0
  9
$DIMDEC
 70
     4
  9
$DIMTDEC
 70
     4
  9
$DIMALTU
 70
     2
  9
$DIMALTTD
 70
     2
  9
$DIMTXSTY
  7
Standard
  9
$DIMAUNIT
 70
     0
  9
$DIMADEC
 70
     0
  9
$DIMALTRND
 40
0.0
  9
$DIMAZIN
 70
     0
  9
$DIMDSEP
 70
    46
  9
$DIMATFIT
 70
     3
  9
$DIMFRAC
 70
     0
  9
$DIMLDRBLK
  1

  9
$DIMLUNIT
 70
     2
  9
$DIMLWD
 70
    -2
  9
$DIMLWE
 70
    -2
  9
$DIMTMOVE
 70
     0
  9
$DIMFXL
 40
1.0
  9
$DIMFXLON
 70
     0
  9
$DIMJOGANG
 40
0.7853981633974483
  9
$DIMTFILL
 70
     0
  9
$DIMTFILLCLR
 70
     0
  9
$DIMARCSYM
 70
     0
  9
$DIMLTYPE
  6

  9
$DIMLTEX1
  6

  9
$DIMLTEX2
  6

  9
$DIMTXTDIRECTION
 70
     0
  9
$LUNITS
 70
     2
  9
$LUPREC
 70
     4
  9
$SKETCHINC
 40
0.1
  9
$FILLETRAD
 40
0.5
  9
$AUNITS
 70
     0
  9
$AUPREC
 70
     0
  9
$MENU
  1
.
  9
$ELEVATION
 40
0.0
  9
$PELEVATION
 40
0.0
  9
$THICKNESS
 40
0.0
  9
$LIMCHECK
 70
     0
  9
$CHAMFERA
 40
0.5
  9
$CHAMFERB
 40
0.5
  9
$CHAMFERC
 40
1.0
  9
$CHAMFERD
 40
0.0
  9
$SKPOLY
 70
     0
  9
$TDCREATE
 40
2458513.393865729
  9
$TDUCREATE
 40
2458513.602199074
  9
$TDUPDATE
 40
2458513.393865729
  9
$TDUUPDATE
 40
2458513.602199074
  9
$TDINDWG
 40
0.0000000116
  9
$TDUSRTIMER
 40
0.0000000116
  9
$USRTIMER
 70
     1
  9
$ANGBASE
 50
0.0
  9
$ANGDIR
 70
     0
  9
$PDMODE
 70
     0
  9
$PDSIZE
 40
0.0
  9
$PLINEWID
 40
0.0
  9
$SPLFRAME
 70
     0
  9
$SPLINETYPE
 70
     6
  9
$SPLINESEGS
 70
     8
  9
$HANDSEED
  5
369
  9
$SURFTAB1
 70
     6
  9
$SURFTAB2
 70
     6
  9
$SURFTYPE
 70
     6
  9
$SURFU
 70
     6
  9
$SURFV
 70
     6
  9
$UCSBASE
  2

  9
$UCSNAME
  2

  9
$UCSORG
 10
0.0
 20
0.0
 30
0.0
  9
$UCSXDIR
 10
1.0
 20
0.0
 30
0.0
  9
$UCSYDIR
 10
0.0
 20
1.0
 30
0.0
  9
$UCSORTHOREF
  2

  9
$UCSORTHOVIEW
 70
     0
  9
$UCSORGTOP
 10
0.0
 20
0.0
 30
0.0
  9
$UCSORGBOTTOM
 10
0.0
 20
0.0
 30
0.0
  9
$UCSORGLEFT
 10
0.0
 20
0.0
 30
0.0
  9
$UCSORGRIGHT
 10
0.0
 20
0.0
 30
0.0
  9
$UCSORGFRONT
 10
0.0
 20
0.0
 30
0.0
  9
$UCSORGBACK
 10
0.0
 20
0.0
 30
0.0
  9
$PUCSBASE
  2

  9
$PUCSNAME
  2

  9
$PUCSORG
 10
0.0
 20
0.0
 30
0.0
  9
$PUCSXDIR
 10
1.0
 20
0.0
 30
0.0
  9
$PUCSYDIR
 10
0.0
 20
1.0
 30
0.0
  9
$PUCSORTHOREF
  2

  9
$PUCSORTHOVIEW
 70
     0
  9
$PUCSORGTOP
 10
0.0
 20
0.0
 30
0.0
  9
$PUCSORGBOTTOM
 10
0.0
 20
0.0
 30
0.0
  9
$PUCSORGLEFT
 10
0.0
 20
0.0
 30
0.0
  9
$PUCSORGRIGHT
 10
0.0
 20
0.0
 30
0.0
  9
$PUCSORGFRONT
 10
0.0
 20
0.0
 30
0.0
  9
$PUCSORGBACK
 10
0.0
 20
0.0
 30
0.0
  9
$USERI1
 70
     0
  9
$USERI2
 70
     0
  9
$USERI3
 70
     0
  9
$USERI4
 70
     0
  9
$USERI5
 70
     0
  9
$USERR1
 40
0.0
  9
$USERR2
 40
0.0
  9
$USERR3
 40
0.0
  9
$USERR4
 40
0.0
  9
$USERR5
 40
0.0
  9
$WORLDVIEW
 70
     1
  9
$SHADEDGE
 70
     3
  9
$SHADEDIF
 70
    70
  9
$TILEMODE
 70
     1
  9
$MAXACTVP
 70
    64
  9
$PINSBASE
 10
0.0
 20
0.0
 30
0.0
  9
$PLIMCHECK
 70
     0
  9
$PEXTMIN
 10
1.000000000000000E+20
 20
1.000000000000000E+20
 30
1.000000000000000E+20
  9
$PEXTMAX
 10
-1.000000000000000E+20
 20
-1.000000000000000E+20
 30
-1.000000000000000E+20
  9
$PLIMMIN
 10
0.0
 20
0.0
  9
$PLIMMAX
 10
12.0
 20
9.0
  9
$UNITMODE
 70
     0
  9
$VISRETAIN
 70
     1
  9
$PLINEGEN
 70
     0
  9
$PSLTSCALE
 70
     1
  9
$TREEDEPTH
 70
  3020
  9
$CMLSTYLE
  2
Standard
  9
$CMLJUST
 70
     0
  9
$CMLSCALE
 40
1.0
  9
$PROXYGRAPHICS
 70
     1
  9
$MEASUREMENT
 70
     0
  9
$CELWEIGHT
370
    -1
  9
$ENDCAPS
280
     0
  9
$JOINSTYLE
280
     0
  9
$LWDISPLAY
290
     1
  9
$INSUNITS
 70
     1
  9
$HYPERLINKBASE
  1

  9
$STYLESHEET
  1

  9
$XEDIT
290
     1
  9
$CEPSNTYPE
380
     0
  9
$PSTYLEMODE
290
     1
  9
$FINGERPRINTGUID
  2
{A272882A-85A6-FB48-D4A5-ADFC271F21C1}
  9
$VERSIONGUID
  2
{FAEB1C32-E019-11D5-929B-00C0DF256EC4}
  9
$EXTNAMES
290
     1
  9
$PSVPSCALE
 40
0.0
  9
$OLESTARTUP
290
     0
  9
$SORTENTS
280
   127
  9
$INDEXCTL
280
     0
  9
$HIDETEXT
280
     1
  9
$XCLIPFRAME
280
     2
  9
$HALOGAP
280
     0
  9
$OBSCOLOR
 70
   257
  9
$OBSLTYPE
280
     0
  9
$INTERSECTIONDISPLAY
280
     0
  9
$INTERSECTIONCOLOR
 70
   257
  9
$DIMASSOC
280
     2
  9
$PROJECTNAME
  1

  9
$CAMERADISPLAY
290
     0
  9
$LENSLENGTH
 40
50.0
  9
$CAMERAHEIGHT
 40
0.0
  9
$STEPSPERSEC
 40
2.0
  9
$STEPSIZE
 40
6.0
  9
$3DDWFPREC
 40
2.0
  9
$PSOLWIDTH
 40
0.25
  9
$PSOLHEIGHT
 40
4.0
  9
$LOFTANG1
 40
1.570796326794897
  9
$LOFTANG2
 40
1.570796326794897
  9
$LOFTMAG1
 40
0.0
  9
$LOFTMAG2
 40
0.0
  9
$LOFTPARAM
 70
     7
  9
$LOFTNORMALS
280
     1
  9
$LATITUDE
 40
37.795
  9
$LONGITUDE
 40
-122.394
  9
$NORTHDIRECTION
 40
0.0
  9
$TIMEZONE
 70
 -8000
  9
$LIGHTGLYPHDISPLAY
280
     1
  9
$TILEMODELIGHTSYNCH
280
     1
  9
$CMATERIAL
347
3C
  9
$SOLIDHIST
280
     1
  9
$SHOWHIST
280
     1
  9
$DWFFRAME
280
     2
  9
$DGNFRAME
280
     2
  9
$REALWORLDSCALE
290
     1
  9
$INTERFERECOLOR
 62
   256
  9
$CSHADOW
280
     0
  9
$SHADOWPLANELOCATION
 40
0.0
  0
ENDSEC
  0
SECTION
  2
CLASSES
  0
CLASS
  1
ACDBDICTIONARYWDFLT
  2
AcDbDictionaryWithDefault
  3
ObjectDBX Classes
 90
        0
 91
        4
280
     0
281
     0
  0
CLASS
  1
VISUALSTYLE
  2
AcDbVisualStyle
  3
ObjectDBX Classes
 90
     4095
 91
        4
280
     0
281
     0
  0
CLASS
  1
MATERIAL
  2
AcDbMaterial
  3
ObjectDBX Classes
 90
     1153
 91
        4
280
     0
281
     0
  0
CLASS
  1
SUN
  2
AcDbSun
  3
SCENEOE
 90
     1024
 91
        4
280
     0
281
     0
  0
ENDSEC
  0
SECTION
  2
TABLES
  0
TABLE
  2
VPORT
  5
8
330
0
100
AcDbSymbolTable
 70
     1
  0
VPORT
  5
29
330
8
100
AcDbSymbolTableRecord
100
AcDbViewportTableRecord
  2
*Active
 70
     0
 10
0.0
 20
0.0
 11
1.0
 21
1.0
 12
0.0
 22
0.0
 13
0.0
 23
0.0
 14
0.5
 24
0.5
 15
0.5
 25
0.5
 16
0.0
 26
0.0
 36
1.0
 17
4.25
 27
5.5
 37
0.0
 40
11.0
 41
0.7727272727272727
 42
50.0
 43
0.0
 44
0.0
 50
0.0
 51
0.0
 71
     0
 72
   100
 73
     1
 74
     3
 75
     0
 76
     0
 77
     0
 78
     0
281
     0
 65
     1
110
0.0
120
0.0
130
0.0
111
1.0
121
0.0
131
0.0
112
0.0
122
1.0
132
0.0
 79
     0
146
0.0
 60
     3
 61
     5
292
     1
282
     1
141
0.0
142
0.0
 63
   250
361
3F
  0
ENDTAB
  0
TABLE
  2
LTYPE
  5
5
330
0
100
AcDbSymbolTable
 70
     3
  0
LTYPE
  5
14
330
5
100
AcDbSymbolTableRecord
100
AcDbLinetypeTableRecord
  2
ByBlock
 70
     0
  3

 72
    65
 73
     0
 40
0.0
  0
LTYPE
  5
15
330
5
100
AcDbSymbolTableRecord
100
AcDbLinetypeTableRecord
  2
ByLayer
 70
     0
  3

 72
    65
 73
     0
 40
0.0
  0
LTYPE
  5
16
330
5
100
AcDbSymbolTableRecord
100
AcDbLinetypeTableRecord
  2
Continuous
 70
     0
  3
Solid line
 72
    65
 73
     0
 40
0.0
  0
LTYPE
  5
25A
330
5
100
AcDbSymbolTableRecord
100
AcDbLinetypeTableRecord
  2
AI-Linetype-1
 70
     0
  3
Adobe Illustrator Linetype No. 1
 72
    65
 73
     2
 40
0.0590942949056625
 49
0.039396196603775
 74
     0
 49
-0.0196980983018875
 74
     0
  0
LTYPE
  5
265
330
5
100
AcDbSymbolTableRecord
100
AcDbLinetypeTableRecord
  2
AI-Linetype-2
 70
     0
  3
Adobe Illustrator Linetype No. 2
 72
    65
 73
     2
 40
0.0590942949056625
 49
0.039396196603775
 74
     0
 49
-0.0196980983018875
 74
     0
  0
ENDTAB
  0
TABLE
  2
LAYER
  5
2
330
0
100
AcDbSymbolTable
 70
     4
  0
LAYER
  5
10
330
2
100
AcDbSymbolTableRecord
100
AcDbLayerTableRecord
  2
0
 70
     0
 62
     7
  6
Continuous
370
    -3
390
F
347
3E
  0
LAYER
  5
40
330
2
100
AcDbSymbolTableRecord
100
AcDbLayerTableRecord
  2
_U+56FE_U+5C423
 70
     0
 62
     7
  6
Continuous
370
    -3
390
F
347
3E
  0
LAYER
  5
254
330
2
100
AcDbSymbolTableRecord
100
AcDbLayerTableRecord
  2
_U+56FE_U+5C422
 70
     0
 62
     7
  6
Continuous
370
    -3
390
F
347
3E
  0
LAYER
  5
266
330
2
100
AcDbSymbolTableRecord
100
AcDbLayerTableRecord
  2
Defpoints
 70
     0
 62
     7
  6
Continuous
290
     0
370
    -3
390
F
347
3E
  0
ENDTAB
  0
TABLE
  2
STYLE
  5
3
330
0
100
AcDbSymbolTable
 70
     1
  0
STYLE
  5
11
330
3
100
AcDbSymbolTableRecord
100
AcDbTextStyleTableRecord
  2
Standard
 70
     0
 40
0.0
 41
1.0
 50
0.0
 71
     0
 42
0.2
  3
txt
  4

  0
ENDTAB
  0
TABLE
  2
VIEW
  5
6
330
0
100
AcDbSymbolTable
 70
     0
  0
ENDTAB
  0
TABLE
  2
UCS
  5
7
330
0
100
AcDbSymbolTable
 70
     0
  0
ENDTAB
  0
TABLE
  2
APPID
  5
9
330
0
100
AcDbSymbolTable
 70
     1
  0
APPID
  5
12
330
9
100
AcDbSymbolTableRecord
100
AcDbRegAppTableRecord
  2
ACAD
 70
     0
  0
ENDTAB
  0
TABLE
  2
DIMSTYLE
  5
A
330
0
100
AcDbSymbolTable
 70
     1
100
AcDbDimStyleTable
  0
DIMSTYLE
105
27
330
A
100
AcDbSymbolTableRecord
100
AcDbDimStyleTableRecord
  2
Standard
 70
     0
178
     0
340
11
  0
ENDTAB
  0
TABLE
  2
BLOCK_RECORD
  5
1
330
0
100
AcDbSymbolTable
 70
   100
  0
BLOCK_RECORD
  5
1F
330
1
100
AcDbSymbolTableRecord
100
AcDbBlockTableRecord
  2
*Model_Space
340
22
 70
     0
280
     1
281
     0
  0
BLOCK_RECORD
  5
1B
330
1
100
AcDbSymbolTableRecord
100
AcDbBlockTableRecord
  2
*Paper_Space
340
1E
 70
     0
280
     1
281
     0
  0
BLOCK_RECORD
  5
23
330
1
100
AcDbSymbolTableRecord
100
AcDbBlockTableRecord
  2
*Paper_Space0
340
26
 70
     0
280
     1
281
     0
  0
BLOCK_RECORD
  5
41
330
1
100
AcDbSymbolTableRecord
100
AcDbBlockTableRecord
  2
block 2
340
0
102
{BLKREFS
331
42
102
}
 70
     0
280
     1
281
     0
  0
BLOCK_RECORD
  5
46
330
1
100
AcDbSymbolTableRecord
100
AcDbBlockTableRecord
  2
block 3
340
0
102
{BLKREFS
331
47
102
}
 70
     0
280
     1
281
     0
  0
BLOCK_RECORD
  5
51
330
1
100
AcDbSymbolTableRecord
100
AcDbBlockTableRecord
  2
block 4
340
0
102
{BLKREFS
331
52
102
}
 70
     0
280
     1
281
     0
  0
BLOCK_RECORD
  5
59
330
1
100
AcDbSymbolTableRecord
100
AcDbBlockTableRecord
  2
block 5
340
0
102
{BLKREFS
331
5A
102
}
 70
     0
280
     1
281
     0
  0
BLOCK_RECORD
  5
61
330
1
100
AcDbSymbolTableRecord
100
AcDbBlockTableRecord
  2
block 6
340
0
102
{BLKREFS
331
62
102
}
 70
     0
280
     1
281
     0
  0
BLOCK_RECORD
  5
69
330
1
100
AcDbSymbolTableRecord
100
AcDbBlockTableRecord
  2
block 7
340
0
102
{BLKREFS
331
6A
102
}
 70
     0
280
     1
281
     0
  0
BLOCK_RECORD
  5
74
330
1
100
AcDbSymbolTableRecord
100
AcDbBlockTableRecord
  2
block 8
340
0
102
{BLKREFS
331
75
102
}
 70
     0
280
     1
281
     0
  0
BLOCK_RECORD
  5
7F
330
1
100
AcDbSymbolTableRecord
100
AcDbBlockTableRecord
  2
block 9
340
0
102
{BLKREFS
331
80
102
}
 70
     0
280
     1
281
     0
  0
BLOCK_RECORD
  5
84
330
1
100
AcDbSymbolTableRecord
100
AcDbBlockTableRecord
  2
block 10
340
0
102
{BLKREFS
331
85
102
}
 70
     0
280
     1
281
     0
  0
BLOCK_RECORD
  5
8C
330
1
100
AcDbSymbolTableRecord
100
AcDbBlockTableRecord
  2
block 11
340
0
102
{BLKREFS
331
8D
102
}
 70
     0
280
     1
281
     0
  0
BLOCK_RECORD
  5
94
330
1
100
AcDbSymbolTableRecord
100
AcDbBlockTableRecord
  2
block 12
340
0
102
{BLKREFS
331
95
102
}
 70
     0
280
     1
281
     0
  0
BLOCK_RECORD
  5
9C
330
1
100
AcDbSymbolTableRecord
100
AcDbBlockTableRecord
  2
block 13
340
0
102
{BLKREFS
331
9D
102
}
 70
     0
280
     1
281
     0
  0
BLOCK_RECORD
  5
A7
330
1
100
AcDbSymbolTableRecord
100
AcDbBlockTableRecord
  2
block 14
340
0
102
{BLKREFS
331
A8
102
}
 70
     0
280
     1
281
     0
  0
BLOCK_RECORD
  5
B2
330
1
100
AcDbSymbolTableRecord
100
AcDbBlockTableRecord
  2
block 15
340
0
102
{BLKREFS
331
B3
102
}
 70
     0
280
     1
281
     0
  0
BLOCK_RECORD
  5
B7
330
1
100
AcDbSymbolTableRecord
100
AcDbBlockTableRecord
  2
block 16
340
0
102
{BLKREFS
331
B8
102
}
 70
     0
280
     1
281
     0
  0
BLOCK_RECORD
  5
BF
330
1
100
AcDbSymbolTableRecord
100
AcDbBlockTableRecord
  2
block 17
340
0
102
{BLKREFS
331
C0
102
}
 70
     0
280
     1
281
     0
  0
BLOCK_RECORD
  5
C7
330
1
100
AcDbSymbolTableRecord
100
AcDbBlockTableRecord
  2
block 18
340
0
102
{BLKREFS
331
C8
102
}
 70
     0
280
     1
281
     0
  0
BLOCK_RECORD
  5
CF
330
1
100
AcDbSymbolTableRecord
100
AcDbBlockTableRecord
  2
block 19
340
0
102
{BLKREFS
331
D0
102
}
 70
     0
280
     1
281
     0
  0
BLOCK_RECORD
  5
DA
330
1
100
AcDbSymbolTableRecord
100
AcDbBlockTableRecord
  2
block 20
340
0
102
{BLKREFS
331
DB
102
}
 70
     0
280
     1
281
     0
  0
BLOCK_RECORD
  5
E5
330
1
100
AcDbSymbolTableRecord
100
AcDbBlockTableRecord
  2
block 21
340
0
102
{BLKREFS
331
E6
102
}
 70
     0
280
     1
281
     0
  0
BLOCK_RECORD
  5
EA
330
1
100
AcDbSymbolTableRecord
100
AcDbBlockTableRecord
  2
block 22
340
0
102
{BLKREFS
331
EB
102
}
 70
     0
280
     1
281
     0
  0
BLOCK_RECORD
  5
F2
330
1
100
AcDbSymbolTableRecord
100
AcDbBlockTableRecord
  2
block 23
340
0
102
{BLKREFS
331
F3
102
}
 70
     0
280
     1
281
     0
  0
BLOCK_RECORD
  5
FA
330
1
100
AcDbSymbolTableRecord
100
AcDbBlockTableRecord
  2
block 24
340
0
102
{BLKREFS
331
FB
102
}
 70
     0
280
     1
281
     0
  0
BLOCK_RECORD
  5
102
330
1
100
AcDbSymbolTableRecord
100
AcDbBlockTableRecord
  2
block 25
340
0
102
{BLKREFS
331
103
102
}
 70
     0
280
     1
281
     0
  0
BLOCK_RECORD
  5
10D
330
1
100
AcDbSymbolTableRecord
100
AcDbBlockTableRecord
  2
block 26
340
0
102
{BLKREFS
331
10E
102
}
 70
     0
280
     1
281
     0
  0
BLOCK_RECORD
  5
118
330
1
100
AcDbSymbolTableRecord
100
AcDbBlockTableRecord
  2
block 27
340
0
102
{BLKREFS
331
119
102
}
 70
     0
280
     1
281
     0
  0
BLOCK_RECORD
  5
11D
330
1
100
AcDbSymbolTableRecord
100
AcDbBlockTableRecord
  2
block 28
340
0
102
{BLKREFS
331
11E
102
}
 70
     0
280
     1
281
     0
  0
BLOCK_RECORD
  5
125
330
1
100
AcDbSymbolTableRecord
100
AcDbBlockTableRecord
  2
block 29
340
0
102
{BLKREFS
331
126
102
}
 70
     0
280
     1
281
     0
  0
BLOCK_RECORD
  5
12D
330
1
100
AcDbSymbolTableRecord
100
AcDbBlockTableRecord
  2
block 30
340
0
102
{BLKREFS
331
12E
102
}
 70
     0
280
     1
281
     0
  0
BLOCK_RECORD
  5
135
330
1
100
AcDbSymbolTableRecord
100
AcDbBlockTableRecord
  2
block 31
340
0
102
{BLKREFS
331
136
102
}
 70
     0
280
     1
281
     0
  0
BLOCK_RECORD
  5
140
330
1
100
AcDbSymbolTableRecord
100
AcDbBlockTableRecord
  2
block 32
340
0
102
{BLKREFS
331
141
102
}
 70
     0
280
     1
281
     0
  0
BLOCK_RECORD
  5
14B
330
1
100
AcDbSymbolTableRecord
100
AcDbBlockTableRecord
  2
block 33
340
0
102
{BLKREFS
331
14C
102
}
 70
     0
280
     1
281
     0
  0
BLOCK_RECORD
  5
150
330
1
100
AcDbSymbolTableRecord
100
AcDbBlockTableRecord
  2
block 34
340
0
102
{BLKREFS
331
151
102
}
 70
     0
280
     1
281
     0
  0
BLOCK_RECORD
  5
158
330
1
100
AcDbSymbolTableRecord
100
AcDbBlockTableRecord
  2
block 35
340
0
102
{BLKREFS
331
159
102
}
 70
     0
280
     1
281
     0
  0
BLOCK_RECORD
  5
160
330
1
100
AcDbSymbolTableRecord
100
AcDbBlockTableRecord
  2
block 36
340
0
102
{BLKREFS
331
161
102
}
 70
     0
280
     1
281
     0
  0
BLOCK_RECORD
  5
168
330
1
100
AcDbSymbolTableRecord
100
AcDbBlockTableRecord
  2
block 37
340
0
102
{BLKREFS
331
169
102
}
 70
     0
280
     1
281
     0
  0
BLOCK_RECORD
  5
173
330
1
100
AcDbSymbolTableRecord
100
AcDbBlockTableRecord
  2
block 38
340
0
102
{BLKREFS
331
174
102
}
 70
     0
280
     1
281
     0
  0
BLOCK_RECORD
  5
17E
330
1
100
AcDbSymbolTableRecord
100
AcDbBlockTableRecord
  2
block 39
340
0
102
{BLKREFS
331
17F
102
}
 70
     0
280
     1
281
     0
  0
BLOCK_RECORD
  5
183
330
1
100
AcDbSymbolTableRecord
100
AcDbBlockTableRecord
  2
block 40
340
0
102
{BLKREFS
331
184
102
}
 70
     0
280
     1
281
     0
  0
BLOCK_RECORD
  5
18B
330
1
100
AcDbSymbolTableRecord
100
AcDbBlockTableRecord
  2
block 41
340
0
102
{BLKREFS
331
18C
102
}
 70
     0
280
     1
281
     0
  0
BLOCK_RECORD
  5
190
330
1
100
AcDbSymbolTableRecord
100
AcDbBlockTableRecord
  2
block 42
340
0
102
{BLKREFS
331
191
102
}
 70
     0
280
     1
281
     0
  0
BLOCK_RECORD
  5
19B
330
1
100
AcDbSymbolTableRecord
100
AcDbBlockTableRecord
  2
block 43
340
0
102
{BLKREFS
331
19C
102
}
 70
     0
280
     1
281
     0
  0
BLOCK_RECORD
  5
1A3
330
1
100
AcDbSymbolTableRecord
100
AcDbBlockTableRecord
  2
block 44
340
0
102
{BLKREFS
331
1A4
102
}
 70
     0
280
     1
281
     0
  0
BLOCK_RECORD
  5
1A8
330
1
100
AcDbSymbolTableRecord
100
AcDbBlockTableRecord
  2
block 45
340
0
102
{BLKREFS
331
1A9
102
}
 70
     0
280
     1
281
     0
  0
BLOCK_RECORD
  5
1B3
330
1
100
AcDbSymbolTableRecord
100
AcDbBlockTableRecord
  2
block 46
340
0
102
{BLKREFS
331
1B4
102
}
 70
     0
280
     1
281
     0
  0
BLOCK_RECORD
  5
1BB
330
1
100
AcDbSymbolTableRecord
100
AcDbBlockTableRecord
  2
block 47
340
0
102
{BLKREFS
331
1BC
102
}
 70
     0
280
     1
281
     0
  0
BLOCK_RECORD
  5
1C3
330
1
100
AcDbSymbolTableRecord
100
AcDbBlockTableRecord
  2
block 48
340
0
102
{BLKREFS
331
1C4
102
}
 70
     0
280
     1
281
     0
  0
BLOCK_RECORD
  5
1C8
330
1
100
AcDbSymbolTableRecord
100
AcDbBlockTableRecord
  2
block 49
340
0
102
{BLKREFS
331
1C9
102
}
 70
     0
280
     1
281
     0
  0
BLOCK_RECORD
  5
1D3
330
1
100
AcDbSymbolTableRecord
100
AcDbBlockTableRecord
  2
block 50
340
0
102
{BLKREFS
331
1D4
102
}
 70
     0
280
     1
281
     0
  0
BLOCK_RECORD
  5
1DB
330
1
100
AcDbSymbolTableRecord
100
AcDbBlockTableRecord
  2
block 51
340
0
102
{BLKREFS
331
1DC
102
}
 70
     0
280
     1
281
     0
  0
BLOCK_RECORD
  5
1E3
330
1
100
AcDbSymbolTableRecord
100
AcDbBlockTableRecord
  2
block 52
340
0
102
{BLKREFS
331
1E4
102
}
 70
     0
280
     1
281
     0
  0
BLOCK_RECORD
  5
1E8
330
1
100
AcDbSymbolTableRecord
100
AcDbBlockTableRecord
  2
block 53
340
0
102
{BLKREFS
331
1E9
102
}
 70
     0
280
     1
281
     0
  0
BLOCK_RECORD
  5
1F3
330
1
100
AcDbSymbolTableRecord
100
AcDbBlockTableRecord
  2
block 54
340
0
102
{BLKREFS
331
1F4
102
}
 70
     0
280
     1
281
     0
  0
BLOCK_RECORD
  5
1FB
330
1
100
AcDbSymbolTableRecord
100
AcDbBlockTableRecord
  2
block 55
340
0
102
{BLKREFS
331
1FC
102
}
 70
     0
280
     1
281
     0
  0
BLOCK_RECORD
  5
203
330
1
100
AcDbSymbolTableRecord
100
AcDbBlockTableRecord
  2
block 56
340
0
102
{BLKREFS
331
204
102
}
 70
     0
280
     1
281
     0
  0
BLOCK_RECORD
  5
208
330
1
100
AcDbSymbolTableRecord
100
AcDbBlockTableRecord
  2
block 57
340
0
102
{BLKREFS
331
209
102
}
 70
     0
280
     1
281
     0
  0
BLOCK_RECORD
  5
213
330
1
100
AcDbSymbolTableRecord
100
AcDbBlockTableRecord
  2
block 58
340
0
102
{BLKREFS
331
214
102
}
 70
     0
280
     1
281
     0
  0
BLOCK_RECORD
  5
21B
330
1
100
AcDbSymbolTableRecord
100
AcDbBlockTableRecord
  2
block 59
340
0
102
{BLKREFS
331
21C
102
}
 70
     0
280
     1
281
     0
  0
BLOCK_RECORD
  5
223
330
1
100
AcDbSymbolTableRecord
100
AcDbBlockTableRecord
  2
block 60
340
0
102
{BLKREFS
331
224
102
}
 70
     0
280
     1
281
     0
  0
BLOCK_RECORD
  5
228
330
1
100
AcDbSymbolTableRecord
100
AcDbBlockTableRecord
  2
block 61
340
0
102
{BLKREFS
331
229
102
}
 70
     0
280
     1
281
     0
  0
BLOCK_RECORD
  5
230
330
1
100
AcDbSymbolTableRecord
100
AcDbBlockTableRecord
  2
block 62
340
0
102
{BLKREFS
331
231
102
}
 70
     0
280
     1
281
     0
  0
BLOCK_RECORD
  5
23B
330
1
100
AcDbSymbolTableRecord
100
AcDbBlockTableRecord
  2
block 63
340
0
102
{BLKREFS
331
23C
102
}
 70
     0
280
     1
281
     0
  0
BLOCK_RECORD
  5
243
330
1
100
AcDbSymbolTableRecord
100
AcDbBlockTableRecord
  2
block 64
340
0
102
{BLKREFS
331
244
102
}
 70
     0
280
     1
281
     0
  0
BLOCK_RECORD
  5
248
330
1
100
AcDbSymbolTableRecord
100
AcDbBlockTableRecord
  2
block 65
340
0
102
{BLKREFS
331
249
102
}
 70
     0
280
     1
281
     0
  0
BLOCK_RECORD
  5
255
330
1
100
AcDbSymbolTableRecord
100
AcDbBlockTableRecord
  2
block 66
340
0
102
{BLKREFS
331
256
102
}
 70
     0
280
     1
281
     0
  0
BLOCK_RECORD
  5
25B
330
1
100
AcDbSymbolTableRecord
100
AcDbBlockTableRecord
  2
block 67
340
0
102
{BLKREFS
331
25C
102
}
 70
     0
280
     1
281
     0
  0
BLOCK_RECORD
  5
260
330
1
100
AcDbSymbolTableRecord
100
AcDbBlockTableRecord
  2
block 68
340
0
102
{BLKREFS
331
261
102
}
 70
     0
280
     1
281
     0
  0
BLOCK_RECORD
  5
267
330
1
100
AcDbSymbolTableRecord
100
AcDbBlockTableRecord
  2
block 69
340
0
102
{BLKREFS
331
268
102
}
 70
     0
280
     1
281
     0
  0
BLOCK_RECORD
  5
26F
330
1
100
AcDbSymbolTableRecord
100
AcDbBlockTableRecord
  2
block 70
340
0
102
{BLKREFS
331
270
102
}
 70
     0
280
     1
281
     0
  0
BLOCK_RECORD
  5
277
330
1
100
AcDbSymbolTableRecord
100
AcDbBlockTableRecord
  2
block 71
340
0
102
{BLKREFS
331
278
102
}
 70
     0
280
     1
281
     0
  0
BLOCK_RECORD
  5
27F
330
1
100
AcDbSymbolTableRecord
100
AcDbBlockTableRecord
  2
block 72
340
0
102
{BLKREFS
331
280
102
}
 70
     0
280
     1
281
     0
  0
BLOCK_RECORD
  5
287
330
1
100
AcDbSymbolTableRecord
100
AcDbBlockTableRecord
  2
block 73
340
0
102
{BLKREFS
331
288
102
}
 70
     0
280
     1
281
     0
  0
BLOCK_RECORD
  5
28F
330
1
100
AcDbSymbolTableRecord
100
AcDbBlockTableRecord
  2
block 74
340
0
102
{BLKREFS
331
290
102
}
 70
     0
280
     1
281
     0
  0
BLOCK_RECORD
  5
297
330
1
100
AcDbSymbolTableRecord
100
AcDbBlockTableRecord
  2
block 75
340
0
102
{BLKREFS
331
298
102
}
 70
     0
280
     1
281
     0
  0
BLOCK_RECORD
  5
29F
330
1
100
AcDbSymbolTableRecord
100
AcDbBlockTableRecord
  2
block 76
340
0
102
{BLKREFS
331
2A0
102
}
 70
     0
280
     1
281
     0
  0
BLOCK_RECORD
  5
2A7
330
1
100
AcDbSymbolTableRecord
100
AcDbBlockTableRecord
  2
block 77
340
0
102
{BLKREFS
331
2A8
102
}
 70
     0
280
     1
281
     0
  0
BLOCK_RECORD
  5
2AF
330
1
100
AcDbSymbolTableRecord
100
AcDbBlockTableRecord
  2
block 78
340
0
102
{BLKREFS
331
2B0
102
}
 70
     0
280
     1
281
     0
  0
BLOCK_RECORD
  5
2B7
330
1
100
AcDbSymbolTableRecord
100
AcDbBlockTableRecord
  2
block 79
340
0
102
{BLKREFS
331
2B8
102
}
 70
     0
280
     1
281
     0
  0
BLOCK_RECORD
  5
2BF
330
1
100
AcDbSymbolTableRecord
100
AcDbBlockTableRecord
  2
block 80
340
0
102
{BLKREFS
331
2C0
102
}
 70
     0
280
     1
281
     0
  0
BLOCK_RECORD
  5
2C7
330
1
100
AcDbSymbolTableRecord
100
AcDbBlockTableRecord
  2
block 81
340
0
102
{BLKREFS
331
2C8
102
}
 70
     0
280
     1
281
     0
  0
BLOCK_RECORD
  5
2CF
330
1
100
AcDbSymbolTableRecord
100
AcDbBlockTableRecord
  2
block 82
340
0
102
{BLKREFS
331
2D0
102
}
 70
     0
280
     1
281
     0
  0
BLOCK_RECORD
  5
2D7
330
1
100
AcDbSymbolTableRecord
100
AcDbBlockTableRecord
  2
block 83
340
0
102
{BLKREFS
331
2D8
102
}
 70
     0
280
     1
281
     0
  0
BLOCK_RECORD
  5
2DF
330
1
100
AcDbSymbolTableRecord
100
AcDbBlockTableRecord
  2
block 84
340
0
102
{BLKREFS
331
2E0
102
}
 70
     0
280
     1
281
     0
  0
BLOCK_RECORD
  5
2E7
330
1
100
AcDbSymbolTableRecord
100
AcDbBlockTableRecord
  2
block 85
340
0
102
{BLKREFS
331
2E8
102
}
 70
     0
280
     1
281
     0
  0
BLOCK_RECORD
  5
2EF
330
1
100
AcDbSymbolTableRecord
100
AcDbBlockTableRecord
  2
block 86
340
0
102
{BLKREFS
331
2F0
102
}
 70
     0
280
     1
281
     0
  0
BLOCK_RECORD
  5
2F7
330
1
100
AcDbSymbolTableRecord
100
AcDbBlockTableRecord
  2
block 87
340
0
102
{BLKREFS
331
2F8
102
}
 70
     0
280
     1
281
     0
  0
BLOCK_RECORD
  5
2FF
330
1
100
AcDbSymbolTableRecord
100
AcDbBlockTableRecord
  2
block 88
340
0
102
{BLKREFS
331
300
102
}
 70
     0
280
     1
281
     0
  0
BLOCK_RECORD
  5
307
330
1
100
AcDbSymbolTableRecord
100
AcDbBlockTableRecord
  2
block 89
340
0
102
{BLKREFS
331
308
102
}
 70
     0
280
     1
281
     0
  0
BLOCK_RECORD
  5
30F
330
1
100
AcDbSymbolTableRecord
100
AcDbBlockTableRecord
  2
block 90
340
0
102
{BLKREFS
331
310
102
}
 70
     0
280
     1
281
     0
  0
BLOCK_RECORD
  5
317
330
1
100
AcDbSymbolTableRecord
100
AcDbBlockTableRecord
  2
block 91
340
0
102
{BLKREFS
331
318
102
}
 70
     0
280
     1
281
     0
  0
BLOCK_RECORD
  5
31F
330
1
100
AcDbSymbolTableRecord
100
AcDbBlockTableRecord
  2
block 92
340
0
102
{BLKREFS
331
320
102
}
 70
     0
280
     1
281
     0
  0
BLOCK_RECORD
  5
327
330
1
100
AcDbSymbolTableRecord
100
AcDbBlockTableRecord
  2
block 93
340
0
102
{BLKREFS
331
328
102
}
 70
     0
280
     1
281
     0
  0
BLOCK_RECORD
  5
32F
330
1
100
AcDbSymbolTableRecord
100
AcDbBlockTableRecord
  2
block 94
340
0
102
{BLKREFS
331
330
102
}
 70
     0
280
     1
281
     0
  0
BLOCK_RECORD
  5
337
330
1
100
AcDbSymbolTableRecord
100
AcDbBlockTableRecord
  2
block 95
340
0
102
{BLKREFS
331
338
102
}
 70
     0
280
     1
281
     0
  0
BLOCK_RECORD
  5
33F
330
1
100
AcDbSymbolTableRecord
100
AcDbBlockTableRecord
  2
block 96
340
0
102
{BLKREFS
331
340
102
}
 70
     0
280
     1
281
     0
  0
BLOCK_RECORD
  5
347
330
1
100
AcDbSymbolTableRecord
100
AcDbBlockTableRecord
  2
block 97
340
0
102
{BLKREFS
331
348
102
}
 70
     0
280
     1
281
     0
  0
BLOCK_RECORD
  5
34F
330
1
100
AcDbSymbolTableRecord
100
AcDbBlockTableRecord
  2
block 98
340
0
102
{BLKREFS
331
350
102
}
 70
     0
280
     1
281
     0
  0
BLOCK_RECORD
  5
357
330
1
100
AcDbSymbolTableRecord
100
AcDbBlockTableRecord
  2
block 99
340
0
102
{BLKREFS
331
358
102
}
 70
     0
280
     1
281
     0
  0
BLOCK_RECORD
  5
35F
330
1
100
AcDbSymbolTableRecord
100
AcDbBlockTableRecord
  2
block 100
340
0
102
{BLKREFS
331
360
102
}
 70
     0
280
     1
281
     0
  0
ENDTAB
  0
ENDSEC
  0
SECTION
  2
BLOCKS
  0
BLOCK
  5
20
330
1F
100
AcDbEntity
  8
0
100
AcDbBlockBegin
  2
*Model_Space
 70
     0
 10
0.0
 20
0.0
 30
0.0
  3
*Model_Space
  1

  0
ENDBLK
  5
21
330
1F
100
AcDbEntity
  8
0
100
AcDbBlockEnd
  0
BLOCK
  5
1C
330
1B
100
AcDbEntity
 67
     1
  8
0
100
AcDbBlockBegin
  2
*Paper_Space
 70
     0
 10
0.0
 20
0.0
 30
0.0
  3
*Paper_Space
  1

  0
ENDBLK
  5
1D
330
1B
100
AcDbEntity
 67
     1
  8
0
100
AcDbBlockEnd
  0
BLOCK
  5
24
330
23
100
AcDbEntity
  8
0
100
AcDbBlockBegin
  2
*Paper_Space0
 70
     0
 10
0.0
 20
0.0
 30
0.0
  3
*Paper_Space0
  1

  0
ENDBLK
  5
25
330
23
100
AcDbEntity
  8
0
100
AcDbBlockEnd
  0
BLOCK
  5
43
330
41
100
AcDbEntity
  8
0
100
AcDbBlockBegin
  2
block 2
 70
     0
 10
0.0
 20
0.0
 30
0.0
  3
block 2
  1

  0
MTEXT
  5
45
330
41
100
AcDbEntity
  8
_U+56FE_U+5C423
 62
     3
420
    65280
100
AcDbMText
 10
3.750279320610894
 20
3.159159342447917
 30
0.0
 40
0.1861237529118856
 41
0.0
 46
0.0
 71
     7
 72
     1
  1
\fMyriad Pro|b0|i0|c0|p34;\W1;207003L
 73
     1
 44
1.0
  0
ENDBLK
  5
44
330
41
100
AcDbEntity
  8
0
100
AcDbBlockEnd
  0
BLOCK
  5
48
330
46
100
AcDbEntity
  8
0
100
AcDbBlockBegin
  2
block 3
 70
     0
 10
0.0
 20
0.0
 30
0.0
  3
block 3
  1

  0
POLYLINE
  5
4A
330
46
100
AcDbEntity
  8
_U+56FE_U+5C423
 62
     3
420
    65280
370
    25
100
AcDb2dPolyline
 66
     1
 10
0.0
 20
0.0
 30
0.0
  0
VERTEX
  5
4B
330
4A
100
AcDbEntity
  8
_U+56FE_U+5C423
 62
     3
420
    65280
370
    25
100
AcDbVertex
100
AcDb2dVertex
 10
8.498366013071896
 20
2.652158154606645
 30
0.0
  0
VERTEX
  5
4C
330
4A
100
AcDbEntity
  8
_U+56FE_U+5C423
 62
     3
420
    65280
370
    25
100
AcDbVertex
100
AcDb2dVertex
 10
0.0016339869281031
 20
2.652158154606645
 30
0.0
  0
VERTEX
  5
4D
330
4A
100
AcDbEntity
  8
_U+56FE_U+5C423
 62
     3
420
    65280
370
    25
100
AcDbVertex
100
AcDb2dVertex
 10
0.0016339869281031
 20
8.347841845393367
 30
0.0
  0
VERTEX
  5
4E
330
4A
100
AcDbEntity
  8
_U+56FE_U+5C423
 62
     3
420
    65280
370
    25
100
AcDbVertex
100
AcDb2dVertex
 10
8.498366013071896
 20
8.347841845393367
 30
0.0
  0
VERTEX
  5
4F
330
4A
100
AcDbEntity
  8
_U+56FE_U+5C423
 62
     3
420
    65280
370
    25
100
AcDbVertex
100
AcDb2dVertex
 10
8.498366013071896
 20
2.652158154606645
 30
0.0
  0
SEQEND
  5
50
330
4A
100
AcDbEntity
  8
_U+56FE_U+5C423
 62
     3
420
    65280
370
    25
  0
ENDBLK
  5
49
330
46
100
AcDbEntity
  8
0
100
AcDbBlockEnd
  0
BLOCK
  5
53
330
51
100
AcDbEntity
  8
0
100
AcDbBlockBegin
  2
block 4
 70
     0
 10
0.0
 20
0.0
 30
0.0
  3
block 4
  1

  0
POLYLINE
  5
55
330
51
100
AcDbEntity
  8
_U+56FE_U+5C423
 62
     3
420
    65280
370
    25
100
AcDb2dPolyline
 66
     1
 10
0.0
 20
0.0
 30
0.0
  0
VERTEX
  5
56
330
55
100
AcDbEntity
  8
_U+56FE_U+5C423
 62
     3
420
    65280
370
    25
100
AcDbVertex
100
AcDb2dVertex
 10
1.933677736616043
 20
5.934738535522456
 30
0.0
  0
VERTEX
  5
57
330
55
100
AcDbEntity
  8
_U+56FE_U+5C423
 62
     3
420
    65280
370
    25
100
AcDbVertex
100
AcDb2dVertex
 10
1.933677736616043
 20
4.351847403186083
 30
0.0
  0
SEQEND
  5
58
330
55
100
AcDbEntity
  8
_U+56FE_U+5C423
 62
     3
420
    65280
370
    25
  0
ENDBLK
  5
54
330
51
100
AcDbEntity
  8
0
100
AcDbBlockEnd
  0
BLOCK
  5
5B
330
59
100
AcDbEntity
  8
0
100
AcDbBlockBegin
  2
block 5
 70
     0
 10
0.0
 20
0.0
 30
0.0
  3
block 5
  1

  0
POLYLINE
  5
5D
330
59
100
AcDbEntity
  8
_U+56FE_U+5C423
 62
     3
420
    65280
370
    25
100
AcDb2dPolyline
 66
     1
 10
0.0
 20
0.0
 30
0.0
  0
VERTEX
  5
5E
330
5D
100
AcDbEntity
  8
_U+56FE_U+5C423
 62
     3
420
    65280
370
    25
100
AcDbVertex
100
AcDb2dVertex
 10
6.493709818162642
 20
5.942116310006794
 30
0.0
  0
VERTEX
  5
5F
330
5D
100
AcDbEntity
  8
_U+56FE_U+5C423
 62
     3
420
    65280
370
    25
100
AcDbVertex
100
AcDb2dVertex
 10
6.493709818162642
 20
4.351847403186083
 30
0.0
  0
SEQEND
  5
60
330
5D
100
AcDbEntity
  8
_U+56FE_U+5C423
 62
     3
420
    65280
370
    25
  0
ENDBLK
  5
5C
330
59
100
AcDbEntity
  8
0
100
AcDbBlockEnd
  0
BLOCK
  5
63
330
61
100
AcDbEntity
  8
0
100
AcDbBlockBegin
  2
block 6
 70
     0
 10
0.0
 20
0.0
 30
0.0
  3
block 6
  1

  0
POLYLINE
  5
65
330
61
100
AcDbEntity
  8
_U+56FE_U+5C423
 62
     3
420
    65280
370
    25
100
AcDb2dPolyline
 66
     1
 10
0.0
 20
0.0
 30
0.0
  0
VERTEX
  5
66
330
65
100
AcDbEntity
  8
_U+56FE_U+5C423
 62
     3
420
    65280
370
    25
100
AcDbVertex
100
AcDb2dVertex
 10
2.026739615831275
 20
4.35960255978734
 30
0.0
  0
VERTEX
  5
67
330
65
100
AcDbEntity
  8
_U+56FE_U+5C423
 62
     3
420
    65280
370
    25
100
AcDbVertex
100
AcDb2dVertex
 10
6.40064793894741
 20
4.35960255978734
 30
0.0
  0
SEQEND
  5
68
330
65
100
AcDbEntity
  8
_U+56FE_U+5C423
 62
     3
420
    65280
370
    25
  0
ENDBLK
  5
64
330
61
100
AcDbEntity
  8
0
100
AcDbBlockEnd
  0
BLOCK
  5
6B
330
69
100
AcDbEntity
  8
0
100
AcDbBlockBegin
  2
block 7
 70
     0
 10
0.0
 20
0.0
 30
0.0
  3
block 7
  1

  0
POLYLINE
  5
6D
330
69
100
AcDbEntity
  8
_U+56FE_U+5C423
370
     0
100
AcDb2dPolyline
 66
     1
 10
0.0
 20
0.0
 30
0.0
  0
VERTEX
  5
6E
330
6D
100
AcDbEntity
  8
_U+56FE_U+5C423
370
     0
100
AcDbVertex
100
AcDb2dVertex
 10
2.026739615831275
 20
4.375112872989878
 30
0.0
  0
VERTEX
  5
6F
330
6D
100
AcDbEntity
  8
_U+56FE_U+5C423
370
     0
100
AcDbVertex
100
AcDb2dVertex
 10
1.933677736616043
 20
4.35960255978734
 30
0.0
  0
VERTEX
  5
70
330
6D
100
AcDbEntity
  8
_U+56FE_U+5C423
370
     0
100
AcDbVertex
100
AcDb2dVertex
 10
2.026739615831275
 20
4.344092246584801
 30
0.0
  0
VERTEX
  5
71
330
6D
100
AcDbEntity
  8
_U+56FE_U+5C423
370
     0
100
AcDbVertex
100
AcDb2dVertex
 10
2.026739615831275
 20
4.375112872989878
 30
0.0
  0
SEQEND
  5
73
330
6D
100
AcDbEntity
  8
_U+56FE_U+5C423
370
     0
  0
HATCH
  5
72
330
69
100
AcDbEntity
  8
_U+56FE_U+5C423
 62
     3
420
    65280
100
AcDbHatch
 10
0.0
 20
0.0
 30
0.0
210
0.0
220
0.0
230
1.0
  2
SOLID
 70
     1
 71
     0
 91
        1
 92
        1
 93
        3
 72
     1
 10
2.026739615831275
 20
4.375112872989878
 11
1.933677736616043
 21
4.35960255978734
 72
     1
 10
1.933677736616043
 20
4.35960255978734
 11
2.026739615831275
 21
4.344092246584801
 72
     1
 10
2.026739615831275
 20
4.344092246584801
 11
2.026739615831275
 21
4.375112872989878
 97
        0
 75
     2
 76
     1
 98
        0
  0
ENDBLK
  5
6C
330
69
100
AcDbEntity
  8
0
100
AcDbBlockEnd
  0
BLOCK
  5
76
330
74
100
AcDbEntity
  8
0
100
AcDbBlockBegin
  2
block 8
 70
     0
 10
0.0
 20
0.0
 30
0.0
  3
block 8
  1

  0
POLYLINE
  5
78
330
74
100
AcDbEntity
  8
_U+56FE_U+5C423
370
     0
100
AcDb2dPolyline
 66
     1
 10
0.0
 20
0.0
 30
0.0
  0
VERTEX
  5
79
330
78
100
AcDbEntity
  8
_U+56FE_U+5C423
370
     0
100
AcDbVertex
100
AcDb2dVertex
 10
6.40064793894741
 20
4.375112872989878
 30
0.0
  0
VERTEX
  5
7A
330
78
100
AcDbEntity
  8
_U+56FE_U+5C423
370
     0
100
AcDbVertex
100
AcDb2dVertex
 10
6.493709818162642
 20
4.35960255978734
 30
0.0
  0
VERTEX
  5
7B
330
78
100
AcDbEntity
  8
_U+56FE_U+5C423
370
     0
100
AcDbVertex
100
AcDb2dVertex
 10
6.40064793894741
 20
4.344092246584801
 30
0.0
  0
VERTEX
  5
7C
330
78
100
AcDbEntity
  8
_U+56FE_U+5C423
370
     0
100
AcDbVertex
100
AcDb2dVertex
 10
6.40064793894741
 20
4.375112872989878
 30
0.0
  0
SEQEND
  5
7E
330
78
100
AcDbEntity
  8
_U+56FE_U+5C423
370
     0
  0
HATCH
  5
7D
330
74
100
AcDbEntity
  8
_U+56FE_U+5C423
 62
     3
420
    65280
100
AcDbHatch
 10
0.0
 20
0.0
 30
0.0
210
0.0
220
0.0
230
1.0
  2
SOLID
 70
     1
 71
     0
 91
        1
 92
        1
 93
        3
 72
     1
 10
6.40064793894741
 20
4.375112872989878
 11
6.493709818162642
 21
4.35960255978734
 72
     1
 10
6.493709818162642
 20
4.35960255978734
 11
6.40064793894741
 21
4.344092246584801
 72
     1
 10
6.40064793894741
 20
4.344092246584801
 11
6.40064793894741
 21
4.375112872989878
 97
        0
 75
     2
 76
     1
 98
        0
  0
ENDBLK
  5
77
330
74
100
AcDbEntity
  8
0
100
AcDbBlockEnd
  0
BLOCK
  5
81
330
7F
100
AcDbEntity
  8
0
100
AcDbBlockBegin
  2
block 9
 70
     0
 10
0.0
 20
0.0
 30
0.0
  3
block 9
  1

  0
MTEXT
  5
83
330
7F
100
AcDbEntity
  8
_U+56FE_U+5C423
 62
     3
420
    65280
100
AcDbMText
 10
3.701853434244792
 20
4.39727062649197
 30
0.0
 40
0.0930618764559428
 41
0.0
 46
0.0
 71
     7
 72
     1
  1
\fMyriad Pro|b0|i0|c0|p34;\W1;735 [28 7/8]
 73
     1
 44
1.0
  0
ENDBLK
  5
82
330
7F
100
AcDbEntity
  8
0
100
AcDbBlockEnd
  0
BLOCK
  5
86
330
84
100
AcDbEntity
  8
0
100
AcDbBlockBegin
  2
block 10
 70
     0
 10
0.0
 20
0.0
 30
0.0
  3
block 10
  1

  0
POLYLINE
  5
88
330
84
100
AcDbEntity
  8
_U+56FE_U+5C423
 62
     3
420
    65280
370
    25
100
AcDb2dPolyline
 66
     1
 10
0.0
 20
0.0
 30
0.0
  0
VERTEX
  5
89
330
88
100
AcDbEntity
  8
_U+56FE_U+5C423
 62
     3
420
    65280
370
    25
100
AcDbVertex
100
AcDb2dVertex
 10
1.871636483805888
 20
5.934738535522456
 30
0.0
  0
VERTEX
  5
8A
330
88
100
AcDbEntity
  8
_U+56FE_U+5C423
 62
     3
420
    65280
370
    25
100
AcDbVertex
100
AcDb2dVertex
 10
1.871636483805888
 20
4.107116095566501
 30
0.0
  0
SEQEND
  5
8B
330
88
100
AcDbEntity
  8
_U+56FE_U+5C423
 62
     3
420
    65280
370
    25
  0
ENDBLK
  5
87
330
84
100
AcDbEntity
  8
0
100
AcDbBlockEnd
  0
BLOCK
  5
8E
330
8C
100
AcDbEntity
  8
0
100
AcDbBlockBegin
  2
block 11
 70
     0
 10
0.0
 20
0.0
 30
0.0
  3
block 11
  1

  0
POLYLINE
  5
90
330
8C
100
AcDbEntity
  8
_U+56FE_U+5C423
 62
     3
420
    65280
370
    25
100
AcDb2dPolyline
 66
     1
 10
0.0
 20
0.0
 30
0.0
  0
VERTEX
  5
91
330
90
100
AcDbEntity
  8
_U+56FE_U+5C423
 62
     3
420
    65280
370
    25
100
AcDbVertex
100
AcDb2dVertex
 10
6.555751070972796
 20
5.942116310006845
 30
0.0
  0
VERTEX
  5
92
330
90
100
AcDbEntity
  8
_U+56FE_U+5C423
 62
     3
420
    65280
370
    25
100
AcDbVertex
100
AcDb2dVertex
 10
6.555751070972796
 20
4.107116095566501
 30
0.0
  0
SEQEND
  5
93
330
90
100
AcDbEntity
  8
_U+56FE_U+5C423
 62
     3
420
    65280
370
    25
  0
ENDBLK
  5
8F
330
8C
100
AcDbEntity
  8
0
100
AcDbBlockEnd
  0
BLOCK
  5
96
330
94
100
AcDbEntity
  8
0
100
AcDbBlockBegin
  2
block 12
 70
     0
 10
0.0
 20
0.0
 30
0.0
  3
block 12
  1

  0
POLYLINE
  5
98
330
94
100
AcDbEntity
  8
_U+56FE_U+5C423
 62
     3
420
    65280
370
    25
100
AcDb2dPolyline
 66
     1
 10
0.0
 20
0.0
 30
0.0
  0
VERTEX
  5
99
330
98
100
AcDbEntity
  8
_U+56FE_U+5C423
 62
     3
420
    65280
370
    25
100
AcDbVertex
100
AcDb2dVertex
 10
1.96469836302112
 20
4.114871252167758
 30
0.0
  0
VERTEX
  5
9A
330
98
100
AcDbEntity
  8
_U+56FE_U+5C423
 62
     3
420
    65280
370
    25
100
AcDbVertex
100
AcDb2dVertex
 10
6.462689191757565
 20
4.114871252167758
 30
0.0
  0
SEQEND
  5
9B
330
98
100
AcDbEntity
  8
_U+56FE_U+5C423
 62
     3
420
    65280
370
    25
  0
ENDBLK
  5
97
330
94
100
AcDbEntity
  8
0
100
AcDbBlockEnd
  0
BLOCK
  5
9E
330
9C
100
AcDbEntity
  8
0
100
AcDbBlockBegin
  2
block 13
 70
     0
 10
0.0
 20
0.0
 30
0.0
  3
block 13
  1

  0
POLYLINE
  5
A0
330
9C
100
AcDbEntity
  8
_U+56FE_U+5C423
370
     0
100
AcDb2dPolyline
 66
     1
 10
0.0
 20
0.0
 30
0.0
  0
VERTEX
  5
A1
330
A0
100
AcDbEntity
  8
_U+56FE_U+5C423
370
     0
100
AcDbVertex
100
AcDb2dVertex
 10
1.96469836302112
 20
4.130381565370296
 30
0.0
  0
VERTEX
  5
A2
330
A0
100
AcDbEntity
  8
_U+56FE_U+5C423
370
     0
100
AcDbVertex
100
AcDb2dVertex
 10
1.871636483805888
 20
4.114871252167758
 30
0.0
  0
VERTEX
  5
A3
330
A0
100
AcDbEntity
  8
_U+56FE_U+5C423
370
     0
100
AcDbVertex
100
AcDb2dVertex
 10
1.96469836302112
 20
4.099360938965219
 30
0.0
  0
VERTEX
  5
A4
330
A0
100
AcDbEntity
  8
_U+56FE_U+5C423
370
     0
100
AcDbVertex
100
AcDb2dVertex
 10
1.96469836302112
 20
4.130381565370296
 30
0.0
  0
SEQEND
  5
A6
330
A0
100
AcDbEntity
  8
_U+56FE_U+5C423
370
     0
  0
HATCH
  5
A5
330
9C
100
AcDbEntity
  8
_U+56FE_U+5C423
 62
     3
420
    65280
100
AcDbHatch
 10
0.0
 20
0.0
 30
0.0
210
0.0
220
0.0
230
1.0
  2
SOLID
 70
     1
 71
     0
 91
        1
 92
        1
 93
        3
 72
     1
 10
1.96469836302112
 20
4.130381565370296
 11
1.871636483805888
 21
4.114871252167758
 72
     1
 10
1.871636483805888
 20
4.114871252167758
 11
1.96469836302112
 21
4.099360938965219
 72
     1
 10
1.96469836302112
 20
4.099360938965219
 11
1.96469836302112
 21
4.130381565370296
 97
        0
 75
     2
 76
     1
 98
        0
  0
ENDBLK
  5
9F
330
9C
100
AcDbEntity
  8
0
100
AcDbBlockEnd
  0
BLOCK
  5
A9
330
A7
100
AcDbEntity
  8
0
100
AcDbBlockBegin
  2
block 14
 70
     0
 10
0.0
 20
0.0
 30
0.0
  3
block 14
  1

  0
POLYLINE
  5
AB
330
A7
100
AcDbEntity
  8
_U+56FE_U+5C423
370
     0
100
AcDb2dPolyline
 66
     1
 10
0.0
 20
0.0
 30
0.0
  0
VERTEX
  5
AC
330
AB
100
AcDbEntity
  8
_U+56FE_U+5C423
370
     0
100
AcDbVertex
100
AcDb2dVertex
 10
6.462689191757565
 20
4.130381565370296
 30
0.0
  0
VERTEX
  5
AD
330
AB
100
AcDbEntity
  8
_U+56FE_U+5C423
370
     0
100
AcDbVertex
100
AcDb2dVertex
 10
6.555751070972796
 20
4.114871252167758
 30
0.0
  0
VERTEX
  5
AE
330
AB
100
AcDbEntity
  8
_U+56FE_U+5C423
370
     0
100
AcDbVertex
100
AcDb2dVertex
 10
6.462689191757565
 20
4.099360938965219
 30
0.0
  0
VERTEX
  5
AF
330
AB
100
AcDbEntity
  8
_U+56FE_U+5C423
370
     0
100
AcDbVertex
100
AcDb2dVertex
 10
6.462689191757565
 20
4.130381565370296
 30
0.0
  0
SEQEND
  5
B1
330
AB
100
AcDbEntity
  8
_U+56FE_U+5C423
370
     0
  0
HATCH
  5
B0
330
A7
100
AcDbEntity
  8
_U+56FE_U+5C423
 62
     3
420
    65280
100
AcDbHatch
 10
0.0
 20
0.0
 30
0.0
210
0.0
220
0.0
230
1.0
  2
SOLID
 70
     1
 71
     0
 91
        1
 92
        1
 93
        3
 72
     1
 10
6.462689191757565
 20
4.130381565370296
 11
6.555751070972796
 21
4.114871252167758
 72
     1
 10
6.555751070972796
 20
4.114871252167758
 11
6.462689191757565
 21
4.099360938965219
 72
     1
 10
6.462689191757565
 20
4.099360938965219
 11
6.462689191757565
 21
4.130381565370296
 97
        0
 75
     2
 76
     1
 98
        0
  0
ENDBLK
  5
AA
330
A7
100
AcDbEntity
  8
0
100
AcDbBlockEnd
  0
BLOCK
  5
B4
330
B2
100
AcDbEntity
  8
0
100
AcDbBlockBegin
  2
block 15
 70
     0
 10
0.0
 20
0.0
 30
0.0
  3
block 15
  1

  0
MTEXT
  5
B6
330
B2
100
AcDbEntity
  8
_U+56FE_U+5C423
 62
     3
420
    65280
100
AcDbMText
 10
3.701853434244792
 20
4.15253914727105
 30
0.0
 40
0.0930618764559428
 41
0.0
 46
0.0
 71
     7
 72
     1
  1
\fMyriad Pro|b0|i0|c0|p34;\W1;755 [29 3/4]
 73
     1
 44
1.0
  0
ENDBLK
  5
B5
330
B2
100
AcDbEntity
  8
0
100
AcDbBlockEnd
  0
BLOCK
  5
B9
330
B7
100
AcDbEntity
  8
0
100
AcDbBlockBegin
  2
block 16
 70
     0
 10
0.0
 20
0.0
 30
0.0
  3
block 16
  1

  0
POLYLINE
  5
BB
330
B7
100
AcDbEntity
  8
_U+56FE_U+5C423
 62
     3
420
    65280
370
    25
100
AcDb2dPolyline
 66
     1
 10
0.0
 20
0.0
 30
0.0
  0
VERTEX
  5
BC
330
BB
100
AcDbEntity
  8
_U+56FE_U+5C423
 62
     3
420
    65280
370
    25
100
AcDbVertex
100
AcDb2dVertex
 10
3.267564672034445
 20
7.601719822678584
 30
0.0
  0
VERTEX
  5
BD
330
BB
100
AcDbEntity
  8
_U+56FE_U+5C423
 62
     3
420
    65280
370
    25
100
AcDbVertex
100
AcDb2dVertex
 10
1.612123589189044
 20
7.601719822678584
 30
0.0
  0
SEQEND
  5
BE
330
BB
100
AcDbEntity
  8
_U+56FE_U+5C423
 62
     3
420
    65280
370
    25
  0
ENDBLK
  5
BA
330
B7
100
AcDbEntity
  8
0
100
AcDbBlockEnd
  0
BLOCK
  5
C1
330
BF
100
AcDbEntity
  8
0
100
AcDbBlockBegin
  2
block 17
 70
     0
 10
0.0
 20
0.0
 30
0.0
  3
block 17
  1

  0
POLYLINE
  5
C3
330
BF
100
AcDbEntity
  8
_U+56FE_U+5C423
 62
     3
420
    65280
370
    25
100
AcDb2dPolyline
 66
     1
 10
0.0
 20
0.0
 30
0.0
  0
VERTEX
  5
C4
330
C3
100
AcDbEntity
  8
_U+56FE_U+5C423
 62
     3
420
    65280
370
    25
100
AcDbVertex
100
AcDb2dVertex
 10
3.267564672034458
 20
4.747822193411316
 30
0.0
  0
VERTEX
  5
C5
330
C3
100
AcDbEntity
  8
_U+56FE_U+5C423
 62
     3
420
    65280
370
    25
100
AcDbVertex
100
AcDb2dVertex
 10
1.612123589189044
 20
4.747822193411316
 30
0.0
  0
SEQEND
  5
C6
330
C3
100
AcDbEntity
  8
_U+56FE_U+5C423
 62
     3
420
    65280
370
    25
  0
ENDBLK
  5
C2
330
BF
100
AcDbEntity
  8
0
100
AcDbBlockEnd
  0
BLOCK
  5
C9
330
C7
100
AcDbEntity
  8
0
100
AcDbBlockBegin
  2
block 18
 70
     0
 10
0.0
 20
0.0
 30
0.0
  3
block 18
  1

  0
POLYLINE
  5
CB
330
C7
100
AcDbEntity
  8
_U+56FE_U+5C423
 62
     3
420
    65280
370
    25
100
AcDb2dPolyline
 66
     1
 10
0.0
 20
0.0
 30
0.0
  0
VERTEX
  5
CC
330
CB
100
AcDbEntity
  8
_U+56FE_U+5C423
 62
     3
420
    65280
370
    25
100
AcDbVertex
100
AcDb2dVertex
 10
1.619878745790313
 20
7.508657943463352
 30
0.0
  0
VERTEX
  5
CD
330
CB
100
AcDbEntity
  8
_U+56FE_U+5C423
 62
     3
420
    65280
370
    25
100
AcDbVertex
100
AcDb2dVertex
 10
1.619878745790313
 20
4.840884072626573
 30
0.0
  0
SEQEND
  5
CE
330
CB
100
AcDbEntity
  8
_U+56FE_U+5C423
 62
     3
420
    65280
370
    25
  0
ENDBLK
  5
CA
330
C7
100
AcDbEntity
  8
0
100
AcDbBlockEnd
  0
BLOCK
  5
D1
330
CF
100
AcDbEntity
  8
0
100
AcDbBlockBegin
  2
block 19
 70
     0
 10
0.0
 20
0.0
 30
0.0
  3
block 19
  1

  0
POLYLINE
  5
D3
330
CF
100
AcDbEntity
  8
_U+56FE_U+5C423
370
     0
100
AcDb2dPolyline
 66
     1
 10
0.0
 20
0.0
 30
0.0
  0
VERTEX
  5
D4
330
D3
100
AcDbEntity
  8
_U+56FE_U+5C423
370
     0
100
AcDbVertex
100
AcDb2dVertex
 10
1.604368432587775
 20
7.508657943463352
 30
0.0
  0
VERTEX
  5
D5
330
D3
100
AcDbEntity
  8
_U+56FE_U+5C423
370
     0
100
AcDbVertex
100
AcDb2dVertex
 10
1.619878745790313
 20
7.601719822678584
 30
0.0
  0
VERTEX
  5
D6
330
D3
100
AcDbEntity
  8
_U+56FE_U+5C423
370
     0
100
AcDbVertex
100
AcDb2dVertex
 10
1.635389058992852
 20
7.508657943463352
 30
0.0
  0
VERTEX
  5
D7
330
D3
100
AcDbEntity
  8
_U+56FE_U+5C423
370
     0
100
AcDbVertex
100
AcDb2dVertex
 10
1.604368432587775
 20
7.508657943463352
 30
0.0
  0
SEQEND
  5
D9
330
D3
100
AcDbEntity
  8
_U+56FE_U+5C423
370
     0
  0
HATCH
  5
D8
330
CF
100
AcDbEntity
  8
_U+56FE_U+5C423
 62
     3
420
    65280
100
AcDbHatch
 10
0.0
 20
0.0
 30
0.0
210
0.0
220
0.0
230
1.0
  2
SOLID
 70
     1
 71
     0
 91
        1
 92
        1
 93
        3
 72
     1
 10
1.604368432587775
 20
7.508657943463352
 11
1.619878745790313
 21
7.601719822678584
 72
     1
 10
1.619878745790313
 20
7.601719822678584
 11
1.635389058992852
 21
7.508657943463352
 72
     1
 10
1.635389058992852
 20
7.508657943463352
 11
1.604368432587775
 21
7.508657943463352
 97
        0
 75
     2
 76
     1
 98
        0
  0
ENDBLK
  5
D2
330
CF
100
AcDbEntity
  8
0
100
AcDbBlockEnd
  0
BLOCK
  5
DC
330
DA
100
AcDbEntity
  8
0
100
AcDbBlockBegin
  2
block 20
 70
     0
 10
0.0
 20
0.0
 30
0.0
  3
block 20
  1

  0
POLYLINE
  5
DE
330
DA
100
AcDbEntity
  8
_U+56FE_U+5C423
370
     0
100
AcDb2dPolyline
 66
     1
 10
0.0
 20
0.0
 30
0.0
  0
VERTEX
  5
DF
330
DE
100
AcDbEntity
  8
_U+56FE_U+5C423
370
     0
100
AcDbVertex
100
AcDb2dVertex
 10
1.604368432587775
 20
4.840884072626573
 30
0.0
  0
VERTEX
  5
E0
330
DE
100
AcDbEntity
  8
_U+56FE_U+5C423
370
     0
100
AcDbVertex
100
AcDb2dVertex
 10
1.619878745790313
 20
4.747822193411316
 30
0.0
  0
VERTEX
  5
E1
330
DE
100
AcDbEntity
  8
_U+56FE_U+5C423
370
     0
100
AcDbVertex
100
AcDb2dVertex
 10
1.635389058992852
 20
4.840884072626573
 30
0.0
  0
VERTEX
  5
E2
330
DE
100
AcDbEntity
  8
_U+56FE_U+5C423
370
     0
100
AcDbVertex
100
AcDb2dVertex
 10
1.604368432587775
 20
4.840884072626573
 30
0.0
  0
SEQEND
  5
E4
330
DE
100
AcDbEntity
  8
_U+56FE_U+5C423
370
     0
  0
HATCH
  5
E3
330
DA
100
AcDbEntity
  8
_U+56FE_U+5C423
 62
     3
420
    65280
100
AcDbHatch
 10
0.0
 20
0.0
 30
0.0
210
0.0
220
0.0
230
1.0
  2
SOLID
 70
     1
 71
     0
 91
        1
 92
        1
 93
        3
 72
     1
 10
1.604368432587775
 20
4.840884072626573
 11
1.619878745790313
 21
4.747822193411316
 72
     1
 10
1.619878745790313
 20
4.747822193411316
 11
1.635389058992852
 21
4.840884072626573
 72
     1
 10
1.635389058992852
 20
4.840884072626573
 11
1.604368432587775
 21
4.840884072626573
 97
        0
 75
     2
 76
     1
 98
        0
  0
ENDBLK
  5
DD
330
DA
100
AcDbEntity
  8
0
100
AcDbBlockEnd
  0
BLOCK
  5
E7
330
E5
100
AcDbEntity
  8
0
100
AcDbBlockBegin
  2
block 21
 70
     0
 10
0.0
 20
0.0
 30
0.0
  3
block 21
  1

  0
MTEXT
  5
E9
330
E5
100
AcDbEntity
  8
_U+56FE_U+5C423
 62
     3
420
    65280
100
AcDbMText
 10
1.582210964626736
 20
5.662936740451376
 30
0.0
 40
0.0930618764559428
 41
0.0
 46
0.0
 71
     7
 72
     1
  1
\fMyriad Pro|b0|i0|c0|p34;\W1;460 [18 1/8]
 11
6.123233995736766E-17
 21
1.0
 31
0.0
 73
     1
 44
1.0
  0
ENDBLK
  5
E8
330
E5
100
AcDbEntity
  8
0
100
AcDbBlockEnd
  0
BLOCK
  5
EC
330
EA
100
AcDbEntity
  8
0
100
AcDbBlockBegin
  2
block 22
 70
     0
 10
0.0
 20
0.0
 30
0.0
  3
block 22
  1

  0
POLYLINE
  5
EE
330
EA
100
AcDbEntity
  8
_U+56FE_U+5C423
 62
     3
420
    65280
370
    25
100
AcDb2dPolyline
 66
     1
 10
0.0
 20
0.0
 30
0.0
  0
VERTEX
  5
EF
330
EE
100
AcDbEntity
  8
_U+56FE_U+5C423
 62
     3
420
    65280
370
    25
100
AcDbVertex
100
AcDb2dVertex
 10
3.267564672034445
 20
7.663761075488751
 30
0.0
  0
VERTEX
  5
F0
330
EE
100
AcDbEntity
  8
_U+56FE_U+5C423
 62
     3
420
    65280
370
    25
100
AcDbVertex
100
AcDb2dVertex
 10
1.282749651065993
 20
7.663761075488751
 30
0.0
  0
SEQEND
  5
F1
330
EE
100
AcDbEntity
  8
_U+56FE_U+5C423
 62
     3
420
    65280
370
    25
  0
ENDBLK
  5
ED
330
EA
100
AcDbEntity
  8
0
100
AcDbBlockEnd
  0
BLOCK
  5
F4
330
F2
100
AcDbEntity
  8
0
100
AcDbBlockBegin
  2
block 23
 70
     0
 10
0.0
 20
0.0
 30
0.0
  3
block 23
  1

  0
POLYLINE
  5
F6
330
F2
100
AcDbEntity
  8
_U+56FE_U+5C423
 62
     3
420
    65280
370
    25
100
AcDb2dPolyline
 66
     1
 10
0.0
 20
0.0
 30
0.0
  0
VERTEX
  5
F7
330
F6
100
AcDbEntity
  8
_U+56FE_U+5C423
 62
     3
420
    65280
370
    25
100
AcDbVertex
100
AcDb2dVertex
 10
3.267564672034458
 20
4.685780940601161
 30
0.0
  0
VERTEX
  5
F8
330
F6
100
AcDbEntity
  8
_U+56FE_U+5C423
 62
     3
420
    65280
370
    25
100
AcDbVertex
100
AcDb2dVertex
 10
1.282749651065993
 20
4.685780940601161
 30
0.0
  0
SEQEND
  5
F9
330
F6
100
AcDbEntity
  8
_U+56FE_U+5C423
 62
     3
420
    65280
370
    25
  0
ENDBLK
  5
F5
330
F2
100
AcDbEntity
  8
0
100
AcDbBlockEnd
  0
BLOCK
  5
FC
330
FA
100
AcDbEntity
  8
0
100
AcDbBlockBegin
  2
block 24
 70
     0
 10
0.0
 20
0.0
 30
0.0
  3
block 24
  1

  0
POLYLINE
  5
FE
330
FA
100
AcDbEntity
  8
_U+56FE_U+5C423
 62
     3
420
    65280
370
    25
100
AcDb2dPolyline
 66
     1
 10
0.0
 20
0.0
 30
0.0
  0
VERTEX
  5
FF
330
FE
100
AcDbEntity
  8
_U+56FE_U+5C423
 62
     3
420
    65280
370
    25
100
AcDbVertex
100
AcDb2dVertex
 10
1.290504807667263
 20
7.570699196273507
 30
0.0
  0
VERTEX
  5
100
330
FE
100
AcDbEntity
  8
_U+56FE_U+5C423
 62
     3
420
    65280
370
    25
100
AcDbVertex
100
AcDb2dVertex
 10
1.290504807667263
 20
4.778842819816418
 30
0.0
  0
SEQEND
  5
101
330
FE
100
AcDbEntity
  8
_U+56FE_U+5C423
 62
     3
420
    65280
370
    25
  0
ENDBLK
  5
FD
330
FA
100
AcDbEntity
  8
0
100
AcDbBlockEnd
  0
BLOCK
  5
104
330
102
100
AcDbEntity
  8
0
100
AcDbBlockBegin
  2
block 25
 70
     0
 10
0.0
 20
0.0
 30
0.0
  3
block 25
  1

  0
POLYLINE
  5
106
330
102
100
AcDbEntity
  8
_U+56FE_U+5C423
370
     0
100
AcDb2dPolyline
 66
     1
 10
0.0
 20
0.0
 30
0.0
  0
VERTEX
  5
107
330
106
100
AcDbEntity
  8
_U+56FE_U+5C423
370
     0
100
AcDbVertex
100
AcDb2dVertex
 10
1.274994494464724
 20
7.570699196273507
 30
0.0
  0
VERTEX
  5
108
330
106
100
AcDbEntity
  8
_U+56FE_U+5C423
370
     0
100
AcDbVertex
100
AcDb2dVertex
 10
1.290504807667263
 20
7.663761075488751
 30
0.0
  0
VERTEX
  5
109
330
106
100
AcDbEntity
  8
_U+56FE_U+5C423
370
     0
100
AcDbVertex
100
AcDb2dVertex
 10
1.306015120869802
 20
7.570699196273507
 30
0.0
  0
VERTEX
  5
10A
330
106
100
AcDbEntity
  8
_U+56FE_U+5C423
370
     0
100
AcDbVertex
100
AcDb2dVertex
 10
1.274994494464724
 20
7.570699196273507
 30
0.0
  0
SEQEND
  5
10C
330
106
100
AcDbEntity
  8
_U+56FE_U+5C423
370
     0
  0
HATCH
  5
10B
330
102
100
AcDbEntity
  8
_U+56FE_U+5C423
 62
     3
420
    65280
100
AcDbHatch
 10
0.0
 20
0.0
 30
0.0
210
0.0
220
0.0
230
1.0
  2
SOLID
 70
     1
 71
     0
 91
        1
 92
        1
 93
        3
 72
     1
 10
1.274994494464724
 20
7.570699196273507
 11
1.290504807667263
 21
7.663761075488751
 72
     1
 10
1.290504807667263
 20
7.663761075488751
 11
1.306015120869802
 21
7.570699196273507
 72
     1
 10
1.306015120869802
 20
7.570699196273507
 11
1.274994494464724
 21
7.570699196273507
 97
        0
 75
     2
 76
     1
 98
        0
  0
ENDBLK
  5
105
330
102
100
AcDbEntity
  8
0
100
AcDbBlockEnd
  0
BLOCK
  5
10F
330
10D
100
AcDbEntity
  8
0
100
AcDbBlockBegin
  2
block 26
 70
     0
 10
0.0
 20
0.0
 30
0.0
  3
block 26
  1

  0
POLYLINE
  5
111
330
10D
100
AcDbEntity
  8
_U+56FE_U+5C423
370
     0
100
AcDb2dPolyline
 66
     1
 10
0.0
 20
0.0
 30
0.0
  0
VERTEX
  5
112
330
111
100
AcDbEntity
  8
_U+56FE_U+5C423
370
     0
100
AcDbVertex
100
AcDb2dVertex
 10
1.274994494464724
 20
4.778842819816418
 30
0.0
  0
VERTEX
  5
113
330
111
100
AcDbEntity
  8
_U+56FE_U+5C423
370
     0
100
AcDbVertex
100
AcDb2dVertex
 10
1.290504807667263
 20
4.685780940601161
 30
0.0
  0
VERTEX
  5
114
330
111
100
AcDbEntity
  8
_U+56FE_U+5C423
370
     0
100
AcDbVertex
100
AcDb2dVertex
 10
1.306015120869802
 20
4.778842819816418
 30
0.0
  0
VERTEX
  5
115
330
111
100
AcDbEntity
  8
_U+56FE_U+5C423
370
     0
100
AcDbVertex
100
AcDb2dVertex
 10
1.274994494464724
 20
4.778842819816418
 30
0.0
  0
SEQEND
  5
117
330
111
100
AcDbEntity
  8
_U+56FE_U+5C423
370
     0
  0
HATCH
  5
116
330
10D
100
AcDbEntity
  8
_U+56FE_U+5C423
 62
     3
420
    65280
100
AcDbHatch
 10
0.0
 20
0.0
 30
0.0
210
0.0
220
0.0
230
1.0
  2
SOLID
 70
     1
 71
     0
 91
        1
 92
        1
 93
        3
 72
     1
 10
1.274994494464724
 20
4.778842819816418
 11
1.290504807667263
 21
4.685780940601161
 72
     1
 10
1.290504807667263
 20
4.685780940601161
 11
1.306015120869802
 21
4.778842819816418
 72
     1
 10
1.306015120869802
 20
4.778842819816418
 11
1.274994494464724
 21
4.778842819816418
 97
        0
 75
     2
 76
     1
 98
        0
  0
ENDBLK
  5
110
330
10D
100
AcDbEntity
  8
0
100
AcDbBlockEnd
  0
BLOCK
  5
11A
330
118
100
AcDbEntity
  8
0
100
AcDbBlockBegin
  2
block 27
 70
     0
 10
0.0
 20
0.0
 30
0.0
  3
block 27
  1

  0
MTEXT
  5
11C
330
118
100
AcDbEntity
  8
_U+56FE_U+5C423
 62
     3
420
    65280
100
AcDbMText
 10
1.252837287055121
 20
5.662936740451376
 30
0.0
 40
0.0930618764559428
 41
0.0
 46
0.0
 71
     7
 72
     1
  1
\fMyriad Pro|b0|i0|c0|p34;\W1;480 [18 7/8]
 11
6.123233995736766E-17
 21
1.0
 31
0.0
 73
     1
 44
1.0
  0
ENDBLK
  5
11B
330
118
100
AcDbEntity
  8
0
100
AcDbBlockEnd
  0
BLOCK
  5
11F
330
11D
100
AcDbEntity
  8
0
100
AcDbBlockBegin
  2
block 28
 70
     0
 10
0.0
 20
0.0
 30
0.0
  3
block 28
  1

  0
POLYLINE
  5
121
330
11D
100
AcDbEntity
  8
_U+56FE_U+5C423
 62
     3
420
    65280
370
    25
100
AcDb2dPolyline
 66
     1
 10
0.0
 20
0.0
 30
0.0
  0
VERTEX
  5
122
330
121
100
AcDbEntity
  8
_U+56FE_U+5C423
 62
     3
420
    65280
370
    25
100
AcDbVertex
100
AcDb2dVertex
 10
5.310635898161561
 20
7.198451679412566
 30
0.0
  0
VERTEX
  5
123
330
121
100
AcDbEntity
  8
_U+56FE_U+5C423
 62
     3
420
    65280
370
    25
100
AcDbVertex
100
AcDb2dVertex
 10
6.920977573999683
 20
7.198451679412566
 30
0.0
  0
SEQEND
  5
124
330
121
100
AcDbEntity
  8
_U+56FE_U+5C423
 62
     3
420
    65280
370
    25
  0
ENDBLK
  5
120
330
11D
100
AcDbEntity
  8
0
100
AcDbBlockEnd
  0
BLOCK
  5
127
330
125
100
AcDbEntity
  8
0
100
AcDbBlockBegin
  2
block 29
 70
     0
 10
0.0
 20
0.0
 30
0.0
  3
block 29
  1

  0
POLYLINE
  5
129
330
125
100
AcDbEntity
  8
_U+56FE_U+5C423
 62
     3
420
    65280
370
    25
100
AcDb2dPolyline
 66
     1
 10
0.0
 20
0.0
 30
0.0
  0
VERTEX
  5
12A
330
129
100
AcDbEntity
  8
_U+56FE_U+5C423
 62
     3
420
    65280
370
    25
100
AcDbVertex
100
AcDb2dVertex
 10
5.310635898161561
 20
4.74782219341134
 30
0.0
  0
VERTEX
  5
12B
330
129
100
AcDbEntity
  8
_U+56FE_U+5C423
 62
     3
420
    65280
370
    25
100
AcDbVertex
100
AcDb2dVertex
 10
6.920977573999683
 20
4.74782219341134
 30
0.0
  0
SEQEND
  5
12C
330
129
100
AcDbEntity
  8
_U+56FE_U+5C423
 62
     3
420
    65280
370
    25
  0
ENDBLK
  5
128
330
125
100
AcDbEntity
  8
0
100
AcDbBlockEnd
  0
BLOCK
  5
12F
330
12D
100
AcDbEntity
  8
0
100
AcDbBlockBegin
  2
block 30
 70
     0
 10
0.0
 20
0.0
 30
0.0
  3
block 30
  1

  0
POLYLINE
  5
131
330
12D
100
AcDbEntity
  8
_U+56FE_U+5C423
 62
     3
420
    65280
370
    25
100
AcDb2dPolyline
 66
     1
 10
0.0
 20
0.0
 30
0.0
  0
VERTEX
  5
132
330
131
100
AcDbEntity
  8
_U+56FE_U+5C423
 62
     3
420
    65280
370
    25
100
AcDbVertex
100
AcDb2dVertex
 10
6.913222417398401
 20
7.105389800197321
 30
0.0
  0
VERTEX
  5
133
330
131
100
AcDbEntity
  8
_U+56FE_U+5C423
 62
     3
420
    65280
370
    25
100
AcDbVertex
100
AcDb2dVertex
 10
6.913222417398401
 20
4.840884072626573
 30
0.0
  0
SEQEND
  5
134
330
131
100
AcDbEntity
  8
_U+56FE_U+5C423
 62
     3
420
    65280
370
    25
  0
ENDBLK
  5
130
330
12D
100
AcDbEntity
  8
0
100
AcDbBlockEnd
  0
BLOCK
  5
137
330
135
100
AcDbEntity
  8
0
100
AcDbBlockBegin
  2
block 31
 70
     0
 10
0.0
 20
0.0
 30
0.0
  3
block 31
  1

  0
POLYLINE
  5
139
330
135
100
AcDbEntity
  8
_U+56FE_U+5C423
370
     0
100
AcDb2dPolyline
 66
     1
 10
0.0
 20
0.0
 30
0.0
  0
VERTEX
  5
13A
330
139
100
AcDbEntity
  8
_U+56FE_U+5C423
370
     0
100
AcDbVertex
100
AcDb2dVertex
 10
6.897712104195862
 20
7.105389800197321
 30
0.0
  0
VERTEX
  5
13B
330
139
100
AcDbEntity
  8
_U+56FE_U+5C423
370
     0
100
AcDbVertex
100
AcDb2dVertex
 10
6.913222417398401
 20
7.198451679412566
 30
0.0
  0
VERTEX
  5
13C
330
139
100
AcDbEntity
  8
_U+56FE_U+5C423
370
     0
100
AcDbVertex
100
AcDb2dVertex
 10
6.92873273060094
 20
7.105389800197321
 30
0.0
  0
VERTEX
  5
13D
330
139
100
AcDbEntity
  8
_U+56FE_U+5C423
370
     0
100
AcDbVertex
100
AcDb2dVertex
 10
6.897712104195862
 20
7.105389800197321
 30
0.0
  0
SEQEND
  5
13F
330
139
100
AcDbEntity
  8
_U+56FE_U+5C423
370
     0
  0
HATCH
  5
13E
330
135
100
AcDbEntity
  8
_U+56FE_U+5C423
 62
     3
420
    65280
100
AcDbHatch
 10
0.0
 20
0.0
 30
0.0
210
0.0
220
0.0
230
1.0
  2
SOLID
 70
     1
 71
     0
 91
        1
 92
        1
 93
        3
 72
     1
 10
6.897712104195862
 20
7.105389800197321
 11
6.913222417398401
 21
7.198451679412566
 72
     1
 10
6.913222417398401
 20
7.198451679412566
 11
6.92873273060094
 21
7.105389800197321
 72
     1
 10
6.92873273060094
 20
7.105389800197321
 11
6.897712104195862
 21
7.105389800197321
 97
        0
 75
     2
 76
     1
 98
        0
  0
ENDBLK
  5
138
330
135
100
AcDbEntity
  8
0
100
AcDbBlockEnd
  0
BLOCK
  5
142
330
140
100
AcDbEntity
  8
0
100
AcDbBlockBegin
  2
block 32
 70
     0
 10
0.0
 20
0.0
 30
0.0
  3
block 32
  1

  0
POLYLINE
  5
144
330
140
100
AcDbEntity
  8
_U+56FE_U+5C423
370
     0
100
AcDb2dPolyline
 66
     1
 10
0.0
 20
0.0
 30
0.0
  0
VERTEX
  5
145
330
144
100
AcDbEntity
  8
_U+56FE_U+5C423
370
     0
100
AcDbVertex
100
AcDb2dVertex
 10
6.897712104195862
 20
4.840884072626573
 30
0.0
  0
VERTEX
  5
146
330
144
100
AcDbEntity
  8
_U+56FE_U+5C423
370
     0
100
AcDbVertex
100
AcDb2dVertex
 10
6.913222417398401
 20
4.74782219341134
 30
0.0
  0
VERTEX
  5
147
330
144
100
AcDbEntity
  8
_U+56FE_U+5C423
370
     0
100
AcDbVertex
100
AcDb2dVertex
 10
6.92873273060094
 20
4.840884072626573
 30
0.0
  0
VERTEX
  5
148
330
144
100
AcDbEntity
  8
_U+56FE_U+5C423
370
     0
100
AcDbVertex
100
AcDb2dVertex
 10
6.897712104195862
 20
4.840884072626573
 30
0.0
  0
SEQEND
  5
14A
330
144
100
AcDbEntity
  8
_U+56FE_U+5C423
370
     0
  0
HATCH
  5
149
330
140
100
AcDbEntity
  8
_U+56FE_U+5C423
 62
     3
420
    65280
100
AcDbHatch
 10
0.0
 20
0.0
 30
0.0
210
0.0
220
0.0
230
1.0
  2
SOLID
 70
     1
 71
     0
 91
        1
 92
        1
 93
        3
 72
     1
 10
6.897712104195862
 20
4.840884072626573
 11
6.913222417398401
 21
4.74782219341134
 72
     1
 10
6.913222417398401
 20
4.74782219341134
 11
6.92873273060094
 21
4.840884072626573
 72
     1
 10
6.92873273060094
 20
4.840884072626573
 11
6.897712104195862
 21
4.840884072626573
 97
        0
 75
     2
 76
     1
 98
        0
  0
ENDBLK
  5
143
330
140
100
AcDbEntity
  8
0
100
AcDbBlockEnd
  0
BLOCK
  5
14D
330
14B
100
AcDbEntity
  8
0
100
AcDbBlockBegin
  2
block 33
 70
     0
 10
0.0
 20
0.0
 30
0.0
  3
block 33
  1

  0
MTEXT
  5
14F
330
14B
100
AcDbEntity
  8
_U+56FE_U+5C423
 62
     3
420
    65280
100
AcDbMText
 10
6.875554614596896
 20
5.461290147569444
 30
0.0
 40
0.0930618764559428
 41
0.0
 46
0.0
 71
     7
 72
     1
  1
\fMyriad Pro|b0|i0|c0|p34;\W1;395 [15 1/2]
 11
6.123233995736766E-17
 21
1.0
 31
0.0
 73
     1
 44
1.0
  0
ENDBLK
  5
14E
330
14B
100
AcDbEntity
  8
0
100
AcDbBlockEnd
  0
BLOCK
  5
152
330
150
100
AcDbEntity
  8
0
100
AcDbBlockBegin
  2
block 34
 70
     0
 10
0.0
 20
0.0
 30
0.0
  3
block 34
  1

  0
POLYLINE
  5
154
330
150
100
AcDbEntity
  8
_U+56FE_U+5C423
 62
     3
420
    65280
370
    25
100
AcDb2dPolyline
 66
     1
 10
0.0
 20
0.0
 30
0.0
  0
VERTEX
  5
155
330
154
100
AcDbEntity
  8
_U+56FE_U+5C423
 62
     3
420
    65280
370
    25
100
AcDbVertex
100
AcDb2dVertex
 10
5.310635898161561
 20
7.260492932222721
 30
0.0
  0
VERTEX
  5
156
330
154
100
AcDbEntity
  8
_U+56FE_U+5C423
 62
     3
420
    65280
370
    25
100
AcDbVertex
100
AcDb2dVertex
 10
7.232032125341801
 20
7.260492932222721
 30
0.0
  0
SEQEND
  5
157
330
154
100
AcDbEntity
  8
_U+56FE_U+5C423
 62
     3
420
    65280
370
    25
  0
ENDBLK
  5
153
330
150
100
AcDbEntity
  8
0
100
AcDbBlockEnd
  0
BLOCK
  5
15A
330
158
100
AcDbEntity
  8
0
100
AcDbBlockBegin
  2
block 35
 70
     0
 10
0.0
 20
0.0
 30
0.0
  3
block 35
  1

  0
POLYLINE
  5
15C
330
158
100
AcDbEntity
  8
_U+56FE_U+5C423
 62
     3
420
    65280
370
    25
100
AcDb2dPolyline
 66
     1
 10
0.0
 20
0.0
 30
0.0
  0
VERTEX
  5
15D
330
15C
100
AcDbEntity
  8
_U+56FE_U+5C423
 62
     3
420
    65280
370
    25
100
AcDbVertex
100
AcDb2dVertex
 10
5.310635898161561
 20
4.685780940601161
 30
0.0
  0
VERTEX
  5
15E
330
15C
100
AcDbEntity
  8
_U+56FE_U+5C423
 62
     3
420
    65280
370
    25
100
AcDbVertex
100
AcDb2dVertex
 10
7.232032125341801
 20
4.685780940601161
 30
0.0
  0
SEQEND
  5
15F
330
15C
100
AcDbEntity
  8
_U+56FE_U+5C423
 62
     3
420
    65280
370
    25
  0
ENDBLK
  5
15B
330
158
100
AcDbEntity
  8
0
100
AcDbBlockEnd
  0
BLOCK
  5
162
330
160
100
AcDbEntity
  8
0
100
AcDbBlockBegin
  2
block 36
 70
     0
 10
0.0
 20
0.0
 30
0.0
  3
block 36
  1

  0
POLYLINE
  5
164
330
160
100
AcDbEntity
  8
_U+56FE_U+5C423
 62
     3
420
    65280
370
    25
100
AcDb2dPolyline
 66
     1
 10
0.0
 20
0.0
 30
0.0
  0
VERTEX
  5
165
330
164
100
AcDbEntity
  8
_U+56FE_U+5C423
 62
     3
420
    65280
370
    25
100
AcDbVertex
100
AcDb2dVertex
 10
7.224276968740519
 20
7.167431053007489
 30
0.0
  0
VERTEX
  5
166
330
164
100
AcDbEntity
  8
_U+56FE_U+5C423
 62
     3
420
    65280
370
    25
100
AcDbVertex
100
AcDb2dVertex
 10
7.224276968740519
 20
4.778842819816418
 30
0.0
  0
SEQEND
  5
167
330
164
100
AcDbEntity
  8
_U+56FE_U+5C423
 62
     3
420
    65280
370
    25
  0
ENDBLK
  5
163
330
160
100
AcDbEntity
  8
0
100
AcDbBlockEnd
  0
BLOCK
  5
16A
330
168
100
AcDbEntity
  8
0
100
AcDbBlockBegin
  2
block 37
 70
     0
 10
0.0
 20
0.0
 30
0.0
  3
block 37
  1

  0
POLYLINE
  5
16C
330
168
100
AcDbEntity
  8
_U+56FE_U+5C423
370
     0
100
AcDb2dPolyline
 66
     1
 10
0.0
 20
0.0
 30
0.0
  0
VERTEX
  5
16D
330
16C
100
AcDbEntity
  8
_U+56FE_U+5C423
370
     0
100
AcDbVertex
100
AcDb2dVertex
 10
7.20876665553798
 20
7.167431053007489
 30
0.0
  0
VERTEX
  5
16E
330
16C
100
AcDbEntity
  8
_U+56FE_U+5C423
370
     0
100
AcDbVertex
100
AcDb2dVertex
 10
7.224276968740519
 20
7.260492932222721
 30
0.0
  0
VERTEX
  5
16F
330
16C
100
AcDbEntity
  8
_U+56FE_U+5C423
370
     0
100
AcDbVertex
100
AcDb2dVertex
 10
7.239787281943058
 20
7.167431053007489
 30
0.0
  0
VERTEX
  5
170
330
16C
100
AcDbEntity
  8
_U+56FE_U+5C423
370
     0
100
AcDbVertex
100
AcDb2dVertex
 10
7.20876665553798
 20
7.167431053007489
 30
0.0
  0
SEQEND
  5
172
330
16C
100
AcDbEntity
  8
_U+56FE_U+5C423
370
     0
  0
HATCH
  5
171
330
168
100
AcDbEntity
  8
_U+56FE_U+5C423
 62
     3
420
    65280
100
AcDbHatch
 10
0.0
 20
0.0
 30
0.0
210
0.0
220
0.0
230
1.0
  2
SOLID
 70
     1
 71
     0
 91
        1
 92
        1
 93
        3
 72
     1
 10
7.20876665553798
 20
7.167431053007489
 11
7.224276968740519
 21
7.260492932222721
 72
     1
 10
7.224276968740519
 20
7.260492932222721
 11
7.239787281943058
 21
7.167431053007489
 72
     1
 10
7.239787281943058
 20
7.167431053007489
 11
7.20876665553798
 21
7.167431053007489
 97
        0
 75
     2
 76
     1
 98
        0
  0
ENDBLK
  5
16B
330
168
100
AcDbEntity
  8
0
100
AcDbBlockEnd
  0
BLOCK
  5
175
330
173
100
AcDbEntity
  8
0
100
AcDbBlockBegin
  2
block 38
 70
     0
 10
0.0
 20
0.0
 30
0.0
  3
block 38
  1

  0
POLYLINE
  5
177
330
173
100
AcDbEntity
  8
_U+56FE_U+5C423
370
     0
100
AcDb2dPolyline
 66
     1
 10
0.0
 20
0.0
 30
0.0
  0
VERTEX
  5
178
330
177
100
AcDbEntity
  8
_U+56FE_U+5C423
370
     0
100
AcDbVertex
100
AcDb2dVertex
 10
7.20876665553798
 20
4.778842819816418
 30
0.0
  0
VERTEX
  5
179
330
177
100
AcDbEntity
  8
_U+56FE_U+5C423
370
     0
100
AcDbVertex
100
AcDb2dVertex
 10
7.224276968740519
 20
4.685780940601161
 30
0.0
  0
VERTEX
  5
17A
330
177
100
AcDbEntity
  8
_U+56FE_U+5C423
370
     0
100
AcDbVertex
100
AcDb2dVertex
 10
7.239787281943058
 20
4.778842819816418
 30
0.0
  0
VERTEX
  5
17B
330
177
100
AcDbEntity
  8
_U+56FE_U+5C423
370
     0
100
AcDbVertex
100
AcDb2dVertex
 10
7.20876665553798
 20
4.778842819816418
 30
0.0
  0
SEQEND
  5
17D
330
177
100
AcDbEntity
  8
_U+56FE_U+5C423
370
     0
  0
HATCH
  5
17C
330
173
100
AcDbEntity
  8
_U+56FE_U+5C423
 62
     3
420
    65280
100
AcDbHatch
 10
0.0
 20
0.0
 30
0.0
210
0.0
220
0.0
230
1.0
  2
SOLID
 70
     1
 71
     0
 91
        1
 92
        1
 93
        3
 72
     1
 10
7.20876665553798
 20
4.778842819816418
 11
7.224276968740519
 21
4.685780940601161
 72
     1
 10
7.224276968740519
 20
4.685780940601161
 11
7.239787281943058
 21
4.778842819816418
 72
     1
 10
7.239787281943058
 20
4.778842819816418
 11
7.20876665553798
 21
4.778842819816418
 97
        0
 75
     2
 76
     1
 98
        0
  0
ENDBLK
  5
176
330
173
100
AcDbEntity
  8
0
100
AcDbBlockEnd
  0
BLOCK
  5
180
330
17E
100
AcDbEntity
  8
0
100
AcDbBlockBegin
  2
block 39
 70
     0
 10
0.0
 20
0.0
 30
0.0
  3
block 39
  1

  0
MTEXT
  5
182
330
17E
100
AcDbEntity
  8
_U+56FE_U+5C423
 62
     3
420
    65280
100
AcDbMText
 10
7.18660905626085
 20
5.461290147569444
 30
0.0
 40
0.0930618764559428
 41
0.0
 46
0.0
 71
     7
 72
     1
  1
\fMyriad Pro|b0|i0|c0|p34;\W1;415 [16 3/8]
 11
6.123233995736766E-17
 21
1.0
 31
0.0
 73
     1
 44
1.0
  0
ENDBLK
  5
181
330
17E
100
AcDbEntity
  8
0
100
AcDbBlockEnd
  0
BLOCK
  5
185
330
183
100
AcDbEntity
  8
0
100
AcDbBlockBegin
  2
block 40
 70
     0
 10
0.0
 20
0.0
 30
0.0
  3
block 40
  1

  0
POLYLINE
  5
187
330
183
100
AcDbEntity
  8
_U+56FE_U+5C423
 62
     3
420
    65280
370
    25
100
AcDb2dPolyline
 66
     1
 10
0.0
 20
0.0
 30
0.0
  0
VERTEX
  5
188
330
187
100
AcDbEntity
  8
_U+56FE_U+5C423
 62
     3
420
    65280
370
    25
100
AcDbVertex
100
AcDb2dVertex
 10
3.121760949024722
 20
6.339041620838366
 30
0.0
  0
VERTEX
  5
189
330
187
100
AcDbEntity
  8
_U+56FE_U+5C423
 62
     3
420
    65280
370
    25
100
AcDbVertex
100
AcDb2dVertex
 10
2.318914770824879
 20
7.24406359433346
 30
0.0
  0
SEQEND
  5
18A
330
187
100
AcDbEntity
  8
_U+56FE_U+5C423
 62
     3
420
    65280
370
    25
  0
ENDBLK
  5
186
330
183
100
AcDbEntity
  8
0
100
AcDbBlockEnd
  0
BLOCK
  5
18D
330
18B
100
AcDbEntity
  8
0
100
AcDbBlockBegin
  2
block 41
 70
     0
 10
0.0
 20
0.0
 30
0.0
  3
block 41
  1

  0
MTEXT
  5
18F
330
18B
100
AcDbEntity
  8
_U+56FE_U+5C423
 62
     3
420
    65280
100
AcDbMText
 10
2.405906463662783
 20
7.202759385108948
 30
0.0
 40
0.0930618772289105
 41
0.0
 46
0.0
 71
     7
 72
     1
  1
\fMyriad Pro|b0|i0|c0|p34;\W1;R155 [R6 1/8]
 11
0.6636164729311773
 21
-0.7480729756209511
 31
0.0
 73
     1
 44
1.0
  0
ENDBLK
  5
18E
330
18B
100
AcDbEntity
  8
0
100
AcDbBlockEnd
  0
BLOCK
  5
192
330
190
100
AcDbEntity
  8
0
100
AcDbBlockBegin
  2
block 42
 70
     0
 10
0.0
 20
0.0
 30
0.0
  3
block 42
  1

  0
POLYLINE
  5
194
330
190
100
AcDbEntity
  8
_U+56FE_U+5C423
370
     0
100
AcDb2dPolyline
 66
     1
 10
0.0
 20
0.0
 30
0.0
  0
VERTEX
  5
195
330
194
100
AcDbEntity
  8
_U+56FE_U+5C423
370
     0
100
AcDbVertex
100
AcDb2dVertex
 10
2.330517616638922
 20
7.254356494053972
 30
0.0
  0
VERTEX
  5
196
330
194
100
AcDbEntity
  8
_U+56FE_U+5C423
370
     0
100
AcDbVertex
100
AcDb2dVertex
 10
2.257157372501802
 20
7.313680669217698
 30
0.0
  0
VERTEX
  5
197
330
194
100
AcDbEntity
  8
_U+56FE_U+5C423
370
     0
100
AcDbVertex
100
AcDb2dVertex
 10
2.307311925010834
 20
7.233770694612947
 30
0.0
  0
VERTEX
  5
198
330
194
100
AcDbEntity
  8
_U+56FE_U+5C423
370
     0
100
AcDbVertex
100
AcDb2dVertex
 10
2.330517616638922
 20
7.254356494053972
 30
0.0
  0
SEQEND
  5
19A
330
194
100
AcDbEntity
  8
_U+56FE_U+5C423
370
     0
  0
HATCH
  5
199
330
190
100
AcDbEntity
  8
_U+56FE_U+5C423
 62
     3
420
    65280
100
AcDbHatch
 10
0.0
 20
0.0
 30
0.0
210
0.0
220
0.0
230
1.0
  2
SOLID
 70
     1
 71
     0
 91
        1
 92
        1
 93
        3
 72
     1
 10
2.330517616638922
 20
7.254356494053972
 11
2.257157372501802
 21
7.313680669217698
 72
     1
 10
2.257157372501802
 20
7.313680669217698
 11
2.307311925010834
 21
7.233770694612947
 72
     1
 10
2.307311925010834
 20
7.233770694612947
 11
2.330517616638922
 21
7.254356494053972
 97
        0
 75
     2
 76
     1
 98
        0
  0
ENDBLK
  5
193
330
190
100
AcDbEntity
  8
0
100
AcDbBlockEnd
  0
BLOCK
  5
19D
330
19B
100
AcDbEntity
  8
0
100
AcDbBlockBegin
  2
block 43
 70
     0
 10
0.0
 20
0.0
 30
0.0
  3
block 43
  1

  0
POLYLINE
  5
19F
330
19B
100
AcDbEntity
  8
_U+56FE_U+5C423
 62
     3
420
    65280
370
    25
100
AcDb2dPolyline
 66
     1
 10
0.0
 20
0.0
 30
0.0
  0
VERTEX
  5
1A0
330
19F
100
AcDbEntity
  8
_U+56FE_U+5C423
 62
     3
420
    65280
370
    25
100
AcDbVertex
100
AcDb2dVertex
 10
3.374065944956227
 20
6.203702961666573
 30
0.0
  0
VERTEX
  5
1A1
330
19F
100
AcDbEntity
  8
_U+56FE_U+5C423
 62
     3
420
    65280
370
    25
100
AcDbVertex
100
AcDb2dVertex
 10
3.446115652994914
 20
7.504575537568421
 30
0.0
  0
SEQEND
  5
1A2
330
19F
100
AcDbEntity
  8
_U+56FE_U+5C423
 62
     3
420
    65280
370
    25
  0
ENDBLK
  5
19E
330
19B
100
AcDbEntity
  8
0
100
AcDbBlockEnd
  0
BLOCK
  5
1A5
330
1A3
100
AcDbEntity
  8
0
100
AcDbBlockBegin
  2
block 44
 70
     0
 10
0.0
 20
0.0
 30
0.0
  3
block 44
  1

  0
MTEXT
  5
1A7
330
1A3
100
AcDbEntity
  8
_U+56FE_U+5C423
 62
     3
420
    65280
100
AcDbMText
 10
3.336329984168211
 20
6.203572758369975
 30
0.0
 40
0.0930618743328404
 41
0.0
 46
0.0
 71
     7
 72
     1
  1
\fMyriad Pro|b0|i0|c0|p34;\W1;R445 [R17 1/2]
 11
0.05530092246333453
 21
0.9984697331290039
 31
0.0
 73
     1
 44
1.0
  0
ENDBLK
  5
1A6
330
1A3
100
AcDbEntity
  8
0
100
AcDbBlockEnd
  0
BLOCK
  5
1AA
330
1A8
100
AcDbEntity
  8
0
100
AcDbBlockBegin
  2
block 45
 70
     0
 10
0.0
 20
0.0
 30
0.0
  3
block 45
  1

  0
POLYLINE
  5
1AC
330
1A8
100
AcDbEntity
  8
_U+56FE_U+5C423
370
     0
100
AcDb2dPolyline
 66
     1
 10
0.0
 20
0.0
 30
0.0
  0
VERTEX
  5
1AD
330
1AC
100
AcDbEntity
  8
_U+56FE_U+5C423
370
     0
100
AcDbVertex
100
AcDb2dVertex
 10
3.43062907471037
 20
7.505433272187929
 30
0.0
  0
VERTEX
  5
1AE
330
1AC
100
AcDbEntity
  8
_U+56FE_U+5C423
370
     0
100
AcDbVertex
100
AcDb2dVertex
 10
3.451262060711972
 20
7.597495007275698
 30
0.0
  0
VERTEX
  5
1AF
330
1AC
100
AcDbEntity
  8
_U+56FE_U+5C423
370
     0
100
AcDbVertex
100
AcDb2dVertex
 10
3.461602231279458
 20
7.503717802948914
 30
0.0
  0
VERTEX
  5
1B0
330
1AC
100
AcDbEntity
  8
_U+56FE_U+5C423
370
     0
100
AcDbVertex
100
AcDb2dVertex
 10
3.43062907471037
 20
7.505433272187929
 30
0.0
  0
SEQEND
  5
1B2
330
1AC
100
AcDbEntity
  8
_U+56FE_U+5C423
370
     0
  0
HATCH
  5
1B1
330
1A8
100
AcDbEntity
  8
_U+56FE_U+5C423
 62
     3
420
    65280
100
AcDbHatch
 10
0.0
 20
0.0
 30
0.0
210
0.0
220
0.0
230
1.0
  2
SOLID
 70
     1
 71
     0
 91
        1
 92
        1
 93
        3
 72
     1
 10
3.43062907471037
 20
7.505433272187929
 11
3.451262060711972
 21
7.597495007275698
 72
     1
 10
3.451262060711972
 20
7.597495007275698
 11
3.461602231279458
 21
7.503717802948914
 72
     1
 10
3.461602231279458
 20
7.503717802948914
 11
3.43062907471037
 21
7.505433272187929
 97
        0
 75
     2
 76
     1
 98
        0
  0
ENDBLK
  5
1AB
330
1A8
100
AcDbEntity
  8
0
100
AcDbBlockEnd
  0
BLOCK
  5
1B5
330
1B3
100
AcDbEntity
  8
0
100
AcDbBlockBegin
  2
block 46
 70
     0
 10
0.0
 20
0.0
 30
0.0
  3
block 46
  1

  0
POLYLINE
  5
1B7
330
1B3
100
AcDbEntity
  8
_U+56FE_U+5C423
 62
     3
420
    65280
370
    25
100
AcDb2dPolyline
 66
     1
 10
0.0
 20
0.0
 30
0.0
  0
VERTEX
  5
1B8
330
1B7
100
AcDbEntity
  8
_U+56FE_U+5C423
 62
     3
420
    65280
370
    25
100
AcDbVertex
100
AcDb2dVertex
 10
3.654724219361393
 20
5.453680172829737
 30
0.0
  0
VERTEX
  5
1B9
330
1B7
100
AcDbEntity
  8
_U+56FE_U+5C423
 62
     3
420
    65280
370
    25
100
AcDbVertex
100
AcDb2dVertex
 10
2.600022921588713
 20
5.453680172829737
 30
0.0
  0
SEQEND
  5
1BA
330
1B7
100
AcDbEntity
  8
_U+56FE_U+5C423
 62
     3
420
    65280
370
    25
  0
ENDBLK
  5
1B6
330
1B3
100
AcDbEntity
  8
0
100
AcDbBlockEnd
  0
BLOCK
  5
1BD
330
1BB
100
AcDbEntity
  8
0
100
AcDbBlockBegin
  2
block 47
 70
     0
 10
0.0
 20
0.0
 30
0.0
  3
block 47
  1

  0
POLYLINE
  5
1BF
330
1BB
100
AcDbEntity
  8
_U+56FE_U+5C423
 62
     3
420
    65280
370
    25
100
AcDb2dPolyline
 66
     1
 10
0.0
 20
0.0
 30
0.0
  0
VERTEX
  5
1C0
330
1BF
100
AcDbEntity
  8
_U+56FE_U+5C423
 62
     3
420
    65280
370
    25
100
AcDbVertex
100
AcDb2dVertex
 10
2.600022921588713
 20
5.453680172829737
 30
0.0
  0
VERTEX
  5
1C1
330
1BF
100
AcDbEntity
  8
_U+56FE_U+5C423
 62
     3
420
    65280
370
    25
100
AcDbVertex
100
AcDb2dVertex
 10
2.249457964441704
 20
4.923112485429884
 30
0.0
  0
SEQEND
  5
1C2
330
1BF
100
AcDbEntity
  8
_U+56FE_U+5C423
 62
     3
420
    65280
370
    25
  0
ENDBLK
  5
1BE
330
1BB
100
AcDbEntity
  8
0
100
AcDbBlockEnd
  0
BLOCK
  5
1C5
330
1C3
100
AcDbEntity
  8
0
100
AcDbBlockBegin
  2
block 48
 70
     0
 10
0.0
 20
0.0
 30
0.0
  3
block 48
  1

  0
MTEXT
  5
1C7
330
1C3
100
AcDbEntity
  8
_U+56FE_U+5C423
 62
     3
420
    65280
100
AcDbMText
 10
2.624396218193902
 20
5.491348266601562
 30
0.0
 40
0.0930618764559428
 41
0.0
 46
0.0
 71
     7
 72
     1
  1
\fMyriad Pro|b0|i0|c0|p34;\W1;R95 [R3 3/4]
 73
     1
 44
1.0
  0
ENDBLK
  5
1C6
330
1C3
100
AcDbEntity
  8
0
100
AcDbBlockEnd
  0
BLOCK
  5
1CA
330
1C8
100
AcDbEntity
  8
0
100
AcDbBlockBegin
  2
block 49
 70
     0
 10
0.0
 20
0.0
 30
0.0
  3
block 49
  1

  0
POLYLINE
  5
1CC
330
1C8
100
AcDbEntity
  8
_U+56FE_U+5C423
370
     0
100
AcDb2dPolyline
 66
     1
 10
0.0
 20
0.0
 30
0.0
  0
VERTEX
  5
1CD
330
1CC
100
AcDbEntity
  8
_U+56FE_U+5C423
370
     0
100
AcDbVertex
100
AcDb2dVertex
 10
2.236517289139265
 20
4.931662850238354
 30
0.0
  0
VERTEX
  5
1CE
330
1CC
100
AcDbEntity
  8
_U+56FE_U+5C423
370
     0
100
AcDbVertex
100
AcDb2dVertex
 10
2.198155775590926
 20
4.845468433615275
 30
0.0
  0
VERTEX
  5
1CF
330
1CC
100
AcDbEntity
  8
_U+56FE_U+5C423
370
     0
100
AcDbVertex
100
AcDb2dVertex
 10
2.262398639744131
 20
4.914562120621414
 30
0.0
  0
VERTEX
  5
1D0
330
1CC
100
AcDbEntity
  8
_U+56FE_U+5C423
370
     0
100
AcDbVertex
100
AcDb2dVertex
 10
2.236517289139265
 20
4.931662850238354
 30
0.0
  0
SEQEND
  5
1D2
330
1CC
100
AcDbEntity
  8
_U+56FE_U+5C423
370
     0
  0
HATCH
  5
1D1
330
1C8
100
AcDbEntity
  8
_U+56FE_U+5C423
 62
     3
420
    65280
100
AcDbHatch
 10
0.0
 20
0.0
 30
0.0
210
0.0
220
0.0
230
1.0
  2
SOLID
 70
     1
 71
     0
 91
        1
 92
        1
 93
        3
 72
     1
 10
2.236517289139265
 20
4.931662850238354
 11
2.198155775590926
 21
4.845468433615275
 72
     1
 10
2.198155775590926
 20
4.845468433615275
 11
2.262398639744131
 21
4.914562120621414
 72
     1
 10
2.262398639744131
 20
4.914562120621414
 11
2.236517289139265
 21
4.931662850238354
 97
        0
 75
     2
 76
     1
 98
        0
  0
ENDBLK
  5
1CB
330
1C8
100
AcDbEntity
  8
0
100
AcDbBlockEnd
  0
BLOCK
  5
1D5
330
1D3
100
AcDbEntity
  8
0
100
AcDbBlockBegin
  2
block 50
 70
     0
 10
0.0
 20
0.0
 30
0.0
  3
block 50
  1

  0
POLYLINE
  5
1D7
330
1D3
100
AcDbEntity
  8
_U+56FE_U+5C423
 62
     3
420
    65280
370
    25
100
AcDb2dPolyline
 66
     1
 10
0.0
 20
0.0
 30
0.0
  0
VERTEX
  5
1D8
330
1D7
100
AcDbEntity
  8
_U+56FE_U+5C423
 62
     3
420
    65280
370
    25
100
AcDbVertex
100
AcDb2dVertex
 10
4.754980937195569
 20
5.421333553188282
 30
0.0
  0
VERTEX
  5
1D9
330
1D7
100
AcDbEntity
  8
_U+56FE_U+5C423
 62
     3
420
    65280
370
    25
100
AcDbVertex
100
AcDb2dVertex
 10
5.80968223496825
 20
5.421333553188282
 30
0.0
  0
SEQEND
  5
1DA
330
1D7
100
AcDbEntity
  8
_U+56FE_U+5C423
 62
     3
420
    65280
370
    25
  0
ENDBLK
  5
1D6
330
1D3
100
AcDbEntity
  8
0
100
AcDbBlockEnd
  0
BLOCK
  5
1DD
330
1DB
100
AcDbEntity
  8
0
100
AcDbBlockBegin
  2
block 51
 70
     0
 10
0.0
 20
0.0
 30
0.0
  3
block 51
  1

  0
POLYLINE
  5
1DF
330
1DB
100
AcDbEntity
  8
_U+56FE_U+5C423
 62
     3
420
    65280
370
    25
100
AcDb2dPolyline
 66
     1
 10
0.0
 20
0.0
 30
0.0
  0
VERTEX
  5
1E0
330
1DF
100
AcDbEntity
  8
_U+56FE_U+5C423
 62
     3
420
    65280
370
    25
100
AcDbVertex
100
AcDb2dVertex
 10
5.80968223496825
 20
5.421333553188282
 30
0.0
  0
VERTEX
  5
1E1
330
1DF
100
AcDbEntity
  8
_U+56FE_U+5C423
 62
     3
420
    65280
370
    25
100
AcDbVertex
100
AcDb2dVertex
 10
6.247753003322814
 20
4.960365157302476
 30
0.0
  0
SEQEND
  5
1E2
330
1DF
100
AcDbEntity
  8
_U+56FE_U+5C423
 62
     3
420
    65280
370
    25
  0
ENDBLK
  5
1DE
330
1DB
100
AcDbEntity
  8
0
100
AcDbBlockEnd
  0
BLOCK
  5
1E5
330
1E3
100
AcDbEntity
  8
0
100
AcDbBlockBegin
  2
block 52
 70
     0
 10
0.0
 20
0.0
 30
0.0
  3
block 52
  1

  0
MTEXT
  5
1E7
330
1E3
100
AcDbEntity
  8
_U+56FE_U+5C423
 62
     3
420
    65280
100
AcDbMText
 10
4.748333825005425
 20
5.459001329210069
 30
0.0
 40
0.0930618764559428
 41
0.0
 46
0.0
 71
     7
 72
     1
  1
\fMyriad Pro|b0|i0|c0|p34;\W1;R85 [R3 3/8]
 73
     1
 44
1.0
  0
ENDBLK
  5
1E6
330
1E3
100
AcDbEntity
  8
0
100
AcDbBlockEnd
  0
BLOCK
  5
1EA
330
1E8
100
AcDbEntity
  8
0
100
AcDbBlockBegin
  2
block 53
 70
     0
 10
0.0
 20
0.0
 30
0.0
  3
block 53
  1

  0
POLYLINE
  5
1EC
330
1E8
100
AcDbEntity
  8
_U+56FE_U+5C423
370
     0
100
AcDb2dPolyline
 66
     1
 10
0.0
 20
0.0
 30
0.0
  0
VERTEX
  5
1ED
330
1EC
100
AcDbEntity
  8
_U+56FE_U+5C423
370
     0
100
AcDbVertex
100
AcDb2dVertex
 10
6.258996134929778
 20
4.971049810189192
 30
0.0
  0
VERTEX
  5
1EE
330
1EC
100
AcDbEntity
  8
_U+56FE_U+5C423
370
     0
100
AcDbVertex
100
AcDb2dVertex
 10
6.311860920642983
 20
4.892906367660644
 30
0.0
  0
VERTEX
  5
1EF
330
1EC
100
AcDbEntity
  8
_U+56FE_U+5C423
370
     0
100
AcDbVertex
100
AcDb2dVertex
 10
6.236509871715851
 20
4.949680504415785
 30
0.0
  0
VERTEX
  5
1F0
330
1EC
100
AcDbEntity
  8
_U+56FE_U+5C423
370
     0
100
AcDbVertex
100
AcDb2dVertex
 10
6.258996134929778
 20
4.971049810189192
 30
0.0
  0
SEQEND
  5
1F2
330
1EC
100
AcDbEntity
  8
_U+56FE_U+5C423
370
     0
  0
HATCH
  5
1F1
330
1E8
100
AcDbEntity
  8
_U+56FE_U+5C423
 62
     3
420
    65280
100
AcDbHatch
 10
0.0
 20
0.0
 30
0.0
210
0.0
220
0.0
230
1.0
  2
SOLID
 70
     1
 71
     0
 91
        1
 92
        1
 93
        3
 72
     1
 10
6.258996134929778
 20
4.971049810189192
 11
6.311860920642983
 21
4.892906367660644
 72
     1
 10
6.311860920642983
 20
4.892906367660644
 11
6.236509871715851
 21
4.949680504415785
 72
     1
 10
6.236509871715851
 20
4.949680504415785
 11
6.258996134929778
 21
4.971049810189192
 97
        0
 75
     2
 76
     1
 98
        0
  0
ENDBLK
  5
1EB
330
1E8
100
AcDbEntity
  8
0
100
AcDbBlockEnd
  0
BLOCK
  5
1F5
330
1F3
100
AcDbEntity
  8
0
100
AcDbBlockBegin
  2
block 54
 70
     0
 10
0.0
 20
0.0
 30
0.0
  3
block 54
  1

  0
POLYLINE
  5
1F7
330
1F3
100
AcDbEntity
  8
_U+56FE_U+5C423
 62
     3
420
    65280
370
    25
100
AcDb2dPolyline
 66
     1
 10
0.0
 20
0.0
 30
0.0
  0
VERTEX
  5
1F8
330
1F7
100
AcDbEntity
  8
_U+56FE_U+5C423
 62
     3
420
    65280
370
    25
100
AcDbVertex
100
AcDb2dVertex
 10
4.756120019886894
 20
6.52386620386825
 30
0.0
  0
VERTEX
  5
1F9
330
1F7
100
AcDbEntity
  8
_U+56FE_U+5C423
 62
     3
420
    65280
370
    25
100
AcDbVertex
100
AcDb2dVertex
 10
5.810821317659575
 20
6.52386620386825
 30
0.0
  0
SEQEND
  5
1FA
330
1F7
100
AcDbEntity
  8
_U+56FE_U+5C423
 62
     3
420
    65280
370
    25
  0
ENDBLK
  5
1F6
330
1F3
100
AcDbEntity
  8
0
100
AcDbBlockEnd
  0
BLOCK
  5
1FD
330
1FB
100
AcDbEntity
  8
0
100
AcDbBlockBegin
  2
block 55
 70
     0
 10
0.0
 20
0.0
 30
0.0
  3
block 55
  1

  0
POLYLINE
  5
1FF
330
1FB
100
AcDbEntity
  8
_U+56FE_U+5C423
 62
     3
420
    65280
370
    25
100
AcDb2dPolyline
 66
     1
 10
0.0
 20
0.0
 30
0.0
  0
VERTEX
  5
200
330
1FF
100
AcDbEntity
  8
_U+56FE_U+5C423
 62
     3
420
    65280
370
    25
100
AcDbVertex
100
AcDb2dVertex
 10
5.810821317659575
 20
6.52386620386825
 30
0.0
  0
VERTEX
  5
201
330
1FF
100
AcDbEntity
  8
_U+56FE_U+5C423
 62
     3
420
    65280
370
    25
100
AcDbVertex
100
AcDb2dVertex
 10
6.245299594449104
 20
6.988222195635672
 30
0.0
  0
SEQEND
  5
202
330
1FF
100
AcDbEntity
  8
_U+56FE_U+5C423
 62
     3
420
    65280
370
    25
  0
ENDBLK
  5
1FE
330
1FB
100
AcDbEntity
  8
0
100
AcDbBlockEnd
  0
BLOCK
  5
205
330
203
100
AcDbEntity
  8
0
100
AcDbBlockBegin
  2
block 56
 70
     0
 10
0.0
 20
0.0
 30
0.0
  3
block 56
  1

  0
MTEXT
  5
207
330
203
100
AcDbEntity
  8
_U+56FE_U+5C423
 62
     3
420
    65280
100
AcDbMText
 10
4.74947272406684
 20
6.561534033881293
 30
0.0
 40
0.0930618764559428
 41
0.0
 46
0.0
 71
     7
 72
     1
  1
\fMyriad Pro|b0|i0|c0|p34;\W1;R85 [R3 3/8]
 73
     1
 44
1.0
  0
ENDBLK
  5
206
330
203
100
AcDbEntity
  8
0
100
AcDbBlockEnd
  0
BLOCK
  5
20A
330
208
100
AcDbEntity
  8
0
100
AcDbBlockBegin
  2
block 57
 70
     0
 10
0.0
 20
0.0
 30
0.0
  3
block 57
  1

  0
POLYLINE
  5
20C
330
208
100
AcDbEntity
  8
_U+56FE_U+5C423
370
     0
100
AcDb2dPolyline
 66
     1
 10
0.0
 20
0.0
 30
0.0
  0
VERTEX
  5
20D
330
20C
100
AcDbEntity
  8
_U+56FE_U+5C423
370
     0
100
AcDbVertex
100
AcDb2dVertex
 10
6.233973838552351
 20
6.998819226776883
 30
0.0
  0
VERTEX
  5
20E
330
20C
100
AcDbEntity
  8
_U+56FE_U+5C423
370
     0
100
AcDbVertex
100
AcDb2dVertex
 10
6.30888178129635
 20
7.056176731016282
 30
0.0
  0
VERTEX
  5
20F
330
20C
100
AcDbEntity
  8
_U+56FE_U+5C423
370
     0
100
AcDbVertex
100
AcDb2dVertex
 10
6.256625350345884
 20
6.977625164494472
 30
0.0
  0
VERTEX
  5
210
330
20C
100
AcDbEntity
  8
_U+56FE_U+5C423
370
     0
100
AcDbVertex
100
AcDb2dVertex
 10
6.233973838552351
 20
6.998819226776883
 30
0.0
  0
SEQEND
  5
212
330
20C
100
AcDbEntity
  8
_U+56FE_U+5C423
370
     0
  0
HATCH
  5
211
330
208
100
AcDbEntity
  8
_U+56FE_U+5C423
 62
     3
420
    65280
100
AcDbHatch
 10
0.0
 20
0.0
 30
0.0
210
0.0
220
0.0
230
1.0
  2
SOLID
 70
     1
 71
     0
 91
        1
 92
        1
 93
        3
 72
     1
 10
6.233973838552351
 20
6.998819226776883
 11
6.30888178129635
 21
7.056176731016282
 72
     1
 10
6.30888178129635
 20
7.056176731016282
 11
6.256625350345884
 21
6.977625164494472
 72
     1
 10
6.256625350345884
 20
6.977625164494472
 11
6.233973838552351
 21
6.998819226776883
 97
        0
 75
     2
 76
     1
 98
        0
  0
ENDBLK
  5
20B
330
208
100
AcDbEntity
  8
0
100
AcDbBlockEnd
  0
BLOCK
  5
215
330
213
100
AcDbEntity
  8
0
100
AcDbBlockBegin
  2
block 58
 70
     0
 10
0.0
 20
0.0
 30
0.0
  3
block 58
  1

  0
POLYLINE
  5
217
330
213
100
AcDbEntity
  8
_U+56FE_U+5C423
 62
     3
420
    65280
370
    25
100
AcDb2dPolyline
 66
     1
 10
0.0
 20
0.0
 30
0.0
  0
VERTEX
  5
218
330
217
100
AcDbEntity
  8
_U+56FE_U+5C423
 62
     3
420
    65280
370
    25
100
AcDbVertex
100
AcDb2dVertex
 10
2.889654516584882
 20
5.868224262370593
 30
0.0
  0
VERTEX
  5
219
330
217
100
AcDbEntity
  8
_U+56FE_U+5C423
 62
     3
420
    65280
370
    25
100
AcDbVertex
100
AcDb2dVertex
 10
3.928845501155024
 20
5.868224262370593
 30
0.0
  0
SEQEND
  5
21A
330
217
100
AcDbEntity
  8
_U+56FE_U+5C423
 62
     3
420
    65280
370
    25
  0
ENDBLK
  5
216
330
213
100
AcDbEntity
  8
0
100
AcDbBlockEnd
  0
BLOCK
  5
21D
330
21B
100
AcDbEntity
  8
0
100
AcDbBlockBegin
  2
block 59
 70
     0
 10
0.0
 20
0.0
 30
0.0
  3
block 59
  1

  0
POLYLINE
  5
21F
330
21B
100
AcDbEntity
  8
_U+56FE_U+5C423
 62
     3
420
    65280
370
    25
100
AcDb2dPolyline
 66
     1
 10
0.0
 20
0.0
 30
0.0
  0
VERTEX
  5
220
330
21F
100
AcDbEntity
  8
_U+56FE_U+5C423
 62
     3
420
    65280
370
    25
100
AcDbVertex
100
AcDb2dVertex
 10
3.928845501155024
 20
5.868224262370593
 30
0.0
  0
VERTEX
  5
221
330
21F
100
AcDbEntity
  8
_U+56FE_U+5C423
 62
     3
420
    65280
370
    25
100
AcDbVertex
100
AcDb2dVertex
 10
4.43765858214758
 20
7.138741377369936
 30
0.0
  0
SEQEND
  5
222
330
21F
100
AcDbEntity
  8
_U+56FE_U+5C423
 62
     3
420
    65280
370
    25
  0
ENDBLK
  5
21E
330
21B
100
AcDbEntity
  8
0
100
AcDbBlockEnd
  0
BLOCK
  5
225
330
223
100
AcDbEntity
  8
0
100
AcDbBlockBegin
  2
block 60
 70
     0
 10
0.0
 20
0.0
 30
0.0
  3
block 60
  1

  0
MTEXT
  5
227
330
223
100
AcDbEntity
  8
_U+56FE_U+5C423
 62
     3
420
    65280
100
AcDbMText
 10
2.875251981947157
 20
5.905892266167535
 30
0.0
 40
0.0930618764559428
 41
0.0
 46
0.0
 71
     7
 72
     1
  1
\fMyriad Pro|b0|i0|c0|p34;\W1;R60 [R2 3/8]
 73
     1
 44
1.0
  0
ENDBLK
  5
226
330
223
100
AcDbEntity
  8
0
100
AcDbBlockEnd
  0
BLOCK
  5
22A
330
228
100
AcDbEntity
  8
0
100
AcDbBlockBegin
  2
block 61
 70
     0
 10
0.0
 20
0.0
 30
0.0
  3
block 61
  1

  0
POLYLINE
  5
22C
330
228
100
AcDbEntity
  8
_U+56FE_U+5C423
 62
     3
420
    65280
370
    25
100
AcDb2dPolyline
 66
     1
 10
0.0
 20
0.0
 30
0.0
  0
VERTEX
  5
22D
330
22C
100
AcDbEntity
  8
_U+56FE_U+5C423
 62
     3
420
    65280
370
    25
100
AcDbVertex
100
AcDb2dVertex
 10
4.610647821017665
 20
7.570699196273481
 30
0.0
  0
VERTEX
  5
22E
330
22C
100
AcDbEntity
  8
_U+56FE_U+5C423
 62
     3
420
    65280
370
    25
100
AcDbVertex
100
AcDb2dVertex
 10
4.472256429921597
 20
7.225132941150642
 30
0.0
  0
SEQEND
  5
22F
330
22C
100
AcDbEntity
  8
_U+56FE_U+5C423
 62
     3
420
    65280
370
    25
  0
ENDBLK
  5
22B
330
228
100
AcDbEntity
  8
0
100
AcDbBlockEnd
  0
BLOCK
  5
232
330
230
100
AcDbEntity
  8
0
100
AcDbBlockBegin
  2
block 62
 70
     0
 10
0.0
 20
0.0
 30
0.0
  3
block 62
  1

  0
POLYLINE
  5
234
330
230
100
AcDbEntity
  8
_U+56FE_U+5C423
370
     0
100
AcDb2dPolyline
 66
     1
 10
0.0
 20
0.0
 30
0.0
  0
VERTEX
  5
235
330
234
100
AcDbEntity
  8
_U+56FE_U+5C423
370
     0
100
AcDbVertex
100
AcDb2dVertex
 10
4.423259988184125
 20
7.144507685332264
 30
0.0
  0
VERTEX
  5
236
330
234
100
AcDbEntity
  8
_U+56FE_U+5C423
370
     0
100
AcDbVertex
100
AcDb2dVertex
 10
4.472256429921597
 20
7.225132941150642
 30
0.0
  0
VERTEX
  5
237
330
234
100
AcDbEntity
  8
_U+56FE_U+5C423
370
     0
100
AcDbVertex
100
AcDb2dVertex
 10
4.452057176111035
 20
7.132975069407595
 30
0.0
  0
VERTEX
  5
238
330
234
100
AcDbEntity
  8
_U+56FE_U+5C423
370
     0
100
AcDbVertex
100
AcDb2dVertex
 10
4.423259988184125
 20
7.144507685332264
 30
0.0
  0
SEQEND
  5
23A
330
234
100
AcDbEntity
  8
_U+56FE_U+5C423
370
     0
  0
HATCH
  5
239
330
230
100
AcDbEntity
  8
_U+56FE_U+5C423
 62
     3
420
    65280
100
AcDbHatch
 10
0.0
 20
0.0
 30
0.0
210
0.0
220
0.0
230
1.0
  2
SOLID
 70
     1
 71
     0
 91
        1
 92
        1
 93
        3
 72
     1
 10
4.423259988184125
 20
7.144507685332264
 11
4.472256429921597
 21
7.225132941150642
 72
     1
 10
4.472256429921597
 20
7.225132941150642
 11
4.452057176111035
 21
7.132975069407595
 72
     1
 10
4.452057176111035
 20
7.132975069407595
 11
4.423259988184125
 21
7.144507685332264
 97
        0
 75
     2
 76
     1
 98
        0
  0
ENDBLK
  5
233
330
230
100
AcDbEntity
  8
0
100
AcDbBlockEnd
  0
BLOCK
  5
23D
330
23B
100
AcDbEntity
  8
0
100
AcDbBlockBegin
  2
block 63
 70
     0
 10
0.0
 20
0.0
 30
0.0
  3
block 63
  1

  0
POLYLINE
  5
23F
330
23B
100
AcDbEntity
  8
_U+56FE_U+5C423
 62
     3
420
    65280
370
    25
100
AcDb2dPolyline
 66
     1
 10
0.0
 20
0.0
 30
0.0
  0
VERTEX
  5
240
330
23F
100
AcDbEntity
  8
_U+56FE_U+5C423
 62
     3
420
    65280
370
    25
100
AcDbVertex
100
AcDb2dVertex
 10
3.51026814392181
 20
6.311937686034955
 30
0.0
  0
VERTEX
  5
241
330
23F
100
AcDbEntity
  8
_U+56FE_U+5C423
 62
     3
420
    65280
370
    25
100
AcDbVertex
100
AcDb2dVertex
 10
4.189525108791397
 20
7.313055428378586
 30
0.0
  0
SEQEND
  5
242
330
23F
100
AcDbEntity
  8
_U+56FE_U+5C423
 62
     3
420
    65280
370
    25
  0
ENDBLK
  5
23E
330
23B
100
AcDbEntity
  8
0
100
AcDbBlockEnd
  0
BLOCK
  5
245
330
243
100
AcDbEntity
  8
0
100
AcDbBlockBegin
  2
block 64
 70
     0
 10
0.0
 20
0.0
 30
0.0
  3
block 64
  1

  0
MTEXT
  5
247
330
243
100
AcDbEntity
  8
_U+56FE_U+5C423
 62
     3
420
    65280
100
AcDbMText
 10
3.47661249174012
 20
6.329417828056547
 30
0.0
 40
0.0930618776432216
 41
0.0
 46
0.0
 71
     7
 72
     1
  1
\fMyriad Pro|b0|i0|c0|p34;\W1;R155 [R6 1/8]
 11
0.5614601302041677
 21
0.827503789834898
 31
0.0
 73
     1
 44
1.0
  0
ENDBLK
  5
246
330
243
100
AcDbEntity
  8
0
100
AcDbBlockEnd
  0
BLOCK
  5
24A
330
248
100
AcDbEntity
  8
0
100
AcDbBlockBegin
  2
block 65
 70
     0
 10
0.0
 20
0.0
 30
0.0
  3
block 65
  1

  0
POLYLINE
  5
24C
330
248
100
AcDbEntity
  8
_U+56FE_U+5C423
370
     0
100
AcDb2dPolyline
 66
     1
 10
0.0
 20
0.0
 30
0.0
  0
VERTEX
  5
24D
330
24C
100
AcDbEntity
  8
_U+56FE_U+5C423
370
     0
100
AcDbVertex
100
AcDb2dVertex
 10
4.176690265940831
 20
7.321763851005117
 30
0.0
  0
VERTEX
  5
24E
330
24C
100
AcDbEntity
  8
_U+56FE_U+5C423
370
     0
100
AcDbVertex
100
AcDb2dVertex
 10
4.241775644550595
 20
7.390064485481944
 30
0.0
  0
VERTEX
  5
24F
330
24C
100
AcDbEntity
  8
_U+56FE_U+5C423
370
     0
100
AcDbVertex
100
AcDb2dVertex
 10
4.202359951641951
 20
7.304347005752056
 30
0.0
  0
VERTEX
  5
250
330
24C
100
AcDbEntity
  8
_U+56FE_U+5C423
370
     0
100
AcDbVertex
100
AcDb2dVertex
 10
4.176690265940831
 20
7.321763851005117
 30
0.0
  0
SEQEND
  5
252
330
24C
100
AcDbEntity
  8
_U+56FE_U+5C423
370
     0
  0
HATCH
  5
251
330
248
100
AcDbEntity
  8
_U+56FE_U+5C423
 62
     3
420
    65280
100
AcDbHatch
 10
0.0
 20
0.0
 30
0.0
210
0.0
220
0.0
230
1.0
  2
SOLID
 70
     1
 71
     0
 91
        1
 92
        1
 93
        3
 72
     1
 10
4.176690265940831
 20
7.321763851005117
 11
4.241775644550595
 21
7.390064485481944
 72
     1
 10
4.241775644550595
 20
7.390064485481944
 11
4.202359951641951
 21
7.304347005752056
 72
     1
 10
4.202359951641951
 20
7.304347005752056
 11
4.176690265940831
 21
7.321763851005117
 97
        0
 75
     2
 76
     1
 98
        0
  0
ENDBLK
  5
24B
330
248
100
AcDbEntity
  8
0
100
AcDbBlockEnd
  0
BLOCK
  5
257
330
255
100
AcDbEntity
  8
0
100
AcDbBlockBegin
  2
block 66
 70
     0
 10
0.0
 20
0.0
 30
0.0
  3
block 66
  1

  0
SPLINE
  5
259
330
255
100
AcDbEntity
  8
_U+56FE_U+5C422
  6
AI-Linetype-1
 62
    22
420
 15540004
370
    35
100
AcDbSpline
210
0.0
220
0.0
230
1.0
 70
    11
 71
     3
 72
    38
 73
    34
 74
     0
 42
0.0000000001
 43
0.0000000001
 12
1.0
 22
0.0
 32
0.0
 13
1.0
 23
0.0
 33
0.0
 40
0.0
 40
0.0
 40
0.0
 40
0.0
 40
1.0
 40
1.0
 40
1.0
 40
2.0
 40
2.0
 40
2.0
 40
3.0
 40
3.0
 40
3.0
 40
4.0
 40
4.0
 40
4.0
 40
5.0
 40
5.0
 40
5.0
 40
6.0
 40
6.0
 40
6.0
 40
7.0
 40
7.0
 40
7.0
 40
8.0
 40
8.0
 40
8.0
 40
9.0
 40
9.0
 40
9.0
 40
10.0
 40
10.0
 40
10.0
 40
11.0
 40
11.0
 40
11.0
 40
11.0
 10
5.948582722495277
 20
4.685780940601161
 30
0.0
 10
5.948582722495277
 20
4.685780940601161
 30
0.0
 10
2.52306963831255
 20
4.685780940601161
 30
0.0
 10
2.52306963831255
 20
4.685780940601161
 30
0.0
 10
2.163293041544358
 20
4.685780940601161
 30
0.0
 10
1.871636483805888
 20
4.977437498339618
 30
0.0
 10
1.871636483805888
 20
5.337214095107811
 30
0.0
 10
1.871636483805888
 20
5.337214095107811
 30
0.0
 10
1.871636483805888
 20
6.594304228747255
 30
0.0
 10
1.871636483805888
 20
6.594304228747255
 30
0.0
 10
1.871636483805888
 20
7.071270764585607
 30
0.0
 10
2.201040205233224
 20
7.48503354230042
 30
0.0
 10
2.665871487453172
 20
7.591939834815914
 30
0.0
 10
3.082245641032942
 20
7.687701492270056
 30
0.0
 10
3.514925040687874
 20
7.687701485822635
 30
0.0
 10
3.931299150419805
 20
7.591939825387751
 30
0.0
 10
4.106386090764229
 20
7.551671675682528
 30
0.0
 10
4.267792061450033
 20
7.466033872207592
 30
0.0
 10
4.39930029094507
 20
7.343630599174364
 30
0.0
 10
4.456707256470231
 20
7.290198198007046
 30
0.0
 10
4.532222179896204
 20
7.260492932222708
 30
0.0
 10
4.610647821017665
 20
7.260492932222708
 30
0.0
 10
4.610647821017665
 20
7.260492932222721
 30
0.0
 10
5.948582722495277
 20
7.260492932222721
 30
0.0
 10
5.948582722495277
 20
7.260492932222721
 30
0.0
 10
6.262433788713578
 20
7.260492932222708
 30
0.0
 10
6.52123389686431
 20
7.014548170630127
 30
0.0
 10
6.537210478289428
 20
6.701104011947399
 30
0.0
 10
6.561931272154474
 20
6.2161072219612
 30
0.0
 10
6.561931264913381
 20
5.730166224490088
 30
0.0
 10
6.537210467441885
 20
5.245169648058536
 30
0.0
 10
6.521233891746533
 20
4.931725693660559
 30
0.0
 10
6.262433779930966
 20
4.685780935924413
 30
0.0
 10
5.948582722495277
 20
4.685780940601161
 30
0.0
  0
ENDBLK
  5
258
330
255
100
AcDbEntity
  8
0
100
AcDbBlockEnd
  0
BLOCK
  5
25D
330
25B
100
AcDbEntity
  8
0
100
AcDbBlockBegin
  2
block 67
 70
     0
 10
0.0
 20
0.0
 30
0.0
  3
block 67
  1

  0
SPLINE
  5
25F
330
25B
100
AcDbEntity
  8
_U+56FE_U+5C422
 62
     2
420
 16776960
370
    35
100
AcDbSpline
210
0.0
220
0.0
230
1.0
 70
    11
 71
     3
 72
    38
 73
    34
 74
     0
 42
0.0000000001
 43
0.0000000001
 12
1.0
 22
0.0
 32
0.0
 13
1.0
 23
0.0
 33
0.0
 40
0.0
 40
0.0
 40
0.0
 40
0.0
 40
1.0
 40
1.0
 40
1.0
 40
2.0
 40
2.0
 40
2.0
 40
3.0
 40
3.0
 40
3.0
 40
4.0
 40
4.0
 40
4.0
 40
5.0
 40
5.0
 40
5.0
 40
6.0
 40
6.0
 40
6.0
 40
7.0
 40
7.0
 40
7.0
 40
8.0
 40
8.0
 40
8.0
 40
9.0
 40
9.0
 40
9.0
 40
10.0
 40
10.0
 40
10.0
 40
11.0
 40
11.0
 40
11.0
 40
11.0
 10
5.948582722495277
 20
4.716801567006238
 30
0.0
 10
5.948582722495277
 20
4.716801567006238
 30
0.0
 10
2.52306963831255
 20
4.716801567006238
 30
0.0
 10
2.52306963831255
 20
4.716801567006238
 30
0.0
 10
2.180425260438079
 20
4.716801567006238
 30
0.0
 10
1.902657110210965
 20
4.994569717233339
 30
0.0
 10
1.902657110210965
 20
5.337214095107811
 30
0.0
 10
1.902657110210965
 20
5.337214095107811
 30
0.0
 10
1.902657110210965
 20
6.594304228747255
 30
0.0
 10
1.902657110210965
 20
6.594304228747255
 30
0.0
 10
1.902657110210965
 20
7.056817233196575
 30
0.0
 10
2.222078900685953
 20
7.458041744920024
 30
0.0
 10
2.672824386474998
 20
7.561708452813832
 30
0.0
 10
3.084622957950816
 20
7.656417781173596
 30
0.0
 10
3.512547638928216
 20
7.656417781173596
 30
0.0
 10
3.924346210404047
 20
7.561708452813832
 30
0.0
 10
4.094127525641245
 20
7.522660540926911
 30
0.0
 10
4.25064240630627
 20
7.439617822405769
 30
0.0
 10
4.378165537937826
 20
7.320923739464458
 30
0.0
 10
4.44131320001548
 20
7.262148098180394
 30
0.0
 10
4.524379615784053
 20
7.22947230581763
 30
0.0
 10
4.610647821017665
 20
7.22947230581763
 30
0.0
 10
4.610647821017665
 20
7.22947230581763
 30
0.0
 10
5.948582722495277
 20
7.22947230581763
 30
0.0
 10
5.948582722495277
 20
7.22947230581763
 30
0.0
 10
6.245915311544195
 20
7.229472305817618
 30
0.0
 10
6.491094361371197
 20
6.996472005361498
 30
0.0
 10
6.506230070089739
 20
6.699524907662079
 30
0.0
 10
6.530897236060405
 20
6.215580384174094
 30
0.0
 10
6.530897236060405
 20
5.73069348864975
 30
0.0
 10
6.506230070089764
 20
5.246748965161765
 30
0.0
 10
6.491094361371197
 20
4.949801867462358
 30
0.0
 10
6.245915311544195
 20
4.716801567006238
 30
0.0
 10
5.948582722495277
 20
4.716801567006238
 30
0.0
  0
ENDBLK
  5
25E
330
25B
100
AcDbEntity
  8
0
100
AcDbBlockEnd
  0
BLOCK
  5
262
330
260
100
AcDbEntity
  8
0
100
AcDbBlockBegin
  2
block 68
 70
     0
 10
0.0
 20
0.0
 30
0.0
  3
block 68
  1

  0
SPLINE
  5
264
330
260
100
AcDbEntity
  8
_U+56FE_U+5C422
  6
AI-Linetype-2
 62
    22
420
 15540004
370
    35
100
AcDbSpline
210
0.0
220
0.0
230
1.0
 70
    11
 71
     3
 72
    38
 73
    34
 74
     0
 42
0.0000000001
 43
0.0000000001
 12
1.0
 22
0.0
 32
0.0
 13
1.0
 23
0.0
 33
0.0
 40
0.0
 40
0.0
 40
0.0
 40
0.0
 40
1.0
 40
1.0
 40
1.0
 40
2.0
 40
2.0
 40
2.0
 40
3.0
 40
3.0
 40
3.0
 40
4.0
 40
4.0
 40
4.0
 40
5.0
 40
5.0
 40
5.0
 40
6.0
 40
6.0
 40
6.0
 40
7.0
 40
7.0
 40
7.0
 40
8.0
 40
8.0
 40
8.0
 40
9.0
 40
9.0
 40
9.0
 40
10.0
 40
10.0
 40
10.0
 40
11.0
 40
11.0
 40
11.0
 40
11.0
 10
5.948582722495277
 20
4.747822193411316
 30
0.0
 10
5.948582722495277
 20
4.747822193411316
 30
0.0
 10
2.52306963831255
 20
4.747822193411316
 30
0.0
 10
2.52306963831255
 20
4.747822193411316
 30
0.0
 10
2.1975574793318
 20
4.747822193411316
 30
0.0
 10
1.933677736616043
 20
5.01170193612706
 30
0.0
 10
1.933677736616043
 20
5.337214095107811
 30
0.0
 10
1.933677736616043
 20
5.337214095107811
 30
0.0
 10
1.933677736616043
 20
6.594304228747255
 30
0.0
 10
1.933677736616043
 20
6.594304228747255
 30
0.0
 10
1.933677736616043
 20
7.042363701807529
 30
0.0
 10
2.243117596138695
 20
7.431049947539627
 30
0.0
 10
2.679777285496824
 20
7.531477070811762
 30
0.0
 10
3.087000358778141
 20
7.625134076453706
 30
0.0
 10
3.510170321078022
 20
7.62513407014799
 30
0.0
 10
3.917393351475173
 20
7.531477061590799
 30
0.0
 10
4.08186896051825
 20
7.493649406171293
 30
0.0
 10
4.233492751162493
 20
7.413201772603934
 30
0.0
 10
4.357030784930556
 20
7.298216879754527
 30
0.0
 10
4.425919148576491
 20
7.234097995601082
 30
0.0
 10
4.516537057218835
 20
7.198451678010188
 30
0.0
 10
4.610647826564572
 20
7.198451679412553
 30
0.0
 10
4.610647821017665
 20
7.198451679412541
 30
0.0
 10
5.948582722495277
 20
7.198451679412541
 30
0.0
 10
5.948582722495277
 20
7.198451679412541
 30
0.0
 10
6.229396834374811
 20
7.198451679412541
 30
0.0
 10
6.460954825878085
 20
6.978395840092869
 30
0.0
 10
6.475249661890049
 20
6.697945803376746
 30
0.0
 10
6.499863203586856
 20
6.215053333200684
 30
0.0
 10
6.499863203586856
 20
5.731220539623134
 30
0.0
 10
6.475249661890049
 20
5.248328069447098
 30
0.0
 10
6.460954825878085
 20
4.967878032730974
 30
0.0
 10
6.229396834374811
 20
4.747822193411316
 30
0.0
 10
5.948582722495277
 20
4.747822193411316
 30
0.0
  0
ENDBLK
  5
263
330
260
100
AcDbEntity
  8
0
100
AcDbBlockEnd
  0
BLOCK
  5
269
330
267
100
AcDbEntity
  8
0
100
AcDbBlockBegin
  2
block 69
 70
     0
 10
0.0
 20
0.0
 30
0.0
  3
block 69
  1

  0
POLYLINE
  5
26B
330
267
100
AcDbEntity
  8
Defpoints
370
     0
100
AcDb2dPolyline
 66
     1
 10
0.0
 20
0.0
 30
0.0
  0
VERTEX
  5
26C
330
26B
100
AcDbEntity
  8
Defpoints
370
     0
100
AcDbVertex
100
AcDb2dVertex
 10
1.933677736616043
 20
5.965759161927533
 30
0.0
  0
VERTEX
  5
26D
330
26B
100
AcDbEntity
  8
Defpoints
370
     0
100
AcDbVertex
100
AcDb2dVertex
 10
1.933677736616043
 20
5.965759161927533
 30
0.0
  0
SEQEND
  5
26E
330
26B
100
AcDbEntity
  8
Defpoints
370
     0
  0
ENDBLK
  5
26A
330
267
100
AcDbEntity
  8
0
100
AcDbBlockEnd
  0
BLOCK
  5
271
330
26F
100
AcDbEntity
  8
0
100
AcDbBlockBegin
  2
block 70
 70
     0
 10
0.0
 20
0.0
 30
0.0
  3
block 70
  1

  0
POLYLINE
  5
273
330
26F
100
AcDbEntity
  8
Defpoints
370
     0
100
AcDb2dPolyline
 66
     1
 10
0.0
 20
0.0
 30
0.0
  0
VERTEX
  5
274
330
273
100
AcDbEntity
  8
Defpoints
370
     0
100
AcDbVertex
100
AcDb2dVertex
 10
6.493709818162642
 20
5.973136936411871
 30
0.0
  0
VERTEX
  5
275
330
273
100
AcDbEntity
  8
Defpoints
370
     0
100
AcDbVertex
100
AcDb2dVertex
 10
6.493709818162642
 20
5.973136936411871
 30
0.0
  0
SEQEND
  5
276
330
273
100
AcDbEntity
  8
Defpoints
370
     0
  0
ENDBLK
  5
272
330
26F
100
AcDbEntity
  8
0
100
AcDbBlockEnd
  0
BLOCK
  5
279
330
277
100
AcDbEntity
  8
0
100
AcDbBlockBegin
  2
block 71
 70
     0
 10
0.0
 20
0.0
 30
0.0
  3
block 71
  1

  0
POLYLINE
  5
27B
330
277
100
AcDbEntity
  8
Defpoints
370
     0
100
AcDb2dPolyline
 66
     1
 10
0.0
 20
0.0
 30
0.0
  0
VERTEX
  5
27C
330
27B
100
AcDbEntity
  8
Defpoints
370
     0
100
AcDbVertex
100
AcDb2dVertex
 10
6.493709818162642
 20
4.35960255978734
 30
0.0
  0
VERTEX
  5
27D
330
27B
100
AcDbEntity
  8
Defpoints
370
     0
100
AcDbVertex
100
AcDb2dVertex
 10
6.493709818162642
 20
4.35960255978734
 30
0.0
  0
SEQEND
  5
27E
330
27B
100
AcDbEntity
  8
Defpoints
370
     0
  0
ENDBLK
  5
27A
330
277
100
AcDbEntity
  8
0
100
AcDbBlockEnd
  0
BLOCK
  5
281
330
27F
100
AcDbEntity
  8
0
100
AcDbBlockBegin
  2
block 72
 70
     0
 10
0.0
 20
0.0
 30
0.0
  3
block 72
  1

  0
POLYLINE
  5
283
330
27F
100
AcDbEntity
  8
Defpoints
370
     0
100
AcDb2dPolyline
 66
     1
 10
0.0
 20
0.0
 30
0.0
  0
VERTEX
  5
284
330
283
100
AcDbEntity
  8
Defpoints
370
     0
100
AcDbVertex
100
AcDb2dVertex
 10
1.871636483805888
 20
5.965759161927533
 30
0.0
  0
VERTEX
  5
285
330
283
100
AcDbEntity
  8
Defpoints
370
     0
100
AcDbVertex
100
AcDb2dVertex
 10
1.871636483805888
 20
5.965759161927533
 30
0.0
  0
SEQEND
  5
286
330
283
100
AcDbEntity
  8
Defpoints
370
     0
  0
ENDBLK
  5
282
330
27F
100
AcDbEntity
  8
0
100
AcDbBlockEnd
  0
BLOCK
  5
289
330
287
100
AcDbEntity
  8
0
100
AcDbBlockBegin
  2
block 73
 70
     0
 10
0.0
 20
0.0
 30
0.0
  3
block 73
  1

  0
POLYLINE
  5
28B
330
287
100
AcDbEntity
  8
Defpoints
370
     0
100
AcDb2dPolyline
 66
     1
 10
0.0
 20
0.0
 30
0.0
  0
VERTEX
  5
28C
330
28B
100
AcDbEntity
  8
Defpoints
370
     0
100
AcDbVertex
100
AcDb2dVertex
 10
6.555751070972796
 20
5.973136936411922
 30
0.0
  0
VERTEX
  5
28D
330
28B
100
AcDbEntity
  8
Defpoints
370
     0
100
AcDbVertex
100
AcDb2dVertex
 10
6.555751070972796
 20
5.973136936411922
 30
0.0
  0
SEQEND
  5
28E
330
28B
100
AcDbEntity
  8
Defpoints
370
     0
  0
ENDBLK
  5
28A
330
287
100
AcDbEntity
  8
0
100
AcDbBlockEnd
  0
BLOCK
  5
291
330
28F
100
AcDbEntity
  8
0
100
AcDbBlockBegin
  2
block 74
 70
     0
 10
0.0
 20
0.0
 30
0.0
  3
block 74
  1

  0
POLYLINE
  5
293
330
28F
100
AcDbEntity
  8
Defpoints
370
     0
100
AcDb2dPolyline
 66
     1
 10
0.0
 20
0.0
 30
0.0
  0
VERTEX
  5
294
330
293
100
AcDbEntity
  8
Defpoints
370
     0
100
AcDbVertex
100
AcDb2dVertex
 10
6.555751070972796
 20
4.114871252167758
 30
0.0
  0
VERTEX
  5
295
330
293
100
AcDbEntity
  8
Defpoints
370
     0
100
AcDbVertex
100
AcDb2dVertex
 10
6.555751070972796
 20
4.114871252167758
 30
0.0
  0
SEQEND
  5
296
330
293
100
AcDbEntity
  8
Defpoints
370
     0
  0
ENDBLK
  5
292
330
28F
100
AcDbEntity
  8
0
100
AcDbBlockEnd
  0
BLOCK
  5
299
330
297
100
AcDbEntity
  8
0
100
AcDbBlockBegin
  2
block 75
 70
     0
 10
0.0
 20
0.0
 30
0.0
  3
block 75
  1

  0
POLYLINE
  5
29B
330
297
100
AcDbEntity
  8
Defpoints
370
     0
100
AcDb2dPolyline
 66
     1
 10
0.0
 20
0.0
 30
0.0
  0
VERTEX
  5
29C
330
29B
100
AcDbEntity
  8
Defpoints
370
     0
100
AcDbVertex
100
AcDb2dVertex
 10
3.298585298439523
 20
7.601719822678584
 30
0.0
  0
VERTEX
  5
29D
330
29B
100
AcDbEntity
  8
Defpoints
370
     0
100
AcDbVertex
100
AcDb2dVertex
 10
3.298585298439523
 20
7.601719822678584
 30
0.0
  0
SEQEND
  5
29E
330
29B
100
AcDbEntity
  8
Defpoints
370
     0
  0
ENDBLK
  5
29A
330
297
100
AcDbEntity
  8
0
100
AcDbBlockEnd
  0
BLOCK
  5
2A1
330
29F
100
AcDbEntity
  8
0
100
AcDbBlockBegin
  2
block 76
 70
     0
 10
0.0
 20
0.0
 30
0.0
  3
block 76
  1

  0
POLYLINE
  5
2A3
330
29F
100
AcDbEntity
  8
Defpoints
370
     0
100
AcDb2dPolyline
 66
     1
 10
0.0
 20
0.0
 30
0.0
  0
VERTEX
  5
2A4
330
2A3
100
AcDbEntity
  8
Defpoints
370
     0
100
AcDbVertex
100
AcDb2dVertex
 10
3.298585298439535
 20
4.747822193411316
 30
0.0
  0
VERTEX
  5
2A5
330
2A3
100
AcDbEntity
  8
Defpoints
370
     0
100
AcDbVertex
100
AcDb2dVertex
 10
3.298585298439535
 20
4.747822193411316
 30
0.0
  0
SEQEND
  5
2A6
330
2A3
100
AcDbEntity
  8
Defpoints
370
     0
  0
ENDBLK
  5
2A2
330
29F
100
AcDbEntity
  8
0
100
AcDbBlockEnd
  0
BLOCK
  5
2A9
330
2A7
100
AcDbEntity
  8
0
100
AcDbBlockBegin
  2
block 77
 70
     0
 10
0.0
 20
0.0
 30
0.0
  3
block 77
  1

  0
POLYLINE
  5
2AB
330
2A7
100
AcDbEntity
  8
Defpoints
370
     0
100
AcDb2dPolyline
 66
     1
 10
0.0
 20
0.0
 30
0.0
  0
VERTEX
  5
2AC
330
2AB
100
AcDbEntity
  8
Defpoints
370
     0
100
AcDbVertex
100
AcDb2dVertex
 10
1.619878745790313
 20
4.747822193411316
 30
0.0
  0
VERTEX
  5
2AD
330
2AB
100
AcDbEntity
  8
Defpoints
370
     0
100
AcDbVertex
100
AcDb2dVertex
 10
1.619878745790313
 20
4.747822193411316
 30
0.0
  0
SEQEND
  5
2AE
330
2AB
100
AcDbEntity
  8
Defpoints
370
     0
  0
ENDBLK
  5
2AA
330
2A7
100
AcDbEntity
  8
0
100
AcDbBlockEnd
  0
BLOCK
  5
2B1
330
2AF
100
AcDbEntity
  8
0
100
AcDbBlockBegin
  2
block 78
 70
     0
 10
0.0
 20
0.0
 30
0.0
  3
block 78
  1

  0
POLYLINE
  5
2B3
330
2AF
100
AcDbEntity
  8
Defpoints
370
     0
100
AcDb2dPolyline
 66
     1
 10
0.0
 20
0.0
 30
0.0
  0
VERTEX
  5
2B4
330
2B3
100
AcDbEntity
  8
Defpoints
370
     0
100
AcDbVertex
100
AcDb2dVertex
 10
3.298585298439523
 20
7.663761075488751
 30
0.0
  0
VERTEX
  5
2B5
330
2B3
100
AcDbEntity
  8
Defpoints
370
     0
100
AcDbVertex
100
AcDb2dVertex
 10
3.298585298439523
 20
7.663761075488751
 30
0.0
  0
SEQEND
  5
2B6
330
2B3
100
AcDbEntity
  8
Defpoints
370
     0
  0
ENDBLK
  5
2B2
330
2AF
100
AcDbEntity
  8
0
100
AcDbBlockEnd
  0
BLOCK
  5
2B9
330
2B7
100
AcDbEntity
  8
0
100
AcDbBlockBegin
  2
block 79
 70
     0
 10
0.0
 20
0.0
 30
0.0
  3
block 79
  1

  0
POLYLINE
  5
2BB
330
2B7
100
AcDbEntity
  8
Defpoints
370
     0
100
AcDb2dPolyline
 66
     1
 10
0.0
 20
0.0
 30
0.0
  0
VERTEX
  5
2BC
330
2BB
100
AcDbEntity
  8
Defpoints
370
     0
100
AcDbVertex
100
AcDb2dVertex
 10
3.298585298439535
 20
4.685780940601161
 30
0.0
  0
VERTEX
  5
2BD
330
2BB
100
AcDbEntity
  8
Defpoints
370
     0
100
AcDbVertex
100
AcDb2dVertex
 10
3.298585298439535
 20
4.685780940601161
 30
0.0
  0
SEQEND
  5
2BE
330
2BB
100
AcDbEntity
  8
Defpoints
370
     0
  0
ENDBLK
  5
2BA
330
2B7
100
AcDbEntity
  8
0
100
AcDbBlockEnd
  0
BLOCK
  5
2C1
330
2BF
100
AcDbEntity
  8
0
100
AcDbBlockBegin
  2
block 80
 70
     0
 10
0.0
 20
0.0
 30
0.0
  3
block 80
  1

  0
POLYLINE
  5
2C3
330
2BF
100
AcDbEntity
  8
Defpoints
370
     0
100
AcDb2dPolyline
 66
     1
 10
0.0
 20
0.0
 30
0.0
  0
VERTEX
  5
2C4
330
2C3
100
AcDbEntity
  8
Defpoints
370
     0
100
AcDbVertex
100
AcDb2dVertex
 10
1.290504807667263
 20
4.685780940601161
 30
0.0
  0
VERTEX
  5
2C5
330
2C3
100
AcDbEntity
  8
Defpoints
370
     0
100
AcDbVertex
100
AcDb2dVertex
 10
1.290504807667263
 20
4.685780940601161
 30
0.0
  0
SEQEND
  5
2C6
330
2C3
100
AcDbEntity
  8
Defpoints
370
     0
  0
ENDBLK
  5
2C2
330
2BF
100
AcDbEntity
  8
0
100
AcDbBlockEnd
  0
BLOCK
  5
2C9
330
2C7
100
AcDbEntity
  8
0
100
AcDbBlockBegin
  2
block 81
 70
     0
 10
0.0
 20
0.0
 30
0.0
  3
block 81
  1

  0
POLYLINE
  5
2CB
330
2C7
100
AcDbEntity
  8
Defpoints
370
     0
100
AcDb2dPolyline
 66
     1
 10
0.0
 20
0.0
 30
0.0
  0
VERTEX
  5
2CC
330
2CB
100
AcDbEntity
  8
Defpoints
370
     0
100
AcDbVertex
100
AcDb2dVertex
 10
5.279615271756484
 20
7.198451679412566
 30
0.0
  0
VERTEX
  5
2CD
330
2CB
100
AcDbEntity
  8
Defpoints
370
     0
100
AcDbVertex
100
AcDb2dVertex
 10
5.279615271756484
 20
7.198451679412566
 30
0.0
  0
SEQEND
  5
2CE
330
2CB
100
AcDbEntity
  8
Defpoints
370
     0
  0
ENDBLK
  5
2CA
330
2C7
100
AcDbEntity
  8
0
100
AcDbBlockEnd
  0
BLOCK
  5
2D1
330
2CF
100
AcDbEntity
  8
0
100
AcDbBlockBegin
  2
block 82
 70
     0
 10
0.0
 20
0.0
 30
0.0
  3
block 82
  1

  0
POLYLINE
  5
2D3
330
2CF
100
AcDbEntity
  8
Defpoints
370
     0
100
AcDb2dPolyline
 66
     1
 10
0.0
 20
0.0
 30
0.0
  0
VERTEX
  5
2D4
330
2D3
100
AcDbEntity
  8
Defpoints
370
     0
100
AcDbVertex
100
AcDb2dVertex
 10
5.279615271756484
 20
4.74782219341134
 30
0.0
  0
VERTEX
  5
2D5
330
2D3
100
AcDbEntity
  8
Defpoints
370
     0
100
AcDbVertex
100
AcDb2dVertex
 10
5.279615271756484
 20
4.74782219341134
 30
0.0
  0
SEQEND
  5
2D6
330
2D3
100
AcDbEntity
  8
Defpoints
370
     0
  0
ENDBLK
  5
2D2
330
2CF
100
AcDbEntity
  8
0
100
AcDbBlockEnd
  0
BLOCK
  5
2D9
330
2D7
100
AcDbEntity
  8
0
100
AcDbBlockBegin
  2
block 83
 70
     0
 10
0.0
 20
0.0
 30
0.0
  3
block 83
  1

  0
POLYLINE
  5
2DB
330
2D7
100
AcDbEntity
  8
Defpoints
370
     0
100
AcDb2dPolyline
 66
     1
 10
0.0
 20
0.0
 30
0.0
  0
VERTEX
  5
2DC
330
2DB
100
AcDbEntity
  8
Defpoints
370
     0
100
AcDbVertex
100
AcDb2dVertex
 10
6.913222417398401
 20
4.74782219341134
 30
0.0
  0
VERTEX
  5
2DD
330
2DB
100
AcDbEntity
  8
Defpoints
370
     0
100
AcDbVertex
100
AcDb2dVertex
 10
6.913222417398401
 20
4.74782219341134
 30
0.0
  0
SEQEND
  5
2DE
330
2DB
100
AcDbEntity
  8
Defpoints
370
     0
  0
ENDBLK
  5
2DA
330
2D7
100
AcDbEntity
  8
0
100
AcDbBlockEnd
  0
BLOCK
  5
2E1
330
2DF
100
AcDbEntity
  8
0
100
AcDbBlockBegin
  2
block 84
 70
     0
 10
0.0
 20
0.0
 30
0.0
  3
block 84
  1

  0
POLYLINE
  5
2E3
330
2DF
100
AcDbEntity
  8
Defpoints
370
     0
100
AcDb2dPolyline
 66
     1
 10
0.0
 20
0.0
 30
0.0
  0
VERTEX
  5
2E4
330
2E3
100
AcDbEntity
  8
Defpoints
370
     0
100
AcDbVertex
100
AcDb2dVertex
 10
5.279615271756484
 20
7.260492932222721
 30
0.0
  0
VERTEX
  5
2E5
330
2E3
100
AcDbEntity
  8
Defpoints
370
     0
100
AcDbVertex
100
AcDb2dVertex
 10
5.279615271756484
 20
7.260492932222721
 30
0.0
  0
SEQEND
  5
2E6
330
2E3
100
AcDbEntity
  8
Defpoints
370
     0
  0
ENDBLK
  5
2E2
330
2DF
100
AcDbEntity
  8
0
100
AcDbBlockEnd
  0
BLOCK
  5
2E9
330
2E7
100
AcDbEntity
  8
0
100
AcDbBlockBegin
  2
block 85
 70
     0
 10
0.0
 20
0.0
 30
0.0
  3
block 85
  1

  0
POLYLINE
  5
2EB
330
2E7
100
AcDbEntity
  8
Defpoints
370
     0
100
AcDb2dPolyline
 66
     1
 10
0.0
 20
0.0
 30
0.0
  0
VERTEX
  5
2EC
330
2EB
100
AcDbEntity
  8
Defpoints
370
     0
100
AcDbVertex
100
AcDb2dVertex
 10
5.279615271756484
 20
4.685780940601161
 30
0.0
  0
VERTEX
  5
2ED
330
2EB
100
AcDbEntity
  8
Defpoints
370
     0
100
AcDbVertex
100
AcDb2dVertex
 10
5.279615271756484
 20
4.685780940601161
 30
0.0
  0
SEQEND
  5
2EE
330
2EB
100
AcDbEntity
  8
Defpoints
370
     0
  0
ENDBLK
  5
2EA
330
2E7
100
AcDbEntity
  8
0
100
AcDbBlockEnd
  0
BLOCK
  5
2F1
330
2EF
100
AcDbEntity
  8
0
100
AcDbBlockBegin
  2
block 86
 70
     0
 10
0.0
 20
0.0
 30
0.0
  3
block 86
  1

  0
POLYLINE
  5
2F3
330
2EF
100
AcDbEntity
  8
Defpoints
370
     0
100
AcDb2dPolyline
 66
     1
 10
0.0
 20
0.0
 30
0.0
  0
VERTEX
  5
2F4
330
2F3
100
AcDbEntity
  8
Defpoints
370
     0
100
AcDbVertex
100
AcDb2dVertex
 10
7.224276968740519
 20
4.685780940601161
 30
0.0
  0
VERTEX
  5
2F5
330
2F3
100
AcDbEntity
  8
Defpoints
370
     0
100
AcDbVertex
100
AcDb2dVertex
 10
7.224276968740519
 20
4.685780940601161
 30
0.0
  0
SEQEND
  5
2F6
330
2F3
100
AcDbEntity
  8
Defpoints
370
     0
  0
ENDBLK
  5
2F2
330
2EF
100
AcDbEntity
  8
0
100
AcDbBlockEnd
  0
BLOCK
  5
2F9
330
2F7
100
AcDbEntity
  8
0
100
AcDbBlockBegin
  2
block 87
 70
     0
 10
0.0
 20
0.0
 30
0.0
  3
block 87
  1

  0
POLYLINE
  5
2FB
330
2F7
100
AcDbEntity
  8
Defpoints
370
     0
100
AcDb2dPolyline
 66
     1
 10
0.0
 20
0.0
 30
0.0
  0
VERTEX
  5
2FC
330
2FB
100
AcDbEntity
  8
Defpoints
370
     0
100
AcDbVertex
100
AcDb2dVertex
 10
2.257157372501802
 20
7.313680669217698
 30
0.0
  0
VERTEX
  5
2FD
330
2FB
100
AcDbEntity
  8
Defpoints
370
     0
100
AcDbVertex
100
AcDb2dVertex
 10
2.257157372501802
 20
7.313680669217698
 30
0.0
  0
SEQEND
  5
2FE
330
2FB
100
AcDbEntity
  8
Defpoints
370
     0
  0
ENDBLK
  5
2FA
330
2F7
100
AcDbEntity
  8
0
100
AcDbBlockEnd
  0
BLOCK
  5
301
330
2FF
100
AcDbEntity
  8
0
100
AcDbBlockBegin
  2
block 88
 70
     0
 10
0.0
 20
0.0
 30
0.0
  3
block 88
  1

  0
POLYLINE
  5
303
330
2FF
100
AcDbEntity
  8
Defpoints
370
     0
100
AcDb2dPolyline
 66
     1
 10
0.0
 20
0.0
 30
0.0
  0
VERTEX
  5
304
330
303
100
AcDbEntity
  8
Defpoints
370
     0
100
AcDbVertex
100
AcDb2dVertex
 10
2.895317155173479
 20
6.594304228747243
 30
0.0
  0
VERTEX
  5
305
330
303
100
AcDbEntity
  8
Defpoints
370
     0
100
AcDbVertex
100
AcDb2dVertex
 10
2.895317155173479
 20
6.594304228747243
 30
0.0
  0
SEQEND
  5
306
330
303
100
AcDbEntity
  8
Defpoints
370
     0
  0
ENDBLK
  5
302
330
2FF
100
AcDbEntity
  8
0
100
AcDbBlockEnd
  0
BLOCK
  5
309
330
307
100
AcDbEntity
  8
0
100
AcDbBlockBegin
  2
block 89
 70
     0
 10
0.0
 20
0.0
 30
0.0
  3
block 89
  1

  0
POLYLINE
  5
30B
330
307
100
AcDbEntity
  8
Defpoints
370
     0
100
AcDb2dPolyline
 66
     1
 10
0.0
 20
0.0
 30
0.0
  0
VERTEX
  5
30C
330
30B
100
AcDbEntity
  8
Defpoints
370
     0
100
AcDbVertex
100
AcDb2dVertex
 10
3.451262060711972
 20
7.597495007275698
 30
0.0
  0
VERTEX
  5
30D
330
30B
100
AcDbEntity
  8
Defpoints
370
     0
100
AcDbVertex
100
AcDb2dVertex
 10
3.451262060711972
 20
7.597495007275698
 30
0.0
  0
SEQEND
  5
30E
330
30B
100
AcDbEntity
  8
Defpoints
370
     0
  0
ENDBLK
  5
30A
330
307
100
AcDbEntity
  8
0
100
AcDbBlockEnd
  0
BLOCK
  5
311
330
30F
100
AcDbEntity
  8
0
100
AcDbBlockBegin
  2
block 90
 70
     0
 10
0.0
 20
0.0
 30
0.0
  3
block 90
  1

  0
POLYLINE
  5
313
330
30F
100
AcDbEntity
  8
Defpoints
370
     0
100
AcDb2dPolyline
 66
     1
 10
0.0
 20
0.0
 30
0.0
  0
VERTEX
  5
314
330
313
100
AcDbEntity
  8
Defpoints
370
     0
100
AcDbVertex
100
AcDb2dVertex
 10
3.298585298439497
 20
4.840884072626523
 30
0.0
  0
VERTEX
  5
315
330
313
100
AcDbEntity
  8
Defpoints
370
     0
100
AcDbVertex
100
AcDb2dVertex
 10
3.298585298439497
 20
4.840884072626523
 30
0.0
  0
SEQEND
  5
316
330
313
100
AcDbEntity
  8
Defpoints
370
     0
  0
ENDBLK
  5
312
330
30F
100
AcDbEntity
  8
0
100
AcDbBlockEnd
  0
BLOCK
  5
319
330
317
100
AcDbEntity
  8
0
100
AcDbBlockBegin
  2
block 91
 70
     0
 10
0.0
 20
0.0
 30
0.0
  3
block 91
  1

  0
POLYLINE
  5
31B
330
317
100
AcDbEntity
  8
Defpoints
370
     0
100
AcDb2dPolyline
 66
     1
 10
0.0
 20
0.0
 30
0.0
  0
VERTEX
  5
31C
330
31B
100
AcDbEntity
  8
Defpoints
370
     0
100
AcDbVertex
100
AcDb2dVertex
 10
2.198155775590926
 20
4.845468433615275
 30
0.0
  0
VERTEX
  5
31D
330
31B
100
AcDbEntity
  8
Defpoints
370
     0
100
AcDbVertex
100
AcDb2dVertex
 10
2.198155775590926
 20
4.845468433615275
 30
0.0
  0
SEQEND
  5
31E
330
31B
100
AcDbEntity
  8
Defpoints
370
     0
  0
ENDBLK
  5
31A
330
317
100
AcDbEntity
  8
0
100
AcDbBlockEnd
  0
BLOCK
  5
321
330
31F
100
AcDbEntity
  8
0
100
AcDbBlockBegin
  2
block 92
 70
     0
 10
0.0
 20
0.0
 30
0.0
  3
block 92
  1

  0
POLYLINE
  5
323
330
31F
100
AcDbEntity
  8
Defpoints
370
     0
100
AcDb2dPolyline
 66
     1
 10
0.0
 20
0.0
 30
0.0
  0
VERTEX
  5
324
330
323
100
AcDbEntity
  8
Defpoints
370
     0
100
AcDbVertex
100
AcDb2dVertex
 10
2.523069638312538
 20
5.337214095107811
 30
0.0
  0
VERTEX
  5
325
330
323
100
AcDbEntity
  8
Defpoints
370
     0
100
AcDbVertex
100
AcDb2dVertex
 10
2.523069638312538
 20
5.337214095107811
 30
0.0
  0
SEQEND
  5
326
330
323
100
AcDbEntity
  8
Defpoints
370
     0
  0
ENDBLK
  5
322
330
31F
100
AcDbEntity
  8
0
100
AcDbBlockEnd
  0
BLOCK
  5
329
330
327
100
AcDbEntity
  8
0
100
AcDbBlockBegin
  2
block 93
 70
     0
 10
0.0
 20
0.0
 30
0.0
  3
block 93
  1

  0
POLYLINE
  5
32B
330
327
100
AcDbEntity
  8
Defpoints
370
     0
100
AcDb2dPolyline
 66
     1
 10
0.0
 20
0.0
 30
0.0
  0
VERTEX
  5
32C
330
32B
100
AcDbEntity
  8
Defpoints
370
     0
100
AcDbVertex
100
AcDb2dVertex
 10
6.311860920642983
 20
4.892906367660644
 30
0.0
  0
VERTEX
  5
32D
330
32B
100
AcDbEntity
  8
Defpoints
370
     0
100
AcDbVertex
100
AcDb2dVertex
 10
6.311860920642983
 20
4.892906367660644
 30
0.0
  0
SEQEND
  5
32E
330
32B
100
AcDbEntity
  8
Defpoints
370
     0
  0
ENDBLK
  5
32A
330
327
100
AcDbEntity
  8
0
100
AcDbBlockEnd
  0
BLOCK
  5
331
330
32F
100
AcDbEntity
  8
0
100
AcDbBlockBegin
  2
block 94
 70
     0
 10
0.0
 20
0.0
 30
0.0
  3
block 94
  1

  0
POLYLINE
  5
333
330
32F
100
AcDbEntity
  8
Defpoints
370
     0
100
AcDb2dPolyline
 66
     1
 10
0.0
 20
0.0
 30
0.0
  0
VERTEX
  5
334
330
333
100
AcDbEntity
  8
Defpoints
370
     0
100
AcDbVertex
100
AcDb2dVertex
 10
5.948582722495303
 20
5.275172842297656
 30
0.0
  0
VERTEX
  5
335
330
333
100
AcDbEntity
  8
Defpoints
370
     0
100
AcDbVertex
100
AcDb2dVertex
 10
5.948582722495303
 20
5.275172842297656
 30
0.0
  0
SEQEND
  5
336
330
333
100
AcDbEntity
  8
Defpoints
370
     0
  0
ENDBLK
  5
332
330
32F
100
AcDbEntity
  8
0
100
AcDbBlockEnd
  0
BLOCK
  5
339
330
337
100
AcDbEntity
  8
0
100
AcDbBlockBegin
  2
block 95
 70
     0
 10
0.0
 20
0.0
 30
0.0
  3
block 95
  1

  0
POLYLINE
  5
33B
330
337
100
AcDbEntity
  8
Defpoints
370
     0
100
AcDb2dPolyline
 66
     1
 10
0.0
 20
0.0
 30
0.0
  0
VERTEX
  5
33C
330
33B
100
AcDbEntity
  8
Defpoints
370
     0
100
AcDbVertex
100
AcDb2dVertex
 10
6.30888178129635
 20
7.056176731016282
 30
0.0
  0
VERTEX
  5
33D
330
33B
100
AcDbEntity
  8
Defpoints
370
     0
100
AcDbVertex
100
AcDb2dVertex
 10
6.30888178129635
 20
7.056176731016282
 30
0.0
  0
SEQEND
  5
33E
330
33B
100
AcDbEntity
  8
Defpoints
370
     0
  0
ENDBLK
  5
33A
330
337
100
AcDbEntity
  8
0
100
AcDbBlockEnd
  0
BLOCK
  5
341
330
33F
100
AcDbEntity
  8
0
100
AcDbBlockBegin
  2
block 96
 70
     0
 10
0.0
 20
0.0
 30
0.0
  3
block 96
  1

  0
POLYLINE
  5
343
330
33F
100
AcDbEntity
  8
Defpoints
370
     0
100
AcDb2dPolyline
 66
     1
 10
0.0
 20
0.0
 30
0.0
  0
VERTEX
  5
344
330
343
100
AcDbEntity
  8
Defpoints
370
     0
100
AcDbVertex
100
AcDb2dVertex
 10
5.948582722495277
 20
6.671101030526225
 30
0.0
  0
VERTEX
  5
345
330
343
100
AcDbEntity
  8
Defpoints
370
     0
100
AcDbVertex
100
AcDb2dVertex
 10
5.948582722495277
 20
6.671101030526225
 30
0.0
  0
SEQEND
  5
346
330
343
100
AcDbEntity
  8
Defpoints
370
     0
  0
ENDBLK
  5
342
330
33F
100
AcDbEntity
  8
0
100
AcDbBlockEnd
  0
BLOCK
  5
349
330
347
100
AcDbEntity
  8
0
100
AcDbBlockBegin
  2
block 97
 70
     0
 10
0.0
 20
0.0
 30
0.0
  3
block 97
  1

  0
POLYLINE
  5
34B
330
347
100
AcDbEntity
  8
Defpoints
370
     0
100
AcDb2dPolyline
 66
     1
 10
0.0
 20
0.0
 30
0.0
  0
VERTEX
  5
34C
330
34B
100
AcDbEntity
  8
Defpoints
370
     0
100
AcDbVertex
100
AcDb2dVertex
 10
4.472256429921597
 20
7.225132941150642
 30
0.0
  0
VERTEX
  5
34D
330
34B
100
AcDbEntity
  8
Defpoints
370
     0
100
AcDbVertex
100
AcDb2dVertex
 10
4.472256429921597
 20
7.225132941150642
 30
0.0
  0
SEQEND
  5
34E
330
34B
100
AcDbEntity
  8
Defpoints
370
     0
  0
ENDBLK
  5
34A
330
347
100
AcDbEntity
  8
0
100
AcDbBlockEnd
  0
BLOCK
  5
351
330
34F
100
AcDbEntity
  8
0
100
AcDbBlockBegin
  2
block 98
 70
     0
 10
0.0
 20
0.0
 30
0.0
  3
block 98
  1

  0
POLYLINE
  5
353
330
34F
100
AcDbEntity
  8
Defpoints
370
     0
100
AcDb2dPolyline
 66
     1
 10
0.0
 20
0.0
 30
0.0
  0
VERTEX
  5
354
330
353
100
AcDbEntity
  8
Defpoints
370
     0
100
AcDbVertex
100
AcDb2dVertex
 10
4.610647821017665
 20
7.570699196273481
 30
0.0
  0
VERTEX
  5
355
330
353
100
AcDbEntity
  8
Defpoints
370
     0
100
AcDbVertex
100
AcDb2dVertex
 10
4.610647821017665
 20
7.570699196273481
 30
0.0
  0
SEQEND
  5
356
330
353
100
AcDbEntity
  8
Defpoints
370
     0
  0
ENDBLK
  5
352
330
34F
100
AcDbEntity
  8
0
100
AcDbBlockEnd
  0
BLOCK
  5
359
330
357
100
AcDbEntity
  8
0
100
AcDbBlockBegin
  2
block 99
 70
     0
 10
0.0
 20
0.0
 30
0.0
  3
block 99
  1

  0
POLYLINE
  5
35B
330
357
100
AcDbEntity
  8
Defpoints
370
     0
100
AcDb2dPolyline
 66
     1
 10
0.0
 20
0.0
 30
0.0
  0
VERTEX
  5
35C
330
35B
100
AcDbEntity
  8
Defpoints
370
     0
100
AcDbVertex
100
AcDb2dVertex
 10
4.241775644550595
 20
7.390064485481944
 30
0.0
  0
VERTEX
  5
35D
330
35B
100
AcDbEntity
  8
Defpoints
370
     0
100
AcDbVertex
100
AcDb2dVertex
 10
4.241775644550595
 20
7.390064485481944
 30
0.0
  0
SEQEND
  5
35E
330
35B
100
AcDbEntity
  8
Defpoints
370
     0
  0
ENDBLK
  5
35A
330
357
100
AcDbEntity
  8
0
100
AcDbBlockEnd
  0
BLOCK
  5
361
330
35F
100
AcDbEntity
  8
0
100
AcDbBlockBegin
  2
block 100
 70
     0
 10
0.0
 20
0.0
 30
0.0
  3
block 100
  1

  0
POLYLINE
  5
363
330
35F
100
AcDbEntity
  8
Defpoints
370
     0
100
AcDb2dPolyline
 66
     1
 10
0.0
 20
0.0
 30
0.0
  0
VERTEX
  5
364
330
363
100
AcDbEntity
  8
Defpoints
370
     0
100
AcDbVertex
100
AcDb2dVertex
 10
3.701853441705553
 20
6.594304228747268
 30
0.0
  0
VERTEX
  5
365
330
363
100
AcDbEntity
  8
Defpoints
370
     0
100
AcDbVertex
100
AcDb2dVertex
 10
3.701853441705553
 20
6.594304228747268
 30
0.0
  0
SEQEND
  5
366
330
363
100
AcDbEntity
  8
Defpoints
370
     0
  0
ENDBLK
  5
362
330
35F
100
AcDbEntity
  8
0
100
AcDbBlockEnd
  0
ENDSEC
  0
SECTION
  2
ENTITIES
  0
INSERT
  5
42
330
1F
100
AcDbEntity
  8
_U+56FE_U+5C423
100
AcDbBlockReference
  2
block 2
 10
0.0
 20
0.0
 30
0.0
  0
INSERT
  5
47
330
1F
100
AcDbEntity
  8
_U+56FE_U+5C423
100
AcDbBlockReference
  2
block 3
 10
0.0
 20
0.0
 30
0.0
  0
INSERT
  5
52
330
1F
100
AcDbEntity
  8
_U+56FE_U+5C423
100
AcDbBlockReference
  2
block 4
 10
0.0
 20
0.0
 30
0.0
  0
INSERT
  5
5A
330
1F
100
AcDbEntity
  8
_U+56FE_U+5C423
100
AcDbBlockReference
  2
block 5
 10
0.0
 20
0.0
 30
0.0
  0
INSERT
  5
62
330
1F
100
AcDbEntity
  8
_U+56FE_U+5C423
100
AcDbBlockReference
  2
block 6
 10
0.0
 20
0.0
 30
0.0
  0
INSERT
  5
6A
330
1F
100
AcDbEntity
  8
_U+56FE_U+5C423
100
AcDbBlockReference
  2
block 7
 10
0.0
 20
0.0
 30
0.0
  0
INSERT
  5
75
330
1F
100
AcDbEntity
  8
_U+56FE_U+5C423
100
AcDbBlockReference
  2
block 8
 10
0.0
 20
0.0
 30
0.0
  0
INSERT
  5
80
330
1F
100
AcDbEntity
  8
_U+56FE_U+5C423
100
AcDbBlockReference
  2
block 9
 10
0.0
 20
0.0
 30
0.0
  0
INSERT
  5
85
330
1F
100
AcDbEntity
  8
_U+56FE_U+5C423
100
AcDbBlockReference
  2
block 10
 10
0.0
 20
0.0
 30
0.0
  0
INSERT
  5
8D
330
1F
100
AcDbEntity
  8
_U+56FE_U+5C423
100
AcDbBlockReference
  2
block 11
 10
0.0
 20
0.0
 30
0.0
  0
INSERT
  5
95
330
1F
100
AcDbEntity
  8
_U+56FE_U+5C423
100
AcDbBlockReference
  2
block 12
 10
0.0
 20
0.0
 30
0.0
  0
INSERT
  5
9D
330
1F
100
AcDbEntity
  8
_U+56FE_U+5C423
100
AcDbBlockReference
  2
block 13
 10
0.0
 20
0.0
 30
0.0
  0
INSERT
  5
A8
330
1F
100
AcDbEntity
  8
_U+56FE_U+5C423
100
AcDbBlockReference
  2
block 14
 10
0.0
 20
0.0
 30
0.0
  0
INSERT
  5
B3
330
1F
100
AcDbEntity
  8
_U+56FE_U+5C423
100
AcDbBlockReference
  2
block 15
 10
0.0
 20
0.0
 30
0.0
  0
INSERT
  5
B8
330
1F
100
AcDbEntity
  8
_U+56FE_U+5C423
100
AcDbBlockReference
  2
block 16
 10
0.0
 20
0.0
 30
0.0
  0
INSERT
  5
C0
330
1F
100
AcDbEntity
  8
_U+56FE_U+5C423
100
AcDbBlockReference
  2
block 17
 10
0.0
 20
0.0
 30
0.0
  0
INSERT
  5
C8
330
1F
100
AcDbEntity
  8
_U+56FE_U+5C423
100
AcDbBlockReference
  2
block 18
 10
0.0
 20
0.0
 30
0.0
  0
INSERT
  5
D0
330
1F
100
AcDbEntity
  8
_U+56FE_U+5C423
100
AcDbBlockReference
  2
block 19
 10
0.0
 20
0.0
 30
0.0
  0
INSERT
  5
DB
330
1F
100
AcDbEntity
  8
_U+56FE_U+5C423
100
AcDbBlockReference
  2
block 20
 10
0.0
 20
0.0
 30
0.0
  0
INSERT
  5
E6
330
1F
100
AcDbEntity
  8
_U+56FE_U+5C423
100
AcDbBlockReference
  2
block 21
 10
0.0
 20
0.0
 30
0.0
  0
INSERT
  5
EB
330
1F
100
AcDbEntity
  8
_U+56FE_U+5C423
100
AcDbBlockReference
  2
block 22
 10
0.0
 20
0.0
 30
0.0
  0
INSERT
  5
F3
330
1F
100
AcDbEntity
  8
_U+56FE_U+5C423
100
AcDbBlockReference
  2
block 23
 10
0.0
 20
0.0
 30
0.0
  0
INSERT
  5
FB
330
1F
100
AcDbEntity
  8
_U+56FE_U+5C423
100
AcDbBlockReference
  2
block 24
 10
0.0
 20
0.0
 30
0.0
  0
INSERT
  5
103
330
1F
100
AcDbEntity
  8
_U+56FE_U+5C423
100
AcDbBlockReference
  2
block 25
 10
0.0
 20
0.0
 30
0.0
  0
INSERT
  5
10E
330
1F
100
AcDbEntity
  8
_U+56FE_U+5C423
100
AcDbBlockReference
  2
block 26
 10
0.0
 20
0.0
 30
0.0
  0
INSERT
  5
119
330
1F
100
AcDbEntity
  8
_U+56FE_U+5C423
100
AcDbBlockReference
  2
block 27
 10
0.0
 20
0.0
 30
0.0
  0
INSERT
  5
11E
330
1F
100
AcDbEntity
  8
_U+56FE_U+5C423
100
AcDbBlockReference
  2
block 28
 10
0.0
 20
0.0
 30
0.0
  0
INSERT
  5
126
330
1F
100
AcDbEntity
  8
_U+56FE_U+5C423
100
AcDbBlockReference
  2
block 29
 10
0.0
 20
0.0
 30
0.0
  0
INSERT
  5
12E
330
1F
100
AcDbEntity
  8
_U+56FE_U+5C423
100
AcDbBlockReference
  2
block 30
 10
0.0
 20
0.0
 30
0.0
  0
INSERT
  5
136
330
1F
100
AcDbEntity
  8
_U+56FE_U+5C423
100
AcDbBlockReference
  2
block 31
 10
0.0
 20
0.0
 30
0.0
  0
INSERT
  5
141
330
1F
100
AcDbEntity
  8
_U+56FE_U+5C423
100
AcDbBlockReference
  2
block 32
 10
0.0
 20
0.0
 30
0.0
  0
INSERT
  5
14C
330
1F
100
AcDbEntity
  8
_U+56FE_U+5C423
100
AcDbBlockReference
  2
block 33
 10
0.0
 20
0.0
 30
0.0
  0
INSERT
  5
151
330
1F
100
AcDbEntity
  8
_U+56FE_U+5C423
100
AcDbBlockReference
  2
block 34
 10
0.0
 20
0.0
 30
0.0
  0
INSERT
  5
159
330
1F
100
AcDbEntity
  8
_U+56FE_U+5C423
100
AcDbBlockReference
  2
block 35
 10
0.0
 20
0.0
 30
0.0
  0
INSERT
  5
161
330
1F
100
AcDbEntity
  8
_U+56FE_U+5C423
100
AcDbBlockReference
  2
block 36
 10
0.0
 20
0.0
 30
0.0
  0
INSERT
  5
169
330
1F
100
AcDbEntity
  8
_U+56FE_U+5C423
100
AcDbBlockReference
  2
block 37
 10
0.0
 20
0.0
 30
0.0
  0
INSERT
  5
174
330
1F
100
AcDbEntity
  8
_U+56FE_U+5C423
100
AcDbBlockReference
  2
block 38
 10
0.0
 20
0.0
 30
0.0
  0
INSERT
  5
17F
330
1F
100
AcDbEntity
  8
_U+56FE_U+5C423
100
AcDbBlockReference
  2
block 39
 10
0.0
 20
0.0
 30
0.0
  0
INSERT
  5
184
330
1F
100
AcDbEntity
  8
_U+56FE_U+5C423
100
AcDbBlockReference
  2
block 40
 10
0.0
 20
0.0
 30
0.0
  0
INSERT
  5
18C
330
1F
100
AcDbEntity
  8
_U+56FE_U+5C423
100
AcDbBlockReference
  2
block 41
 10
0.0
 20
0.0
 30
0.0
  0
INSERT
  5
191
330
1F
100
AcDbEntity
  8
_U+56FE_U+5C423
100
AcDbBlockReference
  2
block 42
 10
0.0
 20
0.0
 30
0.0
  0
INSERT
  5
19C
330
1F
100
AcDbEntity
  8
_U+56FE_U+5C423
100
AcDbBlockReference
  2
block 43
 10
0.0
 20
0.0
 30
0.0
  0
INSERT
  5
1A4
330
1F
100
AcDbEntity
  8
_U+56FE_U+5C423
100
AcDbBlockReference
  2
block 44
 10
0.0
 20
0.0
 30
0.0
  0
INSERT
  5
1A9
330
1F
100
AcDbEntity
  8
_U+56FE_U+5C423
100
AcDbBlockReference
  2
block 45
 10
0.0
 20
0.0
 30
0.0
  0
INSERT
  5
1B4
330
1F
100
AcDbEntity
  8
_U+56FE_U+5C423
100
AcDbBlockReference
  2
block 46
 10
0.0
 20
0.0
 30
0.0
  0
INSERT
  5
1BC
330
1F
100
AcDbEntity
  8
_U+56FE_U+5C423
100
AcDbBlockReference
  2
block 47
 10
0.0
 20
0.0
 30
0.0
  0
INSERT
  5
1C4
330
1F
100
AcDbEntity
  8
_U+56FE_U+5C423
100
AcDbBlockReference
  2
block 48
 10
0.0
 20
0.0
 30
0.0
  0
INSERT
  5
1C9
330
1F
100
AcDbEntity
  8
_U+56FE_U+5C423
100
AcDbBlockReference
  2
block 49
 10
0.0
 20
0.0
 30
0.0
  0
INSERT
  5
1D4
330
1F
100
AcDbEntity
  8
_U+56FE_U+5C423
100
AcDbBlockReference
  2
block 50
 10
0.0
 20
0.0
 30
0.0
  0
INSERT
  5
1DC
330
1F
100
AcDbEntity
  8
_U+56FE_U+5C423
100
AcDbBlockReference
  2
block 51
 10
0.0
 20
0.0
 30
0.0
  0
INSERT
  5
1E4
330
1F
100
AcDbEntity
  8
_U+56FE_U+5C423
100
AcDbBlockReference
  2
block 52
 10
0.0
 20
0.0
 30
0.0
  0
INSERT
  5
1E9
330
1F
100
AcDbEntity
  8
_U+56FE_U+5C423
100
AcDbBlockReference
  2
block 53
 10
0.0
 20
0.0
 30
0.0
  0
INSERT
  5
1F4
330
1F
100
AcDbEntity
  8
_U+56FE_U+5C423
100
AcDbBlockReference
  2
block 54
 10
0.0
 20
0.0
 30
0.0
  0
INSERT
  5
1FC
330
1F
100
AcDbEntity
  8
_U+56FE_U+5C423
100
AcDbBlockReference
  2
block 55
 10
0.0
 20
0.0
 30
0.0
  0
INSERT
  5
204
330
1F
100
AcDbEntity
  8
_U+56FE_U+5C423
100
AcDbBlockReference
  2
block 56
 10
0.0
 20
0.0
 30
0.0
  0
INSERT
  5
209
330
1F
100
AcDbEntity
  8
_U+56FE_U+5C423
100
AcDbBlockReference
  2
block 57
 10
0.0
 20
0.0
 30
0.0
  0
INSERT
  5
214
330
1F
100
AcDbEntity
  8
_U+56FE_U+5C423
100
AcDbBlockReference
  2
block 58
 10
0.0
 20
0.0
 30
0.0
  0
INSERT
  5
21C
330
1F
100
AcDbEntity
  8
_U+56FE_U+5C423
100
AcDbBlockReference
  2
block 59
 10
0.0
 20
0.0
 30
0.0
  0
INSERT
  5
224
330
1F
100
AcDbEntity
  8
_U+56FE_U+5C423
100
AcDbBlockReference
  2
block 60
 10
0.0
 20
0.0
 30
0.0
  0
INSERT
  5
229
330
1F
100
AcDbEntity
  8
_U+56FE_U+5C423
100
AcDbBlockReference
  2
block 61
 10
0.0
 20
0.0
 30
0.0
  0
INSERT
  5
231
330
1F
100
AcDbEntity
  8
_U+56FE_U+5C423
100
AcDbBlockReference
  2
block 62
 10
0.0
 20
0.0
 30
0.0
  0
INSERT
  5
23C
330
1F
100
AcDbEntity
  8
_U+56FE_U+5C423
100
AcDbBlockReference
  2
block 63
 10
0.0
 20
0.0
 30
0.0
  0
INSERT
  5
244
330
1F
100
AcDbEntity
  8
_U+56FE_U+5C423
100
AcDbBlockReference
  2
block 64
 10
0.0
 20
0.0
 30
0.0
  0
INSERT
  5
249
330
1F
100
AcDbEntity
  8
_U+56FE_U+5C423
100
AcDbBlockReference
  2
block 65
 10
0.0
 20
0.0
 30
0.0
  0
MTEXT
  5
253
330
1F
100
AcDbEntity
  8
_U+56FE_U+5C423
 62
     7
420
 16777215
100
AcDbMText
 10
7.923211839463975
 20
2.753628995683458
 30
0.0
 40
0.118
 41
0.0
 46
0.0
 71
     7
 72
     1
  1
\fMyriad Pro|b0|i0|c0|p34;\W1;Bosco
 73
     1
 44
1.0
  0
INSERT
  5
256
330
1F
100
AcDbEntity
  8
_U+56FE_U+5C422
100
AcDbBlockReference
  2
block 66
 10
0.0
 20
0.0
 30
0.0
  0
INSERT
  5
25C
330
1F
100
AcDbEntity
  8
_U+56FE_U+5C422
100
AcDbBlockReference
  2
block 67
 10
0.0
 20
0.0
 30
0.0
  0
INSERT
  5
261
330
1F
100
AcDbEntity
  8
_U+56FE_U+5C422
100
AcDbBlockReference
  2
block 68
 10
0.0
 20
0.0
 30
0.0
  0
INSERT
  5
268
330
1F
100
AcDbEntity
  8
Defpoints
100
AcDbBlockReference
  2
block 69
 10
0.0
 20
0.0
 30
0.0
  0
INSERT
  5
270
330
1F
100
AcDbEntity
  8
Defpoints
100
AcDbBlockReference
  2
block 70
 10
0.0
 20
0.0
 30
0.0
  0
INSERT
  5
278
330
1F
100
AcDbEntity
  8
Defpoints
100
AcDbBlockReference
  2
block 71
 10
0.0
 20
0.0
 30
0.0
  0
INSERT
  5
280
330
1F
100
AcDbEntity
  8
Defpoints
100
AcDbBlockReference
  2
block 72
 10
0.0
 20
0.0
 30
0.0
  0
INSERT
  5
288
330
1F
100
AcDbEntity
  8
Defpoints
100
AcDbBlockReference
  2
block 73
 10
0.0
 20
0.0
 30
0.0
  0
INSERT
  5
290
330
1F
100
AcDbEntity
  8
Defpoints
100
AcDbBlockReference
  2
block 74
 10
0.0
 20
0.0
 30
0.0
  0
INSERT
  5
298
330
1F
100
AcDbEntity
  8
Defpoints
100
AcDbBlockReference
  2
block 75
 10
0.0
 20
0.0
 30
0.0
  0
INSERT
  5
2A0
330
1F
100
AcDbEntity
  8
Defpoints
100
AcDbBlockReference
  2
block 76
 10
0.0
 20
0.0
 30
0.0
  0
INSERT
  5
2A8
330
1F
100
AcDbEntity
  8
Defpoints
100
AcDbBlockReference
  2
block 77
 10
0.0
 20
0.0
 30
0.0
  0
INSERT
  5
2B0
330
1F
100
AcDbEntity
  8
Defpoints
100
AcDbBlockReference
  2
block 78
 10
0.0
 20
0.0
 30
0.0
  0
INSERT
  5
2B8
330
1F
100
AcDbEntity
  8
Defpoints
100
AcDbBlockReference
  2
block 79
 10
0.0
 20
0.0
 30
0.0
  0
INSERT
  5
2C0
330
1F
100
AcDbEntity
  8
Defpoints
100
AcDbBlockReference
  2
block 80
 10
0.0
 20
0.0
 30
0.0
  0
INSERT
  5
2C8
330
1F
100
AcDbEntity
  8
Defpoints
100
AcDbBlockReference
  2
block 81
 10
0.0
 20
0.0
 30
0.0
  0
INSERT
  5
2D0
330
1F
100
AcDbEntity
  8
Defpoints
100
AcDbBlockReference
  2
block 82
 10
0.0
 20
0.0
 30
0.0
  0
INSERT
  5
2D8
330
1F
100
AcDbEntity
  8
Defpoints
100
AcDbBlockReference
  2
block 83
 10
0.0
 20
0.0
 30
0.0
  0
INSERT
  5
2E0
330
1F
100
AcDbEntity
  8
Defpoints
100
AcDbBlockReference
  2
block 84
 10
0.0
 20
0.0
 30
0.0
  0
INSERT
  5
2E8
330
1F
100
AcDbEntity
  8
Defpoints
100
AcDbBlockReference
  2
block 85
 10
0.0
 20
0.0
 30
0.0
  0
INSERT
  5
2F0
330
1F
100
AcDbEntity
  8
Defpoints
100
AcDbBlockReference
  2
block 86
 10
0.0
 20
0.0
 30
0.0
  0
INSERT
  5
2F8
330
1F
100
AcDbEntity
  8
Defpoints
100
AcDbBlockReference
  2
block 87
 10
0.0
 20
0.0
 30
0.0
  0
INSERT
  5
300
330
1F
100
AcDbEntity
  8
Defpoints
100
AcDbBlockReference
  2
block 88
 10
0.0
 20
0.0
 30
0.0
  0
INSERT
  5
308
330
1F
100
AcDbEntity
  8
Defpoints
100
AcDbBlockReference
  2
block 89
 10
0.0
 20
0.0
 30
0.0
  0
INSERT
  5
310
330
1F
100
AcDbEntity
  8
Defpoints
100
AcDbBlockReference
  2
block 90
 10
0.0
 20
0.0
 30
0.0
  0
INSERT
  5
318
330
1F
100
AcDbEntity
  8
Defpoints
100
AcDbBlockReference
  2
block 91
 10
0.0
 20
0.0
 30
0.0
  0
INSERT
  5
320
330
1F
100
AcDbEntity
  8
Defpoints
100
AcDbBlockReference
  2
block 92
 10
0.0
 20
0.0
 30
0.0
  0
INSERT
  5
328
330
1F
100
AcDbEntity
  8
Defpoints
100
AcDbBlockReference
  2
block 93
 10
0.0
 20
0.0
 30
0.0
  0
INSERT
  5
330
330
1F
100
AcDbEntity
  8
Defpoints
100
AcDbBlockReference
  2
block 94
 10
0.0
 20
0.0
 30
0.0
  0
INSERT
  5
338
330
1F
100
AcDbEntity
  8
Defpoints
100
AcDbBlockReference
  2
block 95
 10
0.0
 20
0.0
 30
0.0
  0
INSERT
  5
340
330
1F
100
AcDbEntity
  8
Defpoints
100
AcDbBlockReference
  2
block 96
 10
0.0
 20
0.0
 30
0.0
  0
INSERT
  5
348
330
1F
100
AcDbEntity
  8
Defpoints
100
AcDbBlockReference
  2
block 97
 10
0.0
 20
0.0
 30
0.0
  0
INSERT
  5
350
330
1F
100
AcDbEntity
  8
Defpoints
100
AcDbBlockReference
  2
block 98
 10
0.0
 20
0.0
 30
0.0
  0
INSERT
  5
358
330
1F
100
AcDbEntity
  8
Defpoints
100
AcDbBlockReference
  2
block 99
 10
0.0
 20
0.0
 30
0.0
  0
INSERT
  5
360
330
1F
100
AcDbEntity
  8
Defpoints
100
AcDbBlockReference
  2
block 100
 10
0.0
 20
0.0
 30
0.0
  0
ENDSEC
  0
SECTION
  2
OBJECTS
  0
DICTIONARY
  5
C
330
0
100
AcDbDictionary
281
     1
  3
ACAD_GROUP
350
D
  3
ACAD_LAYOUT
350
1A
  3
ACAD_MATERIAL
350
3B
  3
ACAD_MLEADERSTYLE
350
368
  3
ACAD_MLINESTYLE
350
17
  3
ACAD_PLOTSETTINGS
350
19
  3
ACAD_PLOTSTYLENAME
350
E
  3
ACAD_TABLESTYLE
350
367
  3
ACAD_VISUALSTYLE
350
2A
  0
SUN
  5
3F
330
29
100
AcDbSun
 90
        1
290
     0
 63
     7
421
 16777215
 40
1.0
291
     1
 91
  2455826
 92
 54000000
292
     0
 70
     2
 71
   256
280
     1
  0
DICTIONARY
  5
D
102
{ACAD_REACTORS
330
C
102
}
330
C
100
AcDbDictionary
281
     1
  0
DICTIONARY
  5
1A
102
{ACAD_REACTORS
330
C
102
}
330
C
100
AcDbDictionary
281
     1
  3
Layout1
350
1E
  3
Layout2
350
26
  3
Model
350
22
  0
DICTIONARY
  5
3B
102
{ACAD_REACTORS
330
C
102
}
330
C
100
AcDbDictionary
281
     1
  3
ByBlock
350
3D
  3
ByLayer
350
3C
  3
Global
350
3E
  0
DICTIONARY
  5
368
102
{ACAD_REACTORS
330
C
102
}
330
C
100
AcDbDictionary
281
     1
  0
DICTIONARY
  5
17
102
{ACAD_REACTORS
330
C
102
}
330
C
100
AcDbDictionary
281
     1
  3
Standard
350
18
  0
DICTIONARY
  5
19
102
{ACAD_REACTORS
330
C
102
}
330
C
100
AcDbDictionary
281
     1
  0
ACDBDICTIONARYWDFLT
  5
E
102
{ACAD_REACTORS
330
C
102
}
330
C
100
AcDbDictionary
281
     1
  3
Normal
350
F
100
AcDbDictionaryWithDefault
340
F
  0
DICTIONARY
  5
367
102
{ACAD_REACTORS
330
C
102
}
330
C
100
AcDbDictionary
281
     1
  0
DICTIONARY
  5
2A
102
{ACAD_REACTORS
330
C
102
}
330
C
100
AcDbDictionary
281
     1
  3
2dWireframe
350
2F
  3
3D Hidden
350
31
  3
3dWireframe
350
30
  3
Basic
350
32
  3
Brighten
350
36
  3
ColorChange
350
3A
  3
Conceptual
350
34
  3
Dim
350
35
  3
Facepattern
350
39
  3
Flat
350
2B
  3
FlatWithEdges
350
2C
  3
Gouraud
350
2D
  3
GouraudWithEdges
350
2E
  3
Linepattern
350
38
  3
Realistic
350
33
  3
Thicken
350
37
  0
LAYOUT
  5
1E
102
{ACAD_REACTORS
330
1A
102
}
330
1A
100
AcDbPlotSettings
  1

  2
none_device
  4

  6

 40
0.0
 41
0.0
 42
0.0
 43
0.0
 44
0.0
 45
0.0
 46
0.0
 47
0.0
 48
0.0
 49
0.0
140
0.0
141
0.0
142
1.0
143
1.0
 70
   688
 72
     0
 73
     0
 74
     5
  7

 75
    16
 76
     0
 77
     2
 78
   300
147
1.0
148
0.0
149
0.0
100
AcDbLayout
  1
Layout1
 70
     1
 71
     1
 10
0.0
 20
0.0
 11
12.0
 21
9.0
 12
0.0
 22
0.0
 32
0.0
 14
1.000000000000000E+20
 24
1.000000000000000E+20
 34
1.000000000000000E+20
 15
-1.000000000000000E+20
 25
-1.000000000000000E+20
 35
-1.000000000000000E+20
146
0.0
 13
0.0
 23
0.0
 33
0.0
 16
1.0
 26
0.0
 36
0.0
 17
0.0
 27
1.0
 37
0.0
 76
     0
330
1B
  0
LAYOUT
  5
26
102
{ACAD_REACTORS
330
1A
102
}
330
1A
100
AcDbPlotSettings
  1

  2
none_device
  4

  6

 40
0.0
 41
0.0
 42
0.0
 43
0.0
 44
0.0
 45
0.0
 46
0.0
 47
0.0
 48
0.0
 49
0.0
140
0.0
141
0.0
142
1.0
143
1.0
 70
   688
 72
     0
 73
     0
 74
     5
  7

 75
    16
 76
     0
 77
     2
 78
   300
147
1.0
148
0.0
149
0.0
100
AcDbLayout
  1
Layout2
 70
     1
 71
     2
 10
0.0
 20
0.0
 11
0.0
 21
0.0
 12
0.0
 22
0.0
 32
0.0
 14
0.0
 24
0.0
 34
0.0
 15
0.0
 25
0.0
 35
0.0
146
0.0
 13
0.0
 23
0.0
 33
0.0
 16
1.0
 26
0.0
 36
0.0
 17
0.0
 27
1.0
 37
0.0
 76
     0
330
23
  0
LAYOUT
  5
22
102
{ACAD_REACTORS
330
1A
102
}
330
1A
100
AcDbPlotSettings
  1

  2
none_device
  4

  6

 40
0.0
 41
0.0
 42
0.0
 43
0.0
 44
0.0
 45
0.0
 46
0.0
 47
0.0
 48
0.0
 49
0.0
140
0.0
141
0.0
142
1.0
143
1.0
 70
  1712
 72
     0
 73
     0
 74
     0
  7

 75
     0
 76
     0
 77
     2
 78
   300
147
1.0
148
0.0
149
0.0
100
AcDbLayout
  1
Model
 70
     1
 71
     0
 10
0.0
 20
0.0
 11
12.0
 21
9.0
 12
0.0
 22
0.0
 32
0.0
 14
1.000000000000000E+20
 24
1.000000000000000E+20
 34
1.000000000000000E+20
 15
-1.000000000000000E+20
 25
-1.000000000000000E+20
 35
-1.000000000000000E+20
146
0.0
 13
0.0
 23
0.0
 33
0.0
 16
1.0
 26
0.0
 36
0.0
 17
0.0
 27
1.0
 37
0.0
 76
     0
330
1F
331
29
  0
MATERIAL
  5
3D
102
{ACAD_REACTORS
330
3B
102
}
330
3B
100
AcDbMaterial
  1
ByBlock
 72
     1
 94
      127
  0
MATERIAL
  5
3C
102
{ACAD_REACTORS
330
3B
102
}
330
3B
100
AcDbMaterial
  1
ByLayer
 72
     1
 94
      127
  0
MATERIAL
  5
3E
102
{ACAD_REACTORS
330
3B
102
}
330
3B
100
AcDbMaterial
  1
Global
 72
     1
 94
      127
  0
MLINESTYLE
  5
18
102
{ACAD_REACTORS
330
17
102
}
330
17
100
AcDbMlineStyle
  2
Standard
 70
     0
  3

 62
   256
 51
90.0
 52
90.0
 71
     2
 49
0.5
 62
   256
  6
BYLAYER
 49
-0.5
 62
   256
  6
BYLAYER
  0
ACDBPLACEHOLDER
  5
F
102
{ACAD_REACTORS
330
E
102
}
330
E
  0
VISUALSTYLE
  5
2F
102
{ACAD_REACTORS
330
2A
102
}
330
2A
100
AcDbVisualStyle
  2
2dWireframe
 70
     4
177
     2
291
     0
 71
     0
176
     1
 72
     2
176
     1
 73
     0
176
     1
 90
        0
176
     1
 40
-0.6
176
     1
 41
-30.0
176
     1
 62
     5
 63
     7
421
 16777215
176
     1
 74
     1
176
     1
 91
        4
176
     1
 64
     7
176
     1
 65
   257
176
     1
 75
     1
176
     1
175
     1
176
     1
 42
1.0
176
     1
 92
        0
176
     1
 66
   257
176
     1
 43
1.0
176
     1
 76
     1
176
     1
 77
     6
176
     1
 78
     2
176
     1
 67
     7
176
     1
 79
     5
176
     1
170
     0
176
     1
171
     0
176
     1
290
     0
176
     1
 93
        1
176
     1
 44
0.0
176
     1
173
     0
176
     1
  0
VISUALSTYLE
  5
31
102
{ACAD_REACTORS
330
2A
102
}
330
2A
100
AcDbVisualStyle
  2
3D Hidden
 70
     6
177
     2
291
     0
 71
     1
176
     1
 72
     2
176
     1
 73
     2
176
     1
 90
        0
176
     1
 40
-0.6
176
     1
 41
-30.0
176
     1
 62
     5
 63
     7
421
 16777215
176
     1
 74
     2
176
     1
 91
        2
176
     1
 64
     7
176
     1
 65
   257
176
     1
 75
     2
176
     1
175
     1
176
     1
 42
40.0
176
     1
 92
        0
176
     1
 66
   257
176
     1
 43
1.0
176
     1
 76
     1
176
     1
 77
     6
176
     1
 78
     2
176
     1
 67
     7
176
     1
 79
     3
176
     1
170
     0
176
     1
171
     0
176
     1
290
     0
176
     1
 93
        1
176
     1
 44
0.0
176
     1
173
     0
176
     1
  0
VISUALSTYLE
  5
30
102
{ACAD_REACTORS
330
2A
102
}
330
2A
100
AcDbVisualStyle
  2
3dWireframe
 70
     5
177
     2
291
     0
 71
     0
176
     1
 72
     2
176
     1
 73
     0
176
     1
 90
        0
176
     1
 40
-0.6
176
     1
 41
-30.0
176
     1
 62
     5
 63
     7
421
 16777215
176
     1
 74
     1
176
     1
 91
        4
176
     1
 64
     7
176
     1
 65
   257
176
     1
 75
     1
176
     1
175
     1
176
     1
 42
1.0
176
     1
 92
        0
176
     1
 66
   257
176
     1
 43
1.0
176
     1
 76
     1
176
     1
 77
     6
176
     1
 78
     2
176
     1
 67
     7
176
     1
 79
     5
176
     1
170
     0
176
     1
171
     0
176
     1
290
     0
176
     1
 93
        1
176
     1
 44
0.0
176
     1
173
     0
176
     1
  0
VISUALSTYLE
  5
32
102
{ACAD_REACTORS
330
2A
102
}
330
2A
100
AcDbVisualStyle
  2
Basic
 70
     7
177
     2
291
     1
 71
     1
176
     1
 72
     0
176
     1
 73
     1
176
     1
 90
        0
176
     1
 40
-0.6
176
     1
 41
-30.0
176
     1
 62
     5
 63
     7
421
 16777215
176
     1
 74
     0
176
     1
 91
        4
176
     1
 64
     7
176
     1
 65
   257
176
     1
 75
     1
176
     1
175
     1
176
     1
 42
1.0
176
     1
 92
        8
176
     1
 66
     7
176
     1
 43
1.0
176
     1
 76
     1
176
     1
 77
     6
176
     1
 78
     2
176
     1
 67
     7
176
     1
 79
     5
176
     1
170
     0
176
     1
171
     0
176
     1
290
     0
176
     1
 93
        1
176
     1
 44
0.0
176
     1
173
     0
176
     1
  0
VISUALSTYLE
  5
36
102
{ACAD_REACTORS
330
2A
102
}
330
2A
100
AcDbVisualStyle
  2
Brighten
 70
    12
177
     2
291
     1
 71
     2
176
     1
 72
     2
176
     1
 73
     0
176
     1
 90
        0
176
     1
 40
-0.6
176
     1
 41
-30.0
176
     1
 62
     5
 63
     7
421
 16777215
176
     1
 74
     1
176
     1
 91
        4
176
     1
 64
     7
176
     1
 65
   257
176
     1
 75
     1
176
     1
175
     1
176
     1
 42
1.0
176
     1
 92
        8
176
     1
 66
     7
176
     1
 43
1.0
176
     1
 76
     1
176
     1
 77
     6
176
     1
 78
     2
176
     1
 67
     7
176
     1
 79
     5
176
     1
170
     0
176
     1
171
     0
176
     1
290
     0
176
     1
 93
        1
176
     1
 44
50.0
176
     1
173
     0
176
     1
  0
VISUALSTYLE
  5
3A
102
{ACAD_REACTORS
330
2A
102
}
330
2A
100
AcDbVisualStyle
  2
ColorChange
 70
    16
177
     2
291
     1
 71
     2
176
     1
 72
     2
176
     1
 73
     3
176
     1
 90
        0
176
     1
 40
-0.6
176
     1
 41
-30.0
176
     1
 62
     5
 63
     8
421
  8421504
176
     1
 74
     1
176
     1
 91
        4
176
     1
 64
     7
176
     1
 65
   257
176
     1
 75
     1
176
     1
175
     1
176
     1
 42
1.0
176
     1
 92
        8
176
     1
 66
     8
424
  8421504
176
     1
 43
1.0
176
     1
 76
     1
176
     1
 77
     6
176
     1
 78
     2
176
     1
 67
     7
176
     1
 79
     5
176
     1
170
     0
176
     1
171
     0
176
     1
290
     0
176
     1
 93
        1
176
     1
 44
0.0
176
     1
173
     0
176
     1
  0
VISUALSTYLE
  5
34
102
{ACAD_REACTORS
330
2A
102
}
330
2A
100
AcDbVisualStyle
  2
Conceptual
 70
     9
177
     2
291
     0
 71
     3
176
     1
 72
     2
176
     1
 73
     0
176
     1
 90
        0
176
     1
 40
-0.6
176
     1
 41
-30.0
176
     1
 62
     5
 63
     7
421
 16777215
176
     1
 74
     2
176
     1
 91
        2
176
     1
 64
     7
176
     1
 65
   257
176
     1
 75
     1
176
     1
175
     1
176
     1
 42
40.0
176
     1
 92
        8
176
     1
 66
     7
176
     1
 43
1.0
176
     1
 76
     1
176
     1
 77
     6
176
     1
 78
     2
176
     1
 67
     7
176
     1
 79
     3
176
     1
170
     0
176
     1
171
     0
176
     1
290
     0
176
     1
 93
        1
176
     1
 44
0.0
176
     1
173
     0
176
     1
  0
VISUALSTYLE
  5
35
102
{ACAD_REACTORS
330
2A
102
}
330
2A
100
AcDbVisualStyle
  2
Dim
 70
    11
177
     2
291
     1
 71
     2
176
     1
 72
     2
176
     1
 73
     0
176
     1
 90
        0
176
     1
 40
-0.6
176
     1
 41
-30.0
176
     1
 62
     5
 63
     7
421
 16777215
176
     1
 74
     1
176
     1
 91
        4
176
     1
 64
     7
176
     1
 65
   257
176
     1
 75
     1
176
     1
175
     1
176
     1
 42
1.0
176
     1
 92
        8
176
     1
 66
     7
176
     1
 43
1.0
176
     1
 76
     1
176
     1
 77
     6
176
     1
 78
     2
176
     1
 67
     7
176
     1
 79
     5
176
     1
170
     0
176
     1
171
     0
176
     1
290
     0
176
     1
 93
        1
176
     1
 44
-50.0
176
     1
173
     0
176
     1
  0
VISUALSTYLE
  5
39
102
{ACAD_REACTORS
330
2A
102
}
330
2A
100
AcDbVisualStyle
  2
Facepattern
 70
    15
177
     2
291
     1
 71
     2
176
     1
 72
     2
176
     1
 73
     0
176
     1
 90
        0
176
     1
 40
-0.6
176
     1
 41
-30.0
176
     1
 62
     5
 63
     7
421
 16777215
176
     1
 74
     1
176
     1
 91
        4
176
     1
 64
     7
176
     1
 65
   257
176
     1
 75
     1
176
     1
175
     1
176
     1
 42
1.0
176
     1
 92
        8
176
     1
 66
     7
176
     1
 43
1.0
176
     1
 76
     1
176
     1
 77
     6
176
     1
 78
     2
176
     1
 67
     7
176
     1
 79
     5
176
     1
170
     0
176
     1
171
     0
176
     1
290
     0
176
     1
 93
        1
176
     1
 44
0.0
176
     1
173
     0
176
     1
  0
VISUALSTYLE
  5
2B
102
{ACAD_REACTORS
330
2A
102
}
330
2A
100
AcDbVisualStyle
  2
Flat
 70
     0
177
     2
291
     1
 71
     2
176
     1
 72
     1
176
     1
 73
     1
176
     1
 90
        2
176
     1
 40
-0.6
176
     1
 41
30.0
176
     1
 62
     5
 63
     7
421
 16777215
176
     1
 74
     0
176
     1
 91
        4
176
     1
 64
     7
176
     1
 65
   257
176
     1
 75
     1
176
     1
175
     1
176
     1
 42
1.0
176
     1
 92
        8
176
     1
 66
     7
176
     1
 43
1.0
176
     1
 76
     1
176
     1
 77
     6
176
     1
 78
     2
176
     1
 67
     7
176
     1
 79
     5
176
     1
170
     0
176
     1
171
     0
176
     1
290
     0
176
     1
 93
       13
176
     1
 44
0.0
176
     1
173
     0
176
     1
  0
VISUALSTYLE
  5
2C
102
{ACAD_REACTORS
330
2A
102
}
330
2A
100
AcDbVisualStyle
  2
FlatWithEdges
 70
     1
177
     2
291
     1
 71
     2
176
     1
 72
     1
176
     1
 73
     1
176
     1
 90
        2
176
     1
 40
-0.6
176
     1
 41
30.0
176
     1
 62
     5
 63
     7
421
 16777215
176
     1
 74
     1
176
     1
 91
        4
176
     1
 64
     7
176
     1
 65
   257
176
     1
 75
     1
176
     1
175
     1
176
     1
 42
1.0
176
     1
 92
        0
176
     1
 66
   257
176
     1
 43
1.0
176
     1
 76
     1
176
     1
 77
     6
176
     1
 78
     2
176
     1
 67
     7
176
     1
 79
     5
176
     1
170
     0
176
     1
171
     0
176
     1
290
     0
176
     1
 93
       13
176
     1
 44
0.0
176
     1
173
     0
176
     1
  0
VISUALSTYLE
  5
2D
102
{ACAD_REACTORS
330
2A
102
}
330
2A
100
AcDbVisualStyle
  2
Gouraud
 70
     2
177
     2
291
     1
 71
     2
176
     1
 72
     2
176
     1
 73
     1
176
     1
 90
        2
176
     1
 40
-0.6
176
     1
 41
30.0
176
     1
 62
     5
 63
     7
421
 16777215
176
     1
 74
     0
176
     1
 91
        4
176
     1
 64
     7
176
     1
 65
   257
176
     1
 75
     1
176
     1
175
     1
176
     1
 42
1.0
176
     1
 92
        0
176
     1
 66
     7
176
     1
 43
1.0
176
     1
 76
     1
176
     1
 77
     6
176
     1
 78
     2
176
     1
 67
     7
176
     1
 79
     5
176
     1
170
     0
176
     1
171
     0
176
     1
290
     0
176
     1
 93
       13
176
     1
 44
0.0
176
     1
173
     0
176
     1
  0
VISUALSTYLE
  5
2E
102
{ACAD_REACTORS
330
2A
102
}
330
2A
100
AcDbVisualStyle
  2
GouraudWithEdges
 70
     3
177
     2
291
     1
 71
     2
176
     1
 72
     2
176
     1
 73
     1
176
     1
 90
        2
176
     1
 40
-0.6
176
     1
 41
30.0
176
     1
 62
     5
 63
     7
421
 16777215
176
     1
 74
     1
176
     1
 91
        4
176
     1
 64
     7
176
     1
 65
   257
176
     1
 75
     1
176
     1
175
     1
176
     1
 42
1.0
176
     1
 92
        0
176
     1
 66
   257
176
     1
 43
1.0
176
     1
 76
     1
176
     1
 77
     6
176
     1
 78
     2
176
     1
 67
     7
176
     1
 79
     5
176
     1
170
     0
176
     1
171
     0
176
     1
290
     0
176
     1
 93
       13
176
     1
 44
0.0
176
     1
173
     0
176
     1
  0
VISUALSTYLE
  5
38
102
{ACAD_REACTORS
330
2A
102
}
330
2A
100
AcDbVisualStyle
  2
Linepattern
 70
    14
177
     2
291
     1
 71
     2
176
     1
 72
     2
176
     1
 73
     0
176
     1
 90
        0
176
     1
 40
-0.6
176
     1
 41
-30.0
176
     1
 62
     5
 63
     7
421
 16777215
176
     1
 74
     1
176
     1
 91
        4
176
     1
 64
     7
176
     1
 65
   257
176
     1
 75
     7
176
     1
175
     7
176
     1
 42
1.0
176
     1
 92
        8
176
     1
 66
     7
176
     1
 43
1.0
176
     1
 76
     1
176
     1
 77
     6
176
     1
 78
     2
176
     1
 67
     7
176
     1
 79
     5
176
     1
170
     0
176
     1
171
     0
176
     1
290
     0
176
     1
 93
        1
176
     1
 44
0.0
176
     1
173
     0
176
     1
  0
VISUALSTYLE
  5
33
102
{ACAD_REACTORS
330
2A
102
}
330
2A
100
AcDbVisualStyle
  2
Realistic
 70
     8
177
     2
291
     0
 71
     2
176
     1
 72
     2
176
     1
 73
     0
176
     1
 90
        0
176
     1
 40
-0.6
176
     1
 41
-30.0
176
     1
 62
     5
 63
     7
421
 16777215
176
     1
 74
     1
176
     1
 91
        0
176
     1
 64
     7
176
     1
 65
   257
176
     1
 75
     1
176
     1
175
     1
176
     1
 42
1.0
176
     1
 92
        8
176
     1
 66
     8
424
  7895160
176
     1
 43
1.0
176
     1
 76
     1
176
     1
 77
     6
176
     1
 78
     2
176
     1
 67
     7
176
     1
 79
     5
176
     1
170
     0
176
     1
171
     0
176
     1
290
     0
176
     1
 93
       13
176
     1
 44
0.0
176
     1
173
     0
176
     1
  0
VISUALSTYLE
  5
37
102
{ACAD_REACTORS
330
2A
102
}
330
2A
100
AcDbVisualStyle
  2
Thicken
 70
    13
177
     2
291
     1
 71
     2
176
     1
 72
     2
176
     1
 73
     0
176
     1
 90
        0
176
     1
 40
-0.6
176
     1
 41
-30.0
176
     1
 62
     5
 63
     7
421
 16777215
176
     1
 74
     1
176
     1
 91
        4
176
     1
 64
     7
176
     1
 65
   257
176
     1
 75
     1
176
     1
175
     1
176
     1
 42
1.0
176
     1
 92
       12
176
     1
 66
     7
176
     1
 43
1.0
176
     1
 76
     1
176
     1
 77
     6
176
     1
 78
     2
176
     1
 67
     7
176
     1
 79
     5
176
     1
170
     0
176
     1
171
     0
176
     1
290
     0
176
     1
 93
        1
176
     1
 44
0.0
176
     1
173
     0
176
     1
  0
ENDSEC
  0
EOF
