  0
SECTION
  2
HEADER
  9
$ACADVER
  1
AC1024
  9
$ACADMAINTVER
 70
     6
  9
$DWGCODEPAGE
  3
UNDEFINED
  9
$INSBASE
 10
0.0
 20
0.0
 30
0.0
  9
$EXTMIN
 10
1.000000000000000E+20
 20
1.000000000000000E+20
 30
1.000000000000000E+20
  9
$EXTMAX
 10
-1.000000000000000E+20
 20
-1.000000000000000E+20
 30
-1.000000000000000E+20
  9
$LIMMIN
 10
0.0
 20
0.0
  9
$LIMMAX
 10
12.0
 20
9.0
  9
$ORTHOMODE
 70
     0
  9
$REGENMODE
 70
     1
  9
$FILLMODE
 70
     1
  9
$QTEXTMODE
 70
     0
  9
$MIRRTEXT
 70
     1
  9
$LTSCALE
 40
1.0
  9
$ATTMODE
 70
     1
  9
$TEXTSIZE
 40
0.2
  9
$TRACEWID
 40
0.05
  9
$TEXTSTYLE
  7
Standard
  9
$CLAYER
  8
0
  9
$CELTYPE
  6
ByLayer
  9
$CECOLOR
 62
   256
  9
$CELTSCALE
 40
1.0
  9
$DISPSILH
 70
     0
  9
$DIMSCALE
 40
1.0
  9
$DIMASZ
 40
0.18
  9
$DIMEXO
 40
0.0625
  9
$DIMDLI
 40
0.38
  9
$DIMRND
 40
0.0
  9
$DIMDLE
 40
0.0
  9
$DIMEXE
 40
0.18
  9
$DIMTP
 40
0.0
  9
$DIMTM
 40
0.0
  9
$DIMTXT
 40
0.18
  9
$DIMCEN
 40
0.09
  9
$DIMTSZ
 40
0.0
  9
$DIMTOL
 70
     0
  9
$DIMLIM
 70
     0
  9
$DIMTIH
 70
     1
  9
$DIMTOH
 70
     1
  9
$DIMSE1
 70
     0
  9
$DIMSE2
 70
     0
  9
$DIMTAD
 70
     0
  9
$DIMZIN
 70
     0
  9
$DIMBLK
  1

  9
$DIMASO
 70
     1
  9
$DIMSHO
 70
     1
  9
$DIMPOST
  1

  9
$DIMAPOST
  1

  9
$DIMALT
 70
     0
  9
$DIMALTD
 70
     2
  9
$DIMALTF
 40
25.4
  9
$DIMLFAC
 40
1.0
  9
$DIMTOFL
 70
     0
  9
$DIMTVP
 40
0.0
  9
$DIMTIX
 70
     0
  9
$DIMSOXD
 70
     0
  9
$DIMSAH
 70
     0
  9
$DIMBLK1
  1

  9
$DIMBLK2
  1

  9
$DIMSTYLE
  2
Standard
  9
$DIMCLRD
 70
     0
  9
$DIMCLRE
 70
     0
  9
$DIMCLRT
 70
     0
  9
$DIMTFAC
 40
1.0
  9
$DIMGAP
 40
0.09
  9
$DIMJUST
 70
     0
  9
$DIMSD1
 70
     0
  9
$DIMSD2
 70
     0
  9
$DIMTOLJ
 70
     1
  9
$DIMTZIN
 70
     0
  9
$DIMALTZ
 70
     0
  9
$DIMALTTZ
 70
     0
  9
$DIMUPT
 70
     0
  9
$DIMDEC
 70
     4
  9
$DIMTDEC
 70
     4
  9
$DIMALTU
 70
     2
  9
$DIMALTTD
 70
     2
  9
$DIMTXSTY
  7
Standard
  9
$DIMAUNIT
 70
     0
  9
$DIMADEC
 70
     0
  9
$DIMALTRND
 40
0.0
  9
$DIMAZIN
 70
     0
  9
$DIMDSEP
 70
    46
  9
$DIMATFIT
 70
     3
  9
$DIMFRAC
 70
     0
  9
$DIMLDRBLK
  1

  9
$DIMLUNIT
 70
     2
  9
$DIMLWD
 70
    -2
  9
$DIMLWE
 70
    -2
  9
$DIMTMOVE
 70
     0
  9
$DIMFXL
 40
1.0
  9
$DIMFXLON
 70
     0
  9
$DIMJOGANG
 40
0.7853981633974483
  9
$DIMTFILL
 70
     0
  9
$DIMTFILLCLR
 70
     0
  9
$DIMARCSYM
 70
     0
  9
$DIMLTYPE
  6

  9
$DIMLTEX1
  6

  9
$DIMLTEX2
  6

  9
$DIMTXTDIRECTION
 70
     0
  9
$LUNITS
 70
     2
  9
$LUPREC
 70
     4
  9
$SKETCHINC
 40
0.1
  9
$FILLETRAD
 40
0.5
  9
$AUNITS
 70
     0
  9
$AUPREC
 70
     0
  9
$MENU
  1
.
  9
$ELEVATION
 40
0.0
  9
$PELEVATION
 40
0.0
  9
$THICKNESS
 40
0.0
  9
$LIMCHECK
 70
     0
  9
$CHAMFERA
 40
0.5
  9
$CHAMFERB
 40
0.5
  9
$CHAMFERC
 40
1.0
  9
$CHAMFERD
 40
0.0
  9
$SKPOLY
 70
     0
  9
$TDCREATE
 40
2458513.389456007
  9
$TDUCREATE
 40
2458513.597789352
  9
$TDUPDATE
 40
2458513.389456007
  9
$TDUUPDATE
 40
2458513.597789352
  9
$TDINDWG
 40
0.0000000116
  9
$TDUSRTIMER
 40
0.0000000116
  9
$USRTIMER
 70
     1
  9
$ANGBASE
 50
0.0
  9
$ANGDIR
 70
     0
  9
$PDMODE
 70
     0
  9
$PDSIZE
 40
0.0
  9
$PLINEWID
 40
0.0
  9
$SPLFRAME
 70
     0
  9
$SPLINETYPE
 70
     6
  9
$SPLINESEGS
 70
     8
  9
$HANDSEED
  5
453
  9
$SURFTAB1
 70
     6
  9
$SURFTAB2
 70
     6
  9
$SURFTYPE
 70
     6
  9
$SURFU
 70
     6
  9
$SURFV
 70
     6
  9
$UCSBASE
  2

  9
$UCSNAME
  2

  9
$UCSORG
 10
0.0
 20
0.0
 30
0.0
  9
$UCSXDIR
 10
1.0
 20
0.0
 30
0.0
  9
$UCSYDIR
 10
0.0
 20
1.0
 30
0.0
  9
$UCSORTHOREF
  2

  9
$UCSORTHOVIEW
 70
     0
  9
$UCSORGTOP
 10
0.0
 20
0.0
 30
0.0
  9
$UCSORGBOTTOM
 10
0.0
 20
0.0
 30
0.0
  9
$UCSORGLEFT
 10
0.0
 20
0.0
 30
0.0
  9
$UCSORGRIGHT
 10
0.0
 20
0.0
 30
0.0
  9
$UCSORGFRONT
 10
0.0
 20
0.0
 30
0.0
  9
$UCSORGBACK
 10
0.0
 20
0.0
 30
0.0
  9
$PUCSBASE
  2

  9
$PUCSNAME
  2

  9
$PUCSORG
 10
0.0
 20
0.0
 30
0.0
  9
$PUCSXDIR
 10
1.0
 20
0.0
 30
0.0
  9
$PUCSYDIR
 10
0.0
 20
1.0
 30
0.0
  9
$PUCSORTHOREF
  2

  9
$PUCSORTHOVIEW
 70
     0
  9
$PUCSORGTOP
 10
0.0
 20
0.0
 30
0.0
  9
$PUCSORGBOTTOM
 10
0.0
 20
0.0
 30
0.0
  9
$PUCSORGLEFT
 10
0.0
 20
0.0
 30
0.0
  9
$PUCSORGRIGHT
 10
0.0
 20
0.0
 30
0.0
  9
$PUCSORGFRONT
 10
0.0
 20
0.0
 30
0.0
  9
$PUCSORGBACK
 10
0.0
 20
0.0
 30
0.0
  9
$USERI1
 70
     0
  9
$USERI2
 70
     0
  9
$USERI3
 70
     0
  9
$USERI4
 70
     0
  9
$USERI5
 70
     0
  9
$USERR1
 40
0.0
  9
$USERR2
 40
0.0
  9
$USERR3
 40
0.0
  9
$USERR4
 40
0.0
  9
$USERR5
 40
0.0
  9
$WORLDVIEW
 70
     1
  9
$SHADEDGE
 70
     3
  9
$SHADEDIF
 70
    70
  9
$TILEMODE
 70
     1
  9
$MAXACTVP
 70
    64
  9
$PINSBASE
 10
0.0
 20
0.0
 30
0.0
  9
$PLIMCHECK
 70
     0
  9
$PEXTMIN
 10
1.000000000000000E+20
 20
1.000000000000000E+20
 30
1.000000000000000E+20
  9
$PEXTMAX
 10
-1.000000000000000E+20
 20
-1.000000000000000E+20
 30
-1.000000000000000E+20
  9
$PLIMMIN
 10
0.0
 20
0.0
  9
$PLIMMAX
 10
12.0
 20
9.0
  9
$UNITMODE
 70
     0
  9
$VISRETAIN
 70
     1
  9
$PLINEGEN
 70
     0
  9
$PSLTSCALE
 70
     1
  9
$TREEDEPTH
 70
  3020
  9
$CMLSTYLE
  2
Standard
  9
$CMLJUST
 70
     0
  9
$CMLSCALE
 40
1.0
  9
$PROXYGRAPHICS
 70
     1
  9
$MEASUREMENT
 70
     0
  9
$CELWEIGHT
370
    -1
  9
$ENDCAPS
280
     0
  9
$JOINSTYLE
280
     0
  9
$LWDISPLAY
290
     1
  9
$INSUNITS
 70
     1
  9
$HYPERLINKBASE
  1

  9
$STYLESHEET
  1

  9
$XEDIT
290
     1
  9
$CEPSNTYPE
380
     0
  9
$PSTYLEMODE
290
     1
  9
$FINGERPRINTGUID
  2
{CB83B10C-BDFA-9D27-F990-0FB76AD50D22}
  9
$VERSIONGUID
  2
{FAEB1C32-E019-11D5-929B-00C0DF256EC4}
  9
$EXTNAMES
290
     1
  9
$PSVPSCALE
 40
0.0
  9
$OLESTARTUP
290
     0
  9
$SORTENTS
280
   127
  9
$INDEXCTL
280
     0
  9
$HIDETEXT
280
     1
  9
$XCLIPFRAME
280
     2
  9
$HALOGAP
280
     0
  9
$OBSCOLOR
 70
   257
  9
$OBSLTYPE
280
     0
  9
$INTERSECTIONDISPLAY
280
     0
  9
$INTERSECTIONCOLOR
 70
   257
  9
$DIMASSOC
280
     2
  9
$PROJECTNAME
  1

  9
$CAMERADISPLAY
290
     0
  9
$LENSLENGTH
 40
50.0
  9
$CAMERAHEIGHT
 40
0.0
  9
$STEPSPERSEC
 40
2.0
  9
$STEPSIZE
 40
6.0
  9
$3DDWFPREC
 40
2.0
  9
$PSOLWIDTH
 40
0.25
  9
$PSOLHEIGHT
 40
4.0
  9
$LOFTANG1
 40
1.570796326794897
  9
$LOFTANG2
 40
1.570796326794897
  9
$LOFTMAG1
 40
0.0
  9
$LOFTMAG2
 40
0.0
  9
$LOFTPARAM
 70
     7
  9
$LOFTNORMALS
280
     1
  9
$LATITUDE
 40
37.795
  9
$LONGITUDE
 40
-122.394
  9
$NORTHDIRECTION
 40
0.0
  9
$TIMEZONE
 70
 -8000
  9
$LIGHTGLYPHDISPLAY
280
     1
  9
$TILEMODELIGHTSYNCH
280
     1
  9
$CMATERIAL
347
3C
  9
$SOLIDHIST
280
     1
  9
$SHOWHIST
280
     1
  9
$DWFFRAME
280
     2
  9
$DGNFRAME
280
     2
  9
$REALWORLDSCALE
290
     1
  9
$INTERFERECOLOR
 62
   256
  9
$CSHADOW
280
     0
  9
$SHADOWPLANELOCATION
 40
0.0
  0
ENDSEC
  0
SECTION
  2
CLASSES
  0
CLASS
  1
ACDBDICTIONARYWDFLT
  2
AcDbDictionaryWithDefault
  3
ObjectDBX Classes
 90
        0
 91
        4
280
     0
281
     0
  0
CLASS
  1
VISUALSTYLE
  2
AcDbVisualStyle
  3
ObjectDBX Classes
 90
     4095
 91
        4
280
     0
281
     0
  0
CLASS
  1
MATERIAL
  2
AcDbMaterial
  3
ObjectDBX Classes
 90
     1153
 91
        4
280
     0
281
     0
  0
CLASS
  1
SUN
  2
AcDbSun
  3
SCENEOE
 90
     1024
 91
        4
280
     0
281
     0
  0
ENDSEC
  0
SECTION
  2
TABLES
  0
TABLE
  2
VPORT
  5
8
330
0
100
AcDbSymbolTable
 70
     1
  0
VPORT
  5
29
330
8
100
AcDbSymbolTableRecord
100
AcDbViewportTableRecord
  2
*Active
 70
     0
 10
0.0
 20
0.0
 11
1.0
 21
1.0
 12
0.0
 22
0.0
 13
0.0
 23
0.0
 14
0.5
 24
0.5
 15
0.5
 25
0.5
 16
0.0
 26
0.0
 36
1.0
 17
4.25
 27
5.5
 37
0.0
 40
11.0
 41
0.7727272727272727
 42
50.0
 43
0.0
 44
0.0
 50
0.0
 51
0.0
 71
     0
 72
   100
 73
     1
 74
     3
 75
     0
 76
     0
 77
     0
 78
     0
281
     0
 65
     1
110
0.0
120
0.0
130
0.0
111
1.0
121
0.0
131
0.0
112
0.0
122
1.0
132
0.0
 79
     0
146
0.0
 60
     3
 61
     5
292
     1
282
     1
141
0.0
142
0.0
 63
   250
361
3F
  0
ENDTAB
  0
TABLE
  2
LTYPE
  5
5
330
0
100
AcDbSymbolTable
 70
     3
  0
LTYPE
  5
14
330
5
100
AcDbSymbolTableRecord
100
AcDbLinetypeTableRecord
  2
ByBlock
 70
     0
  3

 72
    65
 73
     0
 40
0.0
  0
LTYPE
  5
15
330
5
100
AcDbSymbolTableRecord
100
AcDbLinetypeTableRecord
  2
ByLayer
 70
     0
  3

 72
    65
 73
     0
 40
0.0
  0
LTYPE
  5
16
330
5
100
AcDbSymbolTableRecord
100
AcDbLinetypeTableRecord
  2
Continuous
 70
     0
  3
Solid line
 72
    65
 73
     0
 40
0.0
  0
LTYPE
  5
5D
330
5
100
AcDbSymbolTableRecord
100
AcDbLinetypeTableRecord
  2
AI-Linetype-1
 70
     0
  3
Adobe Illustrator Linetype No. 1
 72
    65
 73
     2
 40
0.0516792386770248
 49
0.0344528257846832
 74
     0
 49
-0.0172264128923416
 74
     0
  0
LTYPE
  5
44B
330
5
100
AcDbSymbolTableRecord
100
AcDbLinetypeTableRecord
  2
AI-Linetype-2
 70
     0
  3
Adobe Illustrator Linetype No. 2
 72
    65
 73
     2
 40
0.0516792386770248
 49
0.0344528257846832
 74
     0
 49
-0.0172264128923416
 74
     0
  0
ENDTAB
  0
TABLE
  2
LAYER
  5
2
330
0
100
AcDbSymbolTable
 70
     5
  0
LAYER
  5
10
330
2
100
AcDbSymbolTableRecord
100
AcDbLayerTableRecord
  2
0
 70
     0
 62
     7
  6
Continuous
370
    -3
390
F
347
3E
  0
LAYER
  5
40
330
2
100
AcDbSymbolTableRecord
100
AcDbLayerTableRecord
  2
_U+56FE_U+5C422
 70
     0
 62
     7
  6
Continuous
370
    -3
390
F
347
3E
  0
LAYER
  5
49
330
2
100
AcDbSymbolTableRecord
100
AcDbLayerTableRecord
  2
_U+56FE_U+5C423
 70
     0
 62
     7
  6
Continuous
370
    -3
390
F
347
3E
  0
LAYER
  5
4A
330
2
100
AcDbSymbolTableRecord
100
AcDbLayerTableRecord
  2
Defpoints
 70
     0
 62
     7
  6
Continuous
290
     0
370
    -3
390
F
347
3E
  0
LAYER
  5
4B
330
2
100
AcDbSymbolTableRecord
100
AcDbLayerTableRecord
  2
_U+56FE_U+5C421
 70
     0
 62
     7
  6
Continuous
370
    -3
390
F
347
3E
  0
ENDTAB
  0
TABLE
  2
STYLE
  5
3
330
0
100
AcDbSymbolTable
 70
     1
  0
STYLE
  5
11
330
3
100
AcDbSymbolTableRecord
100
AcDbTextStyleTableRecord
  2
Standard
 70
     0
 40
0.0
 41
1.0
 50
0.0
 71
     0
 42
0.2
  3
txt
  4

  0
ENDTAB
  0
TABLE
  2
VIEW
  5
6
330
0
100
AcDbSymbolTable
 70
     0
  0
ENDTAB
  0
TABLE
  2
UCS
  5
7
330
0
100
AcDbSymbolTable
 70
     0
  0
ENDTAB
  0
TABLE
  2
APPID
  5
9
330
0
100
AcDbSymbolTable
 70
     1
  0
APPID
  5
12
330
9
100
AcDbSymbolTableRecord
100
AcDbRegAppTableRecord
  2
ACAD
 70
     0
  0
ENDTAB
  0
TABLE
  2
DIMSTYLE
  5
A
330
0
100
AcDbSymbolTable
 70
     1
100
AcDbDimStyleTable
  0
DIMSTYLE
105
27
330
A
100
AcDbSymbolTableRecord
100
AcDbDimStyleTableRecord
  2
Standard
 70
     0
178
     0
340
11
  0
ENDTAB
  0
TABLE
  2
BLOCK_RECORD
  5
1
330
0
100
AcDbSymbolTable
 70
   129
  0
BLOCK_RECORD
  5
1F
330
1
100
AcDbSymbolTableRecord
100
AcDbBlockTableRecord
  2
*Model_Space
340
22
 70
     0
280
     1
281
     0
  0
BLOCK_RECORD
  5
1B
330
1
100
AcDbSymbolTableRecord
100
AcDbBlockTableRecord
  2
*Paper_Space
340
1E
 70
     0
280
     1
281
     0
  0
BLOCK_RECORD
  5
23
330
1
100
AcDbSymbolTableRecord
100
AcDbBlockTableRecord
  2
*Paper_Space0
340
26
 70
     0
280
     1
281
     0
  0
BLOCK_RECORD
  5
41
330
1
100
AcDbSymbolTableRecord
100
AcDbBlockTableRecord
  2
block 2
340
0
102
{BLKREFS
331
42
102
}
 70
     0
280
     1
281
     0
  0
BLOCK_RECORD
  5
4C
330
1
100
AcDbSymbolTableRecord
100
AcDbBlockTableRecord
  2
block 3
340
0
102
{BLKREFS
331
4D
102
}
 70
     0
280
     1
281
     0
  0
BLOCK_RECORD
  5
50
330
1
100
AcDbSymbolTableRecord
100
AcDbBlockTableRecord
  2
block 4
340
0
102
{BLKREFS
331
51
102
}
 70
     0
280
     1
281
     0
  0
BLOCK_RECORD
  5
58
330
1
100
AcDbSymbolTableRecord
100
AcDbBlockTableRecord
  2
block 5
340
0
102
{BLKREFS
331
59
102
}
 70
     0
280
     1
281
     0
  0
BLOCK_RECORD
  5
5E
330
1
100
AcDbSymbolTableRecord
100
AcDbBlockTableRecord
  2
block 6
340
0
102
{BLKREFS
331
5F
102
}
 70
     0
280
     1
281
     0
  0
BLOCK_RECORD
  5
63
330
1
100
AcDbSymbolTableRecord
100
AcDbBlockTableRecord
  2
block 7
340
0
102
{BLKREFS
331
64
102
}
 70
     0
280
     1
281
     0
  0
BLOCK_RECORD
  5
6E
330
1
100
AcDbSymbolTableRecord
100
AcDbBlockTableRecord
  2
block 8
340
0
102
{BLKREFS
331
6F
102
}
 70
     0
280
     1
281
     0
  0
BLOCK_RECORD
  5
76
330
1
100
AcDbSymbolTableRecord
100
AcDbBlockTableRecord
  2
block 9
340
0
102
{BLKREFS
331
77
102
}
 70
     0
280
     1
281
     0
  0
BLOCK_RECORD
  5
7E
330
1
100
AcDbSymbolTableRecord
100
AcDbBlockTableRecord
  2
block 10
340
0
102
{BLKREFS
331
7F
102
}
 70
     0
280
     1
281
     0
  0
BLOCK_RECORD
  5
86
330
1
100
AcDbSymbolTableRecord
100
AcDbBlockTableRecord
  2
block 11
340
0
102
{BLKREFS
331
87
102
}
 70
     0
280
     1
281
     0
  0
BLOCK_RECORD
  5
91
330
1
100
AcDbSymbolTableRecord
100
AcDbBlockTableRecord
  2
block 12
340
0
102
{BLKREFS
331
92
102
}
 70
     0
280
     1
281
     0
  0
BLOCK_RECORD
  5
9C
330
1
100
AcDbSymbolTableRecord
100
AcDbBlockTableRecord
  2
block 13
340
0
102
{BLKREFS
331
9D
102
}
 70
     0
280
     1
281
     0
  0
BLOCK_RECORD
  5
A1
330
1
100
AcDbSymbolTableRecord
100
AcDbBlockTableRecord
  2
block 14
340
0
102
{BLKREFS
331
A2
102
}
 70
     0
280
     1
281
     0
  0
BLOCK_RECORD
  5
A9
330
1
100
AcDbSymbolTableRecord
100
AcDbBlockTableRecord
  2
block 15
340
0
102
{BLKREFS
331
AA
102
}
 70
     0
280
     1
281
     0
  0
BLOCK_RECORD
  5
B1
330
1
100
AcDbSymbolTableRecord
100
AcDbBlockTableRecord
  2
block 16
340
0
102
{BLKREFS
331
B2
102
}
 70
     0
280
     1
281
     0
  0
BLOCK_RECORD
  5
B9
330
1
100
AcDbSymbolTableRecord
100
AcDbBlockTableRecord
  2
block 17
340
0
102
{BLKREFS
331
BA
102
}
 70
     0
280
     1
281
     0
  0
BLOCK_RECORD
  5
C4
330
1
100
AcDbSymbolTableRecord
100
AcDbBlockTableRecord
  2
block 18
340
0
102
{BLKREFS
331
C5
102
}
 70
     0
280
     1
281
     0
  0
BLOCK_RECORD
  5
CF
330
1
100
AcDbSymbolTableRecord
100
AcDbBlockTableRecord
  2
block 19
340
0
102
{BLKREFS
331
D0
102
}
 70
     0
280
     1
281
     0
  0
BLOCK_RECORD
  5
D4
330
1
100
AcDbSymbolTableRecord
100
AcDbBlockTableRecord
  2
block 20
340
0
102
{BLKREFS
331
D5
102
}
 70
     0
280
     1
281
     0
  0
BLOCK_RECORD
  5
DC
330
1
100
AcDbSymbolTableRecord
100
AcDbBlockTableRecord
  2
block 21
340
0
102
{BLKREFS
331
DD
102
}
 70
     0
280
     1
281
     0
  0
BLOCK_RECORD
  5
E4
330
1
100
AcDbSymbolTableRecord
100
AcDbBlockTableRecord
  2
block 22
340
0
102
{BLKREFS
331
E5
102
}
 70
     0
280
     1
281
     0
  0
BLOCK_RECORD
  5
EC
330
1
100
AcDbSymbolTableRecord
100
AcDbBlockTableRecord
  2
block 23
340
0
102
{BLKREFS
331
ED
102
}
 70
     0
280
     1
281
     0
  0
BLOCK_RECORD
  5
F7
330
1
100
AcDbSymbolTableRecord
100
AcDbBlockTableRecord
  2
block 24
340
0
102
{BLKREFS
331
F8
102
}
 70
     0
280
     1
281
     0
  0
BLOCK_RECORD
  5
102
330
1
100
AcDbSymbolTableRecord
100
AcDbBlockTableRecord
  2
block 25
340
0
102
{BLKREFS
331
103
102
}
 70
     0
280
     1
281
     0
  0
BLOCK_RECORD
  5
107
330
1
100
AcDbSymbolTableRecord
100
AcDbBlockTableRecord
  2
block 26
340
0
102
{BLKREFS
331
108
102
}
 70
     0
280
     1
281
     0
  0
BLOCK_RECORD
  5
10F
330
1
100
AcDbSymbolTableRecord
100
AcDbBlockTableRecord
  2
block 27
340
0
102
{BLKREFS
331
110
102
}
 70
     0
280
     1
281
     0
  0
BLOCK_RECORD
  5
117
330
1
100
AcDbSymbolTableRecord
100
AcDbBlockTableRecord
  2
block 28
340
0
102
{BLKREFS
331
118
102
}
 70
     0
280
     1
281
     0
  0
BLOCK_RECORD
  5
11F
330
1
100
AcDbSymbolTableRecord
100
AcDbBlockTableRecord
  2
block 29
340
0
102
{BLKREFS
331
120
102
}
 70
     0
280
     1
281
     0
  0
BLOCK_RECORD
  5
12A
330
1
100
AcDbSymbolTableRecord
100
AcDbBlockTableRecord
  2
block 30
340
0
102
{BLKREFS
331
12B
102
}
 70
     0
280
     1
281
     0
  0
BLOCK_RECORD
  5
135
330
1
100
AcDbSymbolTableRecord
100
AcDbBlockTableRecord
  2
block 31
340
0
102
{BLKREFS
331
136
102
}
 70
     0
280
     1
281
     0
  0
BLOCK_RECORD
  5
13A
330
1
100
AcDbSymbolTableRecord
100
AcDbBlockTableRecord
  2
block 32
340
0
102
{BLKREFS
331
13B
102
}
 70
     0
280
     1
281
     0
  0
BLOCK_RECORD
  5
142
330
1
100
AcDbSymbolTableRecord
100
AcDbBlockTableRecord
  2
block 33
340
0
102
{BLKREFS
331
143
102
}
 70
     0
280
     1
281
     0
  0
BLOCK_RECORD
  5
14A
330
1
100
AcDbSymbolTableRecord
100
AcDbBlockTableRecord
  2
block 34
340
0
102
{BLKREFS
331
14B
102
}
 70
     0
280
     1
281
     0
  0
BLOCK_RECORD
  5
152
330
1
100
AcDbSymbolTableRecord
100
AcDbBlockTableRecord
  2
block 35
340
0
102
{BLKREFS
331
153
102
}
 70
     0
280
     1
281
     0
  0
BLOCK_RECORD
  5
15D
330
1
100
AcDbSymbolTableRecord
100
AcDbBlockTableRecord
  2
block 36
340
0
102
{BLKREFS
331
15E
102
}
 70
     0
280
     1
281
     0
  0
BLOCK_RECORD
  5
168
330
1
100
AcDbSymbolTableRecord
100
AcDbBlockTableRecord
  2
block 37
340
0
102
{BLKREFS
331
169
102
}
 70
     0
280
     1
281
     0
  0
BLOCK_RECORD
  5
16D
330
1
100
AcDbSymbolTableRecord
100
AcDbBlockTableRecord
  2
block 38
340
0
102
{BLKREFS
331
16E
102
}
 70
     0
280
     1
281
     0
  0
BLOCK_RECORD
  5
175
330
1
100
AcDbSymbolTableRecord
100
AcDbBlockTableRecord
  2
block 39
340
0
102
{BLKREFS
331
176
102
}
 70
     0
280
     1
281
     0
  0
BLOCK_RECORD
  5
17D
330
1
100
AcDbSymbolTableRecord
100
AcDbBlockTableRecord
  2
block 40
340
0
102
{BLKREFS
331
17E
102
}
 70
     0
280
     1
281
     0
  0
BLOCK_RECORD
  5
185
330
1
100
AcDbSymbolTableRecord
100
AcDbBlockTableRecord
  2
block 41
340
0
102
{BLKREFS
331
186
102
}
 70
     0
280
     1
281
     0
  0
BLOCK_RECORD
  5
190
330
1
100
AcDbSymbolTableRecord
100
AcDbBlockTableRecord
  2
block 42
340
0
102
{BLKREFS
331
191
102
}
 70
     0
280
     1
281
     0
  0
BLOCK_RECORD
  5
19B
330
1
100
AcDbSymbolTableRecord
100
AcDbBlockTableRecord
  2
block 43
340
0
102
{BLKREFS
331
19C
102
}
 70
     0
280
     1
281
     0
  0
BLOCK_RECORD
  5
1A0
330
1
100
AcDbSymbolTableRecord
100
AcDbBlockTableRecord
  2
block 44
340
0
102
{BLKREFS
331
1A1
102
}
 70
     0
280
     1
281
     0
  0
BLOCK_RECORD
  5
1A8
330
1
100
AcDbSymbolTableRecord
100
AcDbBlockTableRecord
  2
block 45
340
0
102
{BLKREFS
331
1A9
102
}
 70
     0
280
     1
281
     0
  0
BLOCK_RECORD
  5
1B0
330
1
100
AcDbSymbolTableRecord
100
AcDbBlockTableRecord
  2
block 46
340
0
102
{BLKREFS
331
1B1
102
}
 70
     0
280
     1
281
     0
  0
BLOCK_RECORD
  5
1B8
330
1
100
AcDbSymbolTableRecord
100
AcDbBlockTableRecord
  2
block 47
340
0
102
{BLKREFS
331
1B9
102
}
 70
     0
280
     1
281
     0
  0
BLOCK_RECORD
  5
1C3
330
1
100
AcDbSymbolTableRecord
100
AcDbBlockTableRecord
  2
block 48
340
0
102
{BLKREFS
331
1C4
102
}
 70
     0
280
     1
281
     0
  0
BLOCK_RECORD
  5
1CE
330
1
100
AcDbSymbolTableRecord
100
AcDbBlockTableRecord
  2
block 49
340
0
102
{BLKREFS
331
1CF
102
}
 70
     0
280
     1
281
     0
  0
BLOCK_RECORD
  5
1D3
330
1
100
AcDbSymbolTableRecord
100
AcDbBlockTableRecord
  2
block 50
340
0
102
{BLKREFS
331
1D4
102
}
 70
     0
280
     1
281
     0
  0
BLOCK_RECORD
  5
1DB
330
1
100
AcDbSymbolTableRecord
100
AcDbBlockTableRecord
  2
block 51
340
0
102
{BLKREFS
331
1DC
102
}
 70
     0
280
     1
281
     0
  0
BLOCK_RECORD
  5
1E3
330
1
100
AcDbSymbolTableRecord
100
AcDbBlockTableRecord
  2
block 52
340
0
102
{BLKREFS
331
1E4
102
}
 70
     0
280
     1
281
     0
  0
BLOCK_RECORD
  5
1EB
330
1
100
AcDbSymbolTableRecord
100
AcDbBlockTableRecord
  2
block 53
340
0
102
{BLKREFS
331
1EC
102
}
 70
     0
280
     1
281
     0
  0
BLOCK_RECORD
  5
1F6
330
1
100
AcDbSymbolTableRecord
100
AcDbBlockTableRecord
  2
block 54
340
0
102
{BLKREFS
331
1F7
102
}
 70
     0
280
     1
281
     0
  0
BLOCK_RECORD
  5
201
330
1
100
AcDbSymbolTableRecord
100
AcDbBlockTableRecord
  2
block 55
340
0
102
{BLKREFS
331
202
102
}
 70
     0
280
     1
281
     0
  0
BLOCK_RECORD
  5
206
330
1
100
AcDbSymbolTableRecord
100
AcDbBlockTableRecord
  2
block 56
340
0
102
{BLKREFS
331
207
102
}
 70
     0
280
     1
281
     0
  0
BLOCK_RECORD
  5
20E
330
1
100
AcDbSymbolTableRecord
100
AcDbBlockTableRecord
  2
block 57
340
0
102
{BLKREFS
331
20F
102
}
 70
     0
280
     1
281
     0
  0
BLOCK_RECORD
  5
216
330
1
100
AcDbSymbolTableRecord
100
AcDbBlockTableRecord
  2
block 58
340
0
102
{BLKREFS
331
217
102
}
 70
     0
280
     1
281
     0
  0
BLOCK_RECORD
  5
21E
330
1
100
AcDbSymbolTableRecord
100
AcDbBlockTableRecord
  2
block 59
340
0
102
{BLKREFS
331
21F
102
}
 70
     0
280
     1
281
     0
  0
BLOCK_RECORD
  5
229
330
1
100
AcDbSymbolTableRecord
100
AcDbBlockTableRecord
  2
block 60
340
0
102
{BLKREFS
331
22A
102
}
 70
     0
280
     1
281
     0
  0
BLOCK_RECORD
  5
234
330
1
100
AcDbSymbolTableRecord
100
AcDbBlockTableRecord
  2
block 61
340
0
102
{BLKREFS
331
235
102
}
 70
     0
280
     1
281
     0
  0
BLOCK_RECORD
  5
239
330
1
100
AcDbSymbolTableRecord
100
AcDbBlockTableRecord
  2
block 62
340
0
102
{BLKREFS
331
23A
102
}
 70
     0
280
     1
281
     0
  0
BLOCK_RECORD
  5
241
330
1
100
AcDbSymbolTableRecord
100
AcDbBlockTableRecord
  2
block 63
340
0
102
{BLKREFS
331
242
102
}
 70
     0
280
     1
281
     0
  0
BLOCK_RECORD
  5
249
330
1
100
AcDbSymbolTableRecord
100
AcDbBlockTableRecord
  2
block 64
340
0
102
{BLKREFS
331
24A
102
}
 70
     0
280
     1
281
     0
  0
BLOCK_RECORD
  5
24E
330
1
100
AcDbSymbolTableRecord
100
AcDbBlockTableRecord
  2
block 65
340
0
102
{BLKREFS
331
24F
102
}
 70
     0
280
     1
281
     0
  0
BLOCK_RECORD
  5
259
330
1
100
AcDbSymbolTableRecord
100
AcDbBlockTableRecord
  2
block 66
340
0
102
{BLKREFS
331
25A
102
}
 70
     0
280
     1
281
     0
  0
BLOCK_RECORD
  5
261
330
1
100
AcDbSymbolTableRecord
100
AcDbBlockTableRecord
  2
block 67
340
0
102
{BLKREFS
331
262
102
}
 70
     0
280
     1
281
     0
  0
BLOCK_RECORD
  5
269
330
1
100
AcDbSymbolTableRecord
100
AcDbBlockTableRecord
  2
block 68
340
0
102
{BLKREFS
331
26A
102
}
 70
     0
280
     1
281
     0
  0
BLOCK_RECORD
  5
26E
330
1
100
AcDbSymbolTableRecord
100
AcDbBlockTableRecord
  2
block 69
340
0
102
{BLKREFS
331
26F
102
}
 70
     0
280
     1
281
     0
  0
BLOCK_RECORD
  5
279
330
1
100
AcDbSymbolTableRecord
100
AcDbBlockTableRecord
  2
block 70
340
0
102
{BLKREFS
331
27A
102
}
 70
     0
280
     1
281
     0
  0
BLOCK_RECORD
  5
281
330
1
100
AcDbSymbolTableRecord
100
AcDbBlockTableRecord
  2
block 71
340
0
102
{BLKREFS
331
282
102
}
 70
     0
280
     1
281
     0
  0
BLOCK_RECORD
  5
289
330
1
100
AcDbSymbolTableRecord
100
AcDbBlockTableRecord
  2
block 72
340
0
102
{BLKREFS
331
28A
102
}
 70
     0
280
     1
281
     0
  0
BLOCK_RECORD
  5
28E
330
1
100
AcDbSymbolTableRecord
100
AcDbBlockTableRecord
  2
block 73
340
0
102
{BLKREFS
331
28F
102
}
 70
     0
280
     1
281
     0
  0
BLOCK_RECORD
  5
299
330
1
100
AcDbSymbolTableRecord
100
AcDbBlockTableRecord
  2
block 74
340
0
102
{BLKREFS
331
29A
102
}
 70
     0
280
     1
281
     0
  0
BLOCK_RECORD
  5
2A1
330
1
100
AcDbSymbolTableRecord
100
AcDbBlockTableRecord
  2
block 75
340
0
102
{BLKREFS
331
2A2
102
}
 70
     0
280
     1
281
     0
  0
BLOCK_RECORD
  5
2A9
330
1
100
AcDbSymbolTableRecord
100
AcDbBlockTableRecord
  2
block 76
340
0
102
{BLKREFS
331
2AA
102
}
 70
     0
280
     1
281
     0
  0
BLOCK_RECORD
  5
2AE
330
1
100
AcDbSymbolTableRecord
100
AcDbBlockTableRecord
  2
block 77
340
0
102
{BLKREFS
331
2AF
102
}
 70
     0
280
     1
281
     0
  0
BLOCK_RECORD
  5
2B6
330
1
100
AcDbSymbolTableRecord
100
AcDbBlockTableRecord
  2
block 78
340
0
102
{BLKREFS
331
2B7
102
}
 70
     0
280
     1
281
     0
  0
BLOCK_RECORD
  5
2C1
330
1
100
AcDbSymbolTableRecord
100
AcDbBlockTableRecord
  2
block 79
340
0
102
{BLKREFS
331
2C2
102
}
 70
     0
280
     1
281
     0
  0
BLOCK_RECORD
  5
2C9
330
1
100
AcDbSymbolTableRecord
100
AcDbBlockTableRecord
  2
block 80
340
0
102
{BLKREFS
331
2CA
102
}
 70
     0
280
     1
281
     0
  0
BLOCK_RECORD
  5
2D1
330
1
100
AcDbSymbolTableRecord
100
AcDbBlockTableRecord
  2
block 81
340
0
102
{BLKREFS
331
2D2
102
}
 70
     0
280
     1
281
     0
  0
BLOCK_RECORD
  5
2D6
330
1
100
AcDbSymbolTableRecord
100
AcDbBlockTableRecord
  2
block 82
340
0
102
{BLKREFS
331
2D7
102
}
 70
     0
280
     1
281
     0
  0
BLOCK_RECORD
  5
2DE
330
1
100
AcDbSymbolTableRecord
100
AcDbBlockTableRecord
  2
block 83
340
0
102
{BLKREFS
331
2DF
102
}
 70
     0
280
     1
281
     0
  0
BLOCK_RECORD
  5
2E9
330
1
100
AcDbSymbolTableRecord
100
AcDbBlockTableRecord
  2
block 84
340
0
102
{BLKREFS
331
2EA
102
}
 70
     0
280
     1
281
     0
  0
BLOCK_RECORD
  5
2EE
330
1
100
AcDbSymbolTableRecord
100
AcDbBlockTableRecord
  2
block 85
340
0
102
{BLKREFS
331
2EF
102
}
 70
     0
280
     1
281
     0
  0
BLOCK_RECORD
  5
2F6
330
1
100
AcDbSymbolTableRecord
100
AcDbBlockTableRecord
  2
block 86
340
0
102
{BLKREFS
331
2F7
102
}
 70
     0
280
     1
281
     0
  0
BLOCK_RECORD
  5
2FE
330
1
100
AcDbSymbolTableRecord
100
AcDbBlockTableRecord
  2
block 87
340
0
102
{BLKREFS
331
2FF
102
}
 70
     0
280
     1
281
     0
  0
BLOCK_RECORD
  5
303
330
1
100
AcDbSymbolTableRecord
100
AcDbBlockTableRecord
  2
block 88
340
0
102
{BLKREFS
331
304
102
}
 70
     0
280
     1
281
     0
  0
BLOCK_RECORD
  5
30E
330
1
100
AcDbSymbolTableRecord
100
AcDbBlockTableRecord
  2
block 89
340
0
102
{BLKREFS
331
30F
102
}
 70
     0
280
     1
281
     0
  0
BLOCK_RECORD
  5
316
330
1
100
AcDbSymbolTableRecord
100
AcDbBlockTableRecord
  2
block 90
340
0
102
{BLKREFS
331
317
102
}
 70
     0
280
     1
281
     0
  0
BLOCK_RECORD
  5
31E
330
1
100
AcDbSymbolTableRecord
100
AcDbBlockTableRecord
  2
block 91
340
0
102
{BLKREFS
331
31F
102
}
 70
     0
280
     1
281
     0
  0
BLOCK_RECORD
  5
326
330
1
100
AcDbSymbolTableRecord
100
AcDbBlockTableRecord
  2
block 92
340
0
102
{BLKREFS
331
327
102
}
 70
     0
280
     1
281
     0
  0
BLOCK_RECORD
  5
32E
330
1
100
AcDbSymbolTableRecord
100
AcDbBlockTableRecord
  2
block 93
340
0
102
{BLKREFS
331
32F
102
}
 70
     0
280
     1
281
     0
  0
BLOCK_RECORD
  5
336
330
1
100
AcDbSymbolTableRecord
100
AcDbBlockTableRecord
  2
block 94
340
0
102
{BLKREFS
331
337
102
}
 70
     0
280
     1
281
     0
  0
BLOCK_RECORD
  5
33E
330
1
100
AcDbSymbolTableRecord
100
AcDbBlockTableRecord
  2
block 95
340
0
102
{BLKREFS
331
33F
102
}
 70
     0
280
     1
281
     0
  0
BLOCK_RECORD
  5
346
330
1
100
AcDbSymbolTableRecord
100
AcDbBlockTableRecord
  2
block 96
340
0
102
{BLKREFS
331
347
102
}
 70
     0
280
     1
281
     0
  0
BLOCK_RECORD
  5
34E
330
1
100
AcDbSymbolTableRecord
100
AcDbBlockTableRecord
  2
block 97
340
0
102
{BLKREFS
331
34F
102
}
 70
     0
280
     1
281
     0
  0
BLOCK_RECORD
  5
356
330
1
100
AcDbSymbolTableRecord
100
AcDbBlockTableRecord
  2
block 98
340
0
102
{BLKREFS
331
357
102
}
 70
     0
280
     1
281
     0
  0
BLOCK_RECORD
  5
35E
330
1
100
AcDbSymbolTableRecord
100
AcDbBlockTableRecord
  2
block 99
340
0
102
{BLKREFS
331
35F
102
}
 70
     0
280
     1
281
     0
  0
BLOCK_RECORD
  5
366
330
1
100
AcDbSymbolTableRecord
100
AcDbBlockTableRecord
  2
block 100
340
0
102
{BLKREFS
331
367
102
}
 70
     0
280
     1
281
     0
  0
BLOCK_RECORD
  5
36E
330
1
100
AcDbSymbolTableRecord
100
AcDbBlockTableRecord
  2
block 101
340
0
102
{BLKREFS
331
36F
102
}
 70
     0
280
     1
281
     0
  0
BLOCK_RECORD
  5
376
330
1
100
AcDbSymbolTableRecord
100
AcDbBlockTableRecord
  2
block 102
340
0
102
{BLKREFS
331
377
102
}
 70
     0
280
     1
281
     0
  0
BLOCK_RECORD
  5
37E
330
1
100
AcDbSymbolTableRecord
100
AcDbBlockTableRecord
  2
block 103
340
0
102
{BLKREFS
331
37F
102
}
 70
     0
280
     1
281
     0
  0
BLOCK_RECORD
  5
386
330
1
100
AcDbSymbolTableRecord
100
AcDbBlockTableRecord
  2
block 104
340
0
102
{BLKREFS
331
387
102
}
 70
     0
280
     1
281
     0
  0
BLOCK_RECORD
  5
38E
330
1
100
AcDbSymbolTableRecord
100
AcDbBlockTableRecord
  2
block 105
340
0
102
{BLKREFS
331
38F
102
}
 70
     0
280
     1
281
     0
  0
BLOCK_RECORD
  5
396
330
1
100
AcDbSymbolTableRecord
100
AcDbBlockTableRecord
  2
block 106
340
0
102
{BLKREFS
331
397
102
}
 70
     0
280
     1
281
     0
  0
BLOCK_RECORD
  5
39E
330
1
100
AcDbSymbolTableRecord
100
AcDbBlockTableRecord
  2
block 107
340
0
102
{BLKREFS
331
39F
102
}
 70
     0
280
     1
281
     0
  0
BLOCK_RECORD
  5
3A6
330
1
100
AcDbSymbolTableRecord
100
AcDbBlockTableRecord
  2
block 108
340
0
102
{BLKREFS
331
3A7
102
}
 70
     0
280
     1
281
     0
  0
BLOCK_RECORD
  5
3AE
330
1
100
AcDbSymbolTableRecord
100
AcDbBlockTableRecord
  2
block 109
340
0
102
{BLKREFS
331
3AF
102
}
 70
     0
280
     1
281
     0
  0
BLOCK_RECORD
  5
3B6
330
1
100
AcDbSymbolTableRecord
100
AcDbBlockTableRecord
  2
block 110
340
0
102
{BLKREFS
331
3B7
102
}
 70
     0
280
     1
281
     0
  0
BLOCK_RECORD
  5
3BE
330
1
100
AcDbSymbolTableRecord
100
AcDbBlockTableRecord
  2
block 111
340
0
102
{BLKREFS
331
3BF
102
}
 70
     0
280
     1
281
     0
  0
BLOCK_RECORD
  5
3C6
330
1
100
AcDbSymbolTableRecord
100
AcDbBlockTableRecord
  2
block 112
340
0
102
{BLKREFS
331
3C7
102
}
 70
     0
280
     1
281
     0
  0
BLOCK_RECORD
  5
3CE
330
1
100
AcDbSymbolTableRecord
100
AcDbBlockTableRecord
  2
block 113
340
0
102
{BLKREFS
331
3CF
102
}
 70
     0
280
     1
281
     0
  0
BLOCK_RECORD
  5
3D6
330
1
100
AcDbSymbolTableRecord
100
AcDbBlockTableRecord
  2
block 114
340
0
102
{BLKREFS
331
3D7
102
}
 70
     0
280
     1
281
     0
  0
BLOCK_RECORD
  5
3DE
330
1
100
AcDbSymbolTableRecord
100
AcDbBlockTableRecord
  2
block 115
340
0
102
{BLKREFS
331
3DF
102
}
 70
     0
280
     1
281
     0
  0
BLOCK_RECORD
  5
3E6
330
1
100
AcDbSymbolTableRecord
100
AcDbBlockTableRecord
  2
block 116
340
0
102
{BLKREFS
331
3E7
102
}
 70
     0
280
     1
281
     0
  0
BLOCK_RECORD
  5
3EE
330
1
100
AcDbSymbolTableRecord
100
AcDbBlockTableRecord
  2
block 117
340
0
102
{BLKREFS
331
3EF
102
}
 70
     0
280
     1
281
     0
  0
BLOCK_RECORD
  5
3F6
330
1
100
AcDbSymbolTableRecord
100
AcDbBlockTableRecord
  2
block 118
340
0
102
{BLKREFS
331
3F7
102
}
 70
     0
280
     1
281
     0
  0
BLOCK_RECORD
  5
3FE
330
1
100
AcDbSymbolTableRecord
100
AcDbBlockTableRecord
  2
block 119
340
0
102
{BLKREFS
331
3FF
102
}
 70
     0
280
     1
281
     0
  0
BLOCK_RECORD
  5
406
330
1
100
AcDbSymbolTableRecord
100
AcDbBlockTableRecord
  2
block 120
340
0
102
{BLKREFS
331
407
102
}
 70
     0
280
     1
281
     0
  0
BLOCK_RECORD
  5
40E
330
1
100
AcDbSymbolTableRecord
100
AcDbBlockTableRecord
  2
block 121
340
0
102
{BLKREFS
331
40F
102
}
 70
     0
280
     1
281
     0
  0
BLOCK_RECORD
  5
416
330
1
100
AcDbSymbolTableRecord
100
AcDbBlockTableRecord
  2
block 122
340
0
102
{BLKREFS
331
417
102
}
 70
     0
280
     1
281
     0
  0
BLOCK_RECORD
  5
41E
330
1
100
AcDbSymbolTableRecord
100
AcDbBlockTableRecord
  2
block 123
340
0
102
{BLKREFS
331
41F
102
}
 70
     0
280
     1
281
     0
  0
BLOCK_RECORD
  5
426
330
1
100
AcDbSymbolTableRecord
100
AcDbBlockTableRecord
  2
block 124
340
0
102
{BLKREFS
331
427
102
}
 70
     0
280
     1
281
     0
  0
BLOCK_RECORD
  5
42E
330
1
100
AcDbSymbolTableRecord
100
AcDbBlockTableRecord
  2
block 125
340
0
102
{BLKREFS
331
42F
102
}
 70
     0
280
     1
281
     0
  0
BLOCK_RECORD
  5
436
330
1
100
AcDbSymbolTableRecord
100
AcDbBlockTableRecord
  2
block 126
340
0
102
{BLKREFS
331
437
102
}
 70
     0
280
     1
281
     0
  0
BLOCK_RECORD
  5
43E
330
1
100
AcDbSymbolTableRecord
100
AcDbBlockTableRecord
  2
block 127
340
0
102
{BLKREFS
331
43F
102
}
 70
     0
280
     1
281
     0
  0
BLOCK_RECORD
  5
446
330
1
100
AcDbSymbolTableRecord
100
AcDbBlockTableRecord
  2
block 128
340
0
102
{BLKREFS
331
447
102
}
 70
     0
280
     1
281
     0
  0
BLOCK_RECORD
  5
44C
330
1
100
AcDbSymbolTableRecord
100
AcDbBlockTableRecord
  2
block 129
340
0
102
{BLKREFS
331
44D
102
}
 70
     0
280
     1
281
     0
  0
ENDTAB
  0
ENDSEC
  0
SECTION
  2
BLOCKS
  0
BLOCK
  5
20
330
1F
100
AcDbEntity
  8
0
100
AcDbBlockBegin
  2
*Model_Space
 70
     0
 10
0.0
 20
0.0
 30
0.0
  3
*Model_Space
  1

  0
ENDBLK
  5
21
330
1F
100
AcDbEntity
  8
0
100
AcDbBlockEnd
  0
BLOCK
  5
1C
330
1B
100
AcDbEntity
 67
     1
  8
0
100
AcDbBlockBegin
  2
*Paper_Space
 70
     0
 10
0.0
 20
0.0
 30
0.0
  3
*Paper_Space
  1

  0
ENDBLK
  5
1D
330
1B
100
AcDbEntity
 67
     1
  8
0
100
AcDbBlockEnd
  0
BLOCK
  5
24
330
23
100
AcDbEntity
  8
0
100
AcDbBlockBegin
  2
*Paper_Space0
 70
     0
 10
0.0
 20
0.0
 30
0.0
  3
*Paper_Space0
  1

  0
ENDBLK
  5
25
330
23
100
AcDbEntity
  8
0
100
AcDbBlockEnd
  0
BLOCK
  5
43
330
41
100
AcDbEntity
  8
0
100
AcDbBlockBegin
  2
block 2
 70
     0
 10
0.0
 20
0.0
 30
0.0
  3
block 2
  1

  0
POLYLINE
  5
45
330
41
100
AcDbEntity
  8
_U+56FE_U+5C422
 62
     7
420
 16777215
370
    35
100
AcDb2dPolyline
 66
     1
 10
0.0
 20
0.0
 30
0.0
  0
VERTEX
  5
46
330
45
100
AcDbEntity
  8
_U+56FE_U+5C422
 62
     7
420
 16777215
370
    35
100
AcDbVertex
100
AcDb2dVertex
 10
2.559973925625981
 20
-0.0010893246187354
 30
0.0
  0
VERTEX
  5
47
330
45
100
AcDbEntity
  8
_U+56FE_U+5C422
 62
     7
420
 16777215
370
    35
100
AcDbVertex
100
AcDb2dVertex
 10
1.474845567694628
 20
-0.0010893246187354
 30
0.0
  0
SEQEND
  5
48
330
45
100
AcDbEntity
  8
_U+56FE_U+5C422
 62
     7
420
 16777215
370
    35
  0
ENDBLK
  5
44
330
41
100
AcDbEntity
  8
0
100
AcDbBlockEnd
  0
BLOCK
  5
4E
330
4C
100
AcDbEntity
  8
0
100
AcDbBlockBegin
  2
block 3
 70
     0
 10
0.0
 20
0.0
 30
0.0
  3
block 3
  1

  0
INSERT
  5
51
330
4C
100
AcDbEntity
  8
_U+56FE_U+5C421
100
AcDbBlockReference
  2
block 4
 10
0.0
 20
0.0
 30
0.0
  0
INSERT
  5
59
330
4C
100
AcDbEntity
  8
_U+56FE_U+5C421
100
AcDbBlockReference
  2
block 5
 10
0.0
 20
0.0
 30
0.0
  0
INSERT
  5
5F
330
4C
100
AcDbEntity
  8
_U+56FE_U+5C421
100
AcDbBlockReference
  2
block 6
 10
0.0
 20
0.0
 30
0.0
  0
INSERT
  5
64
330
4C
100
AcDbEntity
  8
_U+56FE_U+5C421
100
AcDbBlockReference
  2
block 7
 10
0.0
 20
0.0
 30
0.0
  0
INSERT
  5
6F
330
4C
100
AcDbEntity
  8
_U+56FE_U+5C421
100
AcDbBlockReference
  2
block 8
 10
0.0
 20
0.0
 30
0.0
  0
INSERT
  5
77
330
4C
100
AcDbEntity
  8
_U+56FE_U+5C421
100
AcDbBlockReference
  2
block 9
 10
0.0
 20
0.0
 30
0.0
  0
INSERT
  5
7F
330
4C
100
AcDbEntity
  8
_U+56FE_U+5C421
100
AcDbBlockReference
  2
block 10
 10
0.0
 20
0.0
 30
0.0
  0
INSERT
  5
87
330
4C
100
AcDbEntity
  8
_U+56FE_U+5C421
100
AcDbBlockReference
  2
block 11
 10
0.0
 20
0.0
 30
0.0
  0
INSERT
  5
92
330
4C
100
AcDbEntity
  8
_U+56FE_U+5C421
100
AcDbBlockReference
  2
block 12
 10
0.0
 20
0.0
 30
0.0
  0
INSERT
  5
9D
330
4C
100
AcDbEntity
  8
_U+56FE_U+5C421
100
AcDbBlockReference
  2
block 13
 10
0.0
 20
0.0
 30
0.0
  0
INSERT
  5
A2
330
4C
100
AcDbEntity
  8
_U+56FE_U+5C421
100
AcDbBlockReference
  2
block 14
 10
0.0
 20
0.0
 30
0.0
  0
INSERT
  5
AA
330
4C
100
AcDbEntity
  8
_U+56FE_U+5C421
100
AcDbBlockReference
  2
block 15
 10
0.0
 20
0.0
 30
0.0
  0
INSERT
  5
B2
330
4C
100
AcDbEntity
  8
_U+56FE_U+5C421
100
AcDbBlockReference
  2
block 16
 10
0.0
 20
0.0
 30
0.0
  0
INSERT
  5
BA
330
4C
100
AcDbEntity
  8
_U+56FE_U+5C421
100
AcDbBlockReference
  2
block 17
 10
0.0
 20
0.0
 30
0.0
  0
INSERT
  5
C5
330
4C
100
AcDbEntity
  8
_U+56FE_U+5C421
100
AcDbBlockReference
  2
block 18
 10
0.0
 20
0.0
 30
0.0
  0
INSERT
  5
D0
330
4C
100
AcDbEntity
  8
_U+56FE_U+5C421
100
AcDbBlockReference
  2
block 19
 10
0.0
 20
0.0
 30
0.0
  0
INSERT
  5
D5
330
4C
100
AcDbEntity
  8
_U+56FE_U+5C421
100
AcDbBlockReference
  2
block 20
 10
0.0
 20
0.0
 30
0.0
  0
INSERT
  5
DD
330
4C
100
AcDbEntity
  8
_U+56FE_U+5C421
100
AcDbBlockReference
  2
block 21
 10
0.0
 20
0.0
 30
0.0
  0
INSERT
  5
E5
330
4C
100
AcDbEntity
  8
_U+56FE_U+5C421
100
AcDbBlockReference
  2
block 22
 10
0.0
 20
0.0
 30
0.0
  0
INSERT
  5
ED
330
4C
100
AcDbEntity
  8
_U+56FE_U+5C421
100
AcDbBlockReference
  2
block 23
 10
0.0
 20
0.0
 30
0.0
  0
INSERT
  5
F8
330
4C
100
AcDbEntity
  8
_U+56FE_U+5C421
100
AcDbBlockReference
  2
block 24
 10
0.0
 20
0.0
 30
0.0
  0
INSERT
  5
103
330
4C
100
AcDbEntity
  8
_U+56FE_U+5C421
100
AcDbBlockReference
  2
block 25
 10
0.0
 20
0.0
 30
0.0
  0
INSERT
  5
108
330
4C
100
AcDbEntity
  8
_U+56FE_U+5C421
100
AcDbBlockReference
  2
block 26
 10
0.0
 20
0.0
 30
0.0
  0
INSERT
  5
110
330
4C
100
AcDbEntity
  8
_U+56FE_U+5C421
100
AcDbBlockReference
  2
block 27
 10
0.0
 20
0.0
 30
0.0
  0
INSERT
  5
118
330
4C
100
AcDbEntity
  8
_U+56FE_U+5C421
100
AcDbBlockReference
  2
block 28
 10
0.0
 20
0.0
 30
0.0
  0
INSERT
  5
120
330
4C
100
AcDbEntity
  8
_U+56FE_U+5C421
100
AcDbBlockReference
  2
block 29
 10
0.0
 20
0.0
 30
0.0
  0
INSERT
  5
12B
330
4C
100
AcDbEntity
  8
_U+56FE_U+5C421
100
AcDbBlockReference
  2
block 30
 10
0.0
 20
0.0
 30
0.0
  0
INSERT
  5
136
330
4C
100
AcDbEntity
  8
_U+56FE_U+5C421
100
AcDbBlockReference
  2
block 31
 10
0.0
 20
0.0
 30
0.0
  0
INSERT
  5
13B
330
4C
100
AcDbEntity
  8
_U+56FE_U+5C421
100
AcDbBlockReference
  2
block 32
 10
0.0
 20
0.0
 30
0.0
  0
INSERT
  5
143
330
4C
100
AcDbEntity
  8
_U+56FE_U+5C421
100
AcDbBlockReference
  2
block 33
 10
0.0
 20
0.0
 30
0.0
  0
INSERT
  5
14B
330
4C
100
AcDbEntity
  8
_U+56FE_U+5C421
100
AcDbBlockReference
  2
block 34
 10
0.0
 20
0.0
 30
0.0
  0
INSERT
  5
153
330
4C
100
AcDbEntity
  8
_U+56FE_U+5C421
100
AcDbBlockReference
  2
block 35
 10
0.0
 20
0.0
 30
0.0
  0
INSERT
  5
15E
330
4C
100
AcDbEntity
  8
_U+56FE_U+5C421
100
AcDbBlockReference
  2
block 36
 10
0.0
 20
0.0
 30
0.0
  0
INSERT
  5
169
330
4C
100
AcDbEntity
  8
_U+56FE_U+5C421
100
AcDbBlockReference
  2
block 37
 10
0.0
 20
0.0
 30
0.0
  0
INSERT
  5
16E
330
4C
100
AcDbEntity
  8
_U+56FE_U+5C421
100
AcDbBlockReference
  2
block 38
 10
0.0
 20
0.0
 30
0.0
  0
INSERT
  5
176
330
4C
100
AcDbEntity
  8
_U+56FE_U+5C421
100
AcDbBlockReference
  2
block 39
 10
0.0
 20
0.0
 30
0.0
  0
INSERT
  5
17E
330
4C
100
AcDbEntity
  8
_U+56FE_U+5C421
100
AcDbBlockReference
  2
block 40
 10
0.0
 20
0.0
 30
0.0
  0
INSERT
  5
186
330
4C
100
AcDbEntity
  8
_U+56FE_U+5C421
100
AcDbBlockReference
  2
block 41
 10
0.0
 20
0.0
 30
0.0
  0
INSERT
  5
191
330
4C
100
AcDbEntity
  8
_U+56FE_U+5C421
100
AcDbBlockReference
  2
block 42
 10
0.0
 20
0.0
 30
0.0
  0
INSERT
  5
19C
330
4C
100
AcDbEntity
  8
_U+56FE_U+5C421
100
AcDbBlockReference
  2
block 43
 10
0.0
 20
0.0
 30
0.0
  0
INSERT
  5
1A1
330
4C
100
AcDbEntity
  8
_U+56FE_U+5C421
100
AcDbBlockReference
  2
block 44
 10
0.0
 20
0.0
 30
0.0
  0
INSERT
  5
1A9
330
4C
100
AcDbEntity
  8
_U+56FE_U+5C421
100
AcDbBlockReference
  2
block 45
 10
0.0
 20
0.0
 30
0.0
  0
INSERT
  5
1B1
330
4C
100
AcDbEntity
  8
_U+56FE_U+5C421
100
AcDbBlockReference
  2
block 46
 10
0.0
 20
0.0
 30
0.0
  0
INSERT
  5
1B9
330
4C
100
AcDbEntity
  8
_U+56FE_U+5C421
100
AcDbBlockReference
  2
block 47
 10
0.0
 20
0.0
 30
0.0
  0
INSERT
  5
1C4
330
4C
100
AcDbEntity
  8
_U+56FE_U+5C421
100
AcDbBlockReference
  2
block 48
 10
0.0
 20
0.0
 30
0.0
  0
INSERT
  5
1CF
330
4C
100
AcDbEntity
  8
_U+56FE_U+5C421
100
AcDbBlockReference
  2
block 49
 10
0.0
 20
0.0
 30
0.0
  0
INSERT
  5
1D4
330
4C
100
AcDbEntity
  8
_U+56FE_U+5C421
100
AcDbBlockReference
  2
block 50
 10
0.0
 20
0.0
 30
0.0
  0
INSERT
  5
1DC
330
4C
100
AcDbEntity
  8
_U+56FE_U+5C421
100
AcDbBlockReference
  2
block 51
 10
0.0
 20
0.0
 30
0.0
  0
INSERT
  5
1E4
330
4C
100
AcDbEntity
  8
_U+56FE_U+5C421
100
AcDbBlockReference
  2
block 52
 10
0.0
 20
0.0
 30
0.0
  0
INSERT
  5
1EC
330
4C
100
AcDbEntity
  8
_U+56FE_U+5C421
100
AcDbBlockReference
  2
block 53
 10
0.0
 20
0.0
 30
0.0
  0
INSERT
  5
1F7
330
4C
100
AcDbEntity
  8
_U+56FE_U+5C421
100
AcDbBlockReference
  2
block 54
 10
0.0
 20
0.0
 30
0.0
  0
INSERT
  5
202
330
4C
100
AcDbEntity
  8
_U+56FE_U+5C421
100
AcDbBlockReference
  2
block 55
 10
0.0
 20
0.0
 30
0.0
  0
INSERT
  5
207
330
4C
100
AcDbEntity
  8
_U+56FE_U+5C421
100
AcDbBlockReference
  2
block 56
 10
0.0
 20
0.0
 30
0.0
  0
INSERT
  5
20F
330
4C
100
AcDbEntity
  8
_U+56FE_U+5C421
100
AcDbBlockReference
  2
block 57
 10
0.0
 20
0.0
 30
0.0
  0
INSERT
  5
217
330
4C
100
AcDbEntity
  8
_U+56FE_U+5C421
100
AcDbBlockReference
  2
block 58
 10
0.0
 20
0.0
 30
0.0
  0
INSERT
  5
21F
330
4C
100
AcDbEntity
  8
_U+56FE_U+5C421
100
AcDbBlockReference
  2
block 59
 10
0.0
 20
0.0
 30
0.0
  0
INSERT
  5
22A
330
4C
100
AcDbEntity
  8
_U+56FE_U+5C421
100
AcDbBlockReference
  2
block 60
 10
0.0
 20
0.0
 30
0.0
  0
INSERT
  5
235
330
4C
100
AcDbEntity
  8
_U+56FE_U+5C421
100
AcDbBlockReference
  2
block 61
 10
0.0
 20
0.0
 30
0.0
  0
INSERT
  5
23A
330
4C
100
AcDbEntity
  8
_U+56FE_U+5C421
100
AcDbBlockReference
  2
block 62
 10
0.0
 20
0.0
 30
0.0
  0
INSERT
  5
242
330
4C
100
AcDbEntity
  8
_U+56FE_U+5C421
100
AcDbBlockReference
  2
block 63
 10
0.0
 20
0.0
 30
0.0
  0
INSERT
  5
24A
330
4C
100
AcDbEntity
  8
_U+56FE_U+5C421
100
AcDbBlockReference
  2
block 64
 10
0.0
 20
0.0
 30
0.0
  0
INSERT
  5
24F
330
4C
100
AcDbEntity
  8
_U+56FE_U+5C421
100
AcDbBlockReference
  2
block 65
 10
0.0
 20
0.0
 30
0.0
  0
INSERT
  5
25A
330
4C
100
AcDbEntity
  8
_U+56FE_U+5C421
100
AcDbBlockReference
  2
block 66
 10
0.0
 20
0.0
 30
0.0
  0
INSERT
  5
262
330
4C
100
AcDbEntity
  8
_U+56FE_U+5C421
100
AcDbBlockReference
  2
block 67
 10
0.0
 20
0.0
 30
0.0
  0
INSERT
  5
26A
330
4C
100
AcDbEntity
  8
_U+56FE_U+5C421
100
AcDbBlockReference
  2
block 68
 10
0.0
 20
0.0
 30
0.0
  0
INSERT
  5
26F
330
4C
100
AcDbEntity
  8
_U+56FE_U+5C421
100
AcDbBlockReference
  2
block 69
 10
0.0
 20
0.0
 30
0.0
  0
INSERT
  5
27A
330
4C
100
AcDbEntity
  8
_U+56FE_U+5C421
100
AcDbBlockReference
  2
block 70
 10
0.0
 20
0.0
 30
0.0
  0
INSERT
  5
282
330
4C
100
AcDbEntity
  8
_U+56FE_U+5C421
100
AcDbBlockReference
  2
block 71
 10
0.0
 20
0.0
 30
0.0
  0
INSERT
  5
28A
330
4C
100
AcDbEntity
  8
_U+56FE_U+5C421
100
AcDbBlockReference
  2
block 72
 10
0.0
 20
0.0
 30
0.0
  0
INSERT
  5
28F
330
4C
100
AcDbEntity
  8
_U+56FE_U+5C421
100
AcDbBlockReference
  2
block 73
 10
0.0
 20
0.0
 30
0.0
  0
INSERT
  5
29A
330
4C
100
AcDbEntity
  8
_U+56FE_U+5C421
100
AcDbBlockReference
  2
block 74
 10
0.0
 20
0.0
 30
0.0
  0
INSERT
  5
2A2
330
4C
100
AcDbEntity
  8
_U+56FE_U+5C421
100
AcDbBlockReference
  2
block 75
 10
0.0
 20
0.0
 30
0.0
  0
INSERT
  5
2AA
330
4C
100
AcDbEntity
  8
_U+56FE_U+5C421
100
AcDbBlockReference
  2
block 76
 10
0.0
 20
0.0
 30
0.0
  0
INSERT
  5
2AF
330
4C
100
AcDbEntity
  8
_U+56FE_U+5C421
100
AcDbBlockReference
  2
block 77
 10
0.0
 20
0.0
 30
0.0
  0
INSERT
  5
2B7
330
4C
100
AcDbEntity
  8
_U+56FE_U+5C421
100
AcDbBlockReference
  2
block 78
 10
0.0
 20
0.0
 30
0.0
  0
INSERT
  5
2C2
330
4C
100
AcDbEntity
  8
_U+56FE_U+5C421
100
AcDbBlockReference
  2
block 79
 10
0.0
 20
0.0
 30
0.0
  0
INSERT
  5
2CA
330
4C
100
AcDbEntity
  8
_U+56FE_U+5C421
100
AcDbBlockReference
  2
block 80
 10
0.0
 20
0.0
 30
0.0
  0
INSERT
  5
2D2
330
4C
100
AcDbEntity
  8
_U+56FE_U+5C421
100
AcDbBlockReference
  2
block 81
 10
0.0
 20
0.0
 30
0.0
  0
INSERT
  5
2D7
330
4C
100
AcDbEntity
  8
_U+56FE_U+5C421
100
AcDbBlockReference
  2
block 82
 10
0.0
 20
0.0
 30
0.0
  0
INSERT
  5
2DF
330
4C
100
AcDbEntity
  8
_U+56FE_U+5C421
100
AcDbBlockReference
  2
block 83
 10
0.0
 20
0.0
 30
0.0
  0
INSERT
  5
2EA
330
4C
100
AcDbEntity
  8
_U+56FE_U+5C421
100
AcDbBlockReference
  2
block 84
 10
0.0
 20
0.0
 30
0.0
  0
INSERT
  5
2EF
330
4C
100
AcDbEntity
  8
_U+56FE_U+5C421
100
AcDbBlockReference
  2
block 85
 10
0.0
 20
0.0
 30
0.0
  0
INSERT
  5
2F7
330
4C
100
AcDbEntity
  8
_U+56FE_U+5C421
100
AcDbBlockReference
  2
block 86
 10
0.0
 20
0.0
 30
0.0
  0
INSERT
  5
2FF
330
4C
100
AcDbEntity
  8
_U+56FE_U+5C421
100
AcDbBlockReference
  2
block 87
 10
0.0
 20
0.0
 30
0.0
  0
INSERT
  5
304
330
4C
100
AcDbEntity
  8
_U+56FE_U+5C421
100
AcDbBlockReference
  2
block 88
 10
0.0
 20
0.0
 30
0.0
  0
INSERT
  5
30F
330
4C
100
AcDbEntity
  8
_U+56FE_U+5C421
100
AcDbBlockReference
  2
block 89
 10
0.0
 20
0.0
 30
0.0
  0
INSERT
  5
317
330
4C
100
AcDbEntity
  8
_U+56FE_U+5C421
100
AcDbBlockReference
  2
block 90
 10
0.0
 20
0.0
 30
0.0
  0
INSERT
  5
31F
330
4C
100
AcDbEntity
  8
_U+56FE_U+5C421
100
AcDbBlockReference
  2
block 91
 10
0.0
 20
0.0
 30
0.0
  0
INSERT
  5
327
330
4C
100
AcDbEntity
  8
_U+56FE_U+5C421
100
AcDbBlockReference
  2
block 92
 10
0.0
 20
0.0
 30
0.0
  0
INSERT
  5
32F
330
4C
100
AcDbEntity
  8
_U+56FE_U+5C421
100
AcDbBlockReference
  2
block 93
 10
0.0
 20
0.0
 30
0.0
  0
INSERT
  5
337
330
4C
100
AcDbEntity
  8
_U+56FE_U+5C421
100
AcDbBlockReference
  2
block 94
 10
0.0
 20
0.0
 30
0.0
  0
INSERT
  5
33F
330
4C
100
AcDbEntity
  8
_U+56FE_U+5C421
100
AcDbBlockReference
  2
block 95
 10
0.0
 20
0.0
 30
0.0
  0
INSERT
  5
347
330
4C
100
AcDbEntity
  8
_U+56FE_U+5C421
100
AcDbBlockReference
  2
block 96
 10
0.0
 20
0.0
 30
0.0
  0
INSERT
  5
34F
330
4C
100
AcDbEntity
  8
_U+56FE_U+5C421
100
AcDbBlockReference
  2
block 97
 10
0.0
 20
0.0
 30
0.0
  0
INSERT
  5
357
330
4C
100
AcDbEntity
  8
_U+56FE_U+5C421
100
AcDbBlockReference
  2
block 98
 10
0.0
 20
0.0
 30
0.0
  0
INSERT
  5
35F
330
4C
100
AcDbEntity
  8
_U+56FE_U+5C421
100
AcDbBlockReference
  2
block 99
 10
0.0
 20
0.0
 30
0.0
  0
INSERT
  5
367
330
4C
100
AcDbEntity
  8
_U+56FE_U+5C421
100
AcDbBlockReference
  2
block 100
 10
0.0
 20
0.0
 30
0.0
  0
INSERT
  5
36F
330
4C
100
AcDbEntity
  8
_U+56FE_U+5C421
100
AcDbBlockReference
  2
block 101
 10
0.0
 20
0.0
 30
0.0
  0
INSERT
  5
377
330
4C
100
AcDbEntity
  8
_U+56FE_U+5C421
100
AcDbBlockReference
  2
block 102
 10
0.0
 20
0.0
 30
0.0
  0
INSERT
  5
37F
330
4C
100
AcDbEntity
  8
_U+56FE_U+5C421
100
AcDbBlockReference
  2
block 103
 10
0.0
 20
0.0
 30
0.0
  0
INSERT
  5
387
330
4C
100
AcDbEntity
  8
_U+56FE_U+5C421
100
AcDbBlockReference
  2
block 104
 10
0.0
 20
0.0
 30
0.0
  0
INSERT
  5
38F
330
4C
100
AcDbEntity
  8
_U+56FE_U+5C421
100
AcDbBlockReference
  2
block 105
 10
0.0
 20
0.0
 30
0.0
  0
INSERT
  5
397
330
4C
100
AcDbEntity
  8
_U+56FE_U+5C421
100
AcDbBlockReference
  2
block 106
 10
0.0
 20
0.0
 30
0.0
  0
INSERT
  5
39F
330
4C
100
AcDbEntity
  8
_U+56FE_U+5C421
100
AcDbBlockReference
  2
block 107
 10
0.0
 20
0.0
 30
0.0
  0
INSERT
  5
3A7
330
4C
100
AcDbEntity
  8
_U+56FE_U+5C421
100
AcDbBlockReference
  2
block 108
 10
0.0
 20
0.0
 30
0.0
  0
INSERT
  5
3AF
330
4C
100
AcDbEntity
  8
_U+56FE_U+5C421
100
AcDbBlockReference
  2
block 109
 10
0.0
 20
0.0
 30
0.0
  0
INSERT
  5
3B7
330
4C
100
AcDbEntity
  8
_U+56FE_U+5C421
100
AcDbBlockReference
  2
block 110
 10
0.0
 20
0.0
 30
0.0
  0
INSERT
  5
3BF
330
4C
100
AcDbEntity
  8
_U+56FE_U+5C421
100
AcDbBlockReference
  2
block 111
 10
0.0
 20
0.0
 30
0.0
  0
INSERT
  5
3C7
330
4C
100
AcDbEntity
  8
_U+56FE_U+5C421
100
AcDbBlockReference
  2
block 112
 10
0.0
 20
0.0
 30
0.0
  0
INSERT
  5
3CF
330
4C
100
AcDbEntity
  8
_U+56FE_U+5C421
100
AcDbBlockReference
  2
block 113
 10
0.0
 20
0.0
 30
0.0
  0
INSERT
  5
3D7
330
4C
100
AcDbEntity
  8
_U+56FE_U+5C421
100
AcDbBlockReference
  2
block 114
 10
0.0
 20
0.0
 30
0.0
  0
INSERT
  5
3DF
330
4C
100
AcDbEntity
  8
_U+56FE_U+5C421
100
AcDbBlockReference
  2
block 115
 10
0.0
 20
0.0
 30
0.0
  0
INSERT
  5
3E7
330
4C
100
AcDbEntity
  8
_U+56FE_U+5C421
100
AcDbBlockReference
  2
block 116
 10
0.0
 20
0.0
 30
0.0
  0
INSERT
  5
3EF
330
4C
100
AcDbEntity
  8
_U+56FE_U+5C421
100
AcDbBlockReference
  2
block 117
 10
0.0
 20
0.0
 30
0.0
  0
INSERT
  5
3F7
330
4C
100
AcDbEntity
  8
_U+56FE_U+5C421
100
AcDbBlockReference
  2
block 118
 10
0.0
 20
0.0
 30
0.0
  0
INSERT
  5
3FF
330
4C
100
AcDbEntity
  8
_U+56FE_U+5C421
100
AcDbBlockReference
  2
block 119
 10
0.0
 20
0.0
 30
0.0
  0
INSERT
  5
407
330
4C
100
AcDbEntity
  8
_U+56FE_U+5C421
100
AcDbBlockReference
  2
block 120
 10
0.0
 20
0.0
 30
0.0
  0
INSERT
  5
40F
330
4C
100
AcDbEntity
  8
_U+56FE_U+5C421
100
AcDbBlockReference
  2
block 121
 10
0.0
 20
0.0
 30
0.0
  0
INSERT
  5
417
330
4C
100
AcDbEntity
  8
_U+56FE_U+5C421
100
AcDbBlockReference
  2
block 122
 10
0.0
 20
0.0
 30
0.0
  0
INSERT
  5
41F
330
4C
100
AcDbEntity
  8
_U+56FE_U+5C421
100
AcDbBlockReference
  2
block 123
 10
0.0
 20
0.0
 30
0.0
  0
INSERT
  5
427
330
4C
100
AcDbEntity
  8
_U+56FE_U+5C421
100
AcDbBlockReference
  2
block 124
 10
0.0
 20
0.0
 30
0.0
  0
INSERT
  5
42F
330
4C
100
AcDbEntity
  8
_U+56FE_U+5C421
100
AcDbBlockReference
  2
block 125
 10
0.0
 20
0.0
 30
0.0
  0
INSERT
  5
437
330
4C
100
AcDbEntity
  8
_U+56FE_U+5C421
100
AcDbBlockReference
  2
block 126
 10
0.0
 20
0.0
 30
0.0
  0
INSERT
  5
43F
330
4C
100
AcDbEntity
  8
_U+56FE_U+5C421
100
AcDbBlockReference
  2
block 127
 10
0.0
 20
0.0
 30
0.0
  0
INSERT
  5
447
330
4C
100
AcDbEntity
  8
_U+56FE_U+5C421
100
AcDbBlockReference
  2
block 128
 10
0.0
 20
0.0
 30
0.0
  0
INSERT
  5
44D
330
4C
100
AcDbEntity
  8
_U+56FE_U+5C421
100
AcDbBlockReference
  2
block 129
 10
0.0
 20
0.0
 30
0.0
  0
ENDBLK
  5
4F
330
4C
100
AcDbEntity
  8
0
100
AcDbBlockEnd
  0
BLOCK
  5
52
330
50
100
AcDbEntity
  8
0
100
AcDbBlockBegin
  2
block 4
 70
     0
 10
0.0
 20
0.0
 30
0.0
  3
block 4
  1

  0
POLYLINE
  5
54
330
50
100
AcDbEntity
  8
_U+56FE_U+5C421
 62
     7
420
 16777215
370
    35
100
AcDb2dPolyline
 66
     1
 10
0.0
 20
0.0
 30
0.0
  0
VERTEX
  5
55
330
54
100
AcDbEntity
  8
_U+56FE_U+5C421
 62
     7
420
 16777215
370
    35
100
AcDbVertex
100
AcDb2dVertex
 10
6.537264234917958
 20
6.478931014104053
 30
0.0
  0
VERTEX
  5
56
330
54
100
AcDbEntity
  8
_U+56FE_U+5C421
 62
     7
420
 16777215
370
    35
100
AcDbVertex
100
AcDb2dVertex
 10
6.537264234917958
 20
5.204667397498471
 30
0.0
  0
SEQEND
  5
57
330
54
100
AcDbEntity
  8
_U+56FE_U+5C421
 62
     7
420
 16777215
370
    35
  0
ENDBLK
  5
53
330
50
100
AcDbEntity
  8
0
100
AcDbBlockEnd
  0
BLOCK
  5
5A
330
58
100
AcDbEntity
  8
0
100
AcDbBlockBegin
  2
block 5
 70
     0
 10
0.0
 20
0.0
 30
0.0
  3
block 5
  1

  0
SPLINE
  5
5C
330
58
100
AcDbEntity
  8
_U+56FE_U+5C421
  6
AI-Linetype-1
 62
     1
420
 16711680
370
    35
100
AcDbSpline
210
0.0
220
0.0
230
1.0
 70
    11
 71
     3
 72
    38
 73
    34
 74
     0
 42
0.0000000001
 43
0.0000000001
 12
1.0
 22
0.0
 32
0.0
 13
1.0
 23
0.0
 33
0.0
 40
0.0
 40
0.0
 40
0.0
 40
0.0
 40
1.0
 40
1.0
 40
1.0
 40
2.0
 40
2.0
 40
2.0
 40
3.0
 40
3.0
 40
3.0
 40
4.0
 40
4.0
 40
4.0
 40
5.0
 40
5.0
 40
5.0
 40
6.0
 40
6.0
 40
6.0
 40
7.0
 40
7.0
 40
7.0
 40
8.0
 40
8.0
 40
8.0
 40
9.0
 40
9.0
 40
9.0
 40
10.0
 40
10.0
 40
10.0
 40
11.0
 40
11.0
 40
11.0
 40
11.0
 10
6.537264234917958
 20
6.478931014104053
 30
0.0
 10
6.537264234917958
 20
6.814814732672819
 30
0.0
 10
6.264976681924938
 20
7.087102285665777
 30
0.0
 10
5.929092963356172
 20
7.087102285665777
 30
0.0
 10
5.929092963356172
 20
7.087102285665777
 30
0.0
 10
4.515239329049033
 20
7.087102285665777
 30
0.0
 10
4.515239329049033
 20
7.087102285665777
 30
0.0
 10
4.429643236782415
 20
7.087102285665777
 30
0.0
 10
4.348431704618532
 20
7.124967357779458
 30
0.0
 10
4.293405645304296
 20
7.190532774026615
 30
0.0
 10
4.163544136469707
 20
7.345267162235991
 30
0.0
 10
3.971884919231368
 20
7.434628729568342
 30
0.0
 10
3.769878141482081
 20
7.434628726558205
 30
0.0
 10
3.76987815166654
 20
7.434628726558205
 30
0.0
 10
2.762051473078486
 20
7.434628726558205
 30
0.0
 10
2.762051473078486
 20
7.434628726558205
 30
0.0
 10
2.384582151258403
 20
7.434628726558205
 30
0.0
 10
2.078582805990082
 20
7.128629381289884
 30
0.0
 10
2.078582805990082
 20
6.751160059469775
 30
0.0
 10
2.078582805990082
 20
6.751160059469775
 30
0.0
 10
2.078582805990082
 20
5.279964793025202
 30
0.0
 10
2.078582805990082
 20
5.279964793025202
 30
0.0
 10
2.078582805990082
 20
4.90249547120503
 30
0.0
 10
2.384582151258403
 20
4.596496125936684
 30
0.0
 10
2.762051473078486
 20
4.596496125936684
 30
0.0
 10
2.762051473078486
 20
4.596496125936786
 30
0.0
 10
5.929092963356172
 20
4.596496125936786
 30
0.0
 10
5.929092963356172
 20
4.596496125936786
 30
0.0
 10
6.264976681924938
 20
4.596496125936684
 30
0.0
 10
6.537264234917958
 20
4.868783678929756
 30
0.0
 10
6.537264234917958
 20
5.204667397498471
 30
0.0
 10
6.537264234917958
 20
5.204667397498471
 30
0.0
 10
6.537264234917958
 20
6.478931014104053
 30
0.0
 10
6.537264234917958
 20
6.478931014104053
 30
0.0
  0
ENDBLK
  5
5B
330
58
100
AcDbEntity
  8
0
100
AcDbBlockEnd
  0
BLOCK
  5
60
330
5E
100
AcDbEntity
  8
0
100
AcDbBlockBegin
  2
block 6
 70
     0
 10
0.0
 20
0.0
 30
0.0
  3
block 6
  1

  0
MTEXT
  5
62
330
5E
100
AcDbEntity
  8
_U+56FE_U+5C421
 62
     7
420
 16777215
100
AcDbMText
 10
3.983919308831294
 20
3.227039972941081
 30
0.0
 40
0.115842140674591
 41
0.0
 46
0.0
 71
     7
 72
     1
  1
\fMyriad Pro|b0|i0|c0|p34;\W1;207002L
 73
     1
 44
1.0
  0
ENDBLK
  5
61
330
5E
100
AcDbEntity
  8
0
100
AcDbBlockEnd
  0
BLOCK
  5
65
330
63
100
AcDbEntity
  8
0
100
AcDbBlockBegin
  2
block 7
 70
     0
 10
0.0
 20
0.0
 30
0.0
  3
block 7
  1

  0
POLYLINE
  5
67
330
63
100
AcDbEntity
  8
_U+56FE_U+5C421
 62
     7
420
 16777215
370
    20
100
AcDb2dPolyline
 66
     1
 10
0.0
 20
0.0
 30
0.0
  0
VERTEX
  5
68
330
67
100
AcDbEntity
  8
_U+56FE_U+5C421
 62
     7
420
 16777215
370
    20
100
AcDbVertex
100
AcDb2dVertex
 10
8.498364295809527
 20
2.596104164952319
 30
0.0
  0
VERTEX
  5
69
330
67
100
AcDbEntity
  8
_U+56FE_U+5C421
 62
     7
420
 16777215
370
    20
100
AcDbVertex
100
AcDb2dVertex
 10
0.0016357041904737
 20
2.596104164952319
 30
0.0
  0
VERTEX
  5
6A
330
67
100
AcDbEntity
  8
_U+56FE_U+5C421
 62
     7
420
 16777215
370
    20
100
AcDbVertex
100
AcDb2dVertex
 10
0.0016357041904737
 20
8.403895835047667
 30
0.0
  0
VERTEX
  5
6B
330
67
100
AcDbEntity
  8
_U+56FE_U+5C421
 62
     7
420
 16777215
370
    20
100
AcDbVertex
100
AcDb2dVertex
 10
8.498364295809527
 20
8.403895835047667
 30
0.0
  0
VERTEX
  5
6C
330
67
100
AcDbEntity
  8
_U+56FE_U+5C421
 62
     7
420
 16777215
370
    20
100
AcDbVertex
100
AcDb2dVertex
 10
8.498364295809527
 20
2.596104164952319
 30
0.0
  0
SEQEND
  5
6D
330
67
100
AcDbEntity
  8
_U+56FE_U+5C421
 62
     7
420
 16777215
370
    20
  0
ENDBLK
  5
66
330
63
100
AcDbEntity
  8
0
100
AcDbBlockEnd
  0
BLOCK
  5
70
330
6E
100
AcDbEntity
  8
0
100
AcDbBlockBegin
  2
block 8
 70
     0
 10
0.0
 20
0.0
 30
0.0
  3
block 8
  1

  0
POLYLINE
  5
72
330
6E
100
AcDbEntity
  8
_U+56FE_U+5C421
 62
     7
420
 16777215
370
    20
100
AcDb2dPolyline
 66
     1
 10
0.0
 20
0.0
 30
0.0
  0
VERTEX
  5
73
330
72
100
AcDbEntity
  8
_U+56FE_U+5C421
 62
     7
420
 16777215
370
    20
100
AcDbVertex
100
AcDb2dVertex
 10
2.727298828989269
 20
4.654417199418831
 30
0.0
  0
VERTEX
  5
74
330
72
100
AcDbEntity
  8
_U+56FE_U+5C421
 62
     7
420
 16777215
370
    20
100
AcDbVertex
100
AcDb2dVertex
 10
1.843945250116071
 20
4.654417199418831
 30
0.0
  0
SEQEND
  5
75
330
72
100
AcDbEntity
  8
_U+56FE_U+5C421
 62
     7
420
 16777215
370
    20
  0
ENDBLK
  5
71
330
6E
100
AcDbEntity
  8
0
100
AcDbBlockEnd
  0
BLOCK
  5
78
330
76
100
AcDbEntity
  8
0
100
AcDbBlockBegin
  2
block 9
 70
     0
 10
0.0
 20
0.0
 30
0.0
  3
block 9
  1

  0
POLYLINE
  5
7A
330
76
100
AcDbEntity
  8
_U+56FE_U+5C421
 62
     7
420
 16777215
370
    20
100
AcDb2dPolyline
 66
     1
 10
0.0
 20
0.0
 30
0.0
  0
VERTEX
  5
7B
330
7A
100
AcDbEntity
  8
_U+56FE_U+5C421
 62
     7
420
 16777215
370
    20
100
AcDbVertex
100
AcDb2dVertex
 10
2.727298828989269
 20
7.376707653076146
 30
0.0
  0
VERTEX
  5
7C
330
7A
100
AcDbEntity
  8
_U+56FE_U+5C421
 62
     7
420
 16777215
370
    20
100
AcDbVertex
100
AcDb2dVertex
 10
1.843945250116071
 20
7.376707653076146
 30
0.0
  0
SEQEND
  5
7D
330
7A
100
AcDbEntity
  8
_U+56FE_U+5C421
 62
     7
420
 16777215
370
    20
  0
ENDBLK
  5
79
330
76
100
AcDbEntity
  8
0
100
AcDbBlockEnd
  0
BLOCK
  5
80
330
7E
100
AcDbEntity
  8
0
100
AcDbBlockBegin
  2
block 10
 70
     0
 10
0.0
 20
0.0
 30
0.0
  3
block 10
  1

  0
POLYLINE
  5
82
330
7E
100
AcDbEntity
  8
_U+56FE_U+5C421
 62
     7
420
 16777215
370
    20
100
AcDb2dPolyline
 66
     1
 10
0.0
 20
0.0
 30
0.0
  0
VERTEX
  5
83
330
82
100
AcDbEntity
  8
_U+56FE_U+5C421
 62
     7
420
 16777215
370
    20
100
AcDbVertex
100
AcDb2dVertex
 10
1.851185384301326
 20
4.735506702293706
 30
0.0
  0
VERTEX
  5
84
330
82
100
AcDbEntity
  8
_U+56FE_U+5C421
 62
     7
420
 16777215
370
    20
100
AcDbVertex
100
AcDb2dVertex
 10
1.851185384301326
 20
7.295618150201246
 30
0.0
  0
SEQEND
  5
85
330
82
100
AcDbEntity
  8
_U+56FE_U+5C421
 62
     7
420
 16777215
370
    20
  0
ENDBLK
  5
81
330
7E
100
AcDbEntity
  8
0
100
AcDbBlockEnd
  0
BLOCK
  5
88
330
86
100
AcDbEntity
  8
0
100
AcDbBlockBegin
  2
block 11
 70
     0
 10
0.0
 20
0.0
 30
0.0
  3
block 11
  1

  0
POLYLINE
  5
8A
330
86
100
AcDbEntity
  8
_U+56FE_U+5C421
370
     0
100
AcDb2dPolyline
 66
     1
 10
0.0
 20
0.0
 30
0.0
  0
VERTEX
  5
8B
330
8A
100
AcDbEntity
  8
_U+56FE_U+5C421
370
     0
100
AcDbVertex
100
AcDb2dVertex
 10
1.837670467155489
 20
4.735506702293706
 30
0.0
  0
VERTEX
  5
8C
330
8A
100
AcDbEntity
  8
_U+56FE_U+5C421
370
     0
100
AcDbVertex
100
AcDb2dVertex
 10
1.851185384301326
 20
4.654417199418831
 30
0.0
  0
VERTEX
  5
8D
330
8A
100
AcDbEntity
  8
_U+56FE_U+5C421
370
     0
100
AcDbVertex
100
AcDb2dVertex
 10
1.864700301447151
 20
4.735506702293706
 30
0.0
  0
VERTEX
  5
8E
330
8A
100
AcDbEntity
  8
_U+56FE_U+5C421
370
     0
100
AcDbVertex
100
AcDb2dVertex
 10
1.837670467155489
 20
4.735506702293706
 30
0.0
  0
SEQEND
  5
90
330
8A
100
AcDbEntity
  8
_U+56FE_U+5C421
370
     0
  0
HATCH
  5
8F
330
86
100
AcDbEntity
  8
_U+56FE_U+5C421
 62
     7
420
 16777215
100
AcDbHatch
 10
0.0
 20
0.0
 30
0.0
210
0.0
220
0.0
230
1.0
  2
SOLID
 70
     1
 71
     0
 91
        1
 92
        1
 93
        3
 72
     1
 10
1.837670467155489
 20
4.735506702293706
 11
1.851185384301326
 21
4.654417199418831
 72
     1
 10
1.851185384301326
 20
4.654417199418831
 11
1.864700301447151
 21
4.735506702293706
 72
     1
 10
1.864700301447151
 20
4.735506702293706
 11
1.837670467155489
 21
4.735506702293706
 97
        0
 75
     2
 76
     1
 98
        0
  0
ENDBLK
  5
89
330
86
100
AcDbEntity
  8
0
100
AcDbBlockEnd
  0
BLOCK
  5
93
330
91
100
AcDbEntity
  8
0
100
AcDbBlockBegin
  2
block 12
 70
     0
 10
0.0
 20
0.0
 30
0.0
  3
block 12
  1

  0
POLYLINE
  5
95
330
91
100
AcDbEntity
  8
_U+56FE_U+5C421
370
     0
100
AcDb2dPolyline
 66
     1
 10
0.0
 20
0.0
 30
0.0
  0
VERTEX
  5
96
330
95
100
AcDbEntity
  8
_U+56FE_U+5C421
370
     0
100
AcDbVertex
100
AcDb2dVertex
 10
1.837670467155489
 20
7.295618150201246
 30
0.0
  0
VERTEX
  5
97
330
95
100
AcDbEntity
  8
_U+56FE_U+5C421
370
     0
100
AcDbVertex
100
AcDb2dVertex
 10
1.851185384301326
 20
7.376707653076146
 30
0.0
  0
VERTEX
  5
98
330
95
100
AcDbEntity
  8
_U+56FE_U+5C421
370
     0
100
AcDbVertex
100
AcDb2dVertex
 10
1.864700301447151
 20
7.295618150201246
 30
0.0
  0
VERTEX
  5
99
330
95
100
AcDbEntity
  8
_U+56FE_U+5C421
370
     0
100
AcDbVertex
100
AcDb2dVertex
 10
1.837670467155489
 20
7.295618150201246
 30
0.0
  0
SEQEND
  5
9B
330
95
100
AcDbEntity
  8
_U+56FE_U+5C421
370
     0
  0
HATCH
  5
9A
330
91
100
AcDbEntity
  8
_U+56FE_U+5C421
 62
     7
420
 16777215
100
AcDbHatch
 10
0.0
 20
0.0
 30
0.0
210
0.0
220
0.0
230
1.0
  2
SOLID
 70
     1
 71
     0
 91
        1
 92
        1
 93
        3
 72
     1
 10
1.837670467155489
 20
7.295618150201246
 11
1.851185384301326
 21
7.376707653076146
 72
     1
 10
1.851185384301326
 20
7.376707653076146
 11
1.864700301447151
 21
7.295618150201246
 72
     1
 10
1.864700301447151
 20
7.295618150201246
 11
1.837670467155489
 21
7.295618150201246
 97
        0
 75
     2
 76
     1
 98
        0
  0
ENDBLK
  5
94
330
91
100
AcDbEntity
  8
0
100
AcDbBlockEnd
  0
BLOCK
  5
9E
330
9C
100
AcDbEntity
  8
0
100
AcDbBlockBegin
  2
block 13
 70
     0
 10
0.0
 20
0.0
 30
0.0
  3
block 13
  1

  0
MTEXT
  5
A0
330
9C
100
AcDbEntity
  8
_U+56FE_U+5C421
 62
     7
420
 16777215
100
AcDbMText
 10
1.810213254143782
 20
5.537722481621636
 30
0.0
 40
0.0868815984725952
 41
0.0
 46
0.0
 71
     7
 72
     1
  1
\fMyriad Pro|b0|i0|c0|p34;\W1;470 [18 1/2]
 11
6.123233995736766E-17
 21
1.0
 31
0.0
 73
     1
 44
1.0
  0
ENDBLK
  5
9F
330
9C
100
AcDbEntity
  8
0
100
AcDbBlockEnd
  0
BLOCK
  5
A3
330
A1
100
AcDbEntity
  8
0
100
AcDbBlockBegin
  2
block 14
 70
     0
 10
0.0
 20
0.0
 30
0.0
  3
block 14
  1

  0
POLYLINE
  5
A5
330
A1
100
AcDbEntity
  8
_U+56FE_U+5C421
 62
     7
420
 16777215
370
    20
100
AcDb2dPolyline
 66
     1
 10
0.0
 20
0.0
 30
0.0
  0
VERTEX
  5
A6
330
A5
100
AcDbEntity
  8
_U+56FE_U+5C421
 62
     7
420
 16777215
370
    20
100
AcDbVertex
100
AcDb2dVertex
 10
2.727298828989269
 20
4.625456662677808
 30
0.0
  0
VERTEX
  5
A7
330
A5
100
AcDbEntity
  8
_U+56FE_U+5C421
 62
     7
420
 16777215
370
    20
100
AcDbVertex
100
AcDb2dVertex
 10
1.633919534063011
 20
4.625456662677808
 30
0.0
  0
SEQEND
  5
A8
330
A5
100
AcDbEntity
  8
_U+56FE_U+5C421
 62
     7
420
 16777215
370
    20
  0
ENDBLK
  5
A4
330
A1
100
AcDbEntity
  8
0
100
AcDbBlockEnd
  0
BLOCK
  5
AB
330
A9
100
AcDbEntity
  8
0
100
AcDbBlockBegin
  2
block 15
 70
     0
 10
0.0
 20
0.0
 30
0.0
  3
block 15
  1

  0
POLYLINE
  5
AD
330
A9
100
AcDbEntity
  8
_U+56FE_U+5C421
 62
     7
420
 16777215
370
    20
100
AcDb2dPolyline
 66
     1
 10
0.0
 20
0.0
 30
0.0
  0
VERTEX
  5
AE
330
AD
100
AcDbEntity
  8
_U+56FE_U+5C421
 62
     7
420
 16777215
370
    20
100
AcDbVertex
100
AcDb2dVertex
 10
2.727298828989269
 20
7.405668189817182
 30
0.0
  0
VERTEX
  5
AF
330
AD
100
AcDbEntity
  8
_U+56FE_U+5C421
 62
     7
420
 16777215
370
    20
100
AcDbVertex
100
AcDb2dVertex
 10
1.633919534063011
 20
7.405668189817182
 30
0.0
  0
SEQEND
  5
B0
330
AD
100
AcDbEntity
  8
_U+56FE_U+5C421
 62
     7
420
 16777215
370
    20
  0
ENDBLK
  5
AC
330
A9
100
AcDbEntity
  8
0
100
AcDbBlockEnd
  0
BLOCK
  5
B3
330
B1
100
AcDbEntity
  8
0
100
AcDbBlockBegin
  2
block 16
 70
     0
 10
0.0
 20
0.0
 30
0.0
  3
block 16
  1

  0
POLYLINE
  5
B5
330
B1
100
AcDbEntity
  8
_U+56FE_U+5C421
 62
     7
420
 16777215
370
    20
100
AcDb2dPolyline
 66
     1
 10
0.0
 20
0.0
 30
0.0
  0
VERTEX
  5
B6
330
B5
100
AcDbEntity
  8
_U+56FE_U+5C421
 62
     7
420
 16777215
370
    20
100
AcDbVertex
100
AcDb2dVertex
 10
1.641159668248242
 20
4.706546165552683
 30
0.0
  0
VERTEX
  5
B7
330
B5
100
AcDbEntity
  8
_U+56FE_U+5C421
 62
     7
420
 16777215
370
    20
100
AcDbVertex
100
AcDb2dVertex
 10
1.641159668248242
 20
7.324578686942282
 30
0.0
  0
SEQEND
  5
B8
330
B5
100
AcDbEntity
  8
_U+56FE_U+5C421
 62
     7
420
 16777215
370
    20
  0
ENDBLK
  5
B4
330
B1
100
AcDbEntity
  8
0
100
AcDbBlockEnd
  0
BLOCK
  5
BB
330
B9
100
AcDbEntity
  8
0
100
AcDbBlockBegin
  2
block 17
 70
     0
 10
0.0
 20
0.0
 30
0.0
  3
block 17
  1

  0
POLYLINE
  5
BD
330
B9
100
AcDbEntity
  8
_U+56FE_U+5C421
370
     0
100
AcDb2dPolyline
 66
     1
 10
0.0
 20
0.0
 30
0.0
  0
VERTEX
  5
BE
330
BD
100
AcDbEntity
  8
_U+56FE_U+5C421
370
     0
100
AcDbVertex
100
AcDb2dVertex
 10
1.627644751102417
 20
4.706546165552683
 30
0.0
  0
VERTEX
  5
BF
330
BD
100
AcDbEntity
  8
_U+56FE_U+5C421
370
     0
100
AcDbVertex
100
AcDb2dVertex
 10
1.641159668248242
 20
4.625456662677808
 30
0.0
  0
VERTEX
  5
C0
330
BD
100
AcDbEntity
  8
_U+56FE_U+5C421
370
     0
100
AcDbVertex
100
AcDb2dVertex
 10
1.654674585394079
 20
4.706546165552683
 30
0.0
  0
VERTEX
  5
C1
330
BD
100
AcDbEntity
  8
_U+56FE_U+5C421
370
     0
100
AcDbVertex
100
AcDb2dVertex
 10
1.627644751102417
 20
4.706546165552683
 30
0.0
  0
SEQEND
  5
C3
330
BD
100
AcDbEntity
  8
_U+56FE_U+5C421
370
     0
  0
HATCH
  5
C2
330
B9
100
AcDbEntity
  8
_U+56FE_U+5C421
 62
     7
420
 16777215
100
AcDbHatch
 10
0.0
 20
0.0
 30
0.0
210
0.0
220
0.0
230
1.0
  2
SOLID
 70
     1
 71
     0
 91
        1
 92
        1
 93
        3
 72
     1
 10
1.627644751102417
 20
4.706546165552683
 11
1.641159668248242
 21
4.625456662677808
 72
     1
 10
1.641159668248242
 20
4.625456662677808
 11
1.654674585394079
 21
4.706546165552683
 72
     1
 10
1.654674585394079
 20
4.706546165552683
 11
1.627644751102417
 21
4.706546165552683
 97
        0
 75
     2
 76
     1
 98
        0
  0
ENDBLK
  5
BC
330
B9
100
AcDbEntity
  8
0
100
AcDbBlockEnd
  0
BLOCK
  5
C6
330
C4
100
AcDbEntity
  8
0
100
AcDbBlockBegin
  2
block 18
 70
     0
 10
0.0
 20
0.0
 30
0.0
  3
block 18
  1

  0
POLYLINE
  5
C8
330
C4
100
AcDbEntity
  8
_U+56FE_U+5C421
370
     0
100
AcDb2dPolyline
 66
     1
 10
0.0
 20
0.0
 30
0.0
  0
VERTEX
  5
C9
330
C8
100
AcDbEntity
  8
_U+56FE_U+5C421
370
     0
100
AcDbVertex
100
AcDb2dVertex
 10
1.627644751102417
 20
7.324578686942282
 30
0.0
  0
VERTEX
  5
CA
330
C8
100
AcDbEntity
  8
_U+56FE_U+5C421
370
     0
100
AcDbVertex
100
AcDb2dVertex
 10
1.641159668248242
 20
7.405668189817182
 30
0.0
  0
VERTEX
  5
CB
330
C8
100
AcDbEntity
  8
_U+56FE_U+5C421
370
     0
100
AcDbVertex
100
AcDb2dVertex
 10
1.654674585394079
 20
7.324578686942282
 30
0.0
  0
VERTEX
  5
CC
330
C8
100
AcDbEntity
  8
_U+56FE_U+5C421
370
     0
100
AcDbVertex
100
AcDb2dVertex
 10
1.627644751102417
 20
7.324578686942282
 30
0.0
  0
SEQEND
  5
CE
330
C8
100
AcDbEntity
  8
_U+56FE_U+5C421
370
     0
  0
HATCH
  5
CD
330
C4
100
AcDbEntity
  8
_U+56FE_U+5C421
 62
     7
420
 16777215
100
AcDbHatch
 10
0.0
 20
0.0
 30
0.0
210
0.0
220
0.0
230
1.0
  2
SOLID
 70
     1
 71
     0
 91
        1
 92
        1
 93
        3
 72
     1
 10
1.627644751102417
 20
7.324578686942282
 11
1.641159668248242
 21
7.405668189817182
 72
     1
 10
1.641159668248242
 20
7.405668189817182
 11
1.654674585394079
 21
7.324578686942282
 72
     1
 10
1.654674585394079
 20
7.324578686942282
 11
1.627644751102417
 21
7.324578686942282
 97
        0
 75
     2
 76
     1
 98
        0
  0
ENDBLK
  5
C7
330
C4
100
AcDbEntity
  8
0
100
AcDbBlockEnd
  0
BLOCK
  5
D1
330
CF
100
AcDbEntity
  8
0
100
AcDbBlockBegin
  2
block 19
 70
     0
 10
0.0
 20
0.0
 30
0.0
  3
block 19
  1

  0
MTEXT
  5
D3
330
CF
100
AcDbEntity
  8
_U+56FE_U+5C421
 62
     7
420
 16777215
100
AcDbMText
 10
1.600184499803504
 20
5.537722481621636
 30
0.0
 40
0.0868815984725952
 41
0.0
 46
0.0
 71
     7
 72
     1
  1
\fMyriad Pro|b0|i0|c0|p34;\W1;480 [18 7/8]
 11
6.123233995736766E-17
 21
1.0
 31
0.0
 73
     1
 44
1.0
  0
ENDBLK
  5
D2
330
CF
100
AcDbEntity
  8
0
100
AcDbBlockEnd
  0
BLOCK
  5
D6
330
D4
100
AcDbEntity
  8
0
100
AcDbBlockBegin
  2
block 20
 70
     0
 10
0.0
 20
0.0
 30
0.0
  3
block 20
  1

  0
POLYLINE
  5
D8
330
D4
100
AcDbEntity
  8
_U+56FE_U+5C421
 62
     7
420
 16777215
370
    20
100
AcDb2dPolyline
 66
     1
 10
0.0
 20
0.0
 30
0.0
  0
VERTEX
  5
D9
330
D8
100
AcDbEntity
  8
_U+56FE_U+5C421
 62
     7
420
 16777215
370
    20
100
AcDbVertex
100
AcDb2dVertex
 10
3.231212168283276
 20
7.434628726558205
 30
0.0
  0
VERTEX
  5
DA
330
D8
100
AcDbEntity
  8
_U+56FE_U+5C421
 62
     7
420
 16777215
370
    20
100
AcDbVertex
100
AcDb2dVertex
 10
1.417014466086231
 20
7.434628726558205
 30
0.0
  0
SEQEND
  5
DB
330
D8
100
AcDbEntity
  8
_U+56FE_U+5C421
 62
     7
420
 16777215
370
    20
  0
ENDBLK
  5
D7
330
D4
100
AcDbEntity
  8
0
100
AcDbBlockEnd
  0
BLOCK
  5
DE
330
DC
100
AcDbEntity
  8
0
100
AcDbBlockBegin
  2
block 21
 70
     0
 10
0.0
 20
0.0
 30
0.0
  3
block 21
  1

  0
POLYLINE
  5
E0
330
DC
100
AcDbEntity
  8
_U+56FE_U+5C421
 62
     7
420
 16777215
370
    20
100
AcDb2dPolyline
 66
     1
 10
0.0
 20
0.0
 30
0.0
  0
VERTEX
  5
E1
330
E0
100
AcDbEntity
  8
_U+56FE_U+5C421
 62
     7
420
 16777215
370
    20
100
AcDbVertex
100
AcDb2dVertex
 10
3.231212168283276
 20
4.596496125936786
 30
0.0
  0
VERTEX
  5
E2
330
E0
100
AcDbEntity
  8
_U+56FE_U+5C421
 62
     7
420
 16777215
370
    20
100
AcDbVertex
100
AcDb2dVertex
 10
1.417014466086231
 20
4.596496125936786
 30
0.0
  0
SEQEND
  5
E3
330
E0
100
AcDbEntity
  8
_U+56FE_U+5C421
 62
     7
420
 16777215
370
    20
  0
ENDBLK
  5
DF
330
DC
100
AcDbEntity
  8
0
100
AcDbBlockEnd
  0
BLOCK
  5
E6
330
E4
100
AcDbEntity
  8
0
100
AcDbBlockBegin
  2
block 22
 70
     0
 10
0.0
 20
0.0
 30
0.0
  3
block 22
  1

  0
POLYLINE
  5
E8
330
E4
100
AcDbEntity
  8
_U+56FE_U+5C421
 62
     7
420
 16777215
370
    20
100
AcDb2dPolyline
 66
     1
 10
0.0
 20
0.0
 30
0.0
  0
VERTEX
  5
E9
330
E8
100
AcDbEntity
  8
_U+56FE_U+5C421
 62
     7
420
 16777215
370
    20
100
AcDbVertex
100
AcDb2dVertex
 10
1.424254600271486
 20
7.353539223683318
 30
0.0
  0
VERTEX
  5
EA
330
E8
100
AcDbEntity
  8
_U+56FE_U+5C421
 62
     7
420
 16777215
370
    20
100
AcDbVertex
100
AcDb2dVertex
 10
1.424254600271486
 20
4.67758562881166
 30
0.0
  0
SEQEND
  5
EB
330
E8
100
AcDbEntity
  8
_U+56FE_U+5C421
 62
     7
420
 16777215
370
    20
  0
ENDBLK
  5
E7
330
E4
100
AcDbEntity
  8
0
100
AcDbBlockEnd
  0
BLOCK
  5
EE
330
EC
100
AcDbEntity
  8
0
100
AcDbBlockBegin
  2
block 23
 70
     0
 10
0.0
 20
0.0
 30
0.0
  3
block 23
  1

  0
POLYLINE
  5
F0
330
EC
100
AcDbEntity
  8
_U+56FE_U+5C421
370
     0
100
AcDb2dPolyline
 66
     1
 10
0.0
 20
0.0
 30
0.0
  0
VERTEX
  5
F1
330
F0
100
AcDbEntity
  8
_U+56FE_U+5C421
370
     0
100
AcDbVertex
100
AcDb2dVertex
 10
1.410739683125712
 20
7.353539223683318
 30
0.0
  0
VERTEX
  5
F2
330
F0
100
AcDbEntity
  8
_U+56FE_U+5C421
370
     0
100
AcDbVertex
100
AcDb2dVertex
 10
1.424254600271486
 20
7.434628726558205
 30
0.0
  0
VERTEX
  5
F3
330
F0
100
AcDbEntity
  8
_U+56FE_U+5C421
370
     0
100
AcDbVertex
100
AcDb2dVertex
 10
1.437769517417324
 20
7.353539223683318
 30
0.0
  0
VERTEX
  5
F4
330
F0
100
AcDbEntity
  8
_U+56FE_U+5C421
370
     0
100
AcDbVertex
100
AcDb2dVertex
 10
1.410739683125712
 20
7.353539223683318
 30
0.0
  0
SEQEND
  5
F6
330
F0
100
AcDbEntity
  8
_U+56FE_U+5C421
370
     0
  0
HATCH
  5
F5
330
EC
100
AcDbEntity
  8
_U+56FE_U+5C421
 62
     7
420
 16777215
100
AcDbHatch
 10
0.0
 20
0.0
 30
0.0
210
0.0
220
0.0
230
1.0
  2
SOLID
 70
     1
 71
     0
 91
        1
 92
        1
 93
        3
 72
     1
 10
1.410739683125712
 20
7.353539223683318
 11
1.424254600271486
 21
7.434628726558205
 72
     1
 10
1.424254600271486
 20
7.434628726558205
 11
1.437769517417324
 21
7.353539223683318
 72
     1
 10
1.437769517417324
 20
7.353539223683318
 11
1.410739683125712
 21
7.353539223683318
 97
        0
 75
     2
 76
     1
 98
        0
  0
ENDBLK
  5
EF
330
EC
100
AcDbEntity
  8
0
100
AcDbBlockEnd
  0
BLOCK
  5
F9
330
F7
100
AcDbEntity
  8
0
100
AcDbBlockBegin
  2
block 24
 70
     0
 10
0.0
 20
0.0
 30
0.0
  3
block 24
  1

  0
POLYLINE
  5
FB
330
F7
100
AcDbEntity
  8
_U+56FE_U+5C421
370
     0
100
AcDb2dPolyline
 66
     1
 10
0.0
 20
0.0
 30
0.0
  0
VERTEX
  5
FC
330
FB
100
AcDbEntity
  8
_U+56FE_U+5C421
370
     0
100
AcDbVertex
100
AcDb2dVertex
 10
1.410739683125712
 20
4.67758562881166
 30
0.0
  0
VERTEX
  5
FD
330
FB
100
AcDbEntity
  8
_U+56FE_U+5C421
370
     0
100
AcDbVertex
100
AcDb2dVertex
 10
1.424254600271486
 20
4.596496125936786
 30
0.0
  0
VERTEX
  5
FE
330
FB
100
AcDbEntity
  8
_U+56FE_U+5C421
370
     0
100
AcDbVertex
100
AcDb2dVertex
 10
1.437769517417324
 20
4.67758562881166
 30
0.0
  0
VERTEX
  5
FF
330
FB
100
AcDbEntity
  8
_U+56FE_U+5C421
370
     0
100
AcDbVertex
100
AcDb2dVertex
 10
1.410739683125712
 20
4.67758562881166
 30
0.0
  0
SEQEND
  5
101
330
FB
100
AcDbEntity
  8
_U+56FE_U+5C421
370
     0
  0
HATCH
  5
100
330
F7
100
AcDbEntity
  8
_U+56FE_U+5C421
 62
     7
420
 16777215
100
AcDbHatch
 10
0.0
 20
0.0
 30
0.0
210
0.0
220
0.0
230
1.0
  2
SOLID
 70
     1
 71
     0
 91
        1
 92
        1
 93
        3
 72
     1
 10
1.410739683125712
 20
4.67758562881166
 11
1.424254600271486
 21
4.596496125936786
 72
     1
 10
1.424254600271486
 20
4.596496125936786
 11
1.437769517417324
 21
4.67758562881166
 72
     1
 10
1.437769517417324
 20
4.67758562881166
 11
1.410739683125712
 21
4.67758562881166
 97
        0
 75
     2
 76
     1
 98
        0
  0
ENDBLK
  5
FA
330
F7
100
AcDbEntity
  8
0
100
AcDbBlockEnd
  0
BLOCK
  5
104
330
102
100
AcDbEntity
  8
0
100
AcDbBlockBegin
  2
block 25
 70
     0
 10
0.0
 20
0.0
 30
0.0
  3
block 25
  1

  0
MTEXT
  5
106
330
102
100
AcDbEntity
  8
_U+56FE_U+5C421
 62
     7
420
 16777215
100
AcDbMText
 10
1.38327911785906
 20
5.537722481621636
 30
0.0
 40
0.0868815984725952
 41
0.0
 46
0.0
 71
     7
 72
     1
  1
\fMyriad Pro|b0|i0|c0|p34;\W1;490 [19 1/4]
 11
6.123233995736766E-17
 21
1.0
 31
0.0
 73
     1
 44
1.0
  0
ENDBLK
  5
105
330
102
100
AcDbEntity
  8
0
100
AcDbBlockEnd
  0
BLOCK
  5
109
330
107
100
AcDbEntity
  8
0
100
AcDbBlockBegin
  2
block 26
 70
     0
 10
0.0
 20
0.0
 30
0.0
  3
block 26
  1

  0
POLYLINE
  5
10B
330
107
100
AcDbEntity
  8
_U+56FE_U+5C421
 62
     7
420
 16777215
370
    20
100
AcDb2dPolyline
 66
     1
 10
0.0
 20
0.0
 30
0.0
  0
VERTEX
  5
10C
330
10B
100
AcDbEntity
  8
_U+56FE_U+5C421
 62
     7
420
 16777215
370
    20
100
AcDbVertex
100
AcDb2dVertex
 10
5.256918790291845
 20
7.029181212183718
 30
0.0
  0
VERTEX
  5
10D
330
10B
100
AcDbEntity
  8
_U+56FE_U+5C421
 62
     7
420
 16777215
370
    20
100
AcDbVertex
100
AcDb2dVertex
 10
6.795123220923389
 20
7.029181212183718
 30
0.0
  0
SEQEND
  5
10E
330
10B
100
AcDbEntity
  8
_U+56FE_U+5C421
 62
     7
420
 16777215
370
    20
  0
ENDBLK
  5
10A
330
107
100
AcDbEntity
  8
0
100
AcDbBlockEnd
  0
BLOCK
  5
111
330
10F
100
AcDbEntity
  8
0
100
AcDbBlockBegin
  2
block 27
 70
     0
 10
0.0
 20
0.0
 30
0.0
  3
block 27
  1

  0
POLYLINE
  5
113
330
10F
100
AcDbEntity
  8
_U+56FE_U+5C421
 62
     7
420
 16777215
370
    20
100
AcDb2dPolyline
 66
     1
 10
0.0
 20
0.0
 30
0.0
  0
VERTEX
  5
114
330
113
100
AcDbEntity
  8
_U+56FE_U+5C421
 62
     7
420
 16777215
370
    20
100
AcDbVertex
100
AcDb2dVertex
 10
5.256918790291845
 20
4.654417199418831
 30
0.0
  0
VERTEX
  5
115
330
113
100
AcDbEntity
  8
_U+56FE_U+5C421
 62
     7
420
 16777215
370
    20
100
AcDbVertex
100
AcDb2dVertex
 10
6.795123220923389
 20
4.654417199418831
 30
0.0
  0
SEQEND
  5
116
330
113
100
AcDbEntity
  8
_U+56FE_U+5C421
 62
     7
420
 16777215
370
    20
  0
ENDBLK
  5
112
330
10F
100
AcDbEntity
  8
0
100
AcDbBlockEnd
  0
BLOCK
  5
119
330
117
100
AcDbEntity
  8
0
100
AcDbBlockBegin
  2
block 28
 70
     0
 10
0.0
 20
0.0
 30
0.0
  3
block 28
  1

  0
POLYLINE
  5
11B
330
117
100
AcDbEntity
  8
_U+56FE_U+5C421
 62
     7
420
 16777215
370
    20
100
AcDb2dPolyline
 66
     1
 10
0.0
 20
0.0
 30
0.0
  0
VERTEX
  5
11C
330
11B
100
AcDbEntity
  8
_U+56FE_U+5C421
 62
     7
420
 16777215
370
    20
100
AcDbVertex
100
AcDb2dVertex
 10
6.787883086738121
 20
6.948091709308819
 30
0.0
  0
VERTEX
  5
11D
330
11B
100
AcDbEntity
  8
_U+56FE_U+5C421
 62
     7
420
 16777215
370
    20
100
AcDbVertex
100
AcDb2dVertex
 10
6.787883086738121
 20
4.735506702293706
 30
0.0
  0
SEQEND
  5
11E
330
11B
100
AcDbEntity
  8
_U+56FE_U+5C421
 62
     7
420
 16777215
370
    20
  0
ENDBLK
  5
11A
330
117
100
AcDbEntity
  8
0
100
AcDbBlockEnd
  0
BLOCK
  5
121
330
11F
100
AcDbEntity
  8
0
100
AcDbBlockBegin
  2
block 29
 70
     0
 10
0.0
 20
0.0
 30
0.0
  3
block 29
  1

  0
POLYLINE
  5
123
330
11F
100
AcDbEntity
  8
_U+56FE_U+5C421
370
     0
100
AcDb2dPolyline
 66
     1
 10
0.0
 20
0.0
 30
0.0
  0
VERTEX
  5
124
330
123
100
AcDbEntity
  8
_U+56FE_U+5C421
370
     0
100
AcDbVertex
100
AcDb2dVertex
 10
6.774368169592308
 20
6.948091709308819
 30
0.0
  0
VERTEX
  5
125
330
123
100
AcDbEntity
  8
_U+56FE_U+5C421
370
     0
100
AcDbVertex
100
AcDb2dVertex
 10
6.787883086738121
 20
7.029181212183718
 30
0.0
  0
VERTEX
  5
126
330
123
100
AcDbEntity
  8
_U+56FE_U+5C421
370
     0
100
AcDbVertex
100
AcDb2dVertex
 10
6.801398003883959
 20
6.948091709308819
 30
0.0
  0
VERTEX
  5
127
330
123
100
AcDbEntity
  8
_U+56FE_U+5C421
370
     0
100
AcDbVertex
100
AcDb2dVertex
 10
6.774368169592308
 20
6.948091709308819
 30
0.0
  0
SEQEND
  5
129
330
123
100
AcDbEntity
  8
_U+56FE_U+5C421
370
     0
  0
HATCH
  5
128
330
11F
100
AcDbEntity
  8
_U+56FE_U+5C421
 62
     7
420
 16777215
100
AcDbHatch
 10
0.0
 20
0.0
 30
0.0
210
0.0
220
0.0
230
1.0
  2
SOLID
 70
     1
 71
     0
 91
        1
 92
        1
 93
        3
 72
     1
 10
6.774368169592308
 20
6.948091709308819
 11
6.787883086738121
 21
7.029181212183718
 72
     1
 10
6.787883086738121
 20
7.029181212183718
 11
6.801398003883959
 21
6.948091709308819
 72
     1
 10
6.801398003883959
 20
6.948091709308819
 11
6.774368169592308
 21
6.948091709308819
 97
        0
 75
     2
 76
     1
 98
        0
  0
ENDBLK
  5
122
330
11F
100
AcDbEntity
  8
0
100
AcDbBlockEnd
  0
BLOCK
  5
12C
330
12A
100
AcDbEntity
  8
0
100
AcDbBlockBegin
  2
block 30
 70
     0
 10
0.0
 20
0.0
 30
0.0
  3
block 30
  1

  0
POLYLINE
  5
12E
330
12A
100
AcDbEntity
  8
_U+56FE_U+5C421
370
     0
100
AcDb2dPolyline
 66
     1
 10
0.0
 20
0.0
 30
0.0
  0
VERTEX
  5
12F
330
12E
100
AcDbEntity
  8
_U+56FE_U+5C421
370
     0
100
AcDbVertex
100
AcDb2dVertex
 10
6.774368169592308
 20
4.735506702293706
 30
0.0
  0
VERTEX
  5
130
330
12E
100
AcDbEntity
  8
_U+56FE_U+5C421
370
     0
100
AcDbVertex
100
AcDb2dVertex
 10
6.787883086738121
 20
4.654417199418831
 30
0.0
  0
VERTEX
  5
131
330
12E
100
AcDbEntity
  8
_U+56FE_U+5C421
370
     0
100
AcDbVertex
100
AcDb2dVertex
 10
6.801398003883959
 20
4.735506702293706
 30
0.0
  0
VERTEX
  5
132
330
12E
100
AcDbEntity
  8
_U+56FE_U+5C421
370
     0
100
AcDbVertex
100
AcDb2dVertex
 10
6.774368169592308
 20
4.735506702293706
 30
0.0
  0
SEQEND
  5
134
330
12E
100
AcDbEntity
  8
_U+56FE_U+5C421
370
     0
  0
HATCH
  5
133
330
12A
100
AcDbEntity
  8
_U+56FE_U+5C421
 62
     7
420
 16777215
100
AcDbHatch
 10
0.0
 20
0.0
 30
0.0
210
0.0
220
0.0
230
1.0
  2
SOLID
 70
     1
 71
     0
 91
        1
 92
        1
 93
        3
 72
     1
 10
6.774368169592308
 20
4.735506702293706
 11
6.787883086738121
 21
4.654417199418831
 72
     1
 10
6.787883086738121
 20
4.654417199418831
 11
6.801398003883959
 21
4.735506702293706
 72
     1
 10
6.801398003883959
 20
4.735506702293706
 11
6.774368169592308
 21
4.735506702293706
 97
        0
 75
     2
 76
     1
 98
        0
  0
ENDBLK
  5
12D
330
12A
100
AcDbEntity
  8
0
100
AcDbBlockEnd
  0
BLOCK
  5
137
330
135
100
AcDbEntity
  8
0
100
AcDbBlockBegin
  2
block 31
 70
     0
 10
0.0
 20
0.0
 30
0.0
  3
block 31
  1

  0
MTEXT
  5
139
330
135
100
AcDbEntity
  8
_U+56FE_U+5C421
 62
     7
420
 16777215
100
AcDbMText
 10
6.746899452060461
 20
5.363989300198025
 30
0.0
 40
0.0868815984725952
 41
0.0
 46
0.0
 71
     7
 72
     1
  1
\fMyriad Pro|b0|i0|c0|p34;\W1;410 [16 1/8]
 11
6.123233995736766E-17
 21
1.0
 31
0.0
 73
     1
 44
1.0
  0
ENDBLK
  5
138
330
135
100
AcDbEntity
  8
0
100
AcDbBlockEnd
  0
BLOCK
  5
13C
330
13A
100
AcDbEntity
  8
0
100
AcDbBlockBegin
  2
block 32
 70
     0
 10
0.0
 20
0.0
 30
0.0
  3
block 32
  1

  0
POLYLINE
  5
13E
330
13A
100
AcDbEntity
  8
_U+56FE_U+5C421
 62
     7
420
 16777215
370
    20
100
AcDb2dPolyline
 66
     1
 10
0.0
 20
0.0
 30
0.0
  0
VERTEX
  5
13F
330
13E
100
AcDbEntity
  8
_U+56FE_U+5C421
 62
     7
420
 16777215
370
    20
100
AcDbVertex
100
AcDb2dVertex
 10
5.256918790291845
 20
4.625456662677808
 30
0.0
  0
VERTEX
  5
140
330
13E
100
AcDbEntity
  8
_U+56FE_U+5C421
 62
     7
420
 16777215
370
    20
100
AcDbVertex
100
AcDb2dVertex
 10
7.016781307432362
 20
4.625456662677808
 30
0.0
  0
SEQEND
  5
141
330
13E
100
AcDbEntity
  8
_U+56FE_U+5C421
 62
     7
420
 16777215
370
    20
  0
ENDBLK
  5
13D
330
13A
100
AcDbEntity
  8
0
100
AcDbBlockEnd
  0
BLOCK
  5
144
330
142
100
AcDbEntity
  8
0
100
AcDbBlockBegin
  2
block 33
 70
     0
 10
0.0
 20
0.0
 30
0.0
  3
block 33
  1

  0
POLYLINE
  5
146
330
142
100
AcDbEntity
  8
_U+56FE_U+5C421
 62
     7
420
 16777215
370
    20
100
AcDb2dPolyline
 66
     1
 10
0.0
 20
0.0
 30
0.0
  0
VERTEX
  5
147
330
146
100
AcDbEntity
  8
_U+56FE_U+5C421
 62
     7
420
 16777215
370
    20
100
AcDbVertex
100
AcDb2dVertex
 10
5.256918790291845
 20
7.058141748924754
 30
0.0
  0
VERTEX
  5
148
330
146
100
AcDbEntity
  8
_U+56FE_U+5C421
 62
     7
420
 16777215
370
    20
100
AcDbVertex
100
AcDb2dVertex
 10
7.016781307432362
 20
7.058141748924754
 30
0.0
  0
SEQEND
  5
149
330
146
100
AcDbEntity
  8
_U+56FE_U+5C421
 62
     7
420
 16777215
370
    20
  0
ENDBLK
  5
145
330
142
100
AcDbEntity
  8
0
100
AcDbBlockEnd
  0
BLOCK
  5
14C
330
14A
100
AcDbEntity
  8
0
100
AcDbBlockBegin
  2
block 34
 70
     0
 10
0.0
 20
0.0
 30
0.0
  3
block 34
  1

  0
POLYLINE
  5
14E
330
14A
100
AcDbEntity
  8
_U+56FE_U+5C421
 62
     7
420
 16777215
370
    20
100
AcDb2dPolyline
 66
     1
 10
0.0
 20
0.0
 30
0.0
  0
VERTEX
  5
14F
330
14E
100
AcDbEntity
  8
_U+56FE_U+5C421
 62
     7
420
 16777215
370
    20
100
AcDbVertex
100
AcDb2dVertex
 10
7.009541173247044
 20
4.706546165552683
 30
0.0
  0
VERTEX
  5
150
330
14E
100
AcDbEntity
  8
_U+56FE_U+5C421
 62
     7
420
 16777215
370
    20
100
AcDbVertex
100
AcDb2dVertex
 10
7.009541173247044
 20
6.977052246049866
 30
0.0
  0
SEQEND
  5
151
330
14E
100
AcDbEntity
  8
_U+56FE_U+5C421
 62
     7
420
 16777215
370
    20
  0
ENDBLK
  5
14D
330
14A
100
AcDbEntity
  8
0
100
AcDbBlockEnd
  0
BLOCK
  5
154
330
152
100
AcDbEntity
  8
0
100
AcDbBlockBegin
  2
block 35
 70
     0
 10
0.0
 20
0.0
 30
0.0
  3
block 35
  1

  0
POLYLINE
  5
156
330
152
100
AcDbEntity
  8
_U+56FE_U+5C421
370
     0
100
AcDb2dPolyline
 66
     1
 10
0.0
 20
0.0
 30
0.0
  0
VERTEX
  5
157
330
156
100
AcDbEntity
  8
_U+56FE_U+5C421
370
     0
100
AcDbVertex
100
AcDb2dVertex
 10
6.996026256101281
 20
4.706546165552683
 30
0.0
  0
VERTEX
  5
158
330
156
100
AcDbEntity
  8
_U+56FE_U+5C421
370
     0
100
AcDbVertex
100
AcDb2dVertex
 10
7.009541173247044
 20
4.625456662677808
 30
0.0
  0
VERTEX
  5
159
330
156
100
AcDbEntity
  8
_U+56FE_U+5C421
370
     0
100
AcDbVertex
100
AcDb2dVertex
 10
7.023056090392906
 20
4.706546165552683
 30
0.0
  0
VERTEX
  5
15A
330
156
100
AcDbEntity
  8
_U+56FE_U+5C421
370
     0
100
AcDbVertex
100
AcDb2dVertex
 10
6.996026256101281
 20
4.706546165552683
 30
0.0
  0
SEQEND
  5
15C
330
156
100
AcDbEntity
  8
_U+56FE_U+5C421
370
     0
  0
HATCH
  5
15B
330
152
100
AcDbEntity
  8
_U+56FE_U+5C421
 62
     7
420
 16777215
100
AcDbHatch
 10
0.0
 20
0.0
 30
0.0
210
0.0
220
0.0
230
1.0
  2
SOLID
 70
     1
 71
     0
 91
        1
 92
        1
 93
        3
 72
     1
 10
6.996026256101281
 20
4.706546165552683
 11
7.009541173247044
 21
4.625456662677808
 72
     1
 10
7.009541173247044
 20
4.625456662677808
 11
7.023056090392906
 21
4.706546165552683
 72
     1
 10
7.023056090392906
 20
4.706546165552683
 11
6.996026256101281
 21
4.706546165552683
 97
        0
 75
     2
 76
     1
 98
        0
  0
ENDBLK
  5
155
330
152
100
AcDbEntity
  8
0
100
AcDbBlockEnd
  0
BLOCK
  5
15F
330
15D
100
AcDbEntity
  8
0
100
AcDbBlockBegin
  2
block 36
 70
     0
 10
0.0
 20
0.0
 30
0.0
  3
block 36
  1

  0
POLYLINE
  5
161
330
15D
100
AcDbEntity
  8
_U+56FE_U+5C421
370
     0
100
AcDb2dPolyline
 66
     1
 10
0.0
 20
0.0
 30
0.0
  0
VERTEX
  5
162
330
161
100
AcDbEntity
  8
_U+56FE_U+5C421
370
     0
100
AcDbVertex
100
AcDb2dVertex
 10
6.996026256101281
 20
6.977052246049866
 30
0.0
  0
VERTEX
  5
163
330
161
100
AcDbEntity
  8
_U+56FE_U+5C421
370
     0
100
AcDbVertex
100
AcDb2dVertex
 10
7.009541173247044
 20
7.058141748924754
 30
0.0
  0
VERTEX
  5
164
330
161
100
AcDbEntity
  8
_U+56FE_U+5C421
370
     0
100
AcDbVertex
100
AcDb2dVertex
 10
7.023056090392906
 20
6.977052246049866
 30
0.0
  0
VERTEX
  5
165
330
161
100
AcDbEntity
  8
_U+56FE_U+5C421
370
     0
100
AcDbVertex
100
AcDb2dVertex
 10
6.996026256101281
 20
6.977052246049866
 30
0.0
  0
SEQEND
  5
167
330
161
100
AcDbEntity
  8
_U+56FE_U+5C421
370
     0
  0
HATCH
  5
166
330
15D
100
AcDbEntity
  8
_U+56FE_U+5C421
 62
     7
420
 16777215
100
AcDbHatch
 10
0.0
 20
0.0
 30
0.0
210
0.0
220
0.0
230
1.0
  2
SOLID
 70
     1
 71
     0
 91
        1
 92
        1
 93
        3
 72
     1
 10
6.996026256101281
 20
6.977052246049866
 11
7.009541173247044
 21
7.058141748924754
 72
     1
 10
7.009541173247044
 20
7.058141748924754
 11
7.023056090392906
 21
6.977052246049866
 72
     1
 10
7.023056090392906
 20
6.977052246049866
 11
6.996026256101281
 21
6.977052246049866
 97
        0
 75
     2
 76
     1
 98
        0
  0
ENDBLK
  5
160
330
15D
100
AcDbEntity
  8
0
100
AcDbBlockEnd
  0
BLOCK
  5
16A
330
168
100
AcDbEntity
  8
0
100
AcDbBlockBegin
  2
block 37
 70
     0
 10
0.0
 20
0.0
 30
0.0
  3
block 37
  1

  0
MTEXT
  5
16C
330
168
100
AcDbEntity
  8
_U+56FE_U+5C421
 62
     7
420
 16777215
100
AcDbMText
 10
6.968579139560461
 20
5.363989300198025
 30
0.0
 40
0.0868815984725952
 41
0.0
 46
0.0
 71
     7
 72
     1
  1
\fMyriad Pro|b0|i0|c0|p34;\W1;420 [16 1/2]
 11
6.123233995736766E-17
 21
1.0
 31
0.0
 73
     1
 44
1.0
  0
ENDBLK
  5
16B
330
168
100
AcDbEntity
  8
0
100
AcDbBlockEnd
  0
BLOCK
  5
16F
330
16D
100
AcDbEntity
  8
0
100
AcDbBlockBegin
  2
block 38
 70
     0
 10
0.0
 20
0.0
 30
0.0
  3
block 38
  1

  0
POLYLINE
  5
171
330
16D
100
AcDbEntity
  8
_U+56FE_U+5C421
 62
     7
420
 16777215
370
    20
100
AcDb2dPolyline
 66
     1
 10
0.0
 20
0.0
 30
0.0
  0
VERTEX
  5
172
330
171
100
AcDbEntity
  8
_U+56FE_U+5C421
 62
     7
420
 16777215
370
    20
100
AcDbVertex
100
AcDb2dVertex
 10
5.256918790291845
 20
7.087102285665777
 30
0.0
  0
VERTEX
  5
173
330
171
100
AcDbEntity
  8
_U+56FE_U+5C421
 62
     7
420
 16777215
370
    20
100
AcDbVertex
100
AcDb2dVertex
 10
7.228841385203673
 20
7.087102285665777
 30
0.0
  0
SEQEND
  5
174
330
171
100
AcDbEntity
  8
_U+56FE_U+5C421
 62
     7
420
 16777215
370
    20
  0
ENDBLK
  5
170
330
16D
100
AcDbEntity
  8
0
100
AcDbBlockEnd
  0
BLOCK
  5
177
330
175
100
AcDbEntity
  8
0
100
AcDbBlockBegin
  2
block 39
 70
     0
 10
0.0
 20
0.0
 30
0.0
  3
block 39
  1

  0
POLYLINE
  5
179
330
175
100
AcDbEntity
  8
_U+56FE_U+5C421
 62
     7
420
 16777215
370
    20
100
AcDb2dPolyline
 66
     1
 10
0.0
 20
0.0
 30
0.0
  0
VERTEX
  5
17A
330
179
100
AcDbEntity
  8
_U+56FE_U+5C421
 62
     7
420
 16777215
370
    20
100
AcDbVertex
100
AcDb2dVertex
 10
5.256918790291845
 20
4.596496125936786
 30
0.0
  0
VERTEX
  5
17B
330
179
100
AcDbEntity
  8
_U+56FE_U+5C421
 62
     7
420
 16777215
370
    20
100
AcDbVertex
100
AcDb2dVertex
 10
7.228841385203673
 20
4.596496125936786
 30
0.0
  0
SEQEND
  5
17C
330
179
100
AcDbEntity
  8
_U+56FE_U+5C421
 62
     7
420
 16777215
370
    20
  0
ENDBLK
  5
178
330
175
100
AcDbEntity
  8
0
100
AcDbBlockEnd
  0
BLOCK
  5
17F
330
17D
100
AcDbEntity
  8
0
100
AcDbBlockBegin
  2
block 40
 70
     0
 10
0.0
 20
0.0
 30
0.0
  3
block 40
  1

  0
POLYLINE
  5
181
330
17D
100
AcDbEntity
  8
_U+56FE_U+5C421
 62
     7
420
 16777215
370
    20
100
AcDb2dPolyline
 66
     1
 10
0.0
 20
0.0
 30
0.0
  0
VERTEX
  5
182
330
181
100
AcDbEntity
  8
_U+56FE_U+5C421
 62
     7
420
 16777215
370
    20
100
AcDbVertex
100
AcDb2dVertex
 10
7.221601251018379
 20
7.006012782790915
 30
0.0
  0
VERTEX
  5
183
330
181
100
AcDbEntity
  8
_U+56FE_U+5C421
 62
     7
420
 16777215
370
    20
100
AcDbVertex
100
AcDb2dVertex
 10
7.221601251018379
 20
4.67758562881166
 30
0.0
  0
SEQEND
  5
184
330
181
100
AcDbEntity
  8
_U+56FE_U+5C421
 62
     7
420
 16777215
370
    20
  0
ENDBLK
  5
180
330
17D
100
AcDbEntity
  8
0
100
AcDbBlockEnd
  0
BLOCK
  5
187
330
185
100
AcDbEntity
  8
0
100
AcDbBlockBegin
  2
block 41
 70
     0
 10
0.0
 20
0.0
 30
0.0
  3
block 41
  1

  0
POLYLINE
  5
189
330
185
100
AcDbEntity
  8
_U+56FE_U+5C421
370
     0
100
AcDb2dPolyline
 66
     1
 10
0.0
 20
0.0
 30
0.0
  0
VERTEX
  5
18A
330
189
100
AcDbEntity
  8
_U+56FE_U+5C421
370
     0
100
AcDbVertex
100
AcDb2dVertex
 10
7.208086333872567
 20
7.006012782790915
 30
0.0
  0
VERTEX
  5
18B
330
189
100
AcDbEntity
  8
_U+56FE_U+5C421
370
     0
100
AcDbVertex
100
AcDb2dVertex
 10
7.221601251018379
 20
7.087102285665777
 30
0.0
  0
VERTEX
  5
18C
330
189
100
AcDbEntity
  8
_U+56FE_U+5C421
370
     0
100
AcDbVertex
100
AcDb2dVertex
 10
7.235116168164242
 20
7.006012782790915
 30
0.0
  0
VERTEX
  5
18D
330
189
100
AcDbEntity
  8
_U+56FE_U+5C421
370
     0
100
AcDbVertex
100
AcDb2dVertex
 10
7.208086333872567
 20
7.006012782790915
 30
0.0
  0
SEQEND
  5
18F
330
189
100
AcDbEntity
  8
_U+56FE_U+5C421
370
     0
  0
HATCH
  5
18E
330
185
100
AcDbEntity
  8
_U+56FE_U+5C421
 62
     7
420
 16777215
100
AcDbHatch
 10
0.0
 20
0.0
 30
0.0
210
0.0
220
0.0
230
1.0
  2
SOLID
 70
     1
 71
     0
 91
        1
 92
        1
 93
        3
 72
     1
 10
7.208086333872567
 20
7.006012782790915
 11
7.221601251018379
 21
7.087102285665777
 72
     1
 10
7.221601251018379
 20
7.087102285665777
 11
7.235116168164242
 21
7.006012782790915
 72
     1
 10
7.235116168164242
 20
7.006012782790915
 11
7.208086333872567
 21
7.006012782790915
 97
        0
 75
     2
 76
     1
 98
        0
  0
ENDBLK
  5
188
330
185
100
AcDbEntity
  8
0
100
AcDbBlockEnd
  0
BLOCK
  5
192
330
190
100
AcDbEntity
  8
0
100
AcDbBlockBegin
  2
block 42
 70
     0
 10
0.0
 20
0.0
 30
0.0
  3
block 42
  1

  0
POLYLINE
  5
194
330
190
100
AcDbEntity
  8
_U+56FE_U+5C421
370
     0
100
AcDb2dPolyline
 66
     1
 10
0.0
 20
0.0
 30
0.0
  0
VERTEX
  5
195
330
194
100
AcDbEntity
  8
_U+56FE_U+5C421
370
     0
100
AcDbVertex
100
AcDb2dVertex
 10
7.208086333872567
 20
4.67758562881166
 30
0.0
  0
VERTEX
  5
196
330
194
100
AcDbEntity
  8
_U+56FE_U+5C421
370
     0
100
AcDbVertex
100
AcDb2dVertex
 10
7.221601251018379
 20
4.596496125936786
 30
0.0
  0
VERTEX
  5
197
330
194
100
AcDbEntity
  8
_U+56FE_U+5C421
370
     0
100
AcDbVertex
100
AcDb2dVertex
 10
7.235116168164242
 20
4.67758562881166
 30
0.0
  0
VERTEX
  5
198
330
194
100
AcDbEntity
  8
_U+56FE_U+5C421
370
     0
100
AcDbVertex
100
AcDb2dVertex
 10
7.208086333872567
 20
4.67758562881166
 30
0.0
  0
SEQEND
  5
19A
330
194
100
AcDbEntity
  8
_U+56FE_U+5C421
370
     0
  0
HATCH
  5
199
330
190
100
AcDbEntity
  8
_U+56FE_U+5C421
 62
     7
420
 16777215
100
AcDbHatch
 10
0.0
 20
0.0
 30
0.0
210
0.0
220
0.0
230
1.0
  2
SOLID
 70
     1
 71
     0
 91
        1
 92
        1
 93
        3
 72
     1
 10
7.208086333872567
 20
4.67758562881166
 11
7.221601251018379
 21
4.596496125936786
 72
     1
 10
7.221601251018379
 20
4.596496125936786
 11
7.235116168164242
 21
4.67758562881166
 72
     1
 10
7.235116168164242
 20
4.67758562881166
 11
7.208086333872567
 21
4.67758562881166
 97
        0
 75
     2
 76
     1
 98
        0
  0
ENDBLK
  5
193
330
190
100
AcDbEntity
  8
0
100
AcDbBlockEnd
  0
BLOCK
  5
19D
330
19B
100
AcDbEntity
  8
0
100
AcDbBlockBegin
  2
block 43
 70
     0
 10
0.0
 20
0.0
 30
0.0
  3
block 43
  1

  0
MTEXT
  5
19F
330
19B
100
AcDbEntity
  8
_U+56FE_U+5C421
 62
     7
420
 16777215
100
AcDbMText
 10
7.180628835741016
 20
5.363989300198025
 30
0.0
 40
0.0868815984725952
 41
0.0
 46
0.0
 71
     7
 72
     1
  1
\fMyriad Pro|b0|i0|c0|p34;\W1;430 [16 7/8]
 11
6.123233995736766E-17
 21
1.0
 31
0.0
 73
     1
 44
1.0
  0
ENDBLK
  5
19E
330
19B
100
AcDbEntity
  8
0
100
AcDbBlockEnd
  0
BLOCK
  5
1A2
330
1A0
100
AcDbEntity
  8
0
100
AcDbBlockBegin
  2
block 44
 70
     0
 10
0.0
 20
0.0
 30
0.0
  3
block 44
  1

  0
POLYLINE
  5
1A4
330
1A0
100
AcDbEntity
  8
_U+56FE_U+5C421
 62
     7
420
 16777215
370
    20
100
AcDb2dPolyline
 66
     1
 10
0.0
 20
0.0
 30
0.0
  0
VERTEX
  5
1A5
330
1A4
100
AcDbEntity
  8
_U+56FE_U+5C421
 62
     7
420
 16777215
370
    20
100
AcDbVertex
100
AcDb2dVertex
 10
2.136503879472179
 20
5.98080978215824
 30
0.0
  0
VERTEX
  5
1A6
330
1A4
100
AcDbEntity
  8
_U+56FE_U+5C421
 62
     7
420
 16777215
370
    20
100
AcDbVertex
100
AcDb2dVertex
 10
2.136503879472179
 20
4.35141910723779
 30
0.0
  0
SEQEND
  5
1A7
330
1A4
100
AcDbEntity
  8
_U+56FE_U+5C421
 62
     7
420
 16777215
370
    20
  0
ENDBLK
  5
1A3
330
1A0
100
AcDbEntity
  8
0
100
AcDbBlockEnd
  0
BLOCK
  5
1AA
330
1A8
100
AcDbEntity
  8
0
100
AcDbBlockBegin
  2
block 45
 70
     0
 10
0.0
 20
0.0
 30
0.0
  3
block 45
  1

  0
POLYLINE
  5
1AC
330
1A8
100
AcDbEntity
  8
_U+56FE_U+5C421
 62
     7
420
 16777215
370
    20
100
AcDb2dPolyline
 66
     1
 10
0.0
 20
0.0
 30
0.0
  0
VERTEX
  5
1AD
330
1AC
100
AcDbEntity
  8
_U+56FE_U+5C421
 62
     7
420
 16777215
370
    20
100
AcDbVertex
100
AcDb2dVertex
 10
6.479343161435862
 20
5.98080978215824
 30
0.0
  0
VERTEX
  5
1AE
330
1AC
100
AcDbEntity
  8
_U+56FE_U+5C421
 62
     7
420
 16777215
370
    20
100
AcDbVertex
100
AcDb2dVertex
 10
6.479343161435862
 20
4.35141910723779
 30
0.0
  0
SEQEND
  5
1AF
330
1AC
100
AcDbEntity
  8
_U+56FE_U+5C421
 62
     7
420
 16777215
370
    20
  0
ENDBLK
  5
1AB
330
1A8
100
AcDbEntity
  8
0
100
AcDbBlockEnd
  0
BLOCK
  5
1B2
330
1B0
100
AcDbEntity
  8
0
100
AcDbBlockBegin
  2
block 46
 70
     0
 10
0.0
 20
0.0
 30
0.0
  3
block 46
  1

  0
POLYLINE
  5
1B4
330
1B0
100
AcDbEntity
  8
_U+56FE_U+5C421
 62
     7
420
 16777215
370
    20
100
AcDb2dPolyline
 66
     1
 10
0.0
 20
0.0
 30
0.0
  0
VERTEX
  5
1B5
330
1B4
100
AcDbEntity
  8
_U+56FE_U+5C421
 62
     7
420
 16777215
370
    20
100
AcDbVertex
100
AcDb2dVertex
 10
2.217593382347041
 20
4.358659241423084
 30
0.0
  0
VERTEX
  5
1B6
330
1B4
100
AcDbEntity
  8
_U+56FE_U+5C421
 62
     7
420
 16777215
370
    20
100
AcDbVertex
100
AcDb2dVertex
 10
6.398253658560987
 20
4.358659241423084
 30
0.0
  0
SEQEND
  5
1B7
330
1B4
100
AcDbEntity
  8
_U+56FE_U+5C421
 62
     7
420
 16777215
370
    20
  0
ENDBLK
  5
1B3
330
1B0
100
AcDbEntity
  8
0
100
AcDbBlockEnd
  0
BLOCK
  5
1BA
330
1B8
100
AcDbEntity
  8
0
100
AcDbBlockBegin
  2
block 47
 70
     0
 10
0.0
 20
0.0
 30
0.0
  3
block 47
  1

  0
POLYLINE
  5
1BC
330
1B8
100
AcDbEntity
  8
_U+56FE_U+5C421
370
     0
100
AcDb2dPolyline
 66
     1
 10
0.0
 20
0.0
 30
0.0
  0
VERTEX
  5
1BD
330
1BC
100
AcDbEntity
  8
_U+56FE_U+5C421
370
     0
100
AcDbVertex
100
AcDb2dVertex
 10
2.217593382347041
 20
4.37217415856887
 30
0.0
  0
VERTEX
  5
1BE
330
1BC
100
AcDbEntity
  8
_U+56FE_U+5C421
370
     0
100
AcDbVertex
100
AcDb2dVertex
 10
2.136503879472179
 20
4.358659241423084
 30
0.0
  0
VERTEX
  5
1BF
330
1BC
100
AcDbEntity
  8
_U+56FE_U+5C421
370
     0
100
AcDbVertex
100
AcDb2dVertex
 10
2.217593382347041
 20
4.345144324277245
 30
0.0
  0
VERTEX
  5
1C0
330
1BC
100
AcDbEntity
  8
_U+56FE_U+5C421
370
     0
100
AcDbVertex
100
AcDb2dVertex
 10
2.217593382347041
 20
4.37217415856887
 30
0.0
  0
SEQEND
  5
1C2
330
1BC
100
AcDbEntity
  8
_U+56FE_U+5C421
370
     0
  0
HATCH
  5
1C1
330
1B8
100
AcDbEntity
  8
_U+56FE_U+5C421
 62
     7
420
 16777215
100
AcDbHatch
 10
0.0
 20
0.0
 30
0.0
210
0.0
220
0.0
230
1.0
  2
SOLID
 70
     1
 71
     0
 91
        1
 92
        1
 93
        3
 72
     1
 10
2.217593382347041
 20
4.37217415856887
 11
2.136503879472179
 21
4.358659241423084
 72
     1
 10
2.136503879472179
 20
4.358659241423084
 11
2.217593382347041
 21
4.345144324277245
 72
     1
 10
2.217593382347041
 20
4.345144324277245
 11
2.217593382347041
 21
4.37217415856887
 97
        0
 75
     2
 76
     1
 98
        0
  0
ENDBLK
  5
1BB
330
1B8
100
AcDbEntity
  8
0
100
AcDbBlockEnd
  0
BLOCK
  5
1C5
330
1C3
100
AcDbEntity
  8
0
100
AcDbBlockBegin
  2
block 48
 70
     0
 10
0.0
 20
0.0
 30
0.0
  3
block 48
  1

  0
POLYLINE
  5
1C7
330
1C3
100
AcDbEntity
  8
_U+56FE_U+5C421
370
     0
100
AcDb2dPolyline
 66
     1
 10
0.0
 20
0.0
 30
0.0
  0
VERTEX
  5
1C8
330
1C7
100
AcDbEntity
  8
_U+56FE_U+5C421
370
     0
100
AcDbVertex
100
AcDb2dVertex
 10
6.398253658560987
 20
4.37217415856887
 30
0.0
  0
VERTEX
  5
1C9
330
1C7
100
AcDbEntity
  8
_U+56FE_U+5C421
370
     0
100
AcDbVertex
100
AcDb2dVertex
 10
6.479343161435862
 20
4.358659241423084
 30
0.0
  0
VERTEX
  5
1CA
330
1C7
100
AcDbEntity
  8
_U+56FE_U+5C421
370
     0
100
AcDbVertex
100
AcDb2dVertex
 10
6.398253658560987
 20
4.345144324277245
 30
0.0
  0
VERTEX
  5
1CB
330
1C7
100
AcDbEntity
  8
_U+56FE_U+5C421
370
     0
100
AcDbVertex
100
AcDb2dVertex
 10
6.398253658560987
 20
4.37217415856887
 30
0.0
  0
SEQEND
  5
1CD
330
1C7
100
AcDbEntity
  8
_U+56FE_U+5C421
370
     0
  0
HATCH
  5
1CC
330
1C3
100
AcDbEntity
  8
_U+56FE_U+5C421
 62
     7
420
 16777215
100
AcDbHatch
 10
0.0
 20
0.0
 30
0.0
210
0.0
220
0.0
230
1.0
  2
SOLID
 70
     1
 71
     0
 91
        1
 92
        1
 93
        3
 72
     1
 10
6.398253658560987
 20
4.37217415856887
 11
6.479343161435862
 21
4.358659241423084
 72
     1
 10
6.479343161435862
 20
4.358659241423084
 11
6.398253658560987
 21
4.345144324277245
 72
     1
 10
6.398253658560987
 20
4.345144324277245
 11
6.398253658560987
 21
4.37217415856887
 97
        0
 75
     2
 76
     1
 98
        0
  0
ENDBLK
  5
1C6
330
1C3
100
AcDbEntity
  8
0
100
AcDbBlockEnd
  0
BLOCK
  5
1D0
330
1CE
100
AcDbEntity
  8
0
100
AcDbBlockBegin
  2
block 49
 70
     0
 10
0.0
 20
0.0
 30
0.0
  3
block 49
  1

  0
MTEXT
  5
1D2
330
1CE
100
AcDbEntity
  8
_U+56FE_U+5C421
 62
     7
420
 16777215
100
AcDbMText
 10
3.726635780185461
 20
4.399620268079969
 30
0.0
 40
0.0868815984725952
 41
0.0
 46
0.0
 71
     7
 72
     1
  1
\fMyriad Pro|b0|i0|c0|p34;\W1;749.79 [29 1/2]
 73
     1
 44
1.0
  0
ENDBLK
  5
1D1
330
1CE
100
AcDbEntity
  8
0
100
AcDbBlockEnd
  0
BLOCK
  5
1D5
330
1D3
100
AcDbEntity
  8
0
100
AcDbBlockBegin
  2
block 50
 70
     0
 10
0.0
 20
0.0
 30
0.0
  3
block 50
  1

  0
POLYLINE
  5
1D7
330
1D3
100
AcDbEntity
  8
_U+56FE_U+5C421
 62
     7
420
 16777215
370
    20
100
AcDb2dPolyline
 66
     1
 10
0.0
 20
0.0
 30
0.0
  0
VERTEX
  5
1D8
330
1D7
100
AcDbEntity
  8
_U+56FE_U+5C421
 62
     7
420
 16777215
370
    20
100
AcDbVertex
100
AcDb2dVertex
 10
2.107543342731118
 20
5.98080978215824
 30
0.0
  0
VERTEX
  5
1D9
330
1D7
100
AcDbEntity
  8
_U+56FE_U+5C421
 62
     7
420
 16777215
370
    20
100
AcDbVertex
100
AcDb2dVertex
 10
2.107543342731118
 20
4.126058421051109
 30
0.0
  0
SEQEND
  5
1DA
330
1D7
100
AcDbEntity
  8
_U+56FE_U+5C421
 62
     7
420
 16777215
370
    20
  0
ENDBLK
  5
1D6
330
1D3
100
AcDbEntity
  8
0
100
AcDbBlockEnd
  0
BLOCK
  5
1DD
330
1DB
100
AcDbEntity
  8
0
100
AcDbBlockBegin
  2
block 51
 70
     0
 10
0.0
 20
0.0
 30
0.0
  3
block 51
  1

  0
POLYLINE
  5
1DF
330
1DB
100
AcDbEntity
  8
_U+56FE_U+5C421
 62
     7
420
 16777215
370
    20
100
AcDb2dPolyline
 66
     1
 10
0.0
 20
0.0
 30
0.0
  0
VERTEX
  5
1E0
330
1DF
100
AcDbEntity
  8
_U+56FE_U+5C421
 62
     7
420
 16777215
370
    20
100
AcDbVertex
100
AcDb2dVertex
 10
6.50830369817691
 20
5.98080978215824
 30
0.0
  0
VERTEX
  5
1E1
330
1DF
100
AcDbEntity
  8
_U+56FE_U+5C421
 62
     7
420
 16777215
370
    20
100
AcDbVertex
100
AcDb2dVertex
 10
6.50830369817691
 20
4.126058421051109
 30
0.0
  0
SEQEND
  5
1E2
330
1DF
100
AcDbEntity
  8
_U+56FE_U+5C421
 62
     7
420
 16777215
370
    20
  0
ENDBLK
  5
1DE
330
1DB
100
AcDbEntity
  8
0
100
AcDbBlockEnd
  0
BLOCK
  5
1E5
330
1E3
100
AcDbEntity
  8
0
100
AcDbBlockBegin
  2
block 52
 70
     0
 10
0.0
 20
0.0
 30
0.0
  3
block 52
  1

  0
POLYLINE
  5
1E7
330
1E3
100
AcDbEntity
  8
_U+56FE_U+5C421
 62
     7
420
 16777215
370
    20
100
AcDb2dPolyline
 66
     1
 10
0.0
 20
0.0
 30
0.0
  0
VERTEX
  5
1E8
330
1E7
100
AcDbEntity
  8
_U+56FE_U+5C421
 62
     7
420
 16777215
370
    20
100
AcDbVertex
100
AcDb2dVertex
 10
2.188632845606005
 20
4.133298555236353
 30
0.0
  0
VERTEX
  5
1E9
330
1E7
100
AcDbEntity
  8
_U+56FE_U+5C421
 62
     7
420
 16777215
370
    20
100
AcDbVertex
100
AcDb2dVertex
 10
6.427214195301985
 20
4.133298555236353
 30
0.0
  0
SEQEND
  5
1EA
330
1E7
100
AcDbEntity
  8
_U+56FE_U+5C421
 62
     7
420
 16777215
370
    20
  0
ENDBLK
  5
1E6
330
1E3
100
AcDbEntity
  8
0
100
AcDbBlockEnd
  0
BLOCK
  5
1ED
330
1EB
100
AcDbEntity
  8
0
100
AcDbBlockBegin
  2
block 53
 70
     0
 10
0.0
 20
0.0
 30
0.0
  3
block 53
  1

  0
POLYLINE
  5
1EF
330
1EB
100
AcDbEntity
  8
_U+56FE_U+5C421
370
     0
100
AcDb2dPolyline
 66
     1
 10
0.0
 20
0.0
 30
0.0
  0
VERTEX
  5
1F0
330
1EF
100
AcDbEntity
  8
_U+56FE_U+5C421
370
     0
100
AcDbVertex
100
AcDb2dVertex
 10
2.188632845606005
 20
4.14681347238219
 30
0.0
  0
VERTEX
  5
1F1
330
1EF
100
AcDbEntity
  8
_U+56FE_U+5C421
370
     0
100
AcDbVertex
100
AcDb2dVertex
 10
2.107543342731118
 20
4.133298555236353
 30
0.0
  0
VERTEX
  5
1F2
330
1EF
100
AcDbEntity
  8
_U+56FE_U+5C421
370
     0
100
AcDbVertex
100
AcDb2dVertex
 10
2.188632845606005
 20
4.119783638090515
 30
0.0
  0
VERTEX
  5
1F3
330
1EF
100
AcDbEntity
  8
_U+56FE_U+5C421
370
     0
100
AcDbVertex
100
AcDb2dVertex
 10
2.188632845606005
 20
4.14681347238219
 30
0.0
  0
SEQEND
  5
1F5
330
1EF
100
AcDbEntity
  8
_U+56FE_U+5C421
370
     0
  0
HATCH
  5
1F4
330
1EB
100
AcDbEntity
  8
_U+56FE_U+5C421
 62
     7
420
 16777215
100
AcDbHatch
 10
0.0
 20
0.0
 30
0.0
210
0.0
220
0.0
230
1.0
  2
SOLID
 70
     1
 71
     0
 91
        1
 92
        1
 93
        3
 72
     1
 10
2.188632845606005
 20
4.14681347238219
 11
2.107543342731118
 21
4.133298555236353
 72
     1
 10
2.107543342731118
 20
4.133298555236353
 11
2.188632845606005
 21
4.119783638090515
 72
     1
 10
2.188632845606005
 20
4.119783638090515
 11
2.188632845606005
 21
4.14681347238219
 97
        0
 75
     2
 76
     1
 98
        0
  0
ENDBLK
  5
1EE
330
1EB
100
AcDbEntity
  8
0
100
AcDbBlockEnd
  0
BLOCK
  5
1F8
330
1F6
100
AcDbEntity
  8
0
100
AcDbBlockBegin
  2
block 54
 70
     0
 10
0.0
 20
0.0
 30
0.0
  3
block 54
  1

  0
POLYLINE
  5
1FA
330
1F6
100
AcDbEntity
  8
_U+56FE_U+5C421
370
     0
100
AcDb2dPolyline
 66
     1
 10
0.0
 20
0.0
 30
0.0
  0
VERTEX
  5
1FB
330
1FA
100
AcDbEntity
  8
_U+56FE_U+5C421
370
     0
100
AcDbVertex
100
AcDb2dVertex
 10
6.427214195301985
 20
4.14681347238219
 30
0.0
  0
VERTEX
  5
1FC
330
1FA
100
AcDbEntity
  8
_U+56FE_U+5C421
370
     0
100
AcDbVertex
100
AcDb2dVertex
 10
6.50830369817691
 20
4.133298555236353
 30
0.0
  0
VERTEX
  5
1FD
330
1FA
100
AcDbEntity
  8
_U+56FE_U+5C421
370
     0
100
AcDbVertex
100
AcDb2dVertex
 10
6.427214195301985
 20
4.119783638090515
 30
0.0
  0
VERTEX
  5
1FE
330
1FA
100
AcDbEntity
  8
_U+56FE_U+5C421
370
     0
100
AcDbVertex
100
AcDb2dVertex
 10
6.427214195301985
 20
4.14681347238219
 30
0.0
  0
SEQEND
  5
200
330
1FA
100
AcDbEntity
  8
_U+56FE_U+5C421
370
     0
  0
HATCH
  5
1FF
330
1F6
100
AcDbEntity
  8
_U+56FE_U+5C421
 62
     7
420
 16777215
100
AcDbHatch
 10
0.0
 20
0.0
 30
0.0
210
0.0
220
0.0
230
1.0
  2
SOLID
 70
     1
 71
     0
 91
        1
 92
        1
 93
        3
 72
     1
 10
6.427214195301985
 20
4.14681347238219
 11
6.50830369817691
 21
4.133298555236353
 72
     1
 10
6.50830369817691
 20
4.133298555236353
 11
6.427214195301985
 21
4.119783638090515
 72
     1
 10
6.427214195301985
 20
4.119783638090515
 11
6.427214195301985
 21
4.14681347238219
 97
        0
 75
     2
 76
     1
 98
        0
  0
ENDBLK
  5
1F9
330
1F6
100
AcDbEntity
  8
0
100
AcDbBlockEnd
  0
BLOCK
  5
203
330
201
100
AcDbEntity
  8
0
100
AcDbBlockBegin
  2
block 55
 70
     0
 10
0.0
 20
0.0
 30
0.0
  3
block 55
  1

  0
MTEXT
  5
205
330
201
100
AcDbEntity
  8
_U+56FE_U+5C421
 62
     7
420
 16777215
100
AcDbMText
 10
3.726635780185461
 20
4.174278471204969
 30
0.0
 40
0.0868815984725952
 41
0.0
 46
0.0
 71
     7
 72
     1
  1
\fMyriad Pro|b0|i0|c0|p34;\W1;759.79 [29 7/8]
 73
     1
 44
1.0
  0
ENDBLK
  5
204
330
201
100
AcDbEntity
  8
0
100
AcDbBlockEnd
  0
BLOCK
  5
208
330
206
100
AcDbEntity
  8
0
100
AcDbBlockBegin
  2
block 56
 70
     0
 10
0.0
 20
0.0
 30
0.0
  3
block 56
  1

  0
POLYLINE
  5
20A
330
206
100
AcDbEntity
  8
_U+56FE_U+5C421
 62
     7
420
 16777215
370
    20
100
AcDb2dPolyline
 66
     1
 10
0.0
 20
0.0
 30
0.0
  0
VERTEX
  5
20B
330
20A
100
AcDbEntity
  8
_U+56FE_U+5C421
 62
     7
420
 16777215
370
    20
100
AcDbVertex
100
AcDb2dVertex
 10
2.078582805990082
 20
5.98080978215824
 30
0.0
  0
VERTEX
  5
20C
330
20A
100
AcDbEntity
  8
_U+56FE_U+5C421
 62
     7
420
 16777215
370
    20
100
AcDbVertex
100
AcDb2dVertex
 10
2.078582805990082
 20
3.912558800857773
 30
0.0
  0
SEQEND
  5
20D
330
20A
100
AcDbEntity
  8
_U+56FE_U+5C421
 62
     7
420
 16777215
370
    20
  0
ENDBLK
  5
209
330
206
100
AcDbEntity
  8
0
100
AcDbBlockEnd
  0
BLOCK
  5
210
330
20E
100
AcDbEntity
  8
0
100
AcDbBlockBegin
  2
block 57
 70
     0
 10
0.0
 20
0.0
 30
0.0
  3
block 57
  1

  0
POLYLINE
  5
212
330
20E
100
AcDbEntity
  8
_U+56FE_U+5C421
 62
     7
420
 16777215
370
    20
100
AcDb2dPolyline
 66
     1
 10
0.0
 20
0.0
 30
0.0
  0
VERTEX
  5
213
330
212
100
AcDbEntity
  8
_U+56FE_U+5C421
 62
     7
420
 16777215
370
    20
100
AcDbVertex
100
AcDb2dVertex
 10
6.537264234917958
 20
5.98080978215824
 30
0.0
  0
VERTEX
  5
214
330
212
100
AcDbEntity
  8
_U+56FE_U+5C421
 62
     7
420
 16777215
370
    20
100
AcDbVertex
100
AcDb2dVertex
 10
6.537264234917958
 20
3.912558800857773
 30
0.0
  0
SEQEND
  5
215
330
212
100
AcDbEntity
  8
_U+56FE_U+5C421
 62
     7
420
 16777215
370
    20
  0
ENDBLK
  5
211
330
20E
100
AcDbEntity
  8
0
100
AcDbBlockEnd
  0
BLOCK
  5
218
330
216
100
AcDbEntity
  8
0
100
AcDbBlockBegin
  2
block 58
 70
     0
 10
0.0
 20
0.0
 30
0.0
  3
block 58
  1

  0
POLYLINE
  5
21A
330
216
100
AcDbEntity
  8
_U+56FE_U+5C421
 62
     7
420
 16777215
370
    20
100
AcDb2dPolyline
 66
     1
 10
0.0
 20
0.0
 30
0.0
  0
VERTEX
  5
21B
330
21A
100
AcDbEntity
  8
_U+56FE_U+5C421
 62
     7
420
 16777215
370
    20
100
AcDbVertex
100
AcDb2dVertex
 10
2.159672308865007
 20
3.919798935043066
 30
0.0
  0
VERTEX
  5
21C
330
21A
100
AcDbEntity
  8
_U+56FE_U+5C421
 62
     7
420
 16777215
370
    20
100
AcDbVertex
100
AcDb2dVertex
 10
6.456174732043033
 20
3.919798935043066
 30
0.0
  0
SEQEND
  5
21D
330
21A
100
AcDbEntity
  8
_U+56FE_U+5C421
 62
     7
420
 16777215
370
    20
  0
ENDBLK
  5
219
330
216
100
AcDbEntity
  8
0
100
AcDbBlockEnd
  0
BLOCK
  5
220
330
21E
100
AcDbEntity
  8
0
100
AcDbBlockBegin
  2
block 59
 70
     0
 10
0.0
 20
0.0
 30
0.0
  3
block 59
  1

  0
POLYLINE
  5
222
330
21E
100
AcDbEntity
  8
_U+56FE_U+5C421
370
     0
100
AcDb2dPolyline
 66
     1
 10
0.0
 20
0.0
 30
0.0
  0
VERTEX
  5
223
330
222
100
AcDbEntity
  8
_U+56FE_U+5C421
370
     0
100
AcDbVertex
100
AcDb2dVertex
 10
2.159672308865007
 20
3.933313852188853
 30
0.0
  0
VERTEX
  5
224
330
222
100
AcDbEntity
  8
_U+56FE_U+5C421
370
     0
100
AcDbVertex
100
AcDb2dVertex
 10
2.078582805990082
 20
3.919798935043066
 30
0.0
  0
VERTEX
  5
225
330
222
100
AcDbEntity
  8
_U+56FE_U+5C421
370
     0
100
AcDbVertex
100
AcDb2dVertex
 10
2.159672308865007
 20
3.906284017897178
 30
0.0
  0
VERTEX
  5
226
330
222
100
AcDbEntity
  8
_U+56FE_U+5C421
370
     0
100
AcDbVertex
100
AcDb2dVertex
 10
2.159672308865007
 20
3.933313852188853
 30
0.0
  0
SEQEND
  5
228
330
222
100
AcDbEntity
  8
_U+56FE_U+5C421
370
     0
  0
HATCH
  5
227
330
21E
100
AcDbEntity
  8
_U+56FE_U+5C421
 62
     7
420
 16777215
100
AcDbHatch
 10
0.0
 20
0.0
 30
0.0
210
0.0
220
0.0
230
1.0
  2
SOLID
 70
     1
 71
     0
 91
        1
 92
        1
 93
        3
 72
     1
 10
2.159672308865007
 20
3.933313852188853
 11
2.078582805990082
 21
3.919798935043066
 72
     1
 10
2.078582805990082
 20
3.919798935043066
 11
2.159672308865007
 21
3.906284017897178
 72
     1
 10
2.159672308865007
 20
3.906284017897178
 11
2.159672308865007
 21
3.933313852188853
 97
        0
 75
     2
 76
     1
 98
        0
  0
ENDBLK
  5
221
330
21E
100
AcDbEntity
  8
0
100
AcDbBlockEnd
  0
BLOCK
  5
22B
330
229
100
AcDbEntity
  8
0
100
AcDbBlockBegin
  2
block 60
 70
     0
 10
0.0
 20
0.0
 30
0.0
  3
block 60
  1

  0
POLYLINE
  5
22D
330
229
100
AcDbEntity
  8
_U+56FE_U+5C421
370
     0
100
AcDb2dPolyline
 66
     1
 10
0.0
 20
0.0
 30
0.0
  0
VERTEX
  5
22E
330
22D
100
AcDbEntity
  8
_U+56FE_U+5C421
370
     0
100
AcDbVertex
100
AcDb2dVertex
 10
6.456174732043033
 20
3.933313852188853
 30
0.0
  0
VERTEX
  5
22F
330
22D
100
AcDbEntity
  8
_U+56FE_U+5C421
370
     0
100
AcDbVertex
100
AcDb2dVertex
 10
6.537264234917958
 20
3.919798935043066
 30
0.0
  0
VERTEX
  5
230
330
22D
100
AcDbEntity
  8
_U+56FE_U+5C421
370
     0
100
AcDbVertex
100
AcDb2dVertex
 10
6.456174732043033
 20
3.906284017897178
 30
0.0
  0
VERTEX
  5
231
330
22D
100
AcDbEntity
  8
_U+56FE_U+5C421
370
     0
100
AcDbVertex
100
AcDb2dVertex
 10
6.456174732043033
 20
3.933313852188853
 30
0.0
  0
SEQEND
  5
233
330
22D
100
AcDbEntity
  8
_U+56FE_U+5C421
370
     0
  0
HATCH
  5
232
330
229
100
AcDbEntity
  8
_U+56FE_U+5C421
 62
     7
420
 16777215
100
AcDbHatch
 10
0.0
 20
0.0
 30
0.0
210
0.0
220
0.0
230
1.0
  2
SOLID
 70
     1
 71
     0
 91
        1
 92
        1
 93
        3
 72
     1
 10
6.456174732043033
 20
3.933313852188853
 11
6.537264234917958
 21
3.919798935043066
 72
     1
 10
6.537264234917958
 20
3.919798935043066
 11
6.456174732043033
 21
3.906284017897178
 72
     1
 10
6.456174732043033
 20
3.906284017897178
 11
6.456174732043033
 21
3.933313852188853
 97
        0
 75
     2
 76
     1
 98
        0
  0
ENDBLK
  5
22C
330
229
100
AcDbEntity
  8
0
100
AcDbBlockEnd
  0
BLOCK
  5
236
330
234
100
AcDbEntity
  8
0
100
AcDbBlockBegin
  2
block 61
 70
     0
 10
0.0
 20
0.0
 30
0.0
  3
block 61
  1

  0
MTEXT
  5
238
330
234
100
AcDbEntity
  8
_U+56FE_U+5C421
 62
     7
420
 16777215
100
AcDbMText
 10
3.726635780185461
 20
3.960791058010525
 30
0.0
 40
0.0868815984725952
 41
0.0
 46
0.0
 71
     7
 72
     1
  1
\fMyriad Pro|b0|i0|c0|p34;\W1;769.79 [30 1/4]
 73
     1
 44
1.0
  0
ENDBLK
  5
237
330
234
100
AcDbEntity
  8
0
100
AcDbBlockEnd
  0
BLOCK
  5
23B
330
239
100
AcDbEntity
  8
0
100
AcDbBlockBegin
  2
block 62
 70
     0
 10
0.0
 20
0.0
 30
0.0
  3
block 62
  1

  0
POLYLINE
  5
23D
330
239
100
AcDbEntity
  8
_U+56FE_U+5C421
 62
     7
420
 16777215
370
    20
100
AcDb2dPolyline
 66
     1
 10
0.0
 20
0.0
 30
0.0
  0
VERTEX
  5
23E
330
23D
100
AcDbEntity
  8
_U+56FE_U+5C421
 62
     7
420
 16777215
370
    20
100
AcDbVertex
100
AcDb2dVertex
 10
3.800884601961861
 20
6.705995635173963
 30
0.0
  0
VERTEX
  5
23F
330
23D
100
AcDbEntity
  8
_U+56FE_U+5C421
 62
     7
420
 16777215
370
    20
100
AcDbVertex
100
AcDb2dVertex
 10
2.795953977047904
 20
6.705995635173963
 30
0.0
  0
SEQEND
  5
240
330
23D
100
AcDbEntity
  8
_U+56FE_U+5C421
 62
     7
420
 16777215
370
    20
  0
ENDBLK
  5
23C
330
239
100
AcDbEntity
  8
0
100
AcDbBlockEnd
  0
BLOCK
  5
243
330
241
100
AcDbEntity
  8
0
100
AcDbBlockBegin
  2
block 63
 70
     0
 10
0.0
 20
0.0
 30
0.0
  3
block 63
  1

  0
POLYLINE
  5
245
330
241
100
AcDbEntity
  8
_U+56FE_U+5C421
 62
     7
420
 16777215
370
    20
100
AcDb2dPolyline
 66
     1
 10
0.0
 20
0.0
 30
0.0
  0
VERTEX
  5
246
330
245
100
AcDbEntity
  8
_U+56FE_U+5C421
 62
     7
420
 16777215
370
    20
100
AcDbVertex
100
AcDb2dVertex
 10
2.795953977047904
 20
6.705995635173963
 30
0.0
  0
VERTEX
  5
247
330
245
100
AcDbEntity
  8
_U+56FE_U+5C421
 62
     7
420
 16777215
370
    20
100
AcDbVertex
100
AcDb2dVertex
 10
2.435196563014453
 20
7.18659143216813
 30
0.0
  0
SEQEND
  5
248
330
245
100
AcDbEntity
  8
_U+56FE_U+5C421
 62
     7
420
 16777215
370
    20
  0
ENDBLK
  5
244
330
241
100
AcDbEntity
  8
0
100
AcDbBlockEnd
  0
BLOCK
  5
24B
330
249
100
AcDbEntity
  8
0
100
AcDbBlockBegin
  2
block 64
 70
     0
 10
0.0
 20
0.0
 30
0.0
  3
block 64
  1

  0
MTEXT
  5
24D
330
249
100
AcDbEntity
  8
_U+56FE_U+5C421
 62
     7
420
 16777215
100
AcDbMText
 10
2.790370046678516
 20
6.746964560614692
 30
0.0
 40
0.0868815984725952
 41
0.0
 46
0.0
 71
     7
 72
     1
  1
\fMyriad Pro|b0|i0|c0|p34;\W1;R108 [R4 1/4]
 73
     1
 44
1.0
  0
ENDBLK
  5
24C
330
249
100
AcDbEntity
  8
0
100
AcDbBlockEnd
  0
BLOCK
  5
250
330
24E
100
AcDbEntity
  8
0
100
AcDbBlockBegin
  2
block 65
 70
     0
 10
0.0
 20
0.0
 30
0.0
  3
block 65
  1

  0
POLYLINE
  5
252
330
24E
100
AcDbEntity
  8
_U+56FE_U+5C421
370
     0
100
AcDb2dPolyline
 66
     1
 10
0.0
 20
0.0
 30
0.0
  0
VERTEX
  5
253
330
252
100
AcDbEntity
  8
_U+56FE_U+5C421
370
     0
100
AcDbVertex
100
AcDb2dVertex
 10
2.44600514318779
 20
7.194704851921503
 30
0.0
  0
VERTEX
  5
254
330
252
100
AcDbEntity
  8
_U+56FE_U+5C421
370
     0
100
AcDbVertex
100
AcDb2dVertex
 10
2.38651604449429
 20
7.251442913208292
 30
0.0
  0
VERTEX
  5
255
330
252
100
AcDbEntity
  8
_U+56FE_U+5C421
370
     0
100
AcDbVertex
100
AcDb2dVertex
 10
2.424387982841078
 20
7.17847801241477
 30
0.0
  0
VERTEX
  5
256
330
252
100
AcDbEntity
  8
_U+56FE_U+5C421
370
     0
100
AcDbVertex
100
AcDb2dVertex
 10
2.44600514318779
 20
7.194704851921503
 30
0.0
  0
SEQEND
  5
258
330
252
100
AcDbEntity
  8
_U+56FE_U+5C421
370
     0
  0
HATCH
  5
257
330
24E
100
AcDbEntity
  8
_U+56FE_U+5C421
 62
     7
420
 16777215
100
AcDbHatch
 10
0.0
 20
0.0
 30
0.0
210
0.0
220
0.0
230
1.0
  2
SOLID
 70
     1
 71
     0
 91
        1
 92
        1
 93
        3
 72
     1
 10
2.44600514318779
 20
7.194704851921503
 11
2.38651604449429
 21
7.251442913208292
 72
     1
 10
2.38651604449429
 20
7.251442913208292
 11
2.424387982841078
 21
7.17847801241477
 72
     1
 10
2.424387982841078
 20
7.17847801241477
 11
2.44600514318779
 21
7.194704851921503
 97
        0
 75
     2
 76
     1
 98
        0
  0
ENDBLK
  5
251
330
24E
100
AcDbEntity
  8
0
100
AcDbBlockEnd
  0
BLOCK
  5
25B
330
259
100
AcDbEntity
  8
0
100
AcDbBlockBegin
  2
block 66
 70
     0
 10
0.0
 20
0.0
 30
0.0
  3
block 66
  1

  0
POLYLINE
  5
25D
330
259
100
AcDbEntity
  8
_U+56FE_U+5C421
 62
     7
420
 16777215
370
    20
100
AcDb2dPolyline
 66
     1
 10
0.0
 20
0.0
 30
0.0
  0
VERTEX
  5
25E
330
25D
100
AcDbEntity
  8
_U+56FE_U+5C421
 62
     7
420
 16777215
370
    20
100
AcDbVertex
100
AcDb2dVertex
 10
3.764758534583077
 20
5.296112312982637
 30
0.0
  0
VERTEX
  5
25F
330
25D
100
AcDbEntity
  8
_U+56FE_U+5C421
 62
     7
420
 16777215
370
    20
100
AcDbVertex
100
AcDb2dVertex
 10
2.774308178039695
 20
5.296112312982637
 30
0.0
  0
SEQEND
  5
260
330
25D
100
AcDbEntity
  8
_U+56FE_U+5C421
 62
     7
420
 16777215
370
    20
  0
ENDBLK
  5
25C
330
259
100
AcDbEntity
  8
0
100
AcDbBlockEnd
  0
BLOCK
  5
263
330
261
100
AcDbEntity
  8
0
100
AcDbBlockBegin
  2
block 67
 70
     0
 10
0.0
 20
0.0
 30
0.0
  3
block 67
  1

  0
POLYLINE
  5
265
330
261
100
AcDbEntity
  8
_U+56FE_U+5C421
 62
     7
420
 16777215
370
    20
100
AcDb2dPolyline
 66
     1
 10
0.0
 20
0.0
 30
0.0
  0
VERTEX
  5
266
330
265
100
AcDbEntity
  8
_U+56FE_U+5C421
 62
     7
420
 16777215
370
    20
100
AcDbVertex
100
AcDb2dVertex
 10
2.774308178039695
 20
5.296112312982637
 30
0.0
  0
VERTEX
  5
267
330
265
100
AcDbEntity
  8
_U+56FE_U+5C421
 62
     7
420
 16777215
370
    20
100
AcDbVertex
100
AcDb2dVertex
 10
2.415361818462884
 20
4.823220657085888
 30
0.0
  0
SEQEND
  5
268
330
265
100
AcDbEntity
  8
_U+56FE_U+5C421
 62
     7
420
 16777215
370
    20
  0
ENDBLK
  5
264
330
261
100
AcDbEntity
  8
0
100
AcDbBlockEnd
  0
BLOCK
  5
26B
330
269
100
AcDbEntity
  8
0
100
AcDbBlockBegin
  2
block 68
 70
     0
 10
0.0
 20
0.0
 30
0.0
  3
block 68
  1

  0
MTEXT
  5
26D
330
269
100
AcDbEntity
  8
_U+56FE_U+5C421
 62
     7
420
 16777215
100
AcDbMText
 10
2.761480072720183
 20
5.337093141343858
 30
0.0
 40
0.0868815984725952
 41
0.0
 46
0.0
 71
     7
 72
     1
  1
\fMyriad Pro|b0|i0|c0|p34;\W1;R113 [R4 1/2]
 73
     1
 44
1.0
  0
ENDBLK
  5
26C
330
269
100
AcDbEntity
  8
0
100
AcDbBlockEnd
  0
BLOCK
  5
270
330
26E
100
AcDbEntity
  8
0
100
AcDbBlockBegin
  2
block 69
 70
     0
 10
0.0
 20
0.0
 30
0.0
  3
block 69
  1

  0
POLYLINE
  5
272
330
26E
100
AcDbEntity
  8
_U+56FE_U+5C421
370
     0
100
AcDb2dPolyline
 66
     1
 10
0.0
 20
0.0
 30
0.0
  0
VERTEX
  5
273
330
272
100
AcDbEntity
  8
_U+56FE_U+5C421
370
     0
100
AcDbVertex
100
AcDb2dVertex
 10
2.404596805157957
 20
4.831391793726652
 30
0.0
  0
VERTEX
  5
274
330
272
100
AcDbEntity
  8
_U+56FE_U+5C421
370
     0
100
AcDbVertex
100
AcDb2dVertex
 10
2.366334998618249
 20
4.758630577256099
 30
0.0
  0
VERTEX
  5
275
330
272
100
AcDbEntity
  8
_U+56FE_U+5C421
370
     0
100
AcDbVertex
100
AcDb2dVertex
 10
2.426126831767874
 20
4.815049520445073
 30
0.0
  0
VERTEX
  5
276
330
272
100
AcDbEntity
  8
_U+56FE_U+5C421
370
     0
100
AcDbVertex
100
AcDb2dVertex
 10
2.404596805157957
 20
4.831391793726652
 30
0.0
  0
SEQEND
  5
278
330
272
100
AcDbEntity
  8
_U+56FE_U+5C421
370
     0
  0
HATCH
  5
277
330
26E
100
AcDbEntity
  8
_U+56FE_U+5C421
 62
     7
420
 16777215
100
AcDbHatch
 10
0.0
 20
0.0
 30
0.0
210
0.0
220
0.0
230
1.0
  2
SOLID
 70
     1
 71
     0
 91
        1
 92
        1
 93
        3
 72
     1
 10
2.404596805157957
 20
4.831391793726652
 11
2.366334998618249
 21
4.758630577256099
 72
     1
 10
2.366334998618249
 20
4.758630577256099
 11
2.426126831767874
 21
4.815049520445073
 72
     1
 10
2.426126831767874
 20
4.815049520445073
 11
2.404596805157957
 21
4.831391793726652
 97
        0
 75
     2
 76
     1
 98
        0
  0
ENDBLK
  5
271
330
26E
100
AcDbEntity
  8
0
100
AcDbBlockEnd
  0
BLOCK
  5
27B
330
279
100
AcDbEntity
  8
0
100
AcDbBlockBegin
  2
block 70
 70
     0
 10
0.0
 20
0.0
 30
0.0
  3
block 70
  1

  0
POLYLINE
  5
27D
330
279
100
AcDbEntity
  8
_U+56FE_U+5C421
 62
     7
420
 16777215
370
    20
100
AcDb2dPolyline
 66
     1
 10
0.0
 20
0.0
 30
0.0
  0
VERTEX
  5
27E
330
27D
100
AcDbEntity
  8
_U+56FE_U+5C421
 62
     7
420
 16777215
370
    20
100
AcDbVertex
100
AcDb2dVertex
 10
4.876570571398461
 20
5.261136441810423
 30
0.0
  0
VERTEX
  5
27F
330
27D
100
AcDbEntity
  8
_U+56FE_U+5C421
 62
     7
420
 16777215
370
    20
100
AcDbVertex
100
AcDb2dVertex
 10
5.881501196312406
 20
5.261136441810423
 30
0.0
  0
SEQEND
  5
280
330
27D
100
AcDbEntity
  8
_U+56FE_U+5C421
 62
     7
420
 16777215
370
    20
  0
ENDBLK
  5
27C
330
279
100
AcDbEntity
  8
0
100
AcDbBlockEnd
  0
BLOCK
  5
283
330
281
100
AcDbEntity
  8
0
100
AcDbBlockBegin
  2
block 71
 70
     0
 10
0.0
 20
0.0
 30
0.0
  3
block 71
  1

  0
POLYLINE
  5
285
330
281
100
AcDbEntity
  8
_U+56FE_U+5C421
 62
     7
420
 16777215
370
    20
100
AcDb2dPolyline
 66
     1
 10
0.0
 20
0.0
 30
0.0
  0
VERTEX
  5
286
330
285
100
AcDbEntity
  8
_U+56FE_U+5C421
 62
     7
420
 16777215
370
    20
100
AcDbVertex
100
AcDb2dVertex
 10
5.881501196312406
 20
5.261136441810423
 30
0.0
  0
VERTEX
  5
287
330
285
100
AcDbEntity
  8
_U+56FE_U+5C421
 62
     7
420
 16777215
370
    20
100
AcDbVertex
100
AcDb2dVertex
 10
6.268767535982609
 20
4.80163343417386
 30
0.0
  0
SEQEND
  5
288
330
285
100
AcDbEntity
  8
_U+56FE_U+5C421
 62
     7
420
 16777215
370
    20
  0
ENDBLK
  5
284
330
281
100
AcDbEntity
  8
0
100
AcDbBlockEnd
  0
BLOCK
  5
28B
330
289
100
AcDbEntity
  8
0
100
AcDbBlockBegin
  2
block 72
 70
     0
 10
0.0
 20
0.0
 30
0.0
  3
block 72
  1

  0
MTEXT
  5
28D
330
289
100
AcDbEntity
  8
_U+56FE_U+5C421
 62
     7
420
 16777215
100
AcDbMText
 10
4.836241357442405
 20
5.30211321512858
 30
0.0
 40
0.0868815984725952
 41
0.0
 46
0.0
 71
     7
 72
     1
  1
\fMyriad Pro|b0|i0|c0|p34;\W1;R105 [R4 1/8]
 73
     1
 44
1.0
  0
ENDBLK
  5
28C
330
289
100
AcDbEntity
  8
0
100
AcDbBlockEnd
  0
BLOCK
  5
290
330
28E
100
AcDbEntity
  8
0
100
AcDbBlockBegin
  2
block 73
 70
     0
 10
0.0
 20
0.0
 30
0.0
  3
block 73
  1

  0
POLYLINE
  5
292
330
28E
100
AcDbEntity
  8
_U+56FE_U+5C421
370
     0
100
AcDb2dPolyline
 66
     1
 10
0.0
 20
0.0
 30
0.0
  0
VERTEX
  5
293
330
292
100
AcDbEntity
  8
_U+56FE_U+5C421
370
     0
100
AcDbVertex
100
AcDb2dVertex
 10
6.279101740170416
 20
4.81034303860022
 30
0.0
  0
VERTEX
  5
294
330
292
100
AcDbEntity
  8
_U+56FE_U+5C421
370
     0
100
AcDbVertex
100
AcDb2dVertex
 10
6.321025162540511
 20
4.739628209047067
 30
0.0
  0
VERTEX
  5
295
330
292
100
AcDbEntity
  8
_U+56FE_U+5C421
370
     0
100
AcDbVertex
100
AcDb2dVertex
 10
6.258433331794751
 20
4.792923829747552
 30
0.0
  0
VERTEX
  5
296
330
292
100
AcDbEntity
  8
_U+56FE_U+5C421
370
     0
100
AcDbVertex
100
AcDb2dVertex
 10
6.279101740170416
 20
4.81034303860022
 30
0.0
  0
SEQEND
  5
298
330
292
100
AcDbEntity
  8
_U+56FE_U+5C421
370
     0
  0
HATCH
  5
297
330
28E
100
AcDbEntity
  8
_U+56FE_U+5C421
 62
     7
420
 16777215
100
AcDbHatch
 10
0.0
 20
0.0
 30
0.0
210
0.0
220
0.0
230
1.0
  2
SOLID
 70
     1
 71
     0
 91
        1
 92
        1
 93
        3
 72
     1
 10
6.279101740170416
 20
4.81034303860022
 11
6.321025162540511
 21
4.739628209047067
 72
     1
 10
6.321025162540511
 20
4.739628209047067
 11
6.258433331794751
 21
4.792923829747552
 72
     1
 10
6.258433331794751
 20
4.792923829747552
 11
6.279101740170416
 21
4.81034303860022
 97
        0
 75
     2
 76
     1
 98
        0
  0
ENDBLK
  5
291
330
28E
100
AcDbEntity
  8
0
100
AcDbBlockEnd
  0
BLOCK
  5
29B
330
299
100
AcDbEntity
  8
0
100
AcDbBlockBegin
  2
block 74
 70
     0
 10
0.0
 20
0.0
 30
0.0
  3
block 74
  1

  0
POLYLINE
  5
29D
330
299
100
AcDbEntity
  8
_U+56FE_U+5C421
 62
     7
420
 16777215
370
    20
100
AcDb2dPolyline
 66
     1
 10
0.0
 20
0.0
 30
0.0
  0
VERTEX
  5
29E
330
29D
100
AcDbEntity
  8
_U+56FE_U+5C421
 62
     7
420
 16777215
370
    20
100
AcDbVertex
100
AcDb2dVertex
 10
3.097556679893058
 20
6.975701256756779
 30
0.0
  0
VERTEX
  5
29F
330
29D
100
AcDbEntity
  8
_U+56FE_U+5C421
 62
     7
420
 16777215
370
    20
100
AcDbVertex
100
AcDb2dVertex
 10
4.073526768065967
 20
6.975701256756779
 30
0.0
  0
SEQEND
  5
2A0
330
29D
100
AcDbEntity
  8
_U+56FE_U+5C421
 62
     7
420
 16777215
370
    20
  0
ENDBLK
  5
29C
330
299
100
AcDbEntity
  8
0
100
AcDbBlockEnd
  0
BLOCK
  5
2A3
330
2A1
100
AcDbEntity
  8
0
100
AcDbBlockBegin
  2
block 75
 70
     0
 10
0.0
 20
0.0
 30
0.0
  3
block 75
  1

  0
POLYLINE
  5
2A5
330
2A1
100
AcDbEntity
  8
_U+56FE_U+5C421
 62
     7
420
 16777215
370
    20
100
AcDb2dPolyline
 66
     1
 10
0.0
 20
0.0
 30
0.0
  0
VERTEX
  5
2A6
330
2A5
100
AcDbEntity
  8
_U+56FE_U+5C421
 62
     7
420
 16777215
370
    20
100
AcDbVertex
100
AcDb2dVertex
 10
4.073526768065967
 20
6.975701256756779
 30
0.0
  0
VERTEX
  5
2A7
330
2A5
100
AcDbEntity
  8
_U+56FE_U+5C421
 62
     7
420
 16777215
370
    20
100
AcDbVertex
100
AcDb2dVertex
 10
4.19789244057578
 20
7.088605970283614
 30
0.0
  0
SEQEND
  5
2A8
330
2A5
100
AcDbEntity
  8
_U+56FE_U+5C421
 62
     7
420
 16777215
370
    20
  0
ENDBLK
  5
2A4
330
2A1
100
AcDbEntity
  8
0
100
AcDbBlockEnd
  0
BLOCK
  5
2AB
330
2A9
100
AcDbEntity
  8
0
100
AcDbBlockBegin
  2
block 76
 70
     0
 10
0.0
 20
0.0
 30
0.0
  3
block 76
  1

  0
MTEXT
  5
2AD
330
2A9
100
AcDbEntity
  8
_U+56FE_U+5C421
 62
     7
420
 16777215
100
AcDbMText
 10
3.084111908657683
 20
7.016672134399414
 30
0.0
 40
0.0868815984725952
 41
0.0
 46
0.0
 71
     7
 72
     1
  1
\fMyriad Pro|b0|i0|c0|p34;\W1;R60 [R2 3/8]
 73
     1
 44
1.0
  0
ENDBLK
  5
2AC
330
2A9
100
AcDbEntity
  8
0
100
AcDbBlockEnd
  0
BLOCK
  5
2B0
330
2AE
100
AcDbEntity
  8
0
100
AcDbBlockBegin
  2
block 77
 70
     0
 10
0.0
 20
0.0
 30
0.0
  3
block 77
  1

  0
POLYLINE
  5
2B2
330
2AE
100
AcDbEntity
  8
_U+56FE_U+5C421
 62
     7
420
 16777215
370
    20
100
AcDb2dPolyline
 66
     1
 10
0.0
 20
0.0
 30
0.0
  0
VERTEX
  5
2B3
330
2B2
100
AcDbEntity
  8
_U+56FE_U+5C421
 62
     7
420
 16777215
370
    20
100
AcDbVertex
100
AcDb2dVertex
 10
4.515239329049033
 20
7.376707653076146
 30
0.0
  0
VERTEX
  5
2B4
330
2B2
100
AcDbEntity
  8
_U+56FE_U+5C421
 62
     7
420
 16777215
370
    20
100
AcDbVertex
100
AcDb2dVertex
 10
4.257931041097764
 20
7.143111694055165
 30
0.0
  0
SEQEND
  5
2B5
330
2B2
100
AcDbEntity
  8
_U+56FE_U+5C421
 62
     7
420
 16777215
370
    20
  0
ENDBLK
  5
2B1
330
2AE
100
AcDbEntity
  8
0
100
AcDbBlockEnd
  0
BLOCK
  5
2B8
330
2B6
100
AcDbEntity
  8
0
100
AcDbBlockBegin
  2
block 78
 70
     0
 10
0.0
 20
0.0
 30
0.0
  3
block 78
  1

  0
POLYLINE
  5
2BA
330
2B6
100
AcDbEntity
  8
_U+56FE_U+5C421
370
     0
100
AcDb2dPolyline
 66
     1
 10
0.0
 20
0.0
 30
0.0
  0
VERTEX
  5
2BB
330
2BA
100
AcDbEntity
  8
_U+56FE_U+5C421
370
     0
100
AcDbVertex
100
AcDb2dVertex
 10
4.188808153280535
 20
7.098612403703909
 30
0.0
  0
VERTEX
  5
2BC
330
2BA
100
AcDbEntity
  8
_U+56FE_U+5C421
370
     0
100
AcDbVertex
100
AcDb2dVertex
 10
4.257931041097764
 20
7.143111694055165
 30
0.0
  0
VERTEX
  5
2BD
330
2BA
100
AcDbEntity
  8
_U+56FE_U+5C421
370
     0
100
AcDbVertex
100
AcDb2dVertex
 10
4.206976727871013
 20
7.078599536863281
 30
0.0
  0
VERTEX
  5
2BE
330
2BA
100
AcDbEntity
  8
_U+56FE_U+5C421
370
     0
100
AcDbVertex
100
AcDb2dVertex
 10
4.188808153280535
 20
7.098612403703909
 30
0.0
  0
SEQEND
  5
2C0
330
2BA
100
AcDbEntity
  8
_U+56FE_U+5C421
370
     0
  0
HATCH
  5
2BF
330
2B6
100
AcDbEntity
  8
_U+56FE_U+5C421
 62
     7
420
 16777215
100
AcDbHatch
 10
0.0
 20
0.0
 30
0.0
210
0.0
220
0.0
230
1.0
  2
SOLID
 70
     1
 71
     0
 91
        1
 92
        1
 93
        3
 72
     1
 10
4.188808153280535
 20
7.098612403703909
 11
4.257931041097764
 21
7.143111694055165
 72
     1
 10
4.257931041097764
 20
7.143111694055165
 11
4.206976727871013
 21
7.078599536863281
 72
     1
 10
4.206976727871013
 20
7.078599536863281
 11
4.188808153280535
 21
7.098612403703909
 97
        0
 75
     2
 76
     1
 98
        0
  0
ENDBLK
  5
2B9
330
2B6
100
AcDbEntity
  8
0
100
AcDbBlockEnd
  0
BLOCK
  5
2C3
330
2C1
100
AcDbEntity
  8
0
100
AcDbBlockBegin
  2
block 79
 70
     0
 10
0.0
 20
0.0
 30
0.0
  3
block 79
  1

  0
POLYLINE
  5
2C5
330
2C1
100
AcDbEntity
  8
_U+56FE_U+5C421
 62
     7
420
 16777215
370
    20
100
AcDb2dPolyline
 66
     1
 10
0.0
 20
0.0
 30
0.0
  0
VERTEX
  5
2C6
330
2C5
100
AcDbEntity
  8
_U+56FE_U+5C421
 62
     7
420
 16777215
370
    20
100
AcDbVertex
100
AcDb2dVertex
 10
5.522992873618502
 20
6.81096960934998
 30
0.0
  0
VERTEX
  5
2C7
330
2C5
100
AcDbEntity
  8
_U+56FE_U+5C421
 62
     7
420
 16777215
370
    20
100
AcDbVertex
100
AcDb2dVertex
 10
4.561503053816168
 20
6.81096960934998
 30
0.0
  0
SEQEND
  5
2C8
330
2C5
100
AcDbEntity
  8
_U+56FE_U+5C421
 62
     7
420
 16777215
370
    20
  0
ENDBLK
  5
2C4
330
2C1
100
AcDbEntity
  8
0
100
AcDbBlockEnd
  0
BLOCK
  5
2CB
330
2C9
100
AcDbEntity
  8
0
100
AcDbBlockBegin
  2
block 80
 70
     0
 10
0.0
 20
0.0
 30
0.0
  3
block 80
  1

  0
POLYLINE
  5
2CD
330
2C9
100
AcDbEntity
  8
_U+56FE_U+5C421
 62
     7
420
 16777215
370
    20
100
AcDb2dPolyline
 66
     1
 10
0.0
 20
0.0
 30
0.0
  0
VERTEX
  5
2CE
330
2CD
100
AcDbEntity
  8
_U+56FE_U+5C421
 62
     7
420
 16777215
370
    20
100
AcDbVertex
100
AcDb2dVertex
 10
4.561503053816168
 20
6.81096960934998
 30
0.0
  0
VERTEX
  5
2CF
330
2CD
100
AcDbEntity
  8
_U+56FE_U+5C421
 62
     7
420
 16777215
370
    20
100
AcDbVertex
100
AcDb2dVertex
 10
4.547812767915704
 20
6.978381887595496
 30
0.0
  0
SEQEND
  5
2D0
330
2CD
100
AcDbEntity
  8
_U+56FE_U+5C421
 62
     7
420
 16777215
370
    20
  0
ENDBLK
  5
2CC
330
2C9
100
AcDbEntity
  8
0
100
AcDbBlockEnd
  0
BLOCK
  5
2D3
330
2D1
100
AcDbEntity
  8
0
100
AcDbBlockBegin
  2
block 81
 70
     0
 10
0.0
 20
0.0
 30
0.0
  3
block 81
  1

  0
MTEXT
  5
2D5
330
2D1
100
AcDbEntity
  8
_U+56FE_U+5C421
 62
     7
420
 16777215
100
AcDbMText
 10
4.575566986782683
 20
6.851945029364692
 30
0.0
 40
0.0868815984725952
 41
0.0
 46
0.0
 71
     7
 72
     1
  1
\fMyriad Pro|b0|i0|c0|p34;\W1;R55 [R2 1/8]
 73
     1
 44
1.0
  0
ENDBLK
  5
2D4
330
2D1
100
AcDbEntity
  8
0
100
AcDbBlockEnd
  0
BLOCK
  5
2D8
330
2D6
100
AcDbEntity
  8
0
100
AcDbBlockBegin
  2
block 82
 70
     0
 10
0.0
 20
0.0
 30
0.0
  3
block 82
  1

  0
POLYLINE
  5
2DA
330
2D6
100
AcDbEntity
  8
_U+56FE_U+5C421
 62
     7
420
 16777215
370
    20
100
AcDb2dPolyline
 66
     1
 10
0.0
 20
0.0
 30
0.0
  0
VERTEX
  5
2DB
330
2DA
100
AcDbEntity
  8
_U+56FE_U+5C421
 62
     7
420
 16777215
370
    20
100
AcDbVertex
100
AcDb2dVertex
 10
4.515239329049033
 20
7.376707653076146
 30
0.0
  0
VERTEX
  5
2DC
330
2DA
100
AcDbEntity
  8
_U+56FE_U+5C421
 62
     7
420
 16777215
370
    20
100
AcDbVertex
100
AcDb2dVertex
 10
4.541203664377538
 20
7.059201608127788
 30
0.0
  0
SEQEND
  5
2DD
330
2DA
100
AcDbEntity
  8
_U+56FE_U+5C421
 62
     7
420
 16777215
370
    20
  0
ENDBLK
  5
2D9
330
2D6
100
AcDbEntity
  8
0
100
AcDbBlockEnd
  0
BLOCK
  5
2E0
330
2DE
100
AcDbEntity
  8
0
100
AcDbBlockBegin
  2
block 83
 70
     0
 10
0.0
 20
0.0
 30
0.0
  3
block 83
  1

  0
POLYLINE
  5
2E2
330
2DE
100
AcDbEntity
  8
_U+56FE_U+5C421
370
     0
100
AcDb2dPolyline
 66
     1
 10
0.0
 20
0.0
 30
0.0
  0
VERTEX
  5
2E3
330
2E2
100
AcDbEntity
  8
_U+56FE_U+5C421
370
     0
100
AcDbVertex
100
AcDb2dVertex
 10
4.561282721337774
 20
6.979483404851849
 30
0.0
  0
VERTEX
  5
2E4
330
2E2
100
AcDbEntity
  8
_U+56FE_U+5C421
370
     0
100
AcDbVertex
100
AcDb2dVertex
 10
4.541203664377538
 20
7.059201608127788
 30
0.0
  0
VERTEX
  5
2E5
330
2E2
100
AcDbEntity
  8
_U+56FE_U+5C421
370
     0
100
AcDbVertex
100
AcDb2dVertex
 10
4.534342814493635
 20
6.977280370339145
 30
0.0
  0
VERTEX
  5
2E6
330
2E2
100
AcDbEntity
  8
_U+56FE_U+5C421
370
     0
100
AcDbVertex
100
AcDb2dVertex
 10
4.561282721337774
 20
6.979483404851849
 30
0.0
  0
SEQEND
  5
2E8
330
2E2
100
AcDbEntity
  8
_U+56FE_U+5C421
370
     0
  0
HATCH
  5
2E7
330
2DE
100
AcDbEntity
  8
_U+56FE_U+5C421
 62
     7
420
 16777215
100
AcDbHatch
 10
0.0
 20
0.0
 30
0.0
210
0.0
220
0.0
230
1.0
  2
SOLID
 70
     1
 71
     0
 91
        1
 92
        1
 93
        3
 72
     1
 10
4.561282721337774
 20
6.979483404851849
 11
4.541203664377538
 21
7.059201608127788
 72
     1
 10
4.541203664377538
 20
7.059201608127788
 11
4.534342814493635
 21
6.977280370339145
 72
     1
 10
4.534342814493635
 20
6.977280370339145
 11
4.561282721337774
 21
6.979483404851849
 97
        0
 75
     2
 76
     1
 98
        0
  0
ENDBLK
  5
2E1
330
2DE
100
AcDbEntity
  8
0
100
AcDbBlockEnd
  0
BLOCK
  5
2EB
330
2E9
100
AcDbEntity
  8
0
100
AcDbBlockBegin
  2
block 84
 70
     0
 10
0.0
 20
0.0
 30
0.0
  3
block 84
  1

  0
SPLINE
  5
2ED
330
2E9
100
AcDbEntity
  8
_U+56FE_U+5C421
 62
     7
420
 16777215
370
    20
100
AcDbSpline
210
0.0
220
0.0
230
1.0
 70
     8
 71
     3
 72
     8
 73
     4
 74
     0
 42
0.0000000001
 43
0.0000000001
 12
1.0
 22
0.0
 32
0.0
 13
1.0
 23
0.0
 33
0.0
 40
0.0
 40
0.0
 40
0.0
 40
0.0
 40
1.0
 40
1.0
 40
1.0
 40
1.0
 10
4.515239329049033
 20
7.058141748924754
 30
0.0
 10
4.526319608742774
 20
7.058141748924754
 30
0.0
 10
4.537392343233225
 20
7.058719835937747
 30
0.0
 10
4.548412384277071
 20
7.059873652857353
 30
0.0
  0
ENDBLK
  5
2EC
330
2E9
100
AcDbEntity
  8
0
100
AcDbBlockEnd
  0
BLOCK
  5
2F0
330
2EE
100
AcDbEntity
  8
0
100
AcDbBlockBegin
  2
block 85
 70
     0
 10
0.0
 20
0.0
 30
0.0
  3
block 85
  1

  0
POLYLINE
  5
2F2
330
2EE
100
AcDbEntity
  8
_U+56FE_U+5C421
 62
     7
420
 16777215
370
    20
100
AcDb2dPolyline
 66
     1
 10
0.0
 20
0.0
 30
0.0
  0
VERTEX
  5
2F3
330
2F2
100
AcDbEntity
  8
_U+56FE_U+5C421
 62
     7
420
 16777215
370
    20
100
AcDbVertex
100
AcDb2dVertex
 10
5.244853756925496
 20
7.554050796572773
 30
0.0
  0
VERTEX
  5
2F4
330
2F2
100
AcDbEntity
  8
_U+56FE_U+5C421
 62
     7
420
 16777215
370
    20
100
AcDbVertex
100
AcDb2dVertex
 10
4.616410109645003
 20
7.554050796572773
 30
0.0
  0
SEQEND
  5
2F5
330
2F2
100
AcDbEntity
  8
_U+56FE_U+5C421
 62
     7
420
 16777215
370
    20
  0
ENDBLK
  5
2F1
330
2EE
100
AcDbEntity
  8
0
100
AcDbBlockEnd
  0
BLOCK
  5
2F8
330
2F6
100
AcDbEntity
  8
0
100
AcDbBlockBegin
  2
block 86
 70
     0
 10
0.0
 20
0.0
 30
0.0
  3
block 86
  1

  0
POLYLINE
  5
2FA
330
2F6
100
AcDbEntity
  8
_U+56FE_U+5C421
 62
     7
420
 16777215
370
    20
100
AcDb2dPolyline
 66
     1
 10
0.0
 20
0.0
 30
0.0
  0
VERTEX
  5
2FB
330
2FA
100
AcDbEntity
  8
_U+56FE_U+5C421
 62
     7
420
 16777215
370
    20
100
AcDbVertex
100
AcDb2dVertex
 10
4.616410109645003
 20
7.554050796572773
 30
0.0
  0
VERTEX
  5
2FC
330
2FA
100
AcDbEntity
  8
_U+56FE_U+5C421
 62
     7
420
 16777215
370
    20
100
AcDbVertex
100
AcDb2dVertex
 10
4.411915978653168
 20
7.195591251207234
 30
0.0
  0
SEQEND
  5
2FD
330
2FA
100
AcDbEntity
  8
_U+56FE_U+5C421
 62
     7
420
 16777215
370
    20
  0
ENDBLK
  5
2F9
330
2F6
100
AcDbEntity
  8
0
100
AcDbBlockEnd
  0
BLOCK
  5
300
330
2FE
100
AcDbEntity
  8
0
100
AcDbBlockBegin
  2
block 87
 70
     0
 10
0.0
 20
0.0
 30
0.0
  3
block 87
  1

  0
MTEXT
  5
302
330
2FE
100
AcDbEntity
  8
_U+56FE_U+5C421
 62
     7
420
 16777215
100
AcDbMText
 10
4.635652707268794
 20
7.595027711656358
 30
0.0
 40
0.0868815984725952
 41
0.0
 46
0.0
 71
     7
 72
     1
  1
\fMyriad Pro|b0|i0|c0|p34;\W1;R50 [R2]
 73
     1
 44
1.0
  0
ENDBLK
  5
301
330
2FE
100
AcDbEntity
  8
0
100
AcDbBlockEnd
  0
BLOCK
  5
305
330
303
100
AcDbEntity
  8
0
100
AcDbBlockBegin
  2
block 88
 70
     0
 10
0.0
 20
0.0
 30
0.0
  3
block 88
  1

  0
POLYLINE
  5
307
330
303
100
AcDbEntity
  8
_U+56FE_U+5C421
370
     0
100
AcDb2dPolyline
 66
     1
 10
0.0
 20
0.0
 30
0.0
  0
VERTEX
  5
308
330
307
100
AcDbEntity
  8
_U+56FE_U+5C421
370
     0
100
AcDbVertex
100
AcDb2dVertex
 10
4.40017695260609
 20
7.202288135029195
 30
0.0
  0
VERTEX
  5
309
330
307
100
AcDbEntity
  8
_U+56FE_U+5C421
370
     0
100
AcDbVertex
100
AcDb2dVertex
 10
4.371734675721427
 20
7.125157094924904
 30
0.0
  0
VERTEX
  5
30A
330
307
100
AcDbEntity
  8
_U+56FE_U+5C421
370
     0
100
AcDbVertex
100
AcDb2dVertex
 10
4.423655004700246
 20
7.188894367385274
 30
0.0
  0
VERTEX
  5
30B
330
307
100
AcDbEntity
  8
_U+56FE_U+5C421
370
     0
100
AcDbVertex
100
AcDb2dVertex
 10
4.40017695260609
 20
7.202288135029195
 30
0.0
  0
SEQEND
  5
30D
330
307
100
AcDbEntity
  8
_U+56FE_U+5C421
370
     0
  0
HATCH
  5
30C
330
303
100
AcDbEntity
  8
_U+56FE_U+5C421
 62
     7
420
 16777215
100
AcDbHatch
 10
0.0
 20
0.0
 30
0.0
210
0.0
220
0.0
230
1.0
  2
SOLID
 70
     1
 71
     0
 91
        1
 92
        1
 93
        3
 72
     1
 10
4.40017695260609
 20
7.202288135029195
 11
4.371734675721427
 21
7.125157094924904
 72
     1
 10
4.371734675721427
 20
7.125157094924904
 11
4.423655004700246
 21
7.188894367385274
 72
     1
 10
4.423655004700246
 20
7.188894367385274
 11
4.40017695260609
 21
7.202288135029195
 97
        0
 75
     2
 76
     1
 98
        0
  0
ENDBLK
  5
306
330
303
100
AcDbEntity
  8
0
100
AcDbBlockEnd
  0
BLOCK
  5
310
330
30E
100
AcDbEntity
  8
0
100
AcDbBlockBegin
  2
block 89
 70
     0
 10
0.0
 20
0.0
 30
0.0
  3
block 89
  1

  0
POLYLINE
  5
312
330
30E
100
AcDbEntity
  8
_U+56FE_U+5C421
370
     0
100
AcDb2dPolyline
 66
     1
 10
0.0
 20
0.0
 30
0.0
  0
VERTEX
  5
313
330
312
100
AcDbEntity
  8
_U+56FE_U+5C421
370
     0
100
AcDbVertex
100
AcDb2dVertex
 10
2.762051473078536
 20
4.654417199418831
 30
0.0
  0
VERTEX
  5
314
330
312
100
AcDbEntity
  8
_U+56FE_U+5C421
370
     0
100
AcDbVertex
100
AcDb2dVertex
 10
2.762051473078536
 20
4.654417199418831
 30
0.0
  0
SEQEND
  5
315
330
312
100
AcDbEntity
  8
_U+56FE_U+5C421
370
     0
  0
ENDBLK
  5
311
330
30E
100
AcDbEntity
  8
0
100
AcDbBlockEnd
  0
BLOCK
  5
318
330
316
100
AcDbEntity
  8
0
100
AcDbBlockBegin
  2
block 90
 70
     0
 10
0.0
 20
0.0
 30
0.0
  3
block 90
  1

  0
POLYLINE
  5
31A
330
316
100
AcDbEntity
  8
_U+56FE_U+5C421
370
     0
100
AcDb2dPolyline
 66
     1
 10
0.0
 20
0.0
 30
0.0
  0
VERTEX
  5
31B
330
31A
100
AcDbEntity
  8
_U+56FE_U+5C421
370
     0
100
AcDbVertex
100
AcDb2dVertex
 10
2.762051473078486
 20
7.376707653076146
 30
0.0
  0
VERTEX
  5
31C
330
31A
100
AcDbEntity
  8
_U+56FE_U+5C421
370
     0
100
AcDbVertex
100
AcDb2dVertex
 10
2.762051473078486
 20
7.376707653076146
 30
0.0
  0
SEQEND
  5
31D
330
31A
100
AcDbEntity
  8
_U+56FE_U+5C421
370
     0
  0
ENDBLK
  5
319
330
316
100
AcDbEntity
  8
0
100
AcDbBlockEnd
  0
BLOCK
  5
320
330
31E
100
AcDbEntity
  8
0
100
AcDbBlockBegin
  2
block 91
 70
     0
 10
0.0
 20
0.0
 30
0.0
  3
block 91
  1

  0
POLYLINE
  5
322
330
31E
100
AcDbEntity
  8
_U+56FE_U+5C421
370
     0
100
AcDb2dPolyline
 66
     1
 10
0.0
 20
0.0
 30
0.0
  0
VERTEX
  5
323
330
322
100
AcDbEntity
  8
_U+56FE_U+5C421
370
     0
100
AcDbVertex
100
AcDb2dVertex
 10
1.851185384301326
 20
7.376707653076146
 30
0.0
  0
VERTEX
  5
324
330
322
100
AcDbEntity
  8
_U+56FE_U+5C421
370
     0
100
AcDbVertex
100
AcDb2dVertex
 10
1.851185384301326
 20
7.376707653076146
 30
0.0
  0
SEQEND
  5
325
330
322
100
AcDbEntity
  8
_U+56FE_U+5C421
370
     0
  0
ENDBLK
  5
321
330
31E
100
AcDbEntity
  8
0
100
AcDbBlockEnd
  0
BLOCK
  5
328
330
326
100
AcDbEntity
  8
0
100
AcDbBlockBegin
  2
block 92
 70
     0
 10
0.0
 20
0.0
 30
0.0
  3
block 92
  1

  0
POLYLINE
  5
32A
330
326
100
AcDbEntity
  8
_U+56FE_U+5C421
370
     0
100
AcDb2dPolyline
 66
     1
 10
0.0
 20
0.0
 30
0.0
  0
VERTEX
  5
32B
330
32A
100
AcDbEntity
  8
_U+56FE_U+5C421
370
     0
100
AcDbVertex
100
AcDb2dVertex
 10
2.762051473078536
 20
4.625456662677808
 30
0.0
  0
VERTEX
  5
32C
330
32A
100
AcDbEntity
  8
_U+56FE_U+5C421
370
     0
100
AcDbVertex
100
AcDb2dVertex
 10
2.762051473078536
 20
4.625456662677808
 30
0.0
  0
SEQEND
  5
32D
330
32A
100
AcDbEntity
  8
_U+56FE_U+5C421
370
     0
  0
ENDBLK
  5
329
330
326
100
AcDbEntity
  8
0
100
AcDbBlockEnd
  0
BLOCK
  5
330
330
32E
100
AcDbEntity
  8
0
100
AcDbBlockBegin
  2
block 93
 70
     0
 10
0.0
 20
0.0
 30
0.0
  3
block 93
  1

  0
POLYLINE
  5
332
330
32E
100
AcDbEntity
  8
_U+56FE_U+5C421
370
     0
100
AcDb2dPolyline
 66
     1
 10
0.0
 20
0.0
 30
0.0
  0
VERTEX
  5
333
330
332
100
AcDbEntity
  8
_U+56FE_U+5C421
370
     0
100
AcDbVertex
100
AcDb2dVertex
 10
2.762051473078536
 20
7.405668189817182
 30
0.0
  0
VERTEX
  5
334
330
332
100
AcDbEntity
  8
_U+56FE_U+5C421
370
     0
100
AcDbVertex
100
AcDb2dVertex
 10
2.762051473078536
 20
7.405668189817182
 30
0.0
  0
SEQEND
  5
335
330
332
100
AcDbEntity
  8
_U+56FE_U+5C421
370
     0
  0
ENDBLK
  5
331
330
32E
100
AcDbEntity
  8
0
100
AcDbBlockEnd
  0
BLOCK
  5
338
330
336
100
AcDbEntity
  8
0
100
AcDbBlockBegin
  2
block 94
 70
     0
 10
0.0
 20
0.0
 30
0.0
  3
block 94
  1

  0
POLYLINE
  5
33A
330
336
100
AcDbEntity
  8
_U+56FE_U+5C421
370
     0
100
AcDb2dPolyline
 66
     1
 10
0.0
 20
0.0
 30
0.0
  0
VERTEX
  5
33B
330
33A
100
AcDbEntity
  8
_U+56FE_U+5C421
370
     0
100
AcDbVertex
100
AcDb2dVertex
 10
1.641159668248242
 20
7.405668189817182
 30
0.0
  0
VERTEX
  5
33C
330
33A
100
AcDbEntity
  8
_U+56FE_U+5C421
370
     0
100
AcDbVertex
100
AcDb2dVertex
 10
1.641159668248242
 20
7.405668189817182
 30
0.0
  0
SEQEND
  5
33D
330
33A
100
AcDbEntity
  8
_U+56FE_U+5C421
370
     0
  0
ENDBLK
  5
339
330
336
100
AcDbEntity
  8
0
100
AcDbBlockEnd
  0
BLOCK
  5
340
330
33E
100
AcDbEntity
  8
0
100
AcDbBlockBegin
  2
block 95
 70
     0
 10
0.0
 20
0.0
 30
0.0
  3
block 95
  1

  0
POLYLINE
  5
342
330
33E
100
AcDbEntity
  8
_U+56FE_U+5C421
370
     0
100
AcDb2dPolyline
 66
     1
 10
0.0
 20
0.0
 30
0.0
  0
VERTEX
  5
343
330
342
100
AcDbEntity
  8
_U+56FE_U+5C421
370
     0
100
AcDbVertex
100
AcDb2dVertex
 10
3.265964812372532
 20
7.434628726558205
 30
0.0
  0
VERTEX
  5
344
330
342
100
AcDbEntity
  8
_U+56FE_U+5C421
370
     0
100
AcDbVertex
100
AcDb2dVertex
 10
3.265964812372532
 20
7.434628726558205
 30
0.0
  0
SEQEND
  5
345
330
342
100
AcDbEntity
  8
_U+56FE_U+5C421
370
     0
  0
ENDBLK
  5
341
330
33E
100
AcDbEntity
  8
0
100
AcDbBlockEnd
  0
BLOCK
  5
348
330
346
100
AcDbEntity
  8
0
100
AcDbBlockBegin
  2
block 96
 70
     0
 10
0.0
 20
0.0
 30
0.0
  3
block 96
  1

  0
POLYLINE
  5
34A
330
346
100
AcDbEntity
  8
_U+56FE_U+5C421
370
     0
100
AcDb2dPolyline
 66
     1
 10
0.0
 20
0.0
 30
0.0
  0
VERTEX
  5
34B
330
34A
100
AcDbEntity
  8
_U+56FE_U+5C421
370
     0
100
AcDbVertex
100
AcDb2dVertex
 10
3.265964812372532
 20
4.596496125936786
 30
0.0
  0
VERTEX
  5
34C
330
34A
100
AcDbEntity
  8
_U+56FE_U+5C421
370
     0
100
AcDbVertex
100
AcDb2dVertex
 10
3.265964812372532
 20
4.596496125936786
 30
0.0
  0
SEQEND
  5
34D
330
34A
100
AcDbEntity
  8
_U+56FE_U+5C421
370
     0
  0
ENDBLK
  5
349
330
346
100
AcDbEntity
  8
0
100
AcDbBlockEnd
  0
BLOCK
  5
350
330
34E
100
AcDbEntity
  8
0
100
AcDbBlockBegin
  2
block 97
 70
     0
 10
0.0
 20
0.0
 30
0.0
  3
block 97
  1

  0
POLYLINE
  5
352
330
34E
100
AcDbEntity
  8
_U+56FE_U+5C421
370
     0
100
AcDb2dPolyline
 66
     1
 10
0.0
 20
0.0
 30
0.0
  0
VERTEX
  5
353
330
352
100
AcDbEntity
  8
_U+56FE_U+5C421
370
     0
100
AcDbVertex
100
AcDb2dVertex
 10
1.424254600271486
 20
4.596496125936786
 30
0.0
  0
VERTEX
  5
354
330
352
100
AcDbEntity
  8
_U+56FE_U+5C421
370
     0
100
AcDbVertex
100
AcDb2dVertex
 10
1.424254600271486
 20
4.596496125936786
 30
0.0
  0
SEQEND
  5
355
330
352
100
AcDbEntity
  8
_U+56FE_U+5C421
370
     0
  0
ENDBLK
  5
351
330
34E
100
AcDbEntity
  8
0
100
AcDbBlockEnd
  0
BLOCK
  5
358
330
356
100
AcDbEntity
  8
0
100
AcDbBlockBegin
  2
block 98
 70
     0
 10
0.0
 20
0.0
 30
0.0
  3
block 98
  1

  0
POLYLINE
  5
35A
330
356
100
AcDbEntity
  8
_U+56FE_U+5C421
370
     0
100
AcDb2dPolyline
 66
     1
 10
0.0
 20
0.0
 30
0.0
  0
VERTEX
  5
35B
330
35A
100
AcDbEntity
  8
_U+56FE_U+5C421
370
     0
100
AcDbVertex
100
AcDb2dVertex
 10
5.222166146202627
 20
7.029181212183718
 30
0.0
  0
VERTEX
  5
35C
330
35A
100
AcDbEntity
  8
_U+56FE_U+5C421
370
     0
100
AcDbVertex
100
AcDb2dVertex
 10
5.222166146202627
 20
7.029181212183718
 30
0.0
  0
SEQEND
  5
35D
330
35A
100
AcDbEntity
  8
_U+56FE_U+5C421
370
     0
  0
ENDBLK
  5
359
330
356
100
AcDbEntity
  8
0
100
AcDbBlockEnd
  0
BLOCK
  5
360
330
35E
100
AcDbEntity
  8
0
100
AcDbBlockBegin
  2
block 99
 70
     0
 10
0.0
 20
0.0
 30
0.0
  3
block 99
  1

  0
POLYLINE
  5
362
330
35E
100
AcDbEntity
  8
_U+56FE_U+5C421
370
     0
100
AcDb2dPolyline
 66
     1
 10
0.0
 20
0.0
 30
0.0
  0
VERTEX
  5
363
330
362
100
AcDbEntity
  8
_U+56FE_U+5C421
370
     0
100
AcDbVertex
100
AcDb2dVertex
 10
5.222166146202627
 20
4.654417199418831
 30
0.0
  0
VERTEX
  5
364
330
362
100
AcDbEntity
  8
_U+56FE_U+5C421
370
     0
100
AcDbVertex
100
AcDb2dVertex
 10
5.222166146202627
 20
4.654417199418831
 30
0.0
  0
SEQEND
  5
365
330
362
100
AcDbEntity
  8
_U+56FE_U+5C421
370
     0
  0
ENDBLK
  5
361
330
35E
100
AcDbEntity
  8
0
100
AcDbBlockEnd
  0
BLOCK
  5
368
330
366
100
AcDbEntity
  8
0
100
AcDbBlockBegin
  2
block 100
 70
     0
 10
0.0
 20
0.0
 30
0.0
  3
block 100
  1

  0
POLYLINE
  5
36A
330
366
100
AcDbEntity
  8
_U+56FE_U+5C421
370
     0
100
AcDb2dPolyline
 66
     1
 10
0.0
 20
0.0
 30
0.0
  0
VERTEX
  5
36B
330
36A
100
AcDbEntity
  8
_U+56FE_U+5C421
370
     0
100
AcDbVertex
100
AcDb2dVertex
 10
6.787883086738121
 20
4.654417199418831
 30
0.0
  0
VERTEX
  5
36C
330
36A
100
AcDbEntity
  8
_U+56FE_U+5C421
370
     0
100
AcDbVertex
100
AcDb2dVertex
 10
6.787883086738121
 20
4.654417199418831
 30
0.0
  0
SEQEND
  5
36D
330
36A
100
AcDbEntity
  8
_U+56FE_U+5C421
370
     0
  0
ENDBLK
  5
369
330
366
100
AcDbEntity
  8
0
100
AcDbBlockEnd
  0
BLOCK
  5
370
330
36E
100
AcDbEntity
  8
0
100
AcDbBlockBegin
  2
block 101
 70
     0
 10
0.0
 20
0.0
 30
0.0
  3
block 101
  1

  0
POLYLINE
  5
372
330
36E
100
AcDbEntity
  8
_U+56FE_U+5C421
370
     0
100
AcDb2dPolyline
 66
     1
 10
0.0
 20
0.0
 30
0.0
  0
VERTEX
  5
373
330
372
100
AcDbEntity
  8
_U+56FE_U+5C421
370
     0
100
AcDbVertex
100
AcDb2dVertex
 10
5.222166146202627
 20
4.625456662677808
 30
0.0
  0
VERTEX
  5
374
330
372
100
AcDbEntity
  8
_U+56FE_U+5C421
370
     0
100
AcDbVertex
100
AcDb2dVertex
 10
5.222166146202627
 20
4.625456662677808
 30
0.0
  0
SEQEND
  5
375
330
372
100
AcDbEntity
  8
_U+56FE_U+5C421
370
     0
  0
ENDBLK
  5
371
330
36E
100
AcDbEntity
  8
0
100
AcDbBlockEnd
  0
BLOCK
  5
378
330
376
100
AcDbEntity
  8
0
100
AcDbBlockBegin
  2
block 102
 70
     0
 10
0.0
 20
0.0
 30
0.0
  3
block 102
  1

  0
POLYLINE
  5
37A
330
376
100
AcDbEntity
  8
_U+56FE_U+5C421
370
     0
100
AcDb2dPolyline
 66
     1
 10
0.0
 20
0.0
 30
0.0
  0
VERTEX
  5
37B
330
37A
100
AcDbEntity
  8
_U+56FE_U+5C421
370
     0
100
AcDbVertex
100
AcDb2dVertex
 10
5.222166146202627
 20
7.058141748924754
 30
0.0
  0
VERTEX
  5
37C
330
37A
100
AcDbEntity
  8
_U+56FE_U+5C421
370
     0
100
AcDbVertex
100
AcDb2dVertex
 10
5.222166146202627
 20
7.058141748924754
 30
0.0
  0
SEQEND
  5
37D
330
37A
100
AcDbEntity
  8
_U+56FE_U+5C421
370
     0
  0
ENDBLK
  5
379
330
376
100
AcDbEntity
  8
0
100
AcDbBlockEnd
  0
BLOCK
  5
380
330
37E
100
AcDbEntity
  8
0
100
AcDbBlockBegin
  2
block 103
 70
     0
 10
0.0
 20
0.0
 30
0.0
  3
block 103
  1

  0
POLYLINE
  5
382
330
37E
100
AcDbEntity
  8
_U+56FE_U+5C421
370
     0
100
AcDb2dPolyline
 66
     1
 10
0.0
 20
0.0
 30
0.0
  0
VERTEX
  5
383
330
382
100
AcDbEntity
  8
_U+56FE_U+5C421
370
     0
100
AcDbVertex
100
AcDb2dVertex
 10
7.009541173247044
 20
7.058141748924754
 30
0.0
  0
VERTEX
  5
384
330
382
100
AcDbEntity
  8
_U+56FE_U+5C421
370
     0
100
AcDbVertex
100
AcDb2dVertex
 10
7.009541173247044
 20
7.058141748924754
 30
0.0
  0
SEQEND
  5
385
330
382
100
AcDbEntity
  8
_U+56FE_U+5C421
370
     0
  0
ENDBLK
  5
381
330
37E
100
AcDbEntity
  8
0
100
AcDbBlockEnd
  0
BLOCK
  5
388
330
386
100
AcDbEntity
  8
0
100
AcDbBlockBegin
  2
block 104
 70
     0
 10
0.0
 20
0.0
 30
0.0
  3
block 104
  1

  0
POLYLINE
  5
38A
330
386
100
AcDbEntity
  8
_U+56FE_U+5C421
370
     0
100
AcDb2dPolyline
 66
     1
 10
0.0
 20
0.0
 30
0.0
  0
VERTEX
  5
38B
330
38A
100
AcDbEntity
  8
_U+56FE_U+5C421
370
     0
100
AcDbVertex
100
AcDb2dVertex
 10
5.222166146202627
 20
7.087102285665777
 30
0.0
  0
VERTEX
  5
38C
330
38A
100
AcDbEntity
  8
_U+56FE_U+5C421
370
     0
100
AcDbVertex
100
AcDb2dVertex
 10
5.222166146202627
 20
7.087102285665777
 30
0.0
  0
SEQEND
  5
38D
330
38A
100
AcDbEntity
  8
_U+56FE_U+5C421
370
     0
  0
ENDBLK
  5
389
330
386
100
AcDbEntity
  8
0
100
AcDbBlockEnd
  0
BLOCK
  5
390
330
38E
100
AcDbEntity
  8
0
100
AcDbBlockBegin
  2
block 105
 70
     0
 10
0.0
 20
0.0
 30
0.0
  3
block 105
  1

  0
POLYLINE
  5
392
330
38E
100
AcDbEntity
  8
_U+56FE_U+5C421
370
     0
100
AcDb2dPolyline
 66
     1
 10
0.0
 20
0.0
 30
0.0
  0
VERTEX
  5
393
330
392
100
AcDbEntity
  8
_U+56FE_U+5C421
370
     0
100
AcDbVertex
100
AcDb2dVertex
 10
5.222166146202627
 20
4.596496125936786
 30
0.0
  0
VERTEX
  5
394
330
392
100
AcDbEntity
  8
_U+56FE_U+5C421
370
     0
100
AcDbVertex
100
AcDb2dVertex
 10
5.222166146202627
 20
4.596496125936786
 30
0.0
  0
SEQEND
  5
395
330
392
100
AcDbEntity
  8
_U+56FE_U+5C421
370
     0
  0
ENDBLK
  5
391
330
38E
100
AcDbEntity
  8
0
100
AcDbBlockEnd
  0
BLOCK
  5
398
330
396
100
AcDbEntity
  8
0
100
AcDbBlockBegin
  2
block 106
 70
     0
 10
0.0
 20
0.0
 30
0.0
  3
block 106
  1

  0
POLYLINE
  5
39A
330
396
100
AcDbEntity
  8
_U+56FE_U+5C421
370
     0
100
AcDb2dPolyline
 66
     1
 10
0.0
 20
0.0
 30
0.0
  0
VERTEX
  5
39B
330
39A
100
AcDbEntity
  8
_U+56FE_U+5C421
370
     0
100
AcDbVertex
100
AcDb2dVertex
 10
7.221601251018379
 20
4.596496125936786
 30
0.0
  0
VERTEX
  5
39C
330
39A
100
AcDbEntity
  8
_U+56FE_U+5C421
370
     0
100
AcDbVertex
100
AcDb2dVertex
 10
7.221601251018379
 20
4.596496125936786
 30
0.0
  0
SEQEND
  5
39D
330
39A
100
AcDbEntity
  8
_U+56FE_U+5C421
370
     0
  0
ENDBLK
  5
399
330
396
100
AcDbEntity
  8
0
100
AcDbBlockEnd
  0
BLOCK
  5
3A0
330
39E
100
AcDbEntity
  8
0
100
AcDbBlockBegin
  2
block 107
 70
     0
 10
0.0
 20
0.0
 30
0.0
  3
block 107
  1

  0
POLYLINE
  5
3A2
330
39E
100
AcDbEntity
  8
_U+56FE_U+5C421
370
     0
100
AcDb2dPolyline
 66
     1
 10
0.0
 20
0.0
 30
0.0
  0
VERTEX
  5
3A3
330
3A2
100
AcDbEntity
  8
_U+56FE_U+5C421
370
     0
100
AcDbVertex
100
AcDb2dVertex
 10
2.136503879472179
 20
6.015562426247483
 30
0.0
  0
VERTEX
  5
3A4
330
3A2
100
AcDbEntity
  8
_U+56FE_U+5C421
370
     0
100
AcDbVertex
100
AcDb2dVertex
 10
2.136503879472179
 20
6.015562426247483
 30
0.0
  0
SEQEND
  5
3A5
330
3A2
100
AcDbEntity
  8
_U+56FE_U+5C421
370
     0
  0
ENDBLK
  5
3A1
330
39E
100
AcDbEntity
  8
0
100
AcDbBlockEnd
  0
BLOCK
  5
3A8
330
3A6
100
AcDbEntity
  8
0
100
AcDbBlockBegin
  2
block 108
 70
     0
 10
0.0
 20
0.0
 30
0.0
  3
block 108
  1

  0
POLYLINE
  5
3AA
330
3A6
100
AcDbEntity
  8
_U+56FE_U+5C421
370
     0
100
AcDb2dPolyline
 66
     1
 10
0.0
 20
0.0
 30
0.0
  0
VERTEX
  5
3AB
330
3AA
100
AcDbEntity
  8
_U+56FE_U+5C421
370
     0
100
AcDbVertex
100
AcDb2dVertex
 10
6.479343161435862
 20
6.015562426247483
 30
0.0
  0
VERTEX
  5
3AC
330
3AA
100
AcDbEntity
  8
_U+56FE_U+5C421
370
     0
100
AcDbVertex
100
AcDb2dVertex
 10
6.479343161435862
 20
6.015562426247483
 30
0.0
  0
SEQEND
  5
3AD
330
3AA
100
AcDbEntity
  8
_U+56FE_U+5C421
370
     0
  0
ENDBLK
  5
3A9
330
3A6
100
AcDbEntity
  8
0
100
AcDbBlockEnd
  0
BLOCK
  5
3B0
330
3AE
100
AcDbEntity
  8
0
100
AcDbBlockBegin
  2
block 109
 70
     0
 10
0.0
 20
0.0
 30
0.0
  3
block 109
  1

  0
POLYLINE
  5
3B2
330
3AE
100
AcDbEntity
  8
_U+56FE_U+5C421
370
     0
100
AcDb2dPolyline
 66
     1
 10
0.0
 20
0.0
 30
0.0
  0
VERTEX
  5
3B3
330
3B2
100
AcDbEntity
  8
_U+56FE_U+5C421
370
     0
100
AcDbVertex
100
AcDb2dVertex
 10
6.479343161435862
 20
4.358659241423084
 30
0.0
  0
VERTEX
  5
3B4
330
3B2
100
AcDbEntity
  8
_U+56FE_U+5C421
370
     0
100
AcDbVertex
100
AcDb2dVertex
 10
6.479343161435862
 20
4.358659241423084
 30
0.0
  0
SEQEND
  5
3B5
330
3B2
100
AcDbEntity
  8
_U+56FE_U+5C421
370
     0
  0
ENDBLK
  5
3B1
330
3AE
100
AcDbEntity
  8
0
100
AcDbBlockEnd
  0
BLOCK
  5
3B8
330
3B6
100
AcDbEntity
  8
0
100
AcDbBlockBegin
  2
block 110
 70
     0
 10
0.0
 20
0.0
 30
0.0
  3
block 110
  1

  0
POLYLINE
  5
3BA
330
3B6
100
AcDbEntity
  8
_U+56FE_U+5C421
370
     0
100
AcDb2dPolyline
 66
     1
 10
0.0
 20
0.0
 30
0.0
  0
VERTEX
  5
3BB
330
3BA
100
AcDbEntity
  8
_U+56FE_U+5C421
370
     0
100
AcDbVertex
100
AcDb2dVertex
 10
2.107543342731118
 20
6.015562426247483
 30
0.0
  0
VERTEX
  5
3BC
330
3BA
100
AcDbEntity
  8
_U+56FE_U+5C421
370
     0
100
AcDbVertex
100
AcDb2dVertex
 10
2.107543342731118
 20
6.015562426247483
 30
0.0
  0
SEQEND
  5
3BD
330
3BA
100
AcDbEntity
  8
_U+56FE_U+5C421
370
     0
  0
ENDBLK
  5
3B9
330
3B6
100
AcDbEntity
  8
0
100
AcDbBlockEnd
  0
BLOCK
  5
3C0
330
3BE
100
AcDbEntity
  8
0
100
AcDbBlockBegin
  2
block 111
 70
     0
 10
0.0
 20
0.0
 30
0.0
  3
block 111
  1

  0
POLYLINE
  5
3C2
330
3BE
100
AcDbEntity
  8
_U+56FE_U+5C421
370
     0
100
AcDb2dPolyline
 66
     1
 10
0.0
 20
0.0
 30
0.0
  0
VERTEX
  5
3C3
330
3C2
100
AcDbEntity
  8
_U+56FE_U+5C421
370
     0
100
AcDbVertex
100
AcDb2dVertex
 10
6.50830369817691
 20
6.015562426247483
 30
0.0
  0
VERTEX
  5
3C4
330
3C2
100
AcDbEntity
  8
_U+56FE_U+5C421
370
     0
100
AcDbVertex
100
AcDb2dVertex
 10
6.50830369817691
 20
6.015562426247483
 30
0.0
  0
SEQEND
  5
3C5
330
3C2
100
AcDbEntity
  8
_U+56FE_U+5C421
370
     0
  0
ENDBLK
  5
3C1
330
3BE
100
AcDbEntity
  8
0
100
AcDbBlockEnd
  0
BLOCK
  5
3C8
330
3C6
100
AcDbEntity
  8
0
100
AcDbBlockBegin
  2
block 112
 70
     0
 10
0.0
 20
0.0
 30
0.0
  3
block 112
  1

  0
POLYLINE
  5
3CA
330
3C6
100
AcDbEntity
  8
_U+56FE_U+5C421
370
     0
100
AcDb2dPolyline
 66
     1
 10
0.0
 20
0.0
 30
0.0
  0
VERTEX
  5
3CB
330
3CA
100
AcDbEntity
  8
_U+56FE_U+5C421
370
     0
100
AcDbVertex
100
AcDb2dVertex
 10
6.50830369817691
 20
4.133298555236353
 30
0.0
  0
VERTEX
  5
3CC
330
3CA
100
AcDbEntity
  8
_U+56FE_U+5C421
370
     0
100
AcDbVertex
100
AcDb2dVertex
 10
6.50830369817691
 20
4.133298555236353
 30
0.0
  0
SEQEND
  5
3CD
330
3CA
100
AcDbEntity
  8
_U+56FE_U+5C421
370
     0
  0
ENDBLK
  5
3C9
330
3C6
100
AcDbEntity
  8
0
100
AcDbBlockEnd
  0
BLOCK
  5
3D0
330
3CE
100
AcDbEntity
  8
0
100
AcDbBlockBegin
  2
block 113
 70
     0
 10
0.0
 20
0.0
 30
0.0
  3
block 113
  1

  0
POLYLINE
  5
3D2
330
3CE
100
AcDbEntity
  8
_U+56FE_U+5C421
370
     0
100
AcDb2dPolyline
 66
     1
 10
0.0
 20
0.0
 30
0.0
  0
VERTEX
  5
3D3
330
3D2
100
AcDbEntity
  8
_U+56FE_U+5C421
370
     0
100
AcDbVertex
100
AcDb2dVertex
 10
2.078582805990082
 20
6.015562426247483
 30
0.0
  0
VERTEX
  5
3D4
330
3D2
100
AcDbEntity
  8
_U+56FE_U+5C421
370
     0
100
AcDbVertex
100
AcDb2dVertex
 10
2.078582805990082
 20
6.015562426247483
 30
0.0
  0
SEQEND
  5
3D5
330
3D2
100
AcDbEntity
  8
_U+56FE_U+5C421
370
     0
  0
ENDBLK
  5
3D1
330
3CE
100
AcDbEntity
  8
0
100
AcDbBlockEnd
  0
BLOCK
  5
3D8
330
3D6
100
AcDbEntity
  8
0
100
AcDbBlockBegin
  2
block 114
 70
     0
 10
0.0
 20
0.0
 30
0.0
  3
block 114
  1

  0
POLYLINE
  5
3DA
330
3D6
100
AcDbEntity
  8
_U+56FE_U+5C421
370
     0
100
AcDb2dPolyline
 66
     1
 10
0.0
 20
0.0
 30
0.0
  0
VERTEX
  5
3DB
330
3DA
100
AcDbEntity
  8
_U+56FE_U+5C421
370
     0
100
AcDbVertex
100
AcDb2dVertex
 10
6.537264234917958
 20
6.015562426247483
 30
0.0
  0
VERTEX
  5
3DC
330
3DA
100
AcDbEntity
  8
_U+56FE_U+5C421
370
     0
100
AcDbVertex
100
AcDb2dVertex
 10
6.537264234917958
 20
6.015562426247483
 30
0.0
  0
SEQEND
  5
3DD
330
3DA
100
AcDbEntity
  8
_U+56FE_U+5C421
370
     0
  0
ENDBLK
  5
3D9
330
3D6
100
AcDbEntity
  8
0
100
AcDbBlockEnd
  0
BLOCK
  5
3E0
330
3DE
100
AcDbEntity
  8
0
100
AcDbBlockBegin
  2
block 115
 70
     0
 10
0.0
 20
0.0
 30
0.0
  3
block 115
  1

  0
POLYLINE
  5
3E2
330
3DE
100
AcDbEntity
  8
_U+56FE_U+5C421
370
     0
100
AcDb2dPolyline
 66
     1
 10
0.0
 20
0.0
 30
0.0
  0
VERTEX
  5
3E3
330
3E2
100
AcDbEntity
  8
_U+56FE_U+5C421
370
     0
100
AcDbVertex
100
AcDb2dVertex
 10
6.537264234917958
 20
3.919798935043066
 30
0.0
  0
VERTEX
  5
3E4
330
3E2
100
AcDbEntity
  8
_U+56FE_U+5C421
370
     0
100
AcDbVertex
100
AcDb2dVertex
 10
6.537264234917958
 20
3.919798935043066
 30
0.0
  0
SEQEND
  5
3E5
330
3E2
100
AcDbEntity
  8
_U+56FE_U+5C421
370
     0
  0
ENDBLK
  5
3E1
330
3DE
100
AcDbEntity
  8
0
100
AcDbBlockEnd
  0
BLOCK
  5
3E8
330
3E6
100
AcDbEntity
  8
0
100
AcDbBlockBegin
  2
block 116
 70
     0
 10
0.0
 20
0.0
 30
0.0
  3
block 116
  1

  0
POLYLINE
  5
3EA
330
3E6
100
AcDbEntity
  8
_U+56FE_U+5C421
370
     0
100
AcDb2dPolyline
 66
     1
 10
0.0
 20
0.0
 30
0.0
  0
VERTEX
  5
3EB
330
3EA
100
AcDbEntity
  8
_U+56FE_U+5C421
370
     0
100
AcDbVertex
100
AcDb2dVertex
 10
2.38651604449429
 20
7.251442913208292
 30
0.0
  0
VERTEX
  5
3EC
330
3EA
100
AcDbEntity
  8
_U+56FE_U+5C421
370
     0
100
AcDbVertex
100
AcDb2dVertex
 10
2.38651604449429
 20
7.251442913208292
 30
0.0
  0
SEQEND
  5
3ED
330
3EA
100
AcDbEntity
  8
_U+56FE_U+5C421
370
     0
  0
ENDBLK
  5
3E9
330
3E6
100
AcDbEntity
  8
0
100
AcDbBlockEnd
  0
BLOCK
  5
3F0
330
3EE
100
AcDbEntity
  8
0
100
AcDbBlockBegin
  2
block 117
 70
     0
 10
0.0
 20
0.0
 30
0.0
  3
block 117
  1

  0
POLYLINE
  5
3F2
330
3EE
100
AcDbEntity
  8
_U+56FE_U+5C421
370
     0
100
AcDb2dPolyline
 66
     1
 10
0.0
 20
0.0
 30
0.0
  0
VERTEX
  5
3F3
330
3F2
100
AcDbEntity
  8
_U+56FE_U+5C421
370
     0
100
AcDbVertex
100
AcDb2dVertex
 10
2.762051473078486
 20
6.751160059469775
 30
0.0
  0
VERTEX
  5
3F4
330
3F2
100
AcDbEntity
  8
_U+56FE_U+5C421
370
     0
100
AcDbVertex
100
AcDb2dVertex
 10
2.762051473078486
 20
6.751160059469775
 30
0.0
  0
SEQEND
  5
3F5
330
3F2
100
AcDbEntity
  8
_U+56FE_U+5C421
370
     0
  0
ENDBLK
  5
3F1
330
3EE
100
AcDbEntity
  8
0
100
AcDbBlockEnd
  0
BLOCK
  5
3F8
330
3F6
100
AcDbEntity
  8
0
100
AcDbBlockBegin
  2
block 118
 70
     0
 10
0.0
 20
0.0
 30
0.0
  3
block 118
  1

  0
POLYLINE
  5
3FA
330
3F6
100
AcDbEntity
  8
_U+56FE_U+5C421
370
     0
100
AcDb2dPolyline
 66
     1
 10
0.0
 20
0.0
 30
0.0
  0
VERTEX
  5
3FB
330
3FA
100
AcDbEntity
  8
_U+56FE_U+5C421
370
     0
100
AcDbVertex
100
AcDb2dVertex
 10
2.366334998618249
 20
4.758630577256099
 30
0.0
  0
VERTEX
  5
3FC
330
3FA
100
AcDbEntity
  8
_U+56FE_U+5C421
370
     0
100
AcDbVertex
100
AcDb2dVertex
 10
2.366334998618249
 20
4.758630577256099
 30
0.0
  0
SEQEND
  5
3FD
330
3FA
100
AcDbEntity
  8
_U+56FE_U+5C421
370
     0
  0
ENDBLK
  5
3F9
330
3F6
100
AcDbEntity
  8
0
100
AcDbBlockEnd
  0
BLOCK
  5
400
330
3FE
100
AcDbEntity
  8
0
100
AcDbBlockBegin
  2
block 119
 70
     0
 10
0.0
 20
0.0
 30
0.0
  3
block 119
  1

  0
POLYLINE
  5
402
330
3FE
100
AcDbEntity
  8
_U+56FE_U+5C421
370
     0
100
AcDb2dPolyline
 66
     1
 10
0.0
 20
0.0
 30
0.0
  0
VERTEX
  5
403
330
402
100
AcDbEntity
  8
_U+56FE_U+5C421
370
     0
100
AcDbVertex
100
AcDb2dVertex
 10
2.762051473078486
 20
5.279964793025202
 30
0.0
  0
VERTEX
  5
404
330
402
100
AcDbEntity
  8
_U+56FE_U+5C421
370
     0
100
AcDbVertex
100
AcDb2dVertex
 10
2.762051473078486
 20
5.279964793025202
 30
0.0
  0
SEQEND
  5
405
330
402
100
AcDbEntity
  8
_U+56FE_U+5C421
370
     0
  0
ENDBLK
  5
401
330
3FE
100
AcDbEntity
  8
0
100
AcDbBlockEnd
  0
BLOCK
  5
408
330
406
100
AcDbEntity
  8
0
100
AcDbBlockBegin
  2
block 120
 70
     0
 10
0.0
 20
0.0
 30
0.0
  3
block 120
  1

  0
POLYLINE
  5
40A
330
406
100
AcDbEntity
  8
_U+56FE_U+5C421
370
     0
100
AcDb2dPolyline
 66
     1
 10
0.0
 20
0.0
 30
0.0
  0
VERTEX
  5
40B
330
40A
100
AcDbEntity
  8
_U+56FE_U+5C421
370
     0
100
AcDbVertex
100
AcDb2dVertex
 10
6.321025162540511
 20
4.739628209047067
 30
0.0
  0
VERTEX
  5
40C
330
40A
100
AcDbEntity
  8
_U+56FE_U+5C421
370
     0
100
AcDbVertex
100
AcDb2dVertex
 10
6.321025162540511
 20
4.739628209047067
 30
0.0
  0
SEQEND
  5
40D
330
40A
100
AcDbEntity
  8
_U+56FE_U+5C421
370
     0
  0
ENDBLK
  5
409
330
406
100
AcDbEntity
  8
0
100
AcDbBlockEnd
  0
BLOCK
  5
410
330
40E
100
AcDbEntity
  8
0
100
AcDbBlockBegin
  2
block 121
 70
     0
 10
0.0
 20
0.0
 30
0.0
  3
block 121
  1

  0
POLYLINE
  5
412
330
40E
100
AcDbEntity
  8
_U+56FE_U+5C421
370
     0
100
AcDb2dPolyline
 66
     1
 10
0.0
 20
0.0
 30
0.0
  0
VERTEX
  5
413
330
412
100
AcDbEntity
  8
_U+56FE_U+5C421
370
     0
100
AcDbVertex
100
AcDb2dVertex
 10
5.929092963356172
 20
5.204667397498471
 30
0.0
  0
VERTEX
  5
414
330
412
100
AcDbEntity
  8
_U+56FE_U+5C421
370
     0
100
AcDbVertex
100
AcDb2dVertex
 10
5.929092963356172
 20
5.204667397498471
 30
0.0
  0
SEQEND
  5
415
330
412
100
AcDbEntity
  8
_U+56FE_U+5C421
370
     0
  0
ENDBLK
  5
411
330
40E
100
AcDbEntity
  8
0
100
AcDbBlockEnd
  0
BLOCK
  5
418
330
416
100
AcDbEntity
  8
0
100
AcDbBlockBegin
  2
block 122
 70
     0
 10
0.0
 20
0.0
 30
0.0
  3
block 122
  1

  0
POLYLINE
  5
41A
330
416
100
AcDbEntity
  8
_U+56FE_U+5C421
370
     0
100
AcDb2dPolyline
 66
     1
 10
0.0
 20
0.0
 30
0.0
  0
VERTEX
  5
41B
330
41A
100
AcDbEntity
  8
_U+56FE_U+5C421
370
     0
100
AcDbVertex
100
AcDb2dVertex
 10
4.257931041097764
 20
7.143111694055165
 30
0.0
  0
VERTEX
  5
41C
330
41A
100
AcDbEntity
  8
_U+56FE_U+5C421
370
     0
100
AcDbVertex
100
AcDb2dVertex
 10
4.257931041097764
 20
7.143111694055165
 30
0.0
  0
SEQEND
  5
41D
330
41A
100
AcDbEntity
  8
_U+56FE_U+5C421
370
     0
  0
ENDBLK
  5
419
330
416
100
AcDbEntity
  8
0
100
AcDbBlockEnd
  0
BLOCK
  5
420
330
41E
100
AcDbEntity
  8
0
100
AcDbBlockBegin
  2
block 123
 70
     0
 10
0.0
 20
0.0
 30
0.0
  3
block 123
  1

  0
POLYLINE
  5
422
330
41E
100
AcDbEntity
  8
_U+56FE_U+5C421
370
     0
100
AcDb2dPolyline
 66
     1
 10
0.0
 20
0.0
 30
0.0
  0
VERTEX
  5
423
330
422
100
AcDbEntity
  8
_U+56FE_U+5C421
370
     0
100
AcDbVertex
100
AcDb2dVertex
 10
4.515239329049033
 20
7.376707653076146
 30
0.0
  0
VERTEX
  5
424
330
422
100
AcDbEntity
  8
_U+56FE_U+5C421
370
     0
100
AcDbVertex
100
AcDb2dVertex
 10
4.515239329049033
 20
7.376707653076146
 30
0.0
  0
SEQEND
  5
425
330
422
100
AcDbEntity
  8
_U+56FE_U+5C421
370
     0
  0
ENDBLK
  5
421
330
41E
100
AcDbEntity
  8
0
100
AcDbBlockEnd
  0
BLOCK
  5
428
330
426
100
AcDbEntity
  8
0
100
AcDbBlockBegin
  2
block 124
 70
     0
 10
0.0
 20
0.0
 30
0.0
  3
block 124
  1

  0
POLYLINE
  5
42A
330
426
100
AcDbEntity
  8
_U+56FE_U+5C421
370
     0
100
AcDb2dPolyline
 66
     1
 10
0.0
 20
0.0
 30
0.0
  0
VERTEX
  5
42B
330
42A
100
AcDbEntity
  8
_U+56FE_U+5C421
370
     0
100
AcDbVertex
100
AcDb2dVertex
 10
4.541203664377538
 20
7.059201608127788
 30
0.0
  0
VERTEX
  5
42C
330
42A
100
AcDbEntity
  8
_U+56FE_U+5C421
370
     0
100
AcDbVertex
100
AcDb2dVertex
 10
4.541203664377538
 20
7.059201608127788
 30
0.0
  0
SEQEND
  5
42D
330
42A
100
AcDbEntity
  8
_U+56FE_U+5C421
370
     0
  0
ENDBLK
  5
429
330
426
100
AcDbEntity
  8
0
100
AcDbBlockEnd
  0
BLOCK
  5
430
330
42E
100
AcDbEntity
  8
0
100
AcDbBlockBegin
  2
block 125
 70
     0
 10
0.0
 20
0.0
 30
0.0
  3
block 125
  1

  0
POLYLINE
  5
432
330
42E
100
AcDbEntity
  8
_U+56FE_U+5C421
370
     0
100
AcDb2dPolyline
 66
     1
 10
0.0
 20
0.0
 30
0.0
  0
VERTEX
  5
433
330
432
100
AcDbEntity
  8
_U+56FE_U+5C421
370
     0
100
AcDbVertex
100
AcDb2dVertex
 10
4.515239329049033
 20
7.376707653076146
 30
0.0
  0
VERTEX
  5
434
330
432
100
AcDbEntity
  8
_U+56FE_U+5C421
370
     0
100
AcDbVertex
100
AcDb2dVertex
 10
4.515239329049033
 20
7.376707653076146
 30
0.0
  0
SEQEND
  5
435
330
432
100
AcDbEntity
  8
_U+56FE_U+5C421
370
     0
  0
ENDBLK
  5
431
330
42E
100
AcDbEntity
  8
0
100
AcDbBlockEnd
  0
BLOCK
  5
438
330
436
100
AcDbEntity
  8
0
100
AcDbBlockBegin
  2
block 126
 70
     0
 10
0.0
 20
0.0
 30
0.0
  3
block 126
  1

  0
POLYLINE
  5
43A
330
436
100
AcDbEntity
  8
_U+56FE_U+5C421
370
     0
100
AcDb2dPolyline
 66
     1
 10
0.0
 20
0.0
 30
0.0
  0
VERTEX
  5
43B
330
43A
100
AcDbEntity
  8
_U+56FE_U+5C421
370
     0
100
AcDbVertex
100
AcDb2dVertex
 10
4.371734675721427
 20
7.125157094924904
 30
0.0
  0
VERTEX
  5
43C
330
43A
100
AcDbEntity
  8
_U+56FE_U+5C421
370
     0
100
AcDbVertex
100
AcDb2dVertex
 10
4.371734675721427
 20
7.125157094924904
 30
0.0
  0
SEQEND
  5
43D
330
43A
100
AcDbEntity
  8
_U+56FE_U+5C421
370
     0
  0
ENDBLK
  5
439
330
436
100
AcDbEntity
  8
0
100
AcDbBlockEnd
  0
BLOCK
  5
440
330
43E
100
AcDbEntity
  8
0
100
AcDbBlockBegin
  2
block 127
 70
     0
 10
0.0
 20
0.0
 30
0.0
  3
block 127
  1

  0
POLYLINE
  5
442
330
43E
100
AcDbEntity
  8
_U+56FE_U+5C421
370
     0
100
AcDb2dPolyline
 66
     1
 10
0.0
 20
0.0
 30
0.0
  0
VERTEX
  5
443
330
442
100
AcDbEntity
  8
_U+56FE_U+5C421
370
     0
100
AcDbVertex
100
AcDb2dVertex
 10
4.515239329049033
 20
7.376707653076146
 30
0.0
  0
VERTEX
  5
444
330
442
100
AcDbEntity
  8
_U+56FE_U+5C421
370
     0
100
AcDbVertex
100
AcDb2dVertex
 10
4.515239329049033
 20
7.376707653076146
 30
0.0
  0
SEQEND
  5
445
330
442
100
AcDbEntity
  8
_U+56FE_U+5C421
370
     0
  0
ENDBLK
  5
441
330
43E
100
AcDbEntity
  8
0
100
AcDbBlockEnd
  0
BLOCK
  5
448
330
446
100
AcDbEntity
  8
0
100
AcDbBlockBegin
  2
block 128
 70
     0
 10
0.0
 20
0.0
 30
0.0
  3
block 128
  1

  0
SPLINE
  5
44A
330
446
100
AcDbEntity
  8
_U+56FE_U+5C421
  6
AI-Linetype-2
 62
    22
420
 13443111
370
    25
100
AcDbSpline
210
0.0
220
0.0
230
1.0
 70
    11
 71
     3
 72
    38
 73
    34
 74
     0
 42
0.0000000001
 43
0.0000000001
 12
1.0
 22
0.0
 32
0.0
 13
1.0
 23
0.0
 33
0.0
 40
0.0
 40
0.0
 40
0.0
 40
0.0
 40
1.0
 40
1.0
 40
1.0
 40
2.0
 40
2.0
 40
2.0
 40
3.0
 40
3.0
 40
3.0
 40
4.0
 40
4.0
 40
4.0
 40
5.0
 40
5.0
 40
5.0
 40
6.0
 40
6.0
 40
6.0
 40
7.0
 40
7.0
 40
7.0
 40
8.0
 40
8.0
 40
8.0
 40
9.0
 40
9.0
 40
9.0
 40
10.0
 40
10.0
 40
10.0
 40
11.0
 40
11.0
 40
11.0
 40
11.0
 10
2.762051473078486
 20
4.654417199418831
 30
0.0
 10
2.762051473078486
 20
4.654417199418831
 30
0.0
 10
5.929092963356172
 20
4.654417199418831
 30
0.0
 10
5.929092963356172
 20
4.654417199418831
 30
0.0
 10
6.232987756346953
 20
4.654417199418831
 30
0.0
 10
6.479343161435862
 20
4.90077260450769
 30
0.0
 10
6.479343161435862
 20
5.204667397498471
 30
0.0
 10
6.479343161435862
 20
5.204667397498471
 30
0.0
 10
6.479343161435862
 20
6.478931014104053
 30
0.0
 10
6.479343161435862
 20
6.478931014104053
 30
0.0
 10
6.479343161435862
 20
6.782825807094859
 30
0.0
 10
6.232987756346953
 20
7.029181212183718
 30
0.0
 10
5.929092963356172
 20
7.029181212183718
 30
0.0
 10
5.929092963356172
 20
7.029181212183718
 30
0.0
 10
4.515239329049033
 20
7.029181212183718
 30
0.0
 10
4.515239329049033
 20
7.029181212183718
 30
0.0
 10
4.412524018329072
 20
7.029181212183718
 30
0.0
 10
4.315070179732427
 20
7.074619298720121
 30
0.0
 10
4.249038908555272
 20
7.153297798216727
 30
0.0
 10
4.130182612333796
 20
7.294919102679525
 30
0.0
 10
3.954765701641135
 20
7.376707655831183
 30
0.0
 10
3.769878142345179
 20
7.376707653076146
 30
0.0
 10
3.76987815166654
 20
7.376707653076146
 30
0.0
 10
2.762051473078486
 20
7.376707653076146
 30
0.0
 10
2.762051473078486
 20
7.376707653076146
 30
0.0
 10
2.416571076836388
 20
7.376707653076146
 30
0.0
 10
2.136503879472179
 20
7.096640455711925
 30
0.0
 10
2.136503879472179
 20
6.751160059469775
 30
0.0
 10
2.136503879472179
 20
6.751160059469775
 30
0.0
 10
2.136503879472179
 20
5.279964793025202
 30
0.0
 10
2.136503879472179
 20
5.279964793025202
 30
0.0
 10
2.136503879472179
 20
4.934484396783015
 30
0.0
 10
2.416571076836388
 20
4.654417199418831
 30
0.0
 10
2.762051473078486
 20
4.654417199418831
 30
0.0
  0
ENDBLK
  5
449
330
446
100
AcDbEntity
  8
0
100
AcDbBlockEnd
  0
BLOCK
  5
44E
330
44C
100
AcDbEntity
  8
0
100
AcDbBlockBegin
  2
block 129
 70
     0
 10
0.0
 20
0.0
 30
0.0
  3
block 129
  1

  0
SPLINE
  5
450
330
44C
100
AcDbEntity
  8
_U+56FE_U+5C421
 62
     7
420
 16777215
370
    25
100
AcDbSpline
210
0.0
220
0.0
230
1.0
 70
    11
 71
     3
 72
    38
 73
    34
 74
     0
 42
0.0000000001
 43
0.0000000001
 12
1.0
 22
0.0
 32
0.0
 13
1.0
 23
0.0
 33
0.0
 40
0.0
 40
0.0
 40
0.0
 40
0.0
 40
1.0
 40
1.0
 40
1.0
 40
2.0
 40
2.0
 40
2.0
 40
3.0
 40
3.0
 40
3.0
 40
4.0
 40
4.0
 40
4.0
 40
5.0
 40
5.0
 40
5.0
 40
6.0
 40
6.0
 40
6.0
 40
7.0
 40
7.0
 40
7.0
 40
8.0
 40
8.0
 40
8.0
 40
9.0
 40
9.0
 40
9.0
 40
10.0
 40
10.0
 40
10.0
 40
11.0
 40
11.0
 40
11.0
 40
11.0
 10
2.107543342731118
 20
5.279964793025202
 30
0.0
 10
2.107543342731118
 20
4.918489933994048
 30
0.0
 10
2.400576614047395
 20
4.625456662677808
 30
0.0
 10
2.762051473078486
 20
4.625456662677808
 30
0.0
 10
2.762051473078486
 20
4.625456662677808
 30
0.0
 10
5.929092963356172
 20
4.625456662677808
 30
0.0
 10
5.929092963356172
 20
4.625456662677808
 30
0.0
 10
6.248982219135946
 20
4.625456662677808
 30
0.0
 10
6.50830369817691
 20
4.884778141718723
 30
0.0
 10
6.50830369817691
 20
5.204667397498471
 30
0.0
 10
6.50830369817691
 20
5.204667397498471
 30
0.0
 10
6.50830369817691
 20
6.478931014104053
 30
0.0
 10
6.50830369817691
 20
6.478931014104053
 30
0.0
 10
6.50830369817691
 20
6.798820269883802
 30
0.0
 10
6.248982219135946
 20
7.058141748924754
 30
0.0
 10
5.929092963356172
 20
7.058141748924754
 30
0.0
 10
5.929092963356172
 20
7.058141748924754
 30
0.0
 10
4.515239329049033
 20
7.058141748924754
 30
0.0
 10
4.515239329049033
 20
7.058141748924754
 30
0.0
 10
4.421083627555693
 20
7.058141748924754
 30
0.0
 10
4.331750942175479
 20
7.099793328249789
 30
0.0
 10
4.271222276929797
 20
7.171915286121677
 30
0.0
 10
4.146863382879499
 20
7.320093126840245
 30
0.0
 10
3.963325320189192
 20
7.405668189817182
 30
0.0
 10
3.76987815166654
 20
7.405668189817182
 30
0.0
 10
3.76987815166654
 20
7.405668189817182
 30
0.0
 10
2.762051473078486
 20
7.405668189817182
 30
0.0
 10
2.762051473078486
 20
7.405668189817182
 30
0.0
 10
2.400576614047395
 20
7.405668189817182
 30
0.0
 10
2.107543342731118
 20
7.112634918500917
 30
0.0
 10
2.107543342731118
 20
6.751160059469775
 30
0.0
 10
2.107543342731118
 20
6.751160059469775
 30
0.0
 10
2.107543342731118
 20
5.279964793025202
 30
0.0
 10
2.107543342731118
 20
5.279964793025202
 30
0.0
  0
ENDBLK
  5
44F
330
44C
100
AcDbEntity
  8
0
100
AcDbBlockEnd
  0
ENDSEC
  0
SECTION
  2
ENTITIES
  0
INSERT
  5
42
330
1F
100
AcDbEntity
  8
_U+56FE_U+5C422
100
AcDbBlockReference
  2
block 2
 10
0.0
 20
0.0
 30
0.0
  0
INSERT
  5
4D
330
1F
100
AcDbEntity
  8
_U+56FE_U+5C421
100
AcDbBlockReference
  2
block 3
 10
0.0
 20
0.0
 30
0.0
  0
ENDSEC
  0
SECTION
  2
OBJECTS
  0
DICTIONARY
  5
C
330
0
100
AcDbDictionary
281
     1
  3
ACAD_GROUP
350
D
  3
ACAD_LAYOUT
350
1A
  3
ACAD_MATERIAL
350
3B
  3
ACAD_MLEADERSTYLE
350
452
  3
ACAD_MLINESTYLE
350
17
  3
ACAD_PLOTSETTINGS
350
19
  3
ACAD_PLOTSTYLENAME
350
E
  3
ACAD_TABLESTYLE
350
451
  3
ACAD_VISUALSTYLE
350
2A
  0
SUN
  5
3F
330
29
100
AcDbSun
 90
        1
290
     0
 63
     7
421
 16777215
 40
1.0
291
     1
 91
  2455826
 92
 54000000
292
     0
 70
     2
 71
   256
280
     1
  0
DICTIONARY
  5
D
102
{ACAD_REACTORS
330
C
102
}
330
C
100
AcDbDictionary
281
     1
  0
DICTIONARY
  5
1A
102
{ACAD_REACTORS
330
C
102
}
330
C
100
AcDbDictionary
281
     1
  3
Layout1
350
1E
  3
Layout2
350
26
  3
Model
350
22
  0
DICTIONARY
  5
3B
102
{ACAD_REACTORS
330
C
102
}
330
C
100
AcDbDictionary
281
     1
  3
ByBlock
350
3D
  3
ByLayer
350
3C
  3
Global
350
3E
  0
DICTIONARY
  5
452
102
{ACAD_REACTORS
330
C
102
}
330
C
100
AcDbDictionary
281
     1
  0
DICTIONARY
  5
17
102
{ACAD_REACTORS
330
C
102
}
330
C
100
AcDbDictionary
281
     1
  3
Standard
350
18
  0
DICTIONARY
  5
19
102
{ACAD_REACTORS
330
C
102
}
330
C
100
AcDbDictionary
281
     1
  0
ACDBDICTIONARYWDFLT
  5
E
102
{ACAD_REACTORS
330
C
102
}
330
C
100
AcDbDictionary
281
     1
  3
Normal
350
F
100
AcDbDictionaryWithDefault
340
F
  0
DICTIONARY
  5
451
102
{ACAD_REACTORS
330
C
102
}
330
C
100
AcDbDictionary
281
     1
  0
DICTIONARY
  5
2A
102
{ACAD_REACTORS
330
C
102
}
330
C
100
AcDbDictionary
281
     1
  3
2dWireframe
350
2F
  3
3D Hidden
350
31
  3
3dWireframe
350
30
  3
Basic
350
32
  3
Brighten
350
36
  3
ColorChange
350
3A
  3
Conceptual
350
34
  3
Dim
350
35
  3
Facepattern
350
39
  3
Flat
350
2B
  3
FlatWithEdges
350
2C
  3
Gouraud
350
2D
  3
GouraudWithEdges
350
2E
  3
Linepattern
350
38
  3
Realistic
350
33
  3
Thicken
350
37
  0
LAYOUT
  5
1E
102
{ACAD_REACTORS
330
1A
102
}
330
1A
100
AcDbPlotSettings
  1

  2
none_device
  4

  6

 40
0.0
 41
0.0
 42
0.0
 43
0.0
 44
0.0
 45
0.0
 46
0.0
 47
0.0
 48
0.0
 49
0.0
140
0.0
141
0.0
142
1.0
143
1.0
 70
   688
 72
     0
 73
     0
 74
     5
  7

 75
    16
 76
     0
 77
     2
 78
   300
147
1.0
148
0.0
149
0.0
100
AcDbLayout
  1
Layout1
 70
     1
 71
     1
 10
0.0
 20
0.0
 11
12.0
 21
9.0
 12
0.0
 22
0.0
 32
0.0
 14
1.000000000000000E+20
 24
1.000000000000000E+20
 34
1.000000000000000E+20
 15
-1.000000000000000E+20
 25
-1.000000000000000E+20
 35
-1.000000000000000E+20
146
0.0
 13
0.0
 23
0.0
 33
0.0
 16
1.0
 26
0.0
 36
0.0
 17
0.0
 27
1.0
 37
0.0
 76
     0
330
1B
  0
LAYOUT
  5
26
102
{ACAD_REACTORS
330
1A
102
}
330
1A
100
AcDbPlotSettings
  1

  2
none_device
  4

  6

 40
0.0
 41
0.0
 42
0.0
 43
0.0
 44
0.0
 45
0.0
 46
0.0
 47
0.0
 48
0.0
 49
0.0
140
0.0
141
0.0
142
1.0
143
1.0
 70
   688
 72
     0
 73
     0
 74
     5
  7

 75
    16
 76
     0
 77
     2
 78
   300
147
1.0
148
0.0
149
0.0
100
AcDbLayout
  1
Layout2
 70
     1
 71
     2
 10
0.0
 20
0.0
 11
0.0
 21
0.0
 12
0.0
 22
0.0
 32
0.0
 14
0.0
 24
0.0
 34
0.0
 15
0.0
 25
0.0
 35
0.0
146
0.0
 13
0.0
 23
0.0
 33
0.0
 16
1.0
 26
0.0
 36
0.0
 17
0.0
 27
1.0
 37
0.0
 76
     0
330
23
  0
LAYOUT
  5
22
102
{ACAD_REACTORS
330
1A
102
}
330
1A
100
AcDbPlotSettings
  1

  2
none_device
  4

  6

 40
0.0
 41
0.0
 42
0.0
 43
0.0
 44
0.0
 45
0.0
 46
0.0
 47
0.0
 48
0.0
 49
0.0
140
0.0
141
0.0
142
1.0
143
1.0
 70
  1712
 72
     0
 73
     0
 74
     0
  7

 75
     0
 76
     0
 77
     2
 78
   300
147
1.0
148
0.0
149
0.0
100
AcDbLayout
  1
Model
 70
     1
 71
     0
 10
0.0
 20
0.0
 11
12.0
 21
9.0
 12
0.0
 22
0.0
 32
0.0
 14
1.000000000000000E+20
 24
1.000000000000000E+20
 34
1.000000000000000E+20
 15
-1.000000000000000E+20
 25
-1.000000000000000E+20
 35
-1.000000000000000E+20
146
0.0
 13
0.0
 23
0.0
 33
0.0
 16
1.0
 26
0.0
 36
0.0
 17
0.0
 27
1.0
 37
0.0
 76
     0
330
1F
331
29
  0
MATERIAL
  5
3D
102
{ACAD_REACTORS
330
3B
102
}
330
3B
100
AcDbMaterial
  1
ByBlock
 72
     1
 94
      127
  0
MATERIAL
  5
3C
102
{ACAD_REACTORS
330
3B
102
}
330
3B
100
AcDbMaterial
  1
ByLayer
 72
     1
 94
      127
  0
MATERIAL
  5
3E
102
{ACAD_REACTORS
330
3B
102
}
330
3B
100
AcDbMaterial
  1
Global
 72
     1
 94
      127
  0
MLINESTYLE
  5
18
102
{ACAD_REACTORS
330
17
102
}
330
17
100
AcDbMlineStyle
  2
Standard
 70
     0
  3

 62
   256
 51
90.0
 52
90.0
 71
     2
 49
0.5
 62
   256
  6
BYLAYER
 49
-0.5
 62
   256
  6
BYLAYER
  0
ACDBPLACEHOLDER
  5
F
102
{ACAD_REACTORS
330
E
102
}
330
E
  0
VISUALSTYLE
  5
2F
102
{ACAD_REACTORS
330
2A
102
}
330
2A
100
AcDbVisualStyle
  2
2dWireframe
 70
     4
177
     2
291
     0
 71
     0
176
     1
 72
     2
176
     1
 73
     0
176
     1
 90
        0
176
     1
 40
-0.6
176
     1
 41
-30.0
176
     1
 62
     5
 63
     7
421
 16777215
176
     1
 74
     1
176
     1
 91
        4
176
     1
 64
     7
176
     1
 65
   257
176
     1
 75
     1
176
     1
175
     1
176
     1
 42
1.0
176
     1
 92
        0
176
     1
 66
   257
176
     1
 43
1.0
176
     1
 76
     1
176
     1
 77
     6
176
     1
 78
     2
176
     1
 67
     7
176
     1
 79
     5
176
     1
170
     0
176
     1
171
     0
176
     1
290
     0
176
     1
 93
        1
176
     1
 44
0.0
176
     1
173
     0
176
     1
  0
VISUALSTYLE
  5
31
102
{ACAD_REACTORS
330
2A
102
}
330
2A
100
AcDbVisualStyle
  2
3D Hidden
 70
     6
177
     2
291
     0
 71
     1
176
     1
 72
     2
176
     1
 73
     2
176
     1
 90
        0
176
     1
 40
-0.6
176
     1
 41
-30.0
176
     1
 62
     5
 63
     7
421
 16777215
176
     1
 74
     2
176
     1
 91
        2
176
     1
 64
     7
176
     1
 65
   257
176
     1
 75
     2
176
     1
175
     1
176
     1
 42
40.0
176
     1
 92
        0
176
     1
 66
   257
176
     1
 43
1.0
176
     1
 76
     1
176
     1
 77
     6
176
     1
 78
     2
176
     1
 67
     7
176
     1
 79
     3
176
     1
170
     0
176
     1
171
     0
176
     1
290
     0
176
     1
 93
        1
176
     1
 44
0.0
176
     1
173
     0
176
     1
  0
VISUALSTYLE
  5
30
102
{ACAD_REACTORS
330
2A
102
}
330
2A
100
AcDbVisualStyle
  2
3dWireframe
 70
     5
177
     2
291
     0
 71
     0
176
     1
 72
     2
176
     1
 73
     0
176
     1
 90
        0
176
     1
 40
-0.6
176
     1
 41
-30.0
176
     1
 62
     5
 63
     7
421
 16777215
176
     1
 74
     1
176
     1
 91
        4
176
     1
 64
     7
176
     1
 65
   257
176
     1
 75
     1
176
     1
175
     1
176
     1
 42
1.0
176
     1
 92
        0
176
     1
 66
   257
176
     1
 43
1.0
176
     1
 76
     1
176
     1
 77
     6
176
     1
 78
     2
176
     1
 67
     7
176
     1
 79
     5
176
     1
170
     0
176
     1
171
     0
176
     1
290
     0
176
     1
 93
        1
176
     1
 44
0.0
176
     1
173
     0
176
     1
  0
VISUALSTYLE
  5
32
102
{ACAD_REACTORS
330
2A
102
}
330
2A
100
AcDbVisualStyle
  2
Basic
 70
     7
177
     2
291
     1
 71
     1
176
     1
 72
     0
176
     1
 73
     1
176
     1
 90
        0
176
     1
 40
-0.6
176
     1
 41
-30.0
176
     1
 62
     5
 63
     7
421
 16777215
176
     1
 74
     0
176
     1
 91
        4
176
     1
 64
     7
176
     1
 65
   257
176
     1
 75
     1
176
     1
175
     1
176
     1
 42
1.0
176
     1
 92
        8
176
     1
 66
     7
176
     1
 43
1.0
176
     1
 76
     1
176
     1
 77
     6
176
     1
 78
     2
176
     1
 67
     7
176
     1
 79
     5
176
     1
170
     0
176
     1
171
     0
176
     1
290
     0
176
     1
 93
        1
176
     1
 44
0.0
176
     1
173
     0
176
     1
  0
VISUALSTYLE
  5
36
102
{ACAD_REACTORS
330
2A
102
}
330
2A
100
AcDbVisualStyle
  2
Brighten
 70
    12
177
     2
291
     1
 71
     2
176
     1
 72
     2
176
     1
 73
     0
176
     1
 90
        0
176
     1
 40
-0.6
176
     1
 41
-30.0
176
     1
 62
     5
 63
     7
421
 16777215
176
     1
 74
     1
176
     1
 91
        4
176
     1
 64
     7
176
     1
 65
   257
176
     1
 75
     1
176
     1
175
     1
176
     1
 42
1.0
176
     1
 92
        8
176
     1
 66
     7
176
     1
 43
1.0
176
     1
 76
     1
176
     1
 77
     6
176
     1
 78
     2
176
     1
 67
     7
176
     1
 79
     5
176
     1
170
     0
176
     1
171
     0
176
     1
290
     0
176
     1
 93
        1
176
     1
 44
50.0
176
     1
173
     0
176
     1
  0
VISUALSTYLE
  5
3A
102
{ACAD_REACTORS
330
2A
102
}
330
2A
100
AcDbVisualStyle
  2
ColorChange
 70
    16
177
     2
291
     1
 71
     2
176
     1
 72
     2
176
     1
 73
     3
176
     1
 90
        0
176
     1
 40
-0.6
176
     1
 41
-30.0
176
     1
 62
     5
 63
     8
421
  8421504
176
     1
 74
     1
176
     1
 91
        4
176
     1
 64
     7
176
     1
 65
   257
176
     1
 75
     1
176
     1
175
     1
176
     1
 42
1.0
176
     1
 92
        8
176
     1
 66
     8
424
  8421504
176
     1
 43
1.0
176
     1
 76
     1
176
     1
 77
     6
176
     1
 78
     2
176
     1
 67
     7
176
     1
 79
     5
176
     1
170
     0
176
     1
171
     0
176
     1
290
     0
176
     1
 93
        1
176
     1
 44
0.0
176
     1
173
     0
176
     1
  0
VISUALSTYLE
  5
34
102
{ACAD_REACTORS
330
2A
102
}
330
2A
100
AcDbVisualStyle
  2
Conceptual
 70
     9
177
     2
291
     0
 71
     3
176
     1
 72
     2
176
     1
 73
     0
176
     1
 90
        0
176
     1
 40
-0.6
176
     1
 41
-30.0
176
     1
 62
     5
 63
     7
421
 16777215
176
     1
 74
     2
176
     1
 91
        2
176
     1
 64
     7
176
     1
 65
   257
176
     1
 75
     1
176
     1
175
     1
176
     1
 42
40.0
176
     1
 92
        8
176
     1
 66
     7
176
     1
 43
1.0
176
     1
 76
     1
176
     1
 77
     6
176
     1
 78
     2
176
     1
 67
     7
176
     1
 79
     3
176
     1
170
     0
176
     1
171
     0
176
     1
290
     0
176
     1
 93
        1
176
     1
 44
0.0
176
     1
173
     0
176
     1
  0
VISUALSTYLE
  5
35
102
{ACAD_REACTORS
330
2A
102
}
330
2A
100
AcDbVisualStyle
  2
Dim
 70
    11
177
     2
291
     1
 71
     2
176
     1
 72
     2
176
     1
 73
     0
176
     1
 90
        0
176
     1
 40
-0.6
176
     1
 41
-30.0
176
     1
 62
     5
 63
     7
421
 16777215
176
     1
 74
     1
176
     1
 91
        4
176
     1
 64
     7
176
     1
 65
   257
176
     1
 75
     1
176
     1
175
     1
176
     1
 42
1.0
176
     1
 92
        8
176
     1
 66
     7
176
     1
 43
1.0
176
     1
 76
     1
176
     1
 77
     6
176
     1
 78
     2
176
     1
 67
     7
176
     1
 79
     5
176
     1
170
     0
176
     1
171
     0
176
     1
290
     0
176
     1
 93
        1
176
     1
 44
-50.0
176
     1
173
     0
176
     1
  0
VISUALSTYLE
  5
39
102
{ACAD_REACTORS
330
2A
102
}
330
2A
100
AcDbVisualStyle
  2
Facepattern
 70
    15
177
     2
291
     1
 71
     2
176
     1
 72
     2
176
     1
 73
     0
176
     1
 90
        0
176
     1
 40
-0.6
176
     1
 41
-30.0
176
     1
 62
     5
 63
     7
421
 16777215
176
     1
 74
     1
176
     1
 91
        4
176
     1
 64
     7
176
     1
 65
   257
176
     1
 75
     1
176
     1
175
     1
176
     1
 42
1.0
176
     1
 92
        8
176
     1
 66
     7
176
     1
 43
1.0
176
     1
 76
     1
176
     1
 77
     6
176
     1
 78
     2
176
     1
 67
     7
176
     1
 79
     5
176
     1
170
     0
176
     1
171
     0
176
     1
290
     0
176
     1
 93
        1
176
     1
 44
0.0
176
     1
173
     0
176
     1
  0
VISUALSTYLE
  5
2B
102
{ACAD_REACTORS
330
2A
102
}
330
2A
100
AcDbVisualStyle
  2
Flat
 70
     0
177
     2
291
     1
 71
     2
176
     1
 72
     1
176
     1
 73
     1
176
     1
 90
        2
176
     1
 40
-0.6
176
     1
 41
30.0
176
     1
 62
     5
 63
     7
421
 16777215
176
     1
 74
     0
176
     1
 91
        4
176
     1
 64
     7
176
     1
 65
   257
176
     1
 75
     1
176
     1
175
     1
176
     1
 42
1.0
176
     1
 92
        8
176
     1
 66
     7
176
     1
 43
1.0
176
     1
 76
     1
176
     1
 77
     6
176
     1
 78
     2
176
     1
 67
     7
176
     1
 79
     5
176
     1
170
     0
176
     1
171
     0
176
     1
290
     0
176
     1
 93
       13
176
     1
 44
0.0
176
     1
173
     0
176
     1
  0
VISUALSTYLE
  5
2C
102
{ACAD_REACTORS
330
2A
102
}
330
2A
100
AcDbVisualStyle
  2
FlatWithEdges
 70
     1
177
     2
291
     1
 71
     2
176
     1
 72
     1
176
     1
 73
     1
176
     1
 90
        2
176
     1
 40
-0.6
176
     1
 41
30.0
176
     1
 62
     5
 63
     7
421
 16777215
176
     1
 74
     1
176
     1
 91
        4
176
     1
 64
     7
176
     1
 65
   257
176
     1
 75
     1
176
     1
175
     1
176
     1
 42
1.0
176
     1
 92
        0
176
     1
 66
   257
176
     1
 43
1.0
176
     1
 76
     1
176
     1
 77
     6
176
     1
 78
     2
176
     1
 67
     7
176
     1
 79
     5
176
     1
170
     0
176
     1
171
     0
176
     1
290
     0
176
     1
 93
       13
176
     1
 44
0.0
176
     1
173
     0
176
     1
  0
VISUALSTYLE
  5
2D
102
{ACAD_REACTORS
330
2A
102
}
330
2A
100
AcDbVisualStyle
  2
Gouraud
 70
     2
177
     2
291
     1
 71
     2
176
     1
 72
     2
176
     1
 73
     1
176
     1
 90
        2
176
     1
 40
-0.6
176
     1
 41
30.0
176
     1
 62
     5
 63
     7
421
 16777215
176
     1
 74
     0
176
     1
 91
        4
176
     1
 64
     7
176
     1
 65
   257
176
     1
 75
     1
176
     1
175
     1
176
     1
 42
1.0
176
     1
 92
        0
176
     1
 66
     7
176
     1
 43
1.0
176
     1
 76
     1
176
     1
 77
     6
176
     1
 78
     2
176
     1
 67
     7
176
     1
 79
     5
176
     1
170
     0
176
     1
171
     0
176
     1
290
     0
176
     1
 93
       13
176
     1
 44
0.0
176
     1
173
     0
176
     1
  0
VISUALSTYLE
  5
2E
102
{ACAD_REACTORS
330
2A
102
}
330
2A
100
AcDbVisualStyle
  2
GouraudWithEdges
 70
     3
177
     2
291
     1
 71
     2
176
     1
 72
     2
176
     1
 73
     1
176
     1
 90
        2
176
     1
 40
-0.6
176
     1
 41
30.0
176
     1
 62
     5
 63
     7
421
 16777215
176
     1
 74
     1
176
     1
 91
        4
176
     1
 64
     7
176
     1
 65
   257
176
     1
 75
     1
176
     1
175
     1
176
     1
 42
1.0
176
     1
 92
        0
176
     1
 66
   257
176
     1
 43
1.0
176
     1
 76
     1
176
     1
 77
     6
176
     1
 78
     2
176
     1
 67
     7
176
     1
 79
     5
176
     1
170
     0
176
     1
171
     0
176
     1
290
     0
176
     1
 93
       13
176
     1
 44
0.0
176
     1
173
     0
176
     1
  0
VISUALSTYLE
  5
38
102
{ACAD_REACTORS
330
2A
102
}
330
2A
100
AcDbVisualStyle
  2
Linepattern
 70
    14
177
     2
291
     1
 71
     2
176
     1
 72
     2
176
     1
 73
     0
176
     1
 90
        0
176
     1
 40
-0.6
176
     1
 41
-30.0
176
     1
 62
     5
 63
     7
421
 16777215
176
     1
 74
     1
176
     1
 91
        4
176
     1
 64
     7
176
     1
 65
   257
176
     1
 75
     7
176
     1
175
     7
176
     1
 42
1.0
176
     1
 92
        8
176
     1
 66
     7
176
     1
 43
1.0
176
     1
 76
     1
176
     1
 77
     6
176
     1
 78
     2
176
     1
 67
     7
176
     1
 79
     5
176
     1
170
     0
176
     1
171
     0
176
     1
290
     0
176
     1
 93
        1
176
     1
 44
0.0
176
     1
173
     0
176
     1
  0
VISUALSTYLE
  5
33
102
{ACAD_REACTORS
330
2A
102
}
330
2A
100
AcDbVisualStyle
  2
Realistic
 70
     8
177
     2
291
     0
 71
     2
176
     1
 72
     2
176
     1
 73
     0
176
     1
 90
        0
176
     1
 40
-0.6
176
     1
 41
-30.0
176
     1
 62
     5
 63
     7
421
 16777215
176
     1
 74
     1
176
     1
 91
        0
176
     1
 64
     7
176
     1
 65
   257
176
     1
 75
     1
176
     1
175
     1
176
     1
 42
1.0
176
     1
 92
        8
176
     1
 66
     8
424
  7895160
176
     1
 43
1.0
176
     1
 76
     1
176
     1
 77
     6
176
     1
 78
     2
176
     1
 67
     7
176
     1
 79
     5
176
     1
170
     0
176
     1
171
     0
176
     1
290
     0
176
     1
 93
       13
176
     1
 44
0.0
176
     1
173
     0
176
     1
  0
VISUALSTYLE
  5
37
102
{ACAD_REACTORS
330
2A
102
}
330
2A
100
AcDbVisualStyle
  2
Thicken
 70
    13
177
     2
291
     1
 71
     2
176
     1
 72
     2
176
     1
 73
     0
176
     1
 90
        0
176
     1
 40
-0.6
176
     1
 41
-30.0
176
     1
 62
     5
 63
     7
421
 16777215
176
     1
 74
     1
176
     1
 91
        4
176
     1
 64
     7
176
     1
 65
   257
176
     1
 75
     1
176
     1
175
     1
176
     1
 42
1.0
176
     1
 92
       12
176
     1
 66
     7
176
     1
 43
1.0
176
     1
 76
     1
176
     1
 77
     6
176
     1
 78
     2
176
     1
 67
     7
176
     1
 79
     5
176
     1
170
     0
176
     1
171
     0
176
     1
290
     0
176
     1
 93
        1
176
     1
 44
0.0
176
     1
173
     0
176
     1
  0
ENDSEC
  0
EOF
