  0
SECTION
  2
HEADER
  9
$ACADVER
  1
AC1015
  9
$ACADMAINTVER
 70
    20
  9
$DWGCODEPAGE
  3
ANSI_1252
  9
$INSBASE
 10
0.0
 20
0.0
 30
0.0
  9
$EXTMIN
 10
-17.78640860719653
 20
-13.63495025178119
 30
-0.0015258207003583
  9
$EXTMAX
 10
19.99405171805567
 20
19.06292276461214
 30
0.0000000349246037
  9
$LIMMIN
 10
0.0
 20
0.0
  9
$LIMMAX
 10
12.0
 20
9.0
  9
$ORTHOMODE
 70
     0
  9
$REGENMODE
 70
     1
  9
$FILLMODE
 70
     1
  9
$QTEXTMODE
 70
     0
  9
$MIRRTEXT
 70
     1
  9
$LTSCALE
 40
1.0
  9
$ATTMODE
 70
     1
  9
$TEXTSIZE
 40
0.2
  9
$TRACEWID
 40
0.05
  9
$TEXTSTYLE
  7
Standard
  9
$CLAYER
  8
0
  9
$CELTYPE
  6
ByLayer
  9
$CECOLOR
 62
   256
  9
$CELTSCALE
 40
1.0
  9
$DISPSILH
 70
     0
  9
$DIMSCALE
 40
1.0
  9
$DIMASZ
 40
0.18
  9
$DIMEXO
 40
0.0625
  9
$DIMDLI
 40
0.38
  9
$DIMRND
 40
0.0
  9
$DIMDLE
 40
0.0
  9
$DIMEXE
 40
0.18
  9
$DIMTP
 40
0.0
  9
$DIMTM
 40
0.0
  9
$DIMTXT
 40
0.18
  9
$DIMCEN
 40
0.09
  9
$DIMTSZ
 40
0.0
  9
$DIMTOL
 70
     0
  9
$DIMLIM
 70
     0
  9
$DIMTIH
 70
     1
  9
$DIMTOH
 70
     1
  9
$DIMSE1
 70
     0
  9
$DIMSE2
 70
     0
  9
$DIMTAD
 70
     0
  9
$DIMZIN
 70
     0
  9
$DIMBLK
  1

  9
$DIMASO
 70
     1
  9
$DIMSHO
 70
     1
  9
$DIMPOST
  1

  9
$DIMAPOST
  1

  9
$DIMALT
 70
     0
  9
$DIMALTD
 70
     2
  9
$DIMALTF
 40
25.4
  9
$DIMLFAC
 40
1.0
  9
$DIMTOFL
 70
     0
  9
$DIMTVP
 40
0.0
  9
$DIMTIX
 70
     0
  9
$DIMSOXD
 70
     0
  9
$DIMSAH
 70
     0
  9
$DIMBLK1
  1

  9
$DIMBLK2
  1

  9
$DIMSTYLE
  2
Standard
  9
$DIMCLRD
 70
     0
  9
$DIMCLRE
 70
     0
  9
$DIMCLRT
 70
     0
  9
$DIMTFAC
 40
1.0
  9
$DIMGAP
 40
0.09
  9
$DIMJUST
 70
     0
  9
$DIMSD1
 70
     0
  9
$DIMSD2
 70
     0
  9
$DIMTOLJ
 70
     1
  9
$DIMTZIN
 70
     0
  9
$DIMALTZ
 70
     0
  9
$DIMALTTZ
 70
     0
  9
$DIMUPT
 70
     0
  9
$DIMDEC
 70
     4
  9
$DIMTDEC
 70
     4
  9
$DIMALTU
 70
     2
  9
$DIMALTTD
 70
     2
  9
$DIMTXSTY
  7
Standard
  9
$DIMAUNIT
 70
     0
  9
$DIMADEC
 70
     0
  9
$DIMALTRND
 40
0.0
  9
$DIMAZIN
 70
     0
  9
$DIMDSEP
 70
    46
  9
$DIMATFIT
 70
     3
  9
$DIMFRAC
 70
     0
  9
$DIMLDRBLK
  1

  9
$DIMLUNIT
 70
     2
  9
$DIMLWD
 70
    -2
  9
$DIMLWE
 70
    -2
  9
$DIMTMOVE
 70
     0
  9
$LUNITS
 70
     2
  9
$LUPREC
 70
     4
  9
$SKETCHINC
 40
0.1
  9
$FILLETRAD
 40
0.0
  9
$AUNITS
 70
     0
  9
$AUPREC
 70
     0
  9
$MENU
  1
.
  9
$ELEVATION
 40
0.0
  9
$PELEVATION
 40
0.0
  9
$THICKNESS
 40
0.0
  9
$LIMCHECK
 70
     0
  9
$CHAMFERA
 40
0.5
  9
$CHAMFERB
 40
0.5
  9
$CHAMFERC
 40
1.0
  9
$CHAMFERD
 40
0.0
  9
$SKPOLY
 70
     0
  9
$TDCREATE
 40
2457474.222959525
  9
$TDUCREATE
 40
2457474.389626192
  9
$TDUPDATE
 40
2457523.423661053
  9
$TDUUPDATE
 40
2457523.590327720
  9
$TDINDWG
 40
0.0252954398
  9
$TDUSRTIMER
 40
0.0252954167
  9
$USRTIMER
 70
     1
  9
$ANGBASE
 50
0.0
  9
$ANGDIR
 70
     0
  9
$PDMODE
 70
     0
  9
$PDSIZE
 40
0.0
  9
$PLINEWID
 40
0.0
  9
$SPLFRAME
 70
     0
  9
$SPLINETYPE
 70
     6
  9
$SPLINESEGS
 70
     8
  9
$HANDSEED
  5
175
  9
$SURFTAB1
 70
     6
  9
$SURFTAB2
 70
     6
  9
$SURFTYPE
 70
     6
  9
$SURFU
 70
     6
  9
$SURFV
 70
     6
  9
$UCSBASE
  2

  9
$UCSNAME
  2

  9
$UCSORG
 10
0.0
 20
0.0
 30
0.0
  9
$UCSXDIR
 10
1.0
 20
0.0
 30
0.0
  9
$UCSYDIR
 10
0.0
 20
1.0
 30
0.0
  9
$UCSORTHOREF
  2

  9
$UCSORTHOVIEW
 70
     0
  9
$UCSORGTOP
 10
0.0
 20
0.0
 30
0.0
  9
$UCSORGBOTTOM
 10
0.0
 20
0.0
 30
0.0
  9
$UCSORGLEFT
 10
0.0
 20
0.0
 30
0.0
  9
$UCSORGRIGHT
 10
0.0
 20
0.0
 30
0.0
  9
$UCSORGFRONT
 10
0.0
 20
0.0
 30
0.0
  9
$UCSORGBACK
 10
0.0
 20
0.0
 30
0.0
  9
$PUCSBASE
  2

  9
$PUCSNAME
  2

  9
$PUCSORG
 10
0.0
 20
0.0
 30
0.0
  9
$PUCSXDIR
 10
1.0
 20
0.0
 30
0.0
  9
$PUCSYDIR
 10
0.0
 20
1.0
 30
0.0
  9
$PUCSORTHOREF
  2

  9
$PUCSORTHOVIEW
 70
     0
  9
$PUCSORGTOP
 10
0.0
 20
0.0
 30
0.0
  9
$PUCSORGBOTTOM
 10
0.0
 20
0.0
 30
0.0
  9
$PUCSORGLEFT
 10
0.0
 20
0.0
 30
0.0
  9
$PUCSORGRIGHT
 10
0.0
 20
0.0
 30
0.0
  9
$PUCSORGFRONT
 10
0.0
 20
0.0
 30
0.0
  9
$PUCSORGBACK
 10
0.0
 20
0.0
 30
0.0
  9
$USERI1
 70
     0
  9
$USERI2
 70
     0
  9
$USERI3
 70
     0
  9
$USERI4
 70
     0
  9
$USERI5
 70
     0
  9
$USERR1
 40
0.0
  9
$USERR2
 40
0.0
  9
$USERR3
 40
0.0
  9
$USERR4
 40
0.0
  9
$USERR5
 40
0.0
  9
$WORLDVIEW
 70
     1
  9
$SHADEDGE
 70
     3
  9
$SHADEDIF
 70
    70
  9
$TILEMODE
 70
     1
  9
$MAXACTVP
 70
    64
  9
$PINSBASE
 10
0.0
 20
0.0
 30
0.0
  9
$PLIMCHECK
 70
     0
  9
$PEXTMIN
 10
1.000000000000000E+20
 20
1.000000000000000E+20
 30
1.000000000000000E+20
  9
$PEXTMAX
 10
-1.000000000000000E+20
 20
-1.000000000000000E+20
 30
-1.000000000000000E+20
  9
$PLIMMIN
 10
0.0
 20
0.0
  9
$PLIMMAX
 10
12.0
 20
9.0
  9
$UNITMODE
 70
     0
  9
$VISRETAIN
 70
     1
  9
$PLINEGEN
 70
     0
  9
$PSLTSCALE
 70
     1
  9
$TREEDEPTH
 70
  3020
  9
$CMLSTYLE
  2
Standard
  9
$CMLJUST
 70
     0
  9
$CMLSCALE
 40
1.0
  9
$PROXYGRAPHICS
 70
     1
  9
$MEASUREMENT
 70
     0
  9
$CELWEIGHT
370
    -1
  9
$ENDCAPS
280
     0
  9
$JOINSTYLE
280
     0
  9
$LWDISPLAY
290
     0
  9
$INSUNITS
 70
     5
  9
$HYPERLINKBASE
  1

  9
$STYLESHEET
  1

  9
$XEDIT
290
     1
  9
$CEPSNTYPE
380
     0
  9
$PSTYLEMODE
290
     1
  9
$FINGERPRINTGUID
  2
{14254D74-39FB-4B38-AF1B-84C10E52556C}
  9
$VERSIONGUID
  2
{5146AEC6-25F0-418F-AFBA-E4A360B04C84}
  9
$EXTNAMES
290
     1
  9
$PSVPSCALE
 40
0.0
  9
$OLESTARTUP
290
     0
  0
ENDSEC
  0
SECTION
  2
CLASSES
  0
CLASS
  1
ACDBDICTIONARYWDFLT
  2
AcDbDictionaryWithDefault
  3
ObjectDBX Classes
 90
        0
280
     0
281
     0
  0
CLASS
  1
VISUALSTYLE
  2
AcDbVisualStyle
  3
ObjectDBX Classes
 90
     4095
280
     0
281
     0
  0
CLASS
  1
MATERIAL
  2
AcDbMaterial
  3
ObjectDBX Classes
 90
     1153
280
     0
281
     0
  0
CLASS
  1
IMAGEDEF
  2
AcDbRasterImageDef
  3
ISM
 90
        0
280
     0
281
     0
  0
CLASS
  1
IMAGE
  2
AcDbRasterImage
  3
ISM
 90
     2175
280
     0
281
     1
  0
CLASS
  1
IMAGEDEF_REACTOR
  2
AcDbRasterImageDefReactor
  3
ISM
 90
        1
280
     0
281
     0
  0
CLASS
  1
TABLESTYLE
  2
AcDbTableStyle
  3
ObjectDBX Classes
 90
     4095
280
     0
281
     0
  0
CLASS
  1
SCALE
  2
AcDbScale
  3
ObjectDBX Classes
 90
     1153
280
     0
281
     0
  0
CLASS
  1
MLEADERSTYLE
  2
AcDbMLeaderStyle
  3
ACDB_MLEADERSTYLE_CLASS
 90
     4095
280
     0
281
     0
  0
CLASS
  1
RASTERVARIABLES
  2
AcDbRasterVariables
  3
ISM
 90
        0
280
     0
281
     0
  0
CLASS
  1
EXACXREFPANELOBJECT
  2
ExAcXREFPanelObject
  3
EXAC_ESW
 90
     1025
280
     0
281
     0
  0
CLASS
  1
NPOCOLLECTION
  2
AcDbImpNonPersistentObjectsCollection
  3
ObjectDBX Classes
 90
     1153
280
     0
281
     0
  0
CLASS
  1
DICTIONARYVAR
  2
AcDbDictionaryVar
  3
ObjectDBX Classes
 90
        0
280
     0
281
     0
  0
CLASS
  1
CELLSTYLEMAP
  2
AcDbCellStyleMap
  3
ObjectDBX Classes
 90
     1152
280
     0
281
     0
  0
CLASS
  1
ACDBPLACEHOLDER
  2
AcDbPlaceHolder
  3
ObjectDBX Classes
 90
        0
280
     0
281
     0
  0
CLASS
  1
LAYOUT
  2
AcDbLayout
  3
ObjectDBX Classes
 90
        0
280
     0
281
     0
  0
ENDSEC
  0
SECTION
  2
TABLES
  0
TABLE
  2
VPORT
  5
8
330
0
100
AcDbSymbolTable
 70
     1
  0
VPORT
  5
29
330
8
100
AcDbSymbolTableRecord
100
AcDbViewportTableRecord
  2
*Active
 70
     0
 10
0.0
 20
0.0
 11
1.0
 21
1.0
 12
1.103821555429568
 22
2.713986256415473
 13
0.0
 23
0.0
 14
0.5
 24
0.5
 15
0.5
 25
0.5
 16
0.0
 26
0.0
 36
1.0
 17
0.0
 27
0.0
 37
0.0
 40
32.9916650232988
 41
2.201197604790419
 42
50.0
 43
0.0
 44
0.0
 50
0.0
 51
0.0
 71
     0
 72
   100
 73
     1
 74
     3
 75
     0
 76
     0
 77
     0
 78
     0
281
     0
 65
     1
110
0.0
120
0.0
130
0.0
111
1.0
121
0.0
131
0.0
112
0.0
122
1.0
132
0.0
 79
     0
146
0.0
1001
ACAD_NAV_VCDISPLAY
1070
     3
  0
ENDTAB
  0
TABLE
  2
LTYPE
  5
5
330
0
100
AcDbSymbolTable
 70
     1
  0
LTYPE
  5
14
330
5
100
AcDbSymbolTableRecord
100
AcDbLinetypeTableRecord
  2
ByBlock
 70
     0
  3

 72
    65
 73
     0
 40
0.0
  0
LTYPE
  5
15
330
5
100
AcDbSymbolTableRecord
100
AcDbLinetypeTableRecord
  2
ByLayer
 70
     0
  3

 72
    65
 73
     0
 40
0.0
  0
LTYPE
  5
16
330
5
100
AcDbSymbolTableRecord
100
AcDbLinetypeTableRecord
  2
Continuous
 70
     0
  3
Solid line
 72
    65
 73
     0
 40
0.0
  0
ENDTAB
  0
TABLE
  2
LAYER
  5
2
330
0
100
AcDbSymbolTable
 70
     2
  0
LAYER
  5
10
330
2
100
AcDbSymbolTableRecord
100
AcDbLayerTableRecord
  2
0
 70
     0
 62
     7
  6
Continuous
370
    -3
390
F
  0
LAYER
  5
40
330
2
100
AcDbSymbolTableRecord
100
AcDbLayerTableRecord
  2
layer 1
 70
     0
 62
     7
  6
Continuous
370
    -3
390
F
  0
ENDTAB
  0
TABLE
  2
STYLE
  5
3
330
0
100
AcDbSymbolTable
 70
     1
  0
STYLE
  5
11
330
3
100
AcDbSymbolTableRecord
100
AcDbTextStyleTableRecord
  2
Standard
 70
     0
 40
0.0
 41
1.0
 50
0.0
 71
     0
 42
0.2
  3
txt
  4

  0
ENDTAB
  0
TABLE
  2
VIEW
  5
6
330
0
100
AcDbSymbolTable
 70
     0
  0
ENDTAB
  0
TABLE
  2
UCS
  5
7
330
0
100
AcDbSymbolTable
 70
     0
  0
ENDTAB
  0
TABLE
  2
APPID
  5
9
330
0
100
AcDbSymbolTable
 70
     4
  0
APPID
  5
12
330
9
100
AcDbSymbolTableRecord
100
AcDbRegAppTableRecord
  2
ACAD
 70
     0
  0
APPID
  5
3F
330
9
100
AcDbSymbolTableRecord
100
AcDbRegAppTableRecord
  2
ODA
 70
     0
  0
APPID
  5
AD
330
9
100
AcDbSymbolTableRecord
100
AcDbRegAppTableRecord
  2
ACAD_NAV_VCDISPLAY
 70
     0
  0
APPID
  5
174
330
9
100
AcDbSymbolTableRecord
100
AcDbRegAppTableRecord
  2
ACAD_MLEADERVER
 70
     0
  0
ENDTAB
  0
TABLE
  2
DIMSTYLE
  5
A
330
0
100
AcDbSymbolTable
 70
     1
100
AcDbDimStyleTable
 71
     0
  0
DIMSTYLE
105
27
330
A
100
AcDbSymbolTableRecord
100
AcDbDimStyleTableRecord
  2
Standard
 70
     0
340
11
  0
ENDTAB
  0
TABLE
  2
BLOCK_RECORD
  5
1
330
0
100
AcDbSymbolTable
 70
     3
  0
BLOCK_RECORD
  5
1F
330
1
100
AcDbSymbolTableRecord
100
AcDbBlockTableRecord
  2
*Model_Space
340
22
  0
BLOCK_RECORD
  5
1B
330
1
100
AcDbSymbolTableRecord
100
AcDbBlockTableRecord
  2
*Paper_Space
340
1E
  0
BLOCK_RECORD
  5
23
330
1
100
AcDbSymbolTableRecord
100
AcDbBlockTableRecord
  2
*Paper_Space0
340
26
  0
ENDTAB
  0
ENDSEC
  0
SECTION
  2
BLOCKS
  0
BLOCK
  5
20
330
1F
100
AcDbEntity
  8
0
100
AcDbBlockBegin
  2
*Model_Space
 70
     0
 10
0.0
 20
0.0
 30
0.0
  3
*Model_Space
  1

  0
ENDBLK
  5
21
330
1F
100
AcDbEntity
  8
0
100
AcDbBlockEnd
  0
BLOCK
  5
1C
330
1B
100
AcDbEntity
 67
     1
  8
0
100
AcDbBlockBegin
  2
*Paper_Space
 70
     0
 10
0.0
 20
0.0
 30
0.0
  3
*Paper_Space
  1

  0
ENDBLK
  5
1D
330
1B
100
AcDbEntity
 67
     1
  8
0
100
AcDbBlockEnd
  0
BLOCK
  5
24
330
23
100
AcDbEntity
 67
     1
  8
0
100
AcDbBlockBegin
  2
*Paper_Space0
 70
     0
 10
0.0
 20
0.0
 30
0.0
  3
*Paper_Space0
  1

  0
ENDBLK
  5
25
330
23
100
AcDbEntity
 67
     1
  8
0
100
AcDbBlockEnd
  0
ENDSEC
  0
SECTION
  2
ENTITIES
  0
SPLINE
  5
41
330
1F
100
AcDbEntity
  8
layer 1
 62
   250
370
    50
100
AcDbSpline
210
0.0
220
0.0
230
1.0
 70
     9
 71
     3
 72
    20
 73
    16
 74
     0
 42
0.0000000001
 43
0.0000000001
 40
0.0
 40
0.0
 40
0.0
 40
0.0
 40
0.2
 40
0.2
 40
0.2
 40
0.2
 40
0.4
 40
0.4
 40
0.4
 40
0.4
 40
0.6
 40
0.6
 40
0.6
 40
0.6
 40
1.0
 40
1.0
 40
1.0
 40
1.0
 10
0.22153
 20
14.35829
 30
0.0
 10
10.15926
 20
14.35829
 30
0.0
 10
18.21539
 20
8.09176
 30
0.0
 10
18.21539
 20
0.3616
 30
0.0
 10
18.21539
 20
0.3616
 30
0.0
 10
18.21539
 20
-7.36857
 30
0.0
 10
10.15926
 20
-13.6351
 30
0.0
 10
0.22153
 20
-13.6351
 30
0.0
 10
0.22153
 20
-13.6351
 30
0.0
 10
-9.7162
 20
-13.6351
 30
0.0
 10
-17.77233
 20
-7.36857
 30
0.0
 10
-17.77233
 20
0.3616
 30
0.0
 10
-17.77233
 20
0.3616
 30
0.0
 10
-17.77233
 20
8.09176
 30
0.0
 10
-9.7162
 20
14.35829
 30
0.0
 10
0.22153
 20
14.35829
 30
0.0
  0
SPLINE
  5
46
330
1F
100
AcDbEntity
  8
layer 1
 62
   250
370
    50
100
AcDbSpline
210
0.0
220
0.0
230
1.0
 70
    24
 71
     3
 72
     8
 73
     4
 74
     0
 42
0.0000000001
 43
0.0000000001
 40
0.0
 40
0.0
 40
0.0
 40
0.0
 40
1.0
 40
1.0
 40
1.0
 40
1.0
 10
0.22397
 20
3.294959999999999
 30
0.0
 10
0.22397
 20
3.294959999999999
 30
0.0
 10
0.22397
 20
-13.35125
 30
0.0
 10
0.22397
 20
-13.35125
 30
0.0
  0
SPLINE
  5
47
330
1F
100
AcDbEntity
  8
layer 1
 62
   250
370
    50
100
AcDbSpline
210
0.0
220
0.0
230
1.0
 70
    24
 71
     3
 72
     8
 73
     4
 74
     0
 42
0.0000000001
 43
0.0000000001
 40
0.0
 40
0.0
 40
0.0
 40
0.0
 40
1.0
 40
1.0
 40
1.0
 40
1.0
 10
0.22401
 20
14.36488
 30
0.0
 10
0.22401
 20
14.36488
 30
0.0
 10
0.22401
 20
5.735759999999999
 30
0.0
 10
0.22401
 20
5.735759999999999
 30
0.0
  0
SPLINE
  5
48
330
1F
100
AcDbEntity
  8
layer 1
 62
   250
370
    50
100
AcDbSpline
210
0.0
220
0.0
230
1.0
 70
    11
 71
     3
 72
    16
 73
    12
 74
     0
 42
0.0000000001
 43
0.0000000001
 40
0.0
 40
0.0
 40
0.0
 40
0.0
 40
0.25
 40
0.25
 40
0.25
 40
0.25
 40
0.5
 40
0.5
 40
0.5
 40
0.5
 40
1.0
 40
1.0
 40
1.0
 40
1.0
 10
0.06243
 20
-13.21187
 30
0.0
 10
0.06243
 20
-13.21187
 30
0.0
 10
0.3936899999999999
 20
-13.21187
 30
0.0
 10
0.3936899999999999
 20
-13.21187
 30
0.0
 10
0.3936899999999999
 20
-13.21187
 30
0.0
 10
0.3936899999999999
 20
-13.21187
 30
0.0
 10
0.22069
 20
-13.62853
 30
0.0
 10
0.22069
 20
-13.62853
 30
0.0
 10
0.22069
 20
-13.62853
 30
0.0
 10
0.22069
 20
-13.62853
 30
0.0
 10
0.06243
 20
-13.21187
 30
0.0
 10
0.06243
 20
-13.21187
 30
0.0
  0
SPLINE
  5
49
330
1F
100
AcDbEntity
  8
layer 1
 62
   250
370
    50
100
AcDbSpline
210
0.0
220
0.0
230
1.0
 70
    24
 71
     3
 72
     8
 73
     4
 74
     0
 42
0.0000000001
 43
0.0000000001
 40
0.0
 40
0.0
 40
0.0
 40
0.0
 40
1.0
 40
1.0
 40
1.0
 40
1.0
 10
-3.73049
 20
0.36077
 30
0.0
 10
-3.73049
 20
0.36077
 30
0.0
 10
17.86898
 20
0.36077
 30
0.0
 10
17.86898
 20
0.36077
 30
0.0
  0
SPLINE
  5
4A
330
1F
100
AcDbEntity
  8
layer 1
 62
   250
370
    50
100
AcDbSpline
210
0.0
220
0.0
230
1.0
 70
    24
 71
     3
 72
     8
 73
     4
 74
     0
 42
0.0000000001
 43
0.0000000001
 40
0.0
 40
0.0
 40
0.0
 40
0.0
 40
1.0
 40
1.0
 40
1.0
 40
1.0
 10
-17.5361
 20
0.36077
 30
0.0
 10
-17.5361
 20
0.36077
 30
0.0
 10
-7.49743
 20
0.36077
 30
0.0
 10
-7.49743
 20
0.36077
 30
0.0
  0
SPLINE
  5
4B
330
1F
100
AcDbEntity
  8
layer 1
 62
   250
370
    50
100
AcDbSpline
210
0.0
220
0.0
230
1.0
 70
    11
 71
     3
 72
    16
 73
    12
 74
     0
 42
0.0000000001
 43
0.0000000001
 40
0.0
 40
0.0
 40
0.0
 40
0.0
 40
0.25
 40
0.25
 40
0.25
 40
0.25
 40
0.5
 40
0.5
 40
0.5
 40
0.5
 40
1.0
 40
1.0
 40
1.0
 40
1.0
 10
17.77073
 20
0.2002
 30
0.0
 10
17.77073
 20
0.2002
 30
0.0
 10
17.77073
 20
0.5185
 30
0.0
 10
17.77073
 20
0.5185
 30
0.0
 10
17.77073
 20
0.5185
 30
0.0
 10
17.77073
 20
0.5185
 30
0.0
 10
18.20313999999999
 20
0.3522699999999999
 30
0.0
 10
18.20313999999999
 20
0.3522699999999999
 30
0.0
 10
18.20313999999999
 20
0.3522699999999999
 30
0.0
 10
18.20313999999999
 20
0.3522699999999999
 30
0.0
 10
17.77073
 20
0.2002
 30
0.0
 10
17.77073
 20
0.2002
 30
0.0
  0
SPLINE
  5
4C
330
1F
100
AcDbEntity
  8
layer 1
 62
   250
370
    50
100
AcDbSpline
210
0.0
220
0.0
230
1.0
 70
    11
 71
     3
 72
    16
 73
    12
 74
     0
 42
0.0000000001
 43
0.0000000001
 40
0.0
 40
0.0
 40
0.0
 40
0.0
 40
0.25
 40
0.25
 40
0.25
 40
0.25
 40
0.5
 40
0.5
 40
0.5
 40
0.5
 40
1.0
 40
1.0
 40
1.0
 40
1.0
 10
-17.35218
 20
0.2002
 30
0.0
 10
-17.35218
 20
0.2002
 30
0.0
 10
-17.35218
 20
0.5185
 30
0.0
 10
-17.35218
 20
0.5185
 30
0.0
 10
-17.35218
 20
0.5185
 30
0.0
 10
-17.35218
 20
0.5185
 30
0.0
 10
-17.78458999999999
 20
0.3522699999999999
 30
0.0
 10
-17.78458999999999
 20
0.3522699999999999
 30
0.0
 10
-17.78458999999999
 20
0.3522699999999999
 30
0.0
 10
-17.78458999999999
 20
0.3522699999999999
 30
0.0
 10
-17.35218
 20
0.2002
 30
0.0
 10
-17.35218
 20
0.2002
 30
0.0
  0
SPLINE
  5
4F
330
1F
100
AcDbEntity
  8
layer 1
 62
   250
100
AcDbSpline
210
0.0
220
0.0
230
1.0
 70
     9
 71
     3
 72
   152
 73
   148
 74
     0
 42
0.0000000001
 43
0.0000000001
 40
0.0
 40
0.0
 40
0.0
 40
0.0
 40
0.0263157894736842
 40
0.0263157894736842
 40
0.0263157894736842
 40
0.0263157894736842
 40
0.0526315789473684
 40
0.0526315789473684
 40
0.0526315789473684
 40
0.0526315789473684
 40
0.0789473684210526
 40
0.0789473684210526
 40
0.0789473684210526
 40
0.0789473684210526
 40
0.1052631578947368
 40
0.1052631578947368
 40
0.1052631578947368
 40
0.1052631578947368
 40
0.131578947368421
 40
0.131578947368421
 40
0.131578947368421
 40
0.131578947368421
 40
0.1578947368421053
 40
0.1578947368421053
 40
0.1578947368421053
 40
0.1578947368421053
 40
0.1842105263157895
 40
0.1842105263157895
 40
0.1842105263157895
 40
0.1842105263157895
 40
0.2105263157894737
 40
0.2105263157894737
 40
0.2105263157894737
 40
0.2105263157894737
 40
0.2368421052631579
 40
0.2368421052631579
 40
0.2368421052631579
 40
0.2368421052631579
 40
0.2631578947368421
 40
0.2631578947368421
 40
0.2631578947368421
 40
0.2631578947368421
 40
0.2894736842105263
 40
0.2894736842105263
 40
0.2894736842105263
 40
0.2894736842105263
 40
0.3157894736842105
 40
0.3157894736842105
 40
0.3157894736842105
 40
0.3157894736842105
 40
0.3421052631578947
 40
0.3421052631578947
 40
0.3421052631578947
 40
0.3421052631578947
 40
0.3684210526315789
 40
0.3684210526315789
 40
0.3684210526315789
 40
0.3684210526315789
 40
0.3947368421052632
 40
0.3947368421052632
 40
0.3947368421052632
 40
0.3947368421052632
 40
0.4210526315789473
 40
0.4210526315789473
 40
0.4210526315789473
 40
0.4210526315789473
 40
0.4473684210526316
 40
0.4473684210526316
 40
0.4473684210526316
 40
0.4473684210526316
 40
0.4736842105263159
 40
0.4736842105263159
 40
0.4736842105263159
 40
0.4736842105263159
 40
0.5
 40
0.5
 40
0.5
 40
0.5
 40
0.5263157894736842
 40
0.5263157894736842
 40
0.5263157894736842
 40
0.5263157894736842
 40
0.5526315789473685
 40
0.5526315789473685
 40
0.5526315789473685
 40
0.5526315789473685
 40
0.5789473684210527
 40
0.5789473684210527
 40
0.5789473684210527
 40
0.5789473684210527
 40
0.6052631578947369
 40
0.6052631578947369
 40
0.6052631578947369
 40
0.6052631578947369
 40
0.6315789473684211
 40
0.6315789473684211
 40
0.6315789473684211
 40
0.6315789473684211
 40
0.6578947368421053
 40
0.6578947368421053
 40
0.6578947368421053
 40
0.6578947368421053
 40
0.6842105263157895
 40
0.6842105263157895
 40
0.6842105263157895
 40
0.6842105263157895
 40
0.7105263157894737
 40
0.7105263157894737
 40
0.7105263157894737
 40
0.7105263157894737
 40
0.7368421052631579
 40
0.7368421052631579
 40
0.7368421052631579
 40
0.7368421052631579
 40
0.7631578947368422
 40
0.7631578947368422
 40
0.7631578947368422
 40
0.7631578947368422
 40
0.7894736842105264
 40
0.7894736842105264
 40
0.7894736842105264
 40
0.7894736842105264
 40
0.8157894736842104
 40
0.8157894736842104
 40
0.8157894736842104
 40
0.8157894736842104
 40
0.8421052631578946
 40
0.8421052631578946
 40
0.8421052631578946
 40
0.8421052631578946
 40
0.8684210526315791
 40
0.8684210526315791
 40
0.8684210526315791
 40
0.8684210526315791
 40
0.8947368421052631
 40
0.8947368421052631
 40
0.8947368421052631
 40
0.8947368421052631
 40
0.9210526315789472
 40
0.9210526315789472
 40
0.9210526315789472
 40
0.9210526315789472
 40
0.9473684210526316
 40
0.9473684210526316
 40
0.9473684210526316
 40
0.9473684210526316
 40
1.0
 40
1.0
 40
1.0
 40
1.0
 10
15.81284
 20
-6.99695
 30
0.0
 10
15.8276
 20
-7.02648
 30
0.0
 10
15.8304
 20
-7.05715
 30
0.0
 10
15.82123
 20
-7.088949999999999
 30
0.0
 10
15.82123
 20
-7.088949999999999
 30
0.0
 10
15.81206
 20
-7.12076
 30
0.0
 10
15.79435
 20
-7.152019999999999
 30
0.0
 10
15.76811
 20
-7.18275
 30
0.0
 10
15.76811
 20
-7.18275
 30
0.0
 10
15.71563
 20
-7.2442
 30
0.0
 10
15.62076
 20
-7.31238
 30
0.0
 10
15.4835
 20
-7.38728
 30
0.0
 10
15.4835
 20
-7.38728
 30
0.0
 10
15.34624
 20
-7.46218
 30
0.0
 10
15.21334
 20
-7.533539999999999
 30
0.0
 10
15.0848
 20
-7.601339999999999
 30
0.0
 10
15.0848
 20
-7.601339999999999
 30
0.0
 10
15.07384
 20
-7.679719999999999
 30
0.0
 10
15.04549
 20
-7.75232
 30
0.0
 10
14.99975
 20
-7.819139999999999
 30
0.0
 10
14.99975
 20
-7.819139999999999
 30
0.0
 10
14.95401
 20
-7.885969999999999
 30
0.0
 10
14.93906
 20
-7.926489999999999
 30
0.0
 10
14.9549
 20
-7.94071
 30
0.0
 10
14.9549
 20
-7.94071
 30
0.0
 10
14.96924
 20
-7.95358
 30
0.0
 10
14.98748
 20
-7.964199999999999
 30
0.0
 10
15.00966
 20
-7.972569999999999
 30
0.0
 10
15.00966
 20
-7.972569999999999
 30
0.0
 10
15.03183
 20
-7.980939999999999
 30
0.0
 10
15.04593
 20
-7.98783
 30
0.0
 10
15.05197
 20
-7.993249999999999
 30
0.0
 10
15.05197
 20
-7.993249999999999
 30
0.0
 10
15.08742
 20
-8.02508
 30
0.0
 10
15.10386
 20
-8.06902
 30
0.0
 10
15.10114
 20
-8.12527
 30
0.0
 10
15.10114
 20
-8.12527
 30
0.0
 10
15.09841
 20
-8.181519999999999
 30
0.0
 10
15.07466
 20
-8.23586
 30
0.0
 10
15.02973
 20
-8.288479999999999
 30
0.0
 10
15.02973
 20
-8.288479999999999
 30
0.0
 10
15.00447
 20
-8.318049999999999
 30
0.0
 10
14.96772
 20
-8.332219999999999
 30
0.0
 10
14.91964
 20
-8.33078
 30
0.0
 10
14.91964
 20
-8.33078
 30
0.0
 10
14.87156
 20
-8.32934
 30
0.0
 10
14.83047
 20
-8.31348
 30
0.0
 10
14.79652
 20
-8.28301
 30
0.0
 10
14.79652
 20
-8.28301
 30
0.0
 10
14.75654
 20
-8.247110000000001
 30
0.0
 10
14.73865
 20
-8.197460000000001
 30
0.0
 10
14.74283
 20
-8.134039999999998
 30
0.0
 10
14.74283
 20
-8.134039999999998
 30
0.0
 10
14.74702
 20
-8.070619999999999
 30
0.0
 10
14.77568
 20
-8.007799999999999
 30
0.0
 10
14.82881
 20
-7.94558
 30
0.0
 10
14.82881
 20
-7.94558
 30
0.0
 10
14.83472
 20
-7.93866
 30
0.0
 10
14.84062
 20
-7.93175
 30
0.0
 10
14.84652
 20
-7.924839999999999
 30
0.0
 10
14.84652
 20
-7.924839999999999
 30
0.0
 10
14.8559
 20
-7.91697
 30
0.0
 10
14.86458
 20
-7.90915
 30
0.0
 10
14.87255
 20
-7.90138
 30
0.0
 10
14.87255
 20
-7.90138
 30
0.0
 10
14.88052
 20
-7.89361
 30
0.0
 10
14.88713
 20
-7.88665
 30
0.0
 10
14.89238
 20
-7.880510000000001
 30
0.0
 10
14.89238
 20
-7.880510000000001
 30
0.0
 10
14.92059
 20
-7.847469999999999
 30
0.0
 10
14.93931
 20
-7.810339999999999
 30
0.0
 10
14.94854
 20
-7.769089999999999
 30
0.0
 10
14.94854
 20
-7.769089999999999
 30
0.0
 10
14.95777
 20
-7.72785
 30
0.0
 10
14.95382
 20
-7.68528
 30
0.0
 10
14.93667
 20
-7.64138
 30
0.0
 10
14.93667
 20
-7.64138
 30
0.0
 10
14.86907
 20
-7.61598
 30
0.0
 10
14.80495
 20
-7.636439999999999
 30
0.0
 10
14.7443
 20
-7.70278
 30
0.0
 10
14.7443
 20
-7.70278
 30
0.0
 10
14.68366
 20
-7.76911
 30
0.0
 10
14.63224
 20
-7.82541
 30
0.0
 10
14.59006
 20
-7.871689999999999
 30
0.0
 10
14.59006
 20
-7.871689999999999
 30
0.0
 10
14.55726
 20
-7.910089999999999
 30
0.0
 10
14.51609
 20
-7.929439999999999
 30
0.0
 10
14.46653
 20
-7.92973
 30
0.0
 10
14.46653
 20
-7.92973
 30
0.0
 10
14.41697
 20
-7.93003
 30
0.0
 10
14.37371
 20
-7.91358
 30
0.0
 10
14.33675
 20
-7.880389999999999
 30
0.0
 10
14.33675
 20
-7.880389999999999
 30
0.0
 10
14.29979
 20
-7.84721
 30
0.0
 10
14.28143
 20
-7.80121
 30
0.0
 10
14.28168
 20
-7.742399999999999
 30
0.0
 10
14.28168
 20
-7.742399999999999
 30
0.0
 10
14.28193
 20
-7.683589999999999
 30
0.0
 10
14.29616
 20
-7.637669999999999
 30
0.0
 10
14.32437
 20
-7.604639999999999
 30
0.0
 10
14.32437
 20
-7.604639999999999
 30
0.0
 10
14.35782
 20
-7.56546
 30
0.0
 10
14.40165
 20
-7.5434
 30
0.0
 10
14.45585
 20
-7.53846
 30
0.0
 10
14.45585
 20
-7.53846
 30
0.0
 10
14.51005
 20
-7.53351
 30
0.0
 10
14.55487
 20
-7.546949999999999
 30
0.0
 10
14.59032
 20
-7.57878
 30
0.0
 10
14.59032
 20
-7.57878
 30
0.0
 10
14.60767
 20
-7.59436
 30
0.0
 10
14.6226
 20
-7.615899999999999
 30
0.0
 10
14.63509
 20
-7.643399999999999
 30
0.0
 10
14.63509
 20
-7.643399999999999
 30
0.0
 10
14.66451
 20
-7.66981
 30
0.0
 10
14.70856
 20
-7.65373
 30
0.0
 10
14.76726
 20
-7.595139999999999
 30
0.0
 10
14.76726
 20
-7.595139999999999
 30
0.0
 10
14.82595
 20
-7.53655
 30
0.0
 10
14.88579
 20
-7.49731
 30
0.0
 10
14.94676
 20
-7.47741
 30
0.0
 10
14.94676
 20
-7.47741
 30
0.0
 10
14.975
 20
-7.42405
 30
0.0
 10
15.01099
 20
-7.333539999999999
 30
0.0
 10
15.05471
 20
-7.205869999999999
 30
0.0
 10
15.05471
 20
-7.205869999999999
 30
0.0
 10
15.09844
 20
-7.078199999999999
 30
0.0
 10
15.1339
 20
-6.98011
 30
0.0
 10
15.16111
 20
-6.911569999999999
 30
0.0
 10
15.16111
 20
-6.911569999999999
 30
0.0
 10
15.18832
 20
-6.843039999999999
 30
0.0
 10
15.22128
 20
-6.78611
 30
0.0
 10
15.25998
 20
-6.740789999999999
 30
0.0
 10
15.25998
 20
-6.740789999999999
 30
0.0
 10
15.28557
 20
-6.71083
 30
0.0
 10
15.31275
 20
-6.68876
 30
0.0
 10
15.34153
 20
-6.67456
 30
0.0
 10
15.34153
 20
-6.67456
 30
0.0
 10
15.37031
 20
-6.66036
 30
0.0
 10
15.4022
 20
-6.6554
 30
0.0
 10
15.43719
 20
-6.65968
 30
0.0
 10
15.43719
 20
-6.65968
 30
0.0
 10
15.43719
 20
-6.65968
 30
0.0
 10
15.18955
 20
-7.34526
 30
0.0
 10
15.18955
 20
-7.34526
 30
0.0
 10
15.18955
 20
-7.34526
 30
0.0
 10
15.18955
 20
-7.34526
 30
0.0
 10
15.81284
 20
-6.99695
 30
0.0
 10
15.81284
 20
-6.99695
 30
0.0
  0
SPLINE
  5
50
330
1F
100
AcDbEntity
  8
layer 1
 62
   250
100
AcDbSpline
210
0.0
220
0.0
230
1.0
 70
     9
 71
     3
 72
    36
 73
    32
 74
     0
 42
0.0000000001
 43
0.0000000001
 40
0.0
 40
0.0
 40
0.0
 40
0.0
 40
0.1111111111111111
 40
0.1111111111111111
 40
0.1111111111111111
 40
0.1111111111111111
 40
0.2222222222222222
 40
0.2222222222222222
 40
0.2222222222222222
 40
0.2222222222222222
 40
0.3333333333333333
 40
0.3333333333333333
 40
0.3333333333333333
 40
0.3333333333333333
 40
0.4444444444444445
 40
0.4444444444444445
 40
0.4444444444444445
 40
0.4444444444444445
 40
0.5555555555555556
 40
0.5555555555555556
 40
0.5555555555555556
 40
0.5555555555555556
 40
0.6666666666666666
 40
0.6666666666666666
 40
0.6666666666666666
 40
0.6666666666666666
 40
0.7777777777777778
 40
0.7777777777777778
 40
0.7777777777777778
 40
0.7777777777777778
 40
1.0
 40
1.0
 40
1.0
 40
1.0
 10
14.54112
 20
-7.636389999999999
 30
0.0
 10
14.51623
 20
-7.614049999999999
 30
0.0
 10
14.48928
 20
-7.60308
 30
0.0
 10
14.46027
 20
-7.6035
 30
0.0
 10
14.46027
 20
-7.6035
 30
0.0
 10
14.43126
 20
-7.603919999999999
 30
0.0
 10
14.40167
 20
-7.621789999999999
 30
0.0
 10
14.37149
 20
-7.65713
 30
0.0
 10
14.37149
 20
-7.65713
 30
0.0
 10
14.35247
 20
-7.6794
 30
0.0
 10
14.34489
 20
-7.708569999999999
 30
0.0
 10
14.34876
 20
-7.74461
 30
0.0
 10
14.34876
 20
-7.74461
 30
0.0
 10
14.35263
 20
-7.780649999999999
 30
0.0
 10
14.36625
 20
-7.809169999999999
 30
0.0
 10
14.38964
 20
-7.830169999999999
 30
0.0
 10
14.38964
 20
-7.830169999999999
 30
0.0
 10
14.41
 20
-7.848449999999999
 30
0.0
 10
14.43495
 20
-7.858639999999999
 30
0.0
 10
14.46449
 20
-7.86073
 30
0.0
 10
14.46449
 20
-7.86073
 30
0.0
 10
14.49402
 20
-7.86282
 30
0.0
 10
14.52027
 20
-7.850419999999999
 30
0.0
 10
14.54323
 20
-7.823529999999999
 30
0.0
 10
14.54323
 20
-7.823529999999999
 30
0.0
 10
14.5511
 20
-7.81431
 30
0.0
 10
14.56422
 20
-7.79115
 30
0.0
 10
14.58259
 20
-7.75403
 30
0.0
 10
14.58259
 20
-7.75403
 30
0.0
 10
14.60096
 20
-7.71692
 30
0.0
 10
14.58714
 20
-7.67771
 30
0.0
 10
14.54112
 20
-7.636389999999999
 30
0.0
  0
SPLINE
  5
51
330
1F
100
AcDbEntity
  8
layer 1
 62
   250
100
AcDbSpline
210
0.0
220
0.0
230
1.0
 70
     9
 71
     3
 72
    36
 73
    32
 74
     0
 42
0.0000000001
 43
0.0000000001
 40
0.0
 40
0.0
 40
0.0
 40
0.0
 40
0.1111111111111111
 40
0.1111111111111111
 40
0.1111111111111111
 40
0.1111111111111111
 40
0.2222222222222222
 40
0.2222222222222222
 40
0.2222222222222222
 40
0.2222222222222222
 40
0.3333333333333333
 40
0.3333333333333333
 40
0.3333333333333333
 40
0.3333333333333333
 40
0.4444444444444445
 40
0.4444444444444445
 40
0.4444444444444445
 40
0.4444444444444445
 40
0.5555555555555556
 40
0.5555555555555556
 40
0.5555555555555556
 40
0.5555555555555556
 40
0.6666666666666666
 40
0.6666666666666666
 40
0.6666666666666666
 40
0.6666666666666666
 40
0.7777777777777778
 40
0.7777777777777778
 40
0.7777777777777778
 40
0.7777777777777778
 40
1.0
 40
1.0
 40
1.0
 40
1.0
 10
14.98466
 20
-8.03461
 30
0.0
 10
14.96092
 20
-8.01872
 30
0.0
 10
14.9363
 20
-8.010869999999998
 30
0.0
 10
14.91082
 20
-8.01106
 30
0.0
 10
14.91082
 20
-8.01106
 30
0.0
 10
14.88534
 20
-8.01125
 30
0.0
 10
14.86374
 20
-8.02172
 30
0.0
 10
14.84603
 20
-8.04246
 30
0.0
 10
14.84603
 20
-8.04246
 30
0.0
 10
14.81585
 20
-8.07779
 30
0.0
 10
14.80183
 20
-8.113719999999998
 30
0.0
 10
14.80396
 20
-8.15024
 30
0.0
 10
14.80396
 20
-8.15024
 30
0.0
 10
14.80609
 20
-8.186760000000001
 30
0.0
 10
14.81847
 20
-8.21518
 30
0.0
 10
14.8411
 20
-8.235489999999998
 30
0.0
 10
14.8411
 20
-8.235489999999998
 30
0.0
 10
14.86222
 20
-8.254459999999999
 30
0.0
 10
14.88834
 20
-8.263659999999999
 30
0.0
 10
14.91946
 20
-8.263099999999999
 30
0.0
 10
14.91946
 20
-8.263099999999999
 30
0.0
 10
14.95059
 20
-8.262549999999999
 30
0.0
 10
14.97698
 20
-8.249599999999999
 30
0.0
 10
14.99862
 20
-8.224249999999999
 30
0.0
 10
14.99862
 20
-8.224249999999999
 30
0.0
 10
15.02158
 20
-8.197359999999999
 30
0.0
 10
15.03225
 20
-8.164189999999999
 30
0.0
 10
15.03063
 20
-8.124739999999999
 30
0.0
 10
15.03063
 20
-8.124739999999999
 30
0.0
 10
15.02901
 20
-8.08528
 30
0.0
 10
15.01369
 20
-8.055239999999999
 30
0.0
 10
14.98466
 20
-8.03461
 30
0.0
  0
SPLINE
  5
57
330
1F
100
AcDbEntity
  8
layer 1
 62
   250
100
AcDbSpline
210
0.0
220
0.0
230
1.0
 70
     9
 71
     3
 72
   124
 73
   120
 74
     0
 42
0.0000000001
 43
0.0000000001
 40
0.0
 40
0.0
 40
0.0
 40
0.0
 40
0.032258064516129
 40
0.032258064516129
 40
0.032258064516129
 40
0.032258064516129
 40
0.0645161290322581
 40
0.0645161290322581
 40
0.0645161290322581
 40
0.0645161290322581
 40
0.0967741935483871
 40
0.0967741935483871
 40
0.0967741935483871
 40
0.0967741935483871
 40
0.1290322580645161
 40
0.1290322580645161
 40
0.1290322580645161
 40
0.1290322580645161
 40
0.1612903225806452
 40
0.1612903225806452
 40
0.1612903225806452
 40
0.1612903225806452
 40
0.1935483870967742
 40
0.1935483870967742
 40
0.1935483870967742
 40
0.1935483870967742
 40
0.2258064516129032
 40
0.2258064516129032
 40
0.2258064516129032
 40
0.2258064516129032
 40
0.2580645161290323
 40
0.2580645161290323
 40
0.2580645161290323
 40
0.2580645161290323
 40
0.2903225806451613
 40
0.2903225806451613
 40
0.2903225806451613
 40
0.2903225806451613
 40
0.3225806451612903
 40
0.3225806451612903
 40
0.3225806451612903
 40
0.3225806451612903
 40
0.3548387096774194
 40
0.3548387096774194
 40
0.3548387096774194
 40
0.3548387096774194
 40
0.3870967741935484
 40
0.3870967741935484
 40
0.3870967741935484
 40
0.3870967741935484
 40
0.4193548387096774
 40
0.4193548387096774
 40
0.4193548387096774
 40
0.4193548387096774
 40
0.4516129032258064
 40
0.4516129032258064
 40
0.4516129032258064
 40
0.4516129032258064
 40
0.4838709677419355
 40
0.4838709677419355
 40
0.4838709677419355
 40
0.4838709677419355
 40
0.5161290322580645
 40
0.5161290322580645
 40
0.5161290322580645
 40
0.5161290322580645
 40
0.5483870967741935
 40
0.5483870967741935
 40
0.5483870967741935
 40
0.5483870967741935
 40
0.5806451612903226
 40
0.5806451612903226
 40
0.5806451612903226
 40
0.5806451612903226
 40
0.6129032258064516
 40
0.6129032258064516
 40
0.6129032258064516
 40
0.6129032258064516
 40
0.6451612903225806
 40
0.6451612903225806
 40
0.6451612903225806
 40
0.6451612903225806
 40
0.6774193548387096
 40
0.6774193548387096
 40
0.6774193548387096
 40
0.6774193548387096
 40
0.7096774193548388
 40
0.7096774193548388
 40
0.7096774193548388
 40
0.7096774193548388
 40
0.7419354838709678
 40
0.7419354838709678
 40
0.7419354838709678
 40
0.7419354838709678
 40
0.7741935483870968
 40
0.7741935483870968
 40
0.7741935483870968
 40
0.7741935483870968
 40
0.8064516129032258
 40
0.8064516129032258
 40
0.8064516129032258
 40
0.8064516129032258
 40
0.8387096774193548
 40
0.8387096774193548
 40
0.8387096774193548
 40
0.8387096774193548
 40
0.8709677419354838
 40
0.8709677419354838
 40
0.8709677419354838
 40
0.8709677419354838
 40
0.9032258064516128
 40
0.9032258064516128
 40
0.9032258064516128
 40
0.9032258064516128
 40
0.9354838709677419
 40
0.9354838709677419
 40
0.9354838709677419
 40
0.9354838709677419
 40
1.0
 40
1.0
 40
1.0
 40
1.0
 10
-6.654439999999999
 20
0.22957
 30
0.0
 10
-6.654439999999999
 20
0.22957
 30
0.0
 10
-6.599260000000001
 20
0.23736
 30
0.0
 10
-6.599260000000001
 20
0.23736
 30
0.0
 10
-6.599260000000001
 20
0.23736
 30
0.0
 10
-6.59288
 20
0.20409
 30
0.0
 10
-6.582089999999999
 20
0.18017
 30
0.0
 10
-6.56691
 20
0.16548
 30
0.0
 10
-6.56691
 20
0.16548
 30
0.0
 10
-6.551619999999999
 20
0.15079
 30
0.0
 10
-6.53309
 20
0.14345
 30
0.0
 10
-6.51121
 20
0.14345
 30
0.0
 10
-6.51121
 20
0.14345
 30
0.0
 10
-6.48524
 20
0.14345
 30
0.0
 10
-6.46325
 20
0.15302
 30
0.0
 10
-6.44535
 20
0.17216
 30
0.0
 10
-6.44535
 20
0.17216
 30
0.0
 10
-6.42754
 20
0.19129
 30
0.0
 10
-6.41854
 20
0.215
 30
0.0
 10
-6.41854
 20
0.24326
 30
0.0
 10
-6.41854
 20
0.24326
 30
0.0
 10
-6.41854
 20
0.27019
 30
0.0
 10
-6.426809999999999
 20
0.29244
 30
0.0
 10
-6.44336
 20
0.3099099999999999
 30
0.0
 10
-6.44336
 20
0.3099099999999999
 30
0.0
 10
-6.460009999999999
 20
0.32738
 30
0.0
 10
-6.481049999999999
 20
0.33617
 30
0.0
 10
-6.506599999999999
 20
0.33617
 30
0.0
 10
-6.506599999999999
 20
0.33617
 30
0.0
 10
-6.517069999999999
 20
0.33617
 30
0.0
 10
-6.530059999999999
 20
0.33394
 30
0.0
 10
-6.54555
 20
0.32961
 30
0.0
 10
-6.54555
 20
0.32961
 30
0.0
 10
-6.54555
 20
0.32961
 30
0.0
 10
-6.539369999999999
 20
0.3811199999999999
 30
0.0
 10
-6.539369999999999
 20
0.3811199999999999
 30
0.0
 10
-6.539369999999999
 20
0.3811199999999999
 30
0.0
 10
-6.535709999999999
 20
0.38068
 30
0.0
 10
-6.532769999999999
 20
0.38046
 30
0.0
 10
-6.530469999999999
 20
0.38046
 30
0.0
 10
-6.530469999999999
 20
0.38046
 30
0.0
 10
-6.507019999999999
 20
0.38046
 30
0.0
 10
-6.485869999999999
 20
0.38702
 30
0.0
 10
-6.467019999999999
 20
0.40004
 30
0.0
 10
-6.467019999999999
 20
0.40004
 30
0.0
 10
-6.448169999999999
 20
0.4130600000000001
 30
0.0
 10
-6.438749999999999
 20
0.4332
 30
0.0
 10
-6.438749999999999
 20
0.46035
 30
0.0
 10
-6.438749999999999
 20
0.46035
 30
0.0
 10
-6.438749999999999
 20
0.48182
 30
0.0
 10
-6.44566
 20
0.49974
 30
0.0
 10
-6.45938
 20
0.51376
 30
0.0
 10
-6.45938
 20
0.51376
 30
0.0
 10
-6.473099999999999
 20
0.5278900000000001
 30
0.0
 10
-6.49079
 20
0.53501
 30
0.0
 10
-6.512469999999999
 20
0.53501
 30
0.0
 10
-6.512469999999999
 20
0.53501
 30
0.0
 10
-6.53393
 20
0.53501
 30
0.0
 10
-6.55183
 20
0.52778
 30
0.0
 10
-6.56608
 20
0.51354
 30
0.0
 10
-6.56608
 20
0.51354
 30
0.0
 10
-6.580419999999999
 20
0.4991800000000001
 30
0.0
 10
-6.58963
 20
0.4776
 30
0.0
 10
-6.59371
 20
0.44889
 30
0.0
 10
-6.59371
 20
0.44889
 30
0.0
 10
-6.59371
 20
0.44889
 30
0.0
 10
-6.648889999999999
 20
0.45935
 30
0.0
 10
-6.648889999999999
 20
0.45935
 30
0.0
 10
-6.648889999999999
 20
0.45935
 30
0.0
 10
-6.642189999999999
 20
0.49874
 30
0.0
 10
-6.6268
 20
0.52923
 30
0.0
 10
-6.60293
 20
0.5508100000000001
 30
0.0
 10
-6.60293
 20
0.5508100000000001
 30
0.0
 10
-6.578949999999999
 20
0.5724000000000001
 30
0.0
 10
-6.549209999999999
 20
0.5833000000000001
 30
0.0
 10
-6.513619999999999
 20
0.5833000000000001
 30
0.0
 10
-6.513619999999999
 20
0.5833000000000001
 30
0.0
 10
-6.48911
 20
0.5833000000000001
 30
0.0
 10
-6.466499999999999
 20
0.57763
 30
0.0
 10
-6.445869999999999
 20
0.5665
 30
0.0
 10
-6.445869999999999
 20
0.5665
 30
0.0
 10
-6.42525
 20
0.5552600000000001
 30
0.0
 10
-6.40943
 20
0.54002
 30
0.0
 10
-6.398439999999999
 20
0.52066
 30
0.0
 10
-6.398439999999999
 20
0.52066
 30
0.0
 10
-6.38755
 20
0.5013
 30
0.0
 10
-6.382
 20
0.48082
 30
0.0
 10
-6.382
 20
0.4590100000000001
 30
0.0
 10
-6.382
 20
0.4590100000000001
 30
0.0
 10
-6.382
 20
0.4384300000000001
 30
0.0
 10
-6.38723
 20
0.4196200000000001
 30
0.0
 10
-6.3977
 20
0.4026
 30
0.0
 10
-6.3977
 20
0.4026
 30
0.0
 10
-6.40818
 20
0.38569
 30
0.0
 10
-6.423569999999999
 20
0.37222
 30
0.0
 10
-6.44398
 20
0.36221
 30
0.0
 10
-6.44398
 20
0.36221
 30
0.0
 10
-6.41739
 20
0.35575
 30
0.0
 10
-6.396759999999999
 20
0.34218
 30
0.0
 10
-6.382
 20
0.32159
 30
0.0
 10
-6.382
 20
0.32159
 30
0.0
 10
-6.36734
 20
0.30112
 30
0.0
 10
-6.360009999999999
 20
0.27542
 30
0.0
 10
-6.360009999999999
 20
0.24459
 30
0.0
 10
-6.360009999999999
 20
0.24459
 30
0.0
 10
-6.360009999999999
 20
0.20287
 30
0.0
 10
-6.374259999999999
 20
0.16748
 30
0.0
 10
-6.402949999999999
 20
0.13844
 30
0.0
 10
-6.402949999999999
 20
0.13844
 30
0.0
 10
-6.431519999999999
 20
0.1094
 30
0.0
 10
-6.467749999999999
 20
0.09493
 30
0.0
 10
-6.511519999999999
 20
0.09493
 30
0.0
 10
-6.511519999999999
 20
0.09493
 30
0.0
 10
-6.55099
 20
0.09493
 30
0.0
 10
-6.583769999999999
 20
0.1074
 30
0.0
 10
-6.609839999999999
 20
0.13243
 30
0.0
 10
-6.609839999999999
 20
0.13243
 30
0.0
 10
-6.63591
 20
0.15736
 30
0.0
 10
-6.65078
 20
0.18974
 30
0.0
 10
-6.654439999999999
 20
0.22957
 30
0.0
  0
SPLINE
  5
58
330
1F
100
AcDbEntity
  8
layer 1
 62
   250
100
AcDbSpline
210
0.0
220
0.0
230
1.0
 70
     9
 71
     3
 72
    80
 73
    76
 74
     0
 42
0.0000000001
 43
0.0000000001
 40
0.0
 40
0.0
 40
0.0
 40
0.0
 40
0.05
 40
0.05
 40
0.05
 40
0.05
 40
0.1
 40
0.1
 40
0.1
 40
0.1
 40
0.15
 40
0.15
 40
0.15
 40
0.15
 40
0.2
 40
0.2
 40
0.2
 40
0.2
 40
0.25
 40
0.25
 40
0.25
 40
0.25
 40
0.3
 40
0.3
 40
0.3
 40
0.3
 40
0.35
 40
0.35
 40
0.35
 40
0.35
 40
0.4
 40
0.4
 40
0.4
 40
0.4
 40
0.45
 40
0.45
 40
0.45
 40
0.45
 40
0.5
 40
0.5
 40
0.5
 40
0.5
 40
0.55
 40
0.55
 40
0.55
 40
0.55
 40
0.6
 40
0.6
 40
0.6
 40
0.6
 40
0.65
 40
0.65
 40
0.65
 40
0.65
 40
0.7
 40
0.7
 40
0.7
 40
0.7
 40
0.75
 40
0.75
 40
0.75
 40
0.75
 40
0.8
 40
0.8
 40
0.8
 40
0.8
 40
0.85
 40
0.85
 40
0.85
 40
0.85
 40
0.9
 40
0.9
 40
0.9
 40
0.9
 40
1.0
 40
1.0
 40
1.0
 40
1.0
 10
-5.983969999999999
 20
0.4642400000000001
 30
0.0
 10
-5.983969999999999
 20
0.4642400000000001
 30
0.0
 10
-6.03884
 20
0.45968
 30
0.0
 10
-6.03884
 20
0.45968
 30
0.0
 10
-6.03884
 20
0.45968
 30
0.0
 10
-6.043759999999999
 20
0.48272
 30
0.0
 10
-6.050669999999999
 20
0.49952
 30
0.0
 10
-6.059669999999999
 20
0.50987
 30
0.0
 10
-6.059669999999999
 20
0.50987
 30
0.0
 10
-6.07465
 20
0.5266700000000001
 30
0.0
 10
-6.09308
 20
0.53501
 30
0.0
 10
-6.114959999999999
 20
0.53501
 30
0.0
 10
-6.114959999999999
 20
0.53501
 30
0.0
 10
-6.13255
 20
0.53501
 30
0.0
 10
-6.147949999999999
 20
0.5297800000000001
 30
0.0
 10
-6.16124
 20
0.51932
 30
0.0
 10
-6.16124
 20
0.51932
 30
0.0
 10
-6.178619999999999
 20
0.5058600000000001
 30
0.0
 10
-6.19233
 20
0.4861600000000001
 30
0.0
 10
-6.20239
 20
0.46035
 30
0.0
 10
-6.20239
 20
0.46035
 30
0.0
 10
-6.21234
 20
0.43453
 30
0.0
 10
-6.217569999999999
 20
0.3977
 30
0.0
 10
-6.21799
 20
0.34986
 30
0.0
 10
-6.21799
 20
0.34986
 30
0.0
 10
-6.20469
 20
0.37133
 30
0.0
 10
-6.188469999999999
 20
0.38736
 30
0.0
 10
-6.16919
 20
0.39781
 30
0.0
 10
-6.16919
 20
0.39781
 30
0.0
 10
-6.150039999999999
 20
0.40816
 30
0.0
 10
-6.12983
 20
0.41339
 30
0.0
 10
-6.10878
 20
0.41339
 30
0.0
 10
-6.10878
 20
0.41339
 30
0.0
 10
-6.071919999999999
 20
0.41339
 30
0.0
 10
-6.040619999999999
 20
0.39904
 30
0.0
 10
-6.014759999999999
 20
0.37022
 30
0.0
 10
-6.014759999999999
 20
0.37022
 30
0.0
 10
-5.98889
 20
0.3414
 30
0.0
 10
-5.975919999999999
 20
0.30424
 30
0.0
 10
-5.975919999999999
 20
0.25861
 30
0.0
 10
-5.975919999999999
 20
0.25861
 30
0.0
 10
-5.975919999999999
 20
0.22857
 30
0.0
 10
-5.98209
 20
0.20075
 30
0.0
 10
-5.99424
 20
0.17494
 30
0.0
 10
-5.99424
 20
0.17494
 30
0.0
 10
-6.00638
 20
0.14923
 30
0.0
 10
-6.02313
 20
0.12943
 30
0.0
 10
-6.044389999999999
 20
0.11574
 30
0.0
 10
-6.044389999999999
 20
0.11574
 30
0.0
 10
-6.065649999999999
 20
0.10205
 30
0.0
 10
-6.08973
 20
0.09527
 30
0.0
 10
-6.11674
 20
0.09527
 30
0.0
 10
-6.11674
 20
0.09527
 30
0.0
 10
-6.162809999999999
 20
0.09527
 30
0.0
 10
-6.200289999999999
 20
0.11318
 30
0.0
 10
-6.2293
 20
0.14923
 30
0.0
 10
-6.2293
 20
0.14923
 30
0.0
 10
-6.258409999999999
 20
0.18517
 30
0.0
 10
-6.27285
 20
0.24448
 30
0.0
 10
-6.27285
 20
0.32705
 30
0.0
 10
-6.27285
 20
0.32705
 30
0.0
 10
-6.27285
 20
0.4194
 30
0.0
 10
-6.25684
 20
0.4865000000000001
 30
0.0
 10
-6.224689999999999
 20
0.52845
 30
0.0
 10
-6.224689999999999
 20
0.52845
 30
0.0
 10
-6.19674
 20
0.56494
 30
0.0
 10
-6.15904
 20
0.5833000000000001
 30
0.0
 10
-6.1115
 20
0.5833000000000001
 30
0.0
 10
-6.1115
 20
0.5833000000000001
 30
0.0
 10
-6.076219999999999
 20
0.5833000000000001
 30
0.0
 10
-6.047209999999999
 20
0.5727300000000001
 30
0.0
 10
-6.0246
 20
0.55159
 30
0.0
 10
-6.0246
 20
0.55159
 30
0.0
 10
-6.00198
 20
0.53056
 30
0.0
 10
-5.98848
 20
0.50141
 30
0.0
 10
-5.983969999999999
 20
0.4642400000000001
 30
0.0
  0
SPLINE
  5
59
330
1F
100
AcDbEntity
  8
layer 1
 62
   250
100
AcDbSpline
210
0.0
220
0.0
230
1.0
 70
     9
 71
     3
 72
    40
 73
    36
 74
     0
 42
0.0000000001
 43
0.0000000001
 40
0.0
 40
0.0
 40
0.0
 40
0.0
 40
0.1
 40
0.1
 40
0.1
 40
0.1
 40
0.2
 40
0.2
 40
0.2
 40
0.2
 40
0.3
 40
0.3
 40
0.3
 40
0.3
 40
0.4
 40
0.4
 40
0.4
 40
0.4
 40
0.5
 40
0.5
 40
0.5
 40
0.5
 40
0.6
 40
0.6
 40
0.6
 40
0.6
 40
0.7
 40
0.7
 40
0.7
 40
0.7
 40
0.8
 40
0.8
 40
0.8
 40
0.8
 40
1.0
 40
1.0
 40
1.0
 40
1.0
 10
-6.209399999999999
 20
0.25828
 30
0.0
 10
-6.209399999999999
 20
0.23803
 30
0.0
 10
-6.205319999999999
 20
0.21867
 30
0.0
 10
-6.19725
 20
0.2002
 30
0.0
 10
-6.19725
 20
0.2002
 30
0.0
 10
-6.189199999999999
 20
0.18173
 30
0.0
 10
-6.17789
 20
0.16771
 30
0.0
 10
-6.16344
 20
0.15802
 30
0.0
 10
-6.16344
 20
0.15802
 30
0.0
 10
-6.148889999999999
 20
0.14834
 30
0.0
 10
-6.1336
 20
0.14345
 30
0.0
 10
-6.11768
 20
0.14345
 30
0.0
 10
-6.11768
 20
0.14345
 30
0.0
 10
-6.09433
 20
0.14345
 30
0.0
 10
-6.07433
 20
0.15346
 30
0.0
 10
-6.05758
 20
0.17349
 30
0.0
 10
-6.05758
 20
0.17349
 30
0.0
 10
-6.04082
 20
0.19352
 30
0.0
 10
-6.032449999999999
 20
0.22067
 30
0.0
 10
-6.032449999999999
 20
0.25494
 30
0.0
 10
-6.032449999999999
 20
0.25494
 30
0.0
 10
-6.032449999999999
 20
0.28799
 30
0.0
 10
-6.040719999999999
 20
0.31403
 30
0.0
 10
-6.057259999999999
 20
0.33305
 30
0.0
 10
-6.057259999999999
 20
0.33305
 30
0.0
 10
-6.073819999999999
 20
0.35208
 30
0.0
 10
-6.094649999999999
 20
0.36154
 30
0.0
 10
-6.119769999999999
 20
0.36154
 30
0.0
 10
-6.119769999999999
 20
0.36154
 30
0.0
 10
-6.1448
 20
0.36154
 30
0.0
 10
-6.165949999999999
 20
0.35208
 30
0.0
 10
-6.18334
 20
0.33305
 30
0.0
 10
-6.18334
 20
0.33305
 30
0.0
 10
-6.200719999999999
 20
0.31403
 30
0.0
 10
-6.209399999999999
 20
0.2891
 30
0.0
 10
-6.209399999999999
 20
0.25828
 30
0.0
  0
SPLINE
  5
5A
330
1F
100
AcDbEntity
  8
layer 1
 62
   250
100
AcDbSpline
210
0.0
220
0.0
230
1.0
 70
    11
 71
     3
 72
    40
 73
    36
 74
     0
 42
0.0000000001
 43
0.0000000001
 40
0.0
 40
0.0
 40
0.0
 40
0.0
 40
0.1
 40
0.1
 40
0.1
 40
0.1
 40
0.2
 40
0.2
 40
0.2
 40
0.2
 40
0.3
 40
0.3
 40
0.3
 40
0.3
 40
0.4
 40
0.4
 40
0.4
 40
0.4
 40
0.5
 40
0.5
 40
0.5
 40
0.5
 40
0.6
 40
0.6
 40
0.6
 40
0.6
 40
0.7
 40
0.7
 40
0.7
 40
0.7
 40
0.8
 40
0.8
 40
0.8
 40
0.8
 40
1.0
 40
1.0
 40
1.0
 40
1.0
 10
-5.678189999999999
 20
0.10339
 30
0.0
 10
-5.678189999999999
 20
0.10339
 30
0.0
 10
-5.733369999999999
 20
0.10339
 30
0.0
 10
-5.733369999999999
 20
0.10339
 30
0.0
 10
-5.733369999999999
 20
0.10339
 30
0.0
 10
-5.733369999999999
 20
0.10339
 30
0.0
 10
-5.733369999999999
 20
0.4772600000000001
 30
0.0
 10
-5.733369999999999
 20
0.4772600000000001
 30
0.0
 10
-5.733369999999999
 20
0.4772600000000001
 30
0.0
 10
-5.746669999999999
 20
0.4638
 30
0.0
 10
-5.76405
 20
0.45034
 30
0.0
 10
-5.785619999999999
 20
0.43687
 30
0.0
 10
-5.785619999999999
 20
0.43687
 30
0.0
 10
-5.807299999999999
 20
0.4234100000000001
 30
0.0
 10
-5.826659999999999
 20
0.4132800000000001
 30
0.0
 10
-5.84384
 20
0.40661
 30
0.0
 10
-5.84384
 20
0.40661
 30
0.0
 10
-5.84384
 20
0.40661
 30
0.0
 10
-5.84384
 20
0.46324
 30
0.0
 10
-5.84384
 20
0.46324
 30
0.0
 10
-5.84384
 20
0.46324
 30
0.0
 10
-5.81294
 20
0.4787100000000001
 30
0.0
 10
-5.78594
 20
0.4974000000000001
 30
0.0
 10
-5.7628
 20
0.51932
 30
0.0
 10
-5.7628
 20
0.51932
 30
0.0
 10
-5.739759999999999
 20
0.5413600000000001
 30
0.0
 10
-5.723319999999999
 20
0.5626100000000001
 30
0.0
 10
-5.713689999999999
 20
0.5833000000000001
 30
0.0
 10
-5.713689999999999
 20
0.5833000000000001
 30
0.0
 10
-5.713689999999999
 20
0.5833000000000001
 30
0.0
 10
-5.678189999999999
 20
0.5833000000000001
 30
0.0
 10
-5.678189999999999
 20
0.5833000000000001
 30
0.0
 10
-5.678189999999999
 20
0.5833000000000001
 30
0.0
 10
-5.678189999999999
 20
0.5833000000000001
 30
0.0
 10
-5.678189999999999
 20
0.10339
 30
0.0
 10
-5.678189999999999
 20
0.10339
 30
0.0
  0
SPLINE
  5
5B
330
1F
100
AcDbEntity
  8
layer 1
 62
   250
100
AcDbSpline
210
0.0
220
0.0
230
1.0
 70
    11
 71
     3
 72
    64
 73
    60
 74
     0
 42
0.0000000001
 43
0.0000000001
 40
0.0
 40
0.0
 40
0.0
 40
0.0
 40
0.0625
 40
0.0625
 40
0.0625
 40
0.0625
 40
0.125
 40
0.125
 40
0.125
 40
0.125
 40
0.1875
 40
0.1875
 40
0.1875
 40
0.1875
 40
0.25
 40
0.25
 40
0.25
 40
0.25
 40
0.3125
 40
0.3125
 40
0.3125
 40
0.3125
 40
0.375
 40
0.375
 40
0.375
 40
0.375
 40
0.4375
 40
0.4375
 40
0.4375
 40
0.4375
 40
0.5
 40
0.5
 40
0.5
 40
0.5
 40
0.5625
 40
0.5625
 40
0.5625
 40
0.5625
 40
0.625
 40
0.625
 40
0.625
 40
0.625
 40
0.6875
 40
0.6875
 40
0.6875
 40
0.6875
 40
0.75
 40
0.75
 40
0.75
 40
0.75
 40
0.8125
 40
0.8125
 40
0.8125
 40
0.8125
 40
0.875
 40
0.875
 40
0.875
 40
0.875
 40
1.0
 40
1.0
 40
1.0
 40
1.0
 10
-5.4813
 20
0.10339
 30
0.0
 10
-5.4813
 20
0.10339
 30
0.0
 10
-5.4813
 20
0.5813000000000001
 30
0.0
 10
-5.4813
 20
0.5813000000000001
 30
0.0
 10
-5.4813
 20
0.5813000000000001
 30
0.0
 10
-5.4813
 20
0.5813000000000001
 30
0.0
 10
-5.39168
 20
0.5813000000000001
 30
0.0
 10
-5.39168
 20
0.5813000000000001
 30
0.0
 10
-5.39168
 20
0.5813000000000001
 30
0.0
 10
-5.39168
 20
0.5813000000000001
 30
0.0
 10
-5.285289999999999
 20
0.24292
 30
0.0
 10
-5.285289999999999
 20
0.24292
 30
0.0
 10
-5.285289999999999
 20
0.24292
 30
0.0
 10
-5.27545
 20
0.21143
 30
0.0
 10
-5.268229999999999
 20
0.18785
 30
0.0
 10
-5.26383
 20
0.17216
 30
0.0
 10
-5.26383
 20
0.17216
 30
0.0
 10
-5.2587
 20
0.18951
 30
0.0
 10
-5.25074
 20
0.21511
 30
0.0
 10
-5.239849999999999
 20
0.24882
 30
0.0
 10
-5.239849999999999
 20
0.24882
 30
0.0
 10
-5.239849999999999
 20
0.24882
 30
0.0
 10
-5.132209999999999
 20
0.5813000000000001
 30
0.0
 10
-5.132209999999999
 20
0.5813000000000001
 30
0.0
 10
-5.132209999999999
 20
0.5813000000000001
 30
0.0
 10
-5.132209999999999
 20
0.5813000000000001
 30
0.0
 10
-5.052119999999999
 20
0.5813000000000001
 30
0.0
 10
-5.052119999999999
 20
0.5813000000000001
 30
0.0
 10
-5.052119999999999
 20
0.5813000000000001
 30
0.0
 10
-5.052119999999999
 20
0.5813000000000001
 30
0.0
 10
-5.052119999999999
 20
0.10339
 30
0.0
 10
-5.052119999999999
 20
0.10339
 30
0.0
 10
-5.052119999999999
 20
0.10339
 30
0.0
 10
-5.052119999999999
 20
0.10339
 30
0.0
 10
-5.109499999999999
 20
0.10339
 30
0.0
 10
-5.109499999999999
 20
0.10339
 30
0.0
 10
-5.109499999999999
 20
0.10339
 30
0.0
 10
-5.109499999999999
 20
0.10339
 30
0.0
 10
-5.109499999999999
 20
0.5034100000000001
 30
0.0
 10
-5.109499999999999
 20
0.5034100000000001
 30
0.0
 10
-5.109499999999999
 20
0.5034100000000001
 30
0.0
 10
-5.109499999999999
 20
0.5034100000000001
 30
0.0
 10
-5.240169999999999
 20
0.10339
 30
0.0
 10
-5.240169999999999
 20
0.10339
 30
0.0
 10
-5.240169999999999
 20
0.10339
 30
0.0
 10
-5.240169999999999
 20
0.10339
 30
0.0
 10
-5.29388
 20
0.10339
 30
0.0
 10
-5.29388
 20
0.10339
 30
0.0
 10
-5.29388
 20
0.10339
 30
0.0
 10
-5.29388
 20
0.10339
 30
0.0
 10
-5.42393
 20
0.5102000000000001
 30
0.0
 10
-5.42393
 20
0.5102000000000001
 30
0.0
 10
-5.42393
 20
0.5102000000000001
 30
0.0
 10
-5.42393
 20
0.5102000000000001
 30
0.0
 10
-5.42393
 20
0.10339
 30
0.0
 10
-5.42393
 20
0.10339
 30
0.0
 10
-5.42393
 20
0.10339
 30
0.0
 10
-5.42393
 20
0.10339
 30
0.0
 10
-5.4813
 20
0.10339
 30
0.0
 10
-5.4813
 20
0.10339
 30
0.0
  0
SPLINE
  5
5C
330
1F
100
AcDbEntity
  8
layer 1
 62
   250
100
AcDbSpline
210
0.0
220
0.0
230
1.0
 70
    11
 71
     3
 72
    64
 73
    60
 74
     0
 42
0.0000000001
 43
0.0000000001
 40
0.0
 40
0.0
 40
0.0
 40
0.0
 40
0.0625
 40
0.0625
 40
0.0625
 40
0.0625
 40
0.125
 40
0.125
 40
0.125
 40
0.125
 40
0.1875
 40
0.1875
 40
0.1875
 40
0.1875
 40
0.25
 40
0.25
 40
0.25
 40
0.25
 40
0.3125
 40
0.3125
 40
0.3125
 40
0.3125
 40
0.375
 40
0.375
 40
0.375
 40
0.375
 40
0.4375
 40
0.4375
 40
0.4375
 40
0.4375
 40
0.5
 40
0.5
 40
0.5
 40
0.5
 40
0.5625
 40
0.5625
 40
0.5625
 40
0.5625
 40
0.625
 40
0.625
 40
0.625
 40
0.625
 40
0.6875
 40
0.6875
 40
0.6875
 40
0.6875
 40
0.75
 40
0.75
 40
0.75
 40
0.75
 40
0.8125
 40
0.8125
 40
0.8125
 40
0.8125
 40
0.875
 40
0.875
 40
0.875
 40
0.875
 40
1.0
 40
1.0
 40
1.0
 40
1.0
 10
-4.92307
 20
0.10339
 30
0.0
 10
-4.92307
 20
0.10339
 30
0.0
 10
-4.92307
 20
0.5813000000000001
 30
0.0
 10
-4.92307
 20
0.5813000000000001
 30
0.0
 10
-4.92307
 20
0.5813000000000001
 30
0.0
 10
-4.92307
 20
0.5813000000000001
 30
0.0
 10
-4.83345
 20
0.5813000000000001
 30
0.0
 10
-4.83345
 20
0.5813000000000001
 30
0.0
 10
-4.83345
 20
0.5813000000000001
 30
0.0
 10
-4.83345
 20
0.5813000000000001
 30
0.0
 10
-4.727059999999999
 20
0.24292
 30
0.0
 10
-4.727059999999999
 20
0.24292
 30
0.0
 10
-4.727059999999999
 20
0.24292
 30
0.0
 10
-4.717219999999999
 20
0.21143
 30
0.0
 10
-4.709999999999999
 20
0.18785
 30
0.0
 10
-4.705599999999999
 20
0.17216
 30
0.0
 10
-4.705599999999999
 20
0.17216
 30
0.0
 10
-4.70047
 20
0.18951
 30
0.0
 10
-4.692509999999999
 20
0.21511
 30
0.0
 10
-4.681619999999999
 20
0.24882
 30
0.0
 10
-4.681619999999999
 20
0.24882
 30
0.0
 10
-4.681619999999999
 20
0.24882
 30
0.0
 10
-4.57398
 20
0.5813000000000001
 30
0.0
 10
-4.57398
 20
0.5813000000000001
 30
0.0
 10
-4.57398
 20
0.5813000000000001
 30
0.0
 10
-4.57398
 20
0.5813000000000001
 30
0.0
 10
-4.493879999999999
 20
0.5813000000000001
 30
0.0
 10
-4.493879999999999
 20
0.5813000000000001
 30
0.0
 10
-4.493879999999999
 20
0.5813000000000001
 30
0.0
 10
-4.493879999999999
 20
0.5813000000000001
 30
0.0
 10
-4.493879999999999
 20
0.10339
 30
0.0
 10
-4.493879999999999
 20
0.10339
 30
0.0
 10
-4.493879999999999
 20
0.10339
 30
0.0
 10
-4.493879999999999
 20
0.10339
 30
0.0
 10
-4.55126
 20
0.10339
 30
0.0
 10
-4.55126
 20
0.10339
 30
0.0
 10
-4.55126
 20
0.10339
 30
0.0
 10
-4.55126
 20
0.10339
 30
0.0
 10
-4.55126
 20
0.5034100000000001
 30
0.0
 10
-4.55126
 20
0.5034100000000001
 30
0.0
 10
-4.55126
 20
0.5034100000000001
 30
0.0
 10
-4.55126
 20
0.5034100000000001
 30
0.0
 10
-4.681939999999999
 20
0.10339
 30
0.0
 10
-4.681939999999999
 20
0.10339
 30
0.0
 10
-4.681939999999999
 20
0.10339
 30
0.0
 10
-4.681939999999999
 20
0.10339
 30
0.0
 10
-4.735649999999999
 20
0.10339
 30
0.0
 10
-4.735649999999999
 20
0.10339
 30
0.0
 10
-4.735649999999999
 20
0.10339
 30
0.0
 10
-4.735649999999999
 20
0.10339
 30
0.0
 10
-4.8657
 20
0.5102000000000001
 30
0.0
 10
-4.8657
 20
0.5102000000000001
 30
0.0
 10
-4.8657
 20
0.5102000000000001
 30
0.0
 10
-4.8657
 20
0.5102000000000001
 30
0.0
 10
-4.8657
 20
0.10339
 30
0.0
 10
-4.8657
 20
0.10339
 30
0.0
 10
-4.8657
 20
0.10339
 30
0.0
 10
-4.8657
 20
0.10339
 30
0.0
 10
-4.92307
 20
0.10339
 30
0.0
 10
-4.92307
 20
0.10339
 30
0.0
  0
SPLINE
  5
5D
330
1F
100
AcDbEntity
  8
layer 1
 62
   250
100
AcDbSpline
210
0.0
220
0.0
230
1.0
 70
    11
 71
     3
 72
    92
 73
    88
 74
     0
 42
0.0000000001
 43
0.0000000001
 40
0.0
 40
0.0
 40
0.0
 40
0.0
 40
0.0434782608695652
 40
0.0434782608695652
 40
0.0434782608695652
 40
0.0434782608695652
 40
0.0869565217391304
 40
0.0869565217391304
 40
0.0869565217391304
 40
0.0869565217391304
 40
0.1304347826086956
 40
0.1304347826086956
 40
0.1304347826086956
 40
0.1304347826086956
 40
0.1739130434782609
 40
0.1739130434782609
 40
0.1739130434782609
 40
0.1739130434782609
 40
0.2173913043478261
 40
0.2173913043478261
 40
0.2173913043478261
 40
0.2173913043478261
 40
0.2608695652173913
 40
0.2608695652173913
 40
0.2608695652173913
 40
0.2608695652173913
 40
0.3043478260869565
 40
0.3043478260869565
 40
0.3043478260869565
 40
0.3043478260869565
 40
0.3478260869565217
 40
0.3478260869565217
 40
0.3478260869565217
 40
0.3478260869565217
 40
0.391304347826087
 40
0.391304347826087
 40
0.391304347826087
 40
0.391304347826087
 40
0.4347826086956523
 40
0.4347826086956523
 40
0.4347826086956523
 40
0.4347826086956523
 40
0.4782608695652174
 40
0.4782608695652174
 40
0.4782608695652174
 40
0.4782608695652174
 40
0.5217391304347827
 40
0.5217391304347827
 40
0.5217391304347827
 40
0.5217391304347827
 40
0.5652173913043478
 40
0.5652173913043478
 40
0.5652173913043478
 40
0.5652173913043478
 40
0.6086956521739131
 40
0.6086956521739131
 40
0.6086956521739131
 40
0.6086956521739131
 40
0.6521739130434784
 40
0.6521739130434784
 40
0.6521739130434784
 40
0.6521739130434784
 40
0.6956521739130435
 40
0.6956521739130435
 40
0.6956521739130435
 40
0.6956521739130435
 40
0.7391304347826086
 40
0.7391304347826086
 40
0.7391304347826086
 40
0.7391304347826086
 40
0.7826086956521741
 40
0.7826086956521741
 40
0.7826086956521741
 40
0.7826086956521741
 40
0.826086956521739
 40
0.826086956521739
 40
0.826086956521739
 40
0.826086956521739
 40
0.8695652173913043
 40
0.8695652173913043
 40
0.8695652173913043
 40
0.8695652173913043
 40
0.9130434782608695
 40
0.9130434782608695
 40
0.9130434782608695
 40
0.9130434782608695
 40
1.0
 40
1.0
 40
1.0
 40
1.0
 10
-0.5238000000000001
 20
4.059809999999999
 30
0.0
 10
-0.5238000000000001
 20
4.059809999999999
 30
0.0
 10
-0.5238000000000001
 20
4.0034
 30
0.0
 10
-0.5238000000000001
 20
4.0034
 30
0.0
 10
-0.5238000000000001
 20
4.0034
 30
0.0
 10
-0.5238000000000001
 20
4.0034
 30
0.0
 10
-0.8210499999999999
 20
4.0034
 30
0.0
 10
-0.8210499999999999
 20
4.0034
 30
0.0
 10
-0.8210499999999999
 20
4.0034
 30
0.0
 10
-0.82147
 20
4.01753
 30
0.0
 10
-0.8193799999999999
 20
4.031109999999999
 30
0.0
 10
-0.8146699999999999
 20
4.04413
 30
0.0
 10
-0.8146699999999999
 20
4.04413
 30
0.0
 10
-0.80713
 20
4.06571
 30
0.0
 10
-0.79498
 20
4.08685
 30
0.0
 10
-0.77833
 20
4.107769999999999
 30
0.0
 10
-0.77833
 20
4.107769999999999
 30
0.0
 10
-0.7615800000000001
 20
4.12858
 30
0.0
 10
-0.7374900000000001
 20
4.15273
 30
0.0
 10
-0.7060800000000001
 20
4.1801
 30
0.0
 10
-0.7060800000000001
 20
4.1801
 30
0.0
 10
-0.65719
 20
4.222719999999999
 30
0.0
 10
-0.6241100000000001
 20
4.256429999999999
 30
0.0
 10
-0.6069300000000001
 20
4.28136
 30
0.0
 10
-0.6069300000000001
 20
4.28136
 30
0.0
 10
-0.5897600000000001
 20
4.306169999999999
 30
0.0
 10
-0.58118
 20
4.32976
 30
0.0
 10
-0.58118
 20
4.351899999999999
 30
0.0
 10
-0.58118
 20
4.351899999999999
 30
0.0
 10
-0.58118
 20
4.37516
 30
0.0
 10
-0.5890300000000001
 20
4.39474
 30
0.0
 10
-0.6046300000000001
 20
4.410769999999999
 30
0.0
 10
-0.6046300000000001
 20
4.410769999999999
 30
0.0
 10
-0.6203300000000001
 20
4.42668
 30
0.0
 10
-0.6407500000000001
 20
4.434689999999999
 30
0.0
 10
-0.6658800000000001
 20
4.434689999999999
 30
0.0
 10
-0.6658800000000001
 20
4.434689999999999
 30
0.0
 10
-0.69248
 20
4.434689999999999
 30
0.0
 10
-0.71373
 20
4.42623
 30
0.0
 10
-0.72965
 20
4.409209999999999
 30
0.0
 10
-0.72965
 20
4.409209999999999
 30
0.0
 10
-0.74566
 20
4.39229
 30
0.0
 10
-0.75373
 20
4.368819999999999
 30
0.0
 10
-0.75393
 20
4.33888
 30
0.0
 10
-0.75393
 20
4.33888
 30
0.0
 10
-0.75393
 20
4.33888
 30
0.0
 10
-0.8106899999999999
 20
4.344999999999999
 30
0.0
 10
-0.8106899999999999
 20
4.344999999999999
 30
0.0
 10
-0.8106899999999999
 20
4.344999999999999
 30
0.0
 10
-0.8068199999999999
 20
4.390069999999999
 30
0.0
 10
-0.7921600000000001
 20
4.424339999999999
 30
0.0
 10
-0.76682
 20
4.44793
 30
0.0
 10
-0.76682
 20
4.44793
 30
0.0
 10
-0.7414800000000001
 20
4.471519999999999
 30
0.0
 10
-0.7073500000000001
 20
4.483309999999999
 30
0.0
 10
-0.6646200000000001
 20
4.483309999999999
 30
0.0
 10
-0.6646200000000001
 20
4.483309999999999
 30
0.0
 10
-0.6214800000000001
 20
4.483309999999999
 30
0.0
 10
-0.58735
 20
4.470519999999999
 30
0.0
 10
-0.56223
 20
4.445149999999999
 30
0.0
 10
-0.56223
 20
4.445149999999999
 30
0.0
 10
-0.53699
 20
4.419669999999999
 30
0.0
 10
-0.5244300000000001
 20
4.38818
 30
0.0
 10
-0.5244300000000001
 20
4.350569999999999
 30
0.0
 10
-0.5244300000000001
 20
4.350569999999999
 30
0.0
 10
-0.5244300000000001
 20
4.33143
 30
0.0
 10
-0.5280899999999999
 20
4.312619999999999
 30
0.0
 10
-0.53552
 20
4.29415
 30
0.0
 10
-0.53552
 20
4.29415
 30
0.0
 10
-0.5428500000000001
 20
4.27568
 30
0.0
 10
-0.5551000000000001
 20
4.25621
 30
0.0
 10
-0.57217
 20
4.23585
 30
0.0
 10
-0.57217
 20
4.23585
 30
0.0
 10
-0.5892300000000001
 20
4.21537
 30
0.0
 10
-0.61761
 20
4.18733
 30
0.0
 10
-0.6572899999999999
 20
4.15173
 30
0.0
 10
-0.6572899999999999
 20
4.15173
 30
0.0
 10
-0.6903800000000001
 20
4.12213
 30
0.0
 10
-0.71164
 20
4.1021
 30
0.0
 10
-0.7210600000000001
 20
4.09153
 30
0.0
 10
-0.7210600000000001
 20
4.09153
 30
0.0
 10
-0.7304800000000001
 20
4.081069999999999
 30
0.0
 10
-0.7382300000000001
 20
4.0705
 30
0.0
 10
-0.7444100000000001
 20
4.059809999999999
 30
0.0
 10
-0.7444100000000001
 20
4.059809999999999
 30
0.0
 10
-0.7444100000000001
 20
4.059809999999999
 30
0.0
 10
-0.5238000000000001
 20
4.059809999999999
 30
0.0
 10
-0.5238000000000001
 20
4.059809999999999
 30
0.0
  0
SPLINE
  5
5E
330
1F
100
AcDbEntity
  8
layer 1
 62
   250
100
AcDbSpline
210
0.0
220
0.0
230
1.0
 70
     9
 71
     3
 72
    68
 73
    64
 74
     0
 42
0.0000000001
 43
0.0000000001
 40
0.0
 40
0.0
 40
0.0
 40
0.0
 40
0.0588235294117647
 40
0.0588235294117647
 40
0.0588235294117647
 40
0.0588235294117647
 40
0.1176470588235294
 40
0.1176470588235294
 40
0.1176470588235294
 40
0.1176470588235294
 40
0.1764705882352941
 40
0.1764705882352941
 40
0.1764705882352941
 40
0.1764705882352941
 40
0.2352941176470588
 40
0.2352941176470588
 40
0.2352941176470588
 40
0.2352941176470588
 40
0.2941176470588235
 40
0.2941176470588235
 40
0.2941176470588235
 40
0.2941176470588235
 40
0.3529411764705883
 40
0.3529411764705883
 40
0.3529411764705883
 40
0.3529411764705883
 40
0.4117647058823529
 40
0.4117647058823529
 40
0.4117647058823529
 40
0.4117647058823529
 40
0.4705882352941176
 40
0.4705882352941176
 40
0.4705882352941176
 40
0.4705882352941176
 40
0.5294117647058824
 40
0.5294117647058824
 40
0.5294117647058824
 40
0.5294117647058824
 40
0.5882352941176471
 40
0.5882352941176471
 40
0.5882352941176471
 40
0.5882352941176471
 40
0.6470588235294118
 40
0.6470588235294118
 40
0.6470588235294118
 40
0.6470588235294118
 40
0.7058823529411766
 40
0.7058823529411766
 40
0.7058823529411766
 40
0.7058823529411766
 40
0.7647058823529412
 40
0.7647058823529412
 40
0.7647058823529412
 40
0.7647058823529412
 40
0.8235294117647057
 40
0.8235294117647057
 40
0.8235294117647057
 40
0.8235294117647057
 40
0.8823529411764706
 40
0.8823529411764706
 40
0.8823529411764706
 40
0.8823529411764706
 40
1.0
 40
1.0
 40
1.0
 40
1.0
 10
-0.34471
 20
4.26255
 30
0.0
 10
-0.36764
 20
4.271449999999999
 30
0.0
 10
-0.3846
 20
4.284139999999999
 30
0.0
 10
-0.3957
 20
4.30072
 30
0.0
 10
-0.3957
 20
4.30072
 30
0.0
 10
-0.4066900000000001
 20
4.31719
 30
0.0
 10
-0.4122399999999999
 20
4.33699
 30
0.0
 10
-0.4122399999999999
 20
4.36003
 30
0.0
 10
-0.4122399999999999
 20
4.36003
 30
0.0
 10
-0.4122399999999999
 20
4.394849999999999
 30
0.0
 10
-0.4005200000000001
 20
4.424009999999999
 30
0.0
 10
-0.37695
 20
4.447709999999999
 30
0.0
 10
-0.37695
 20
4.447709999999999
 30
0.0
 10
-0.3534
 20
4.471409999999999
 30
0.0
 10
-0.3222
 20
4.483309999999999
 30
0.0
 10
-0.28314
 20
4.483309999999999
 30
0.0
 10
-0.28314
 20
4.483309999999999
 30
0.0
 10
-0.24388
 20
4.483309999999999
 30
0.0
 10
-0.21225
 20
4.471189999999999
 30
0.0
 10
-0.18828
 20
4.44693
 30
0.0
 10
-0.18828
 20
4.44693
 30
0.0
 10
-0.1644
 20
4.42267
 30
0.0
 10
-0.15247
 20
4.39318
 30
0.0
 10
-0.15247
 20
4.35836
 30
0.0
 10
-0.15247
 20
4.35836
 30
0.0
 10
-0.15247
 20
4.336209999999999
 30
0.0
 10
-0.15791
 20
4.316959999999999
 30
0.0
 10
-0.1688
 20
4.3005
 30
0.0
 10
-0.1688
 20
4.3005
 30
0.0
 10
-0.1798
 20
4.284139999999999
 30
0.0
 10
-0.19634
 20
4.271449999999999
 30
0.0
 10
-0.21864
 20
4.26255
 30
0.0
 10
-0.21864
 20
4.26255
 30
0.0
 10
-0.19111
 20
4.252979999999999
 30
0.0
 10
-0.17006
 20
4.23763
 30
0.0
 10
-0.15561
 20
4.21626
 30
0.0
 10
-0.15561
 20
4.21626
 30
0.0
 10
-0.14126
 20
4.195009999999999
 30
0.0
 10
-0.13404
 20
4.169529999999999
 30
0.0
 10
-0.13404
 20
4.140039999999999
 30
0.0
 10
-0.13404
 20
4.140039999999999
 30
0.0
 10
-0.13404
 20
4.09909
 30
0.0
 10
-0.14765
 20
4.06482
 30
0.0
 10
-0.17477
 20
4.036999999999999
 30
0.0
 10
-0.17477
 20
4.036999999999999
 30
0.0
 10
-0.202
 20
4.00919
 30
0.0
 10
-0.2378
 20
3.99528
 30
0.0
 10
-0.2822
 20
3.99528
 30
0.0
 10
-0.2822
 20
3.99528
 30
0.0
 10
-0.32659
 20
3.99528
 30
0.0
 10
-0.36229
 20
4.00919
 30
0.0
 10
-0.3895300000000001
 20
4.037119999999999
 30
0.0
 10
-0.3895300000000001
 20
4.037119999999999
 30
0.0
 10
-0.4167500000000001
 20
4.065039999999999
 30
0.0
 10
-0.4303600000000001
 20
4.09987
 30
0.0
 10
-0.4303600000000001
 20
4.1416
 30
0.0
 10
-0.4303600000000001
 20
4.1416
 30
0.0
 10
-0.4303600000000001
 20
4.17264
 30
0.0
 10
-0.42292
 20
4.19868
 30
0.0
 10
-0.4080500000000001
 20
4.21971
 30
0.0
 10
-0.4080500000000001
 20
4.21971
 30
0.0
 10
-0.39329
 20
4.24063
 30
0.0
 10
-0.37214
 20
4.25499
 30
0.0
 10
-0.34471
 20
4.26255
 30
0.0
  0
SPLINE
  5
5F
330
1F
100
AcDbEntity
  8
layer 1
 62
   250
100
AcDbSpline
210
0.0
220
0.0
230
1.0
 70
     9
 71
     3
 72
    36
 73
    32
 74
     0
 42
0.0000000001
 43
0.0000000001
 40
0.0
 40
0.0
 40
0.0
 40
0.0
 40
0.1111111111111111
 40
0.1111111111111111
 40
0.1111111111111111
 40
0.1111111111111111
 40
0.2222222222222222
 40
0.2222222222222222
 40
0.2222222222222222
 40
0.2222222222222222
 40
0.3333333333333333
 40
0.3333333333333333
 40
0.3333333333333333
 40
0.3333333333333333
 40
0.4444444444444445
 40
0.4444444444444445
 40
0.4444444444444445
 40
0.4444444444444445
 40
0.5555555555555556
 40
0.5555555555555556
 40
0.5555555555555556
 40
0.5555555555555556
 40
0.6666666666666666
 40
0.6666666666666666
 40
0.6666666666666666
 40
0.6666666666666666
 40
0.7777777777777778
 40
0.7777777777777778
 40
0.7777777777777778
 40
0.7777777777777778
 40
1.0
 40
1.0
 40
1.0
 40
1.0
 10
-0.35581
 20
4.362029999999999
 30
0.0
 10
-0.35581
 20
4.339439999999999
 30
0.0
 10
-0.34889
 20
4.320969999999999
 30
0.0
 10
-0.33529
 20
4.306619999999999
 30
0.0
 10
-0.33529
 20
4.306619999999999
 30
0.0
 10
-0.32157
 20
4.292259999999999
 30
0.0
 10
-0.30376
 20
4.285029999999999
 30
0.0
 10
-0.28189
 20
4.285029999999999
 30
0.0
 10
-0.28189
 20
4.285029999999999
 30
0.0
 10
-0.26063
 20
4.285029999999999
 30
0.0
 10
-0.24315
 20
4.29215
 30
0.0
 10
-0.22953
 20
4.30639
 30
0.0
 10
-0.22953
 20
4.30639
 30
0.0
 10
-0.21592
 20
4.32064
 30
0.0
 10
-0.20922
 20
4.338109999999999
 30
0.0
 10
-0.20922
 20
4.35869
 30
0.0
 10
-0.20922
 20
4.35869
 30
0.0
 10
-0.20922
 20
4.380279999999999
 30
0.0
 10
-0.21613
 20
4.398299999999999
 30
0.0
 10
-0.23016
 20
4.412989999999999
 30
0.0
 10
-0.23016
 20
4.412989999999999
 30
0.0
 10
-0.24419
 20
4.42768
 30
0.0
 10
-0.2615699999999999
 20
4.435019999999999
 30
0.0
 10
-0.28252
 20
4.435019999999999
 30
0.0
 10
-0.28252
 20
4.435019999999999
 30
0.0
 10
-0.30356
 20
4.435019999999999
 30
0.0
 10
-0.32104
 20
4.427789999999999
 30
0.0
 10
-0.33497
 20
4.413549999999999
 30
0.0
 10
-0.33497
 20
4.413549999999999
 30
0.0
 10
-0.34889
 20
4.399189999999999
 30
0.0
 10
-0.35581
 20
4.381949999999999
 30
0.0
 10
-0.35581
 20
4.362029999999999
 30
0.0
  0
SPLINE
  5
60
330
1F
100
AcDbEntity
  8
layer 1
 62
   250
100
AcDbSpline
210
0.0
220
0.0
230
1.0
 70
     9
 71
     3
 72
    40
 73
    36
 74
     0
 42
0.0000000001
 43
0.0000000001
 40
0.0
 40
0.0
 40
0.0
 40
0.0
 40
0.1
 40
0.1
 40
0.1
 40
0.1
 40
0.2
 40
0.2
 40
0.2
 40
0.2
 40
0.3
 40
0.3
 40
0.3
 40
0.3
 40
0.4
 40
0.4
 40
0.4
 40
0.4
 40
0.5
 40
0.5
 40
0.5
 40
0.5
 40
0.6
 40
0.6
 40
0.6
 40
0.6
 40
0.7
 40
0.7
 40
0.7
 40
0.7
 40
0.8
 40
0.8
 40
0.8
 40
0.8
 40
1.0
 40
1.0
 40
1.0
 40
1.0
 10
-0.3736
 20
4.141269999999999
 30
0.0
 10
-0.3736
 20
4.124569999999999
 30
0.0
 10
-0.36984
 20
4.10833
 30
0.0
 10
-0.36241
 20
4.092749999999999
 30
0.0
 10
-0.36241
 20
4.092749999999999
 30
0.0
 10
-0.35497
 20
4.077059999999999
 30
0.0
 10
-0.34387
 20
4.06493
 30
0.0
 10
-0.3291
 20
4.056369999999999
 30
0.0
 10
-0.3291
 20
4.056369999999999
 30
0.0
 10
-0.31434
 20
4.047799999999999
 30
0.0
 10
-0.29853
 20
4.043459999999999
 30
0.0
 10
-0.28157
 20
4.043459999999999
 30
0.0
 10
-0.28157
 20
4.043459999999999
 30
0.0
 10
-0.25518
 20
4.043459999999999
 30
0.0
 10
-0.23341
 20
4.052469999999999
 30
0.0
 10
-0.21623
 20
4.07061
 30
0.0
 10
-0.21623
 20
4.07061
 30
0.0
 10
-0.19906
 20
4.08863
 30
0.0
 10
-0.19048
 20
4.111559999999999
 30
0.0
 10
-0.19048
 20
4.139369999999999
 30
0.0
 10
-0.19048
 20
4.139369999999999
 30
0.0
 10
-0.19048
 20
4.16764
 30
0.0
 10
-0.19927
 20
4.190999999999999
 30
0.0
 10
-0.21697
 20
4.20948
 30
0.0
 10
-0.21697
 20
4.20948
 30
0.0
 10
-0.23466
 20
4.227949999999999
 30
0.0
 10
-0.25686
 20
4.23718
 30
0.0
 10
-0.28346
 20
4.23718
 30
0.0
 10
-0.28346
 20
4.23718
 30
0.0
 10
-0.30942
 20
4.23718
 30
0.0
 10
-0.33088
 20
4.22806
 30
0.0
 10
-0.34795
 20
4.20981
 30
0.0
 10
-0.34795
 20
4.20981
 30
0.0
 10
-0.3650199999999999
 20
4.191449999999999
 30
0.0
 10
-0.3736
 20
4.168639999999999
 30
0.0
 10
-0.3736
 20
4.141269999999999
 30
0.0
  0
SPLINE
  5
61
330
1F
100
AcDbEntity
  8
layer 1
 62
   250
100
AcDbSpline
210
0.0
220
0.0
230
1.0
 70
    11
 71
     3
 72
    40
 73
    36
 74
     0
 42
0.0000000001
 43
0.0000000001
 40
0.0
 40
0.0
 40
0.0
 40
0.0
 40
0.1
 40
0.1
 40
0.1
 40
0.1
 40
0.2
 40
0.2
 40
0.2
 40
0.2
 40
0.3
 40
0.3
 40
0.3
 40
0.3
 40
0.4
 40
0.4
 40
0.4
 40
0.4
 40
0.5
 40
0.5
 40
0.5
 40
0.5
 40
0.6
 40
0.6
 40
0.6
 40
0.6
 40
0.7
 40
0.7
 40
0.7
 40
0.7
 40
0.8
 40
0.8
 40
0.8
 40
0.8
 40
1.0
 40
1.0
 40
1.0
 40
1.0
 10
0.16253
 20
4.0034
 30
0.0
 10
0.16253
 20
4.0034
 30
0.0
 10
0.10735
 20
4.0034
 30
0.0
 10
0.10735
 20
4.0034
 30
0.0
 10
0.10735
 20
4.0034
 30
0.0
 10
0.10735
 20
4.0034
 30
0.0
 10
0.10735
 20
4.377269999999999
 30
0.0
 10
0.10735
 20
4.377269999999999
 30
0.0
 10
0.10735
 20
4.377269999999999
 30
0.0
 10
0.09405
 20
4.363809999999999
 30
0.0
 10
0.07667
 20
4.350349999999999
 30
0.0
 10
0.0551
 20
4.33688
 30
0.0
 10
0.0551
 20
4.33688
 30
0.0
 10
0.03342
 20
4.323419999999999
 30
0.0
 10
0.01406
 20
4.31329
 30
0.0
 10
-0.00312
 20
4.306619999999999
 30
0.0
 10
-0.00312
 20
4.306619999999999
 30
0.0
 10
-0.00312
 20
4.306619999999999
 30
0.0
 10
-0.00312
 20
4.363249999999999
 30
0.0
 10
-0.00312
 20
4.363249999999999
 30
0.0
 10
-0.00312
 20
4.363249999999999
 30
0.0
 10
0.02778
 20
4.378719999999999
 30
0.0
 10
0.05478
 20
4.397409999999999
 30
0.0
 10
0.07792
 20
4.41933
 30
0.0
 10
0.07792
 20
4.41933
 30
0.0
 10
0.10096
 20
4.44137
 30
0.0
 10
0.1174
 20
4.462619999999999
 30
0.0
 10
0.12703
 20
4.483309999999999
 30
0.0
 10
0.12703
 20
4.483309999999999
 30
0.0
 10
0.12703
 20
4.483309999999999
 30
0.0
 10
0.16253
 20
4.483309999999999
 30
0.0
 10
0.16253
 20
4.483309999999999
 30
0.0
 10
0.16253
 20
4.483309999999999
 30
0.0
 10
0.16253
 20
4.483309999999999
 30
0.0
 10
0.16253
 20
4.0034
 30
0.0
 10
0.16253
 20
4.0034
 30
0.0
  0
SPLINE
  5
62
330
1F
100
AcDbEntity
  8
layer 1
 62
   250
100
AcDbSpline
210
0.0
220
0.0
230
1.0
 70
    11
 71
     3
 72
    64
 73
    60
 74
     0
 42
0.0000000001
 43
0.0000000001
 40
0.0
 40
0.0
 40
0.0
 40
0.0
 40
0.0625
 40
0.0625
 40
0.0625
 40
0.0625
 40
0.125
 40
0.125
 40
0.125
 40
0.125
 40
0.1875
 40
0.1875
 40
0.1875
 40
0.1875
 40
0.25
 40
0.25
 40
0.25
 40
0.25
 40
0.3125
 40
0.3125
 40
0.3125
 40
0.3125
 40
0.375
 40
0.375
 40
0.375
 40
0.375
 40
0.4375
 40
0.4375
 40
0.4375
 40
0.4375
 40
0.5
 40
0.5
 40
0.5
 40
0.5
 40
0.5625
 40
0.5625
 40
0.5625
 40
0.5625
 40
0.625
 40
0.625
 40
0.625
 40
0.625
 40
0.6875
 40
0.6875
 40
0.6875
 40
0.6875
 40
0.75
 40
0.75
 40
0.75
 40
0.75
 40
0.8125
 40
0.8125
 40
0.8125
 40
0.8125
 40
0.875
 40
0.875
 40
0.875
 40
0.875
 40
1.0
 40
1.0
 40
1.0
 40
1.0
 10
0.35942
 20
4.0034
 30
0.0
 10
0.35942
 20
4.0034
 30
0.0
 10
0.35942
 20
4.481309999999999
 30
0.0
 10
0.35942
 20
4.481309999999999
 30
0.0
 10
0.35942
 20
4.481309999999999
 30
0.0
 10
0.35942
 20
4.481309999999999
 30
0.0
 10
0.44904
 20
4.481309999999999
 30
0.0
 10
0.44904
 20
4.481309999999999
 30
0.0
 10
0.44904
 20
4.481309999999999
 30
0.0
 10
0.44904
 20
4.481309999999999
 30
0.0
 10
0.55543
 20
4.14293
 30
0.0
 10
0.55543
 20
4.14293
 30
0.0
 10
0.55543
 20
4.14293
 30
0.0
 10
0.56527
 20
4.111439999999999
 30
0.0
 10
0.57249
 20
4.08786
 30
0.0
 10
0.5768900000000001
 20
4.072169999999999
 30
0.0
 10
0.5768900000000001
 20
4.072169999999999
 30
0.0
 10
0.58202
 20
4.089519999999999
 30
0.0
 10
0.5899800000000001
 20
4.11512
 30
0.0
 10
0.6008700000000001
 20
4.14883
 30
0.0
 10
0.6008700000000001
 20
4.14883
 30
0.0
 10
0.6008700000000001
 20
4.14883
 30
0.0
 10
0.7085100000000001
 20
4.481309999999999
 30
0.0
 10
0.7085100000000001
 20
4.481309999999999
 30
0.0
 10
0.7085100000000001
 20
4.481309999999999
 30
0.0
 10
0.7085100000000001
 20
4.481309999999999
 30
0.0
 10
0.7886
 20
4.481309999999999
 30
0.0
 10
0.7886
 20
4.481309999999999
 30
0.0
 10
0.7886
 20
4.481309999999999
 30
0.0
 10
0.7886
 20
4.481309999999999
 30
0.0
 10
0.7886
 20
4.0034
 30
0.0
 10
0.7886
 20
4.0034
 30
0.0
 10
0.7886
 20
4.0034
 30
0.0
 10
0.7886
 20
4.0034
 30
0.0
 10
0.73122
 20
4.0034
 30
0.0
 10
0.73122
 20
4.0034
 30
0.0
 10
0.73122
 20
4.0034
 30
0.0
 10
0.73122
 20
4.0034
 30
0.0
 10
0.73122
 20
4.403419999999999
 30
0.0
 10
0.73122
 20
4.403419999999999
 30
0.0
 10
0.73122
 20
4.403419999999999
 30
0.0
 10
0.73122
 20
4.403419999999999
 30
0.0
 10
0.6005500000000001
 20
4.0034
 30
0.0
 10
0.6005500000000001
 20
4.0034
 30
0.0
 10
0.6005500000000001
 20
4.0034
 30
0.0
 10
0.6005500000000001
 20
4.0034
 30
0.0
 10
0.54684
 20
4.0034
 30
0.0
 10
0.54684
 20
4.0034
 30
0.0
 10
0.54684
 20
4.0034
 30
0.0
 10
0.54684
 20
4.0034
 30
0.0
 10
0.41679
 20
4.41021
 30
0.0
 10
0.41679
 20
4.41021
 30
0.0
 10
0.41679
 20
4.41021
 30
0.0
 10
0.41679
 20
4.41021
 30
0.0
 10
0.41679
 20
4.0034
 30
0.0
 10
0.41679
 20
4.0034
 30
0.0
 10
0.41679
 20
4.0034
 30
0.0
 10
0.41679
 20
4.0034
 30
0.0
 10
0.35942
 20
4.0034
 30
0.0
 10
0.35942
 20
4.0034
 30
0.0
  0
SPLINE
  5
63
330
1F
100
AcDbEntity
  8
layer 1
 62
   250
100
AcDbSpline
210
0.0
220
0.0
230
1.0
 70
    11
 71
     3
 72
    64
 73
    60
 74
     0
 42
0.0000000001
 43
0.0000000001
 40
0.0
 40
0.0
 40
0.0
 40
0.0
 40
0.0625
 40
0.0625
 40
0.0625
 40
0.0625
 40
0.125
 40
0.125
 40
0.125
 40
0.125
 40
0.1875
 40
0.1875
 40
0.1875
 40
0.1875
 40
0.25
 40
0.25
 40
0.25
 40
0.25
 40
0.3125
 40
0.3125
 40
0.3125
 40
0.3125
 40
0.375
 40
0.375
 40
0.375
 40
0.375
 40
0.4375
 40
0.4375
 40
0.4375
 40
0.4375
 40
0.5
 40
0.5
 40
0.5
 40
0.5
 40
0.5625
 40
0.5625
 40
0.5625
 40
0.5625
 40
0.625
 40
0.625
 40
0.625
 40
0.625
 40
0.6875
 40
0.6875
 40
0.6875
 40
0.6875
 40
0.75
 40
0.75
 40
0.75
 40
0.75
 40
0.8125
 40
0.8125
 40
0.8125
 40
0.8125
 40
0.875
 40
0.875
 40
0.875
 40
0.875
 40
1.0
 40
1.0
 40
1.0
 40
1.0
 10
0.9176499999999998
 20
4.0034
 30
0.0
 10
0.9176499999999998
 20
4.0034
 30
0.0
 10
0.9176499999999998
 20
4.481309999999999
 30
0.0
 10
0.9176499999999998
 20
4.481309999999999
 30
0.0
 10
0.9176499999999998
 20
4.481309999999999
 30
0.0
 10
0.9176499999999998
 20
4.481309999999999
 30
0.0
 10
1.00727
 20
4.481309999999999
 30
0.0
 10
1.00727
 20
4.481309999999999
 30
0.0
 10
1.00727
 20
4.481309999999999
 30
0.0
 10
1.00727
 20
4.481309999999999
 30
0.0
 10
1.11366
 20
4.14293
 30
0.0
 10
1.11366
 20
4.14293
 30
0.0
 10
1.11366
 20
4.14293
 30
0.0
 10
1.123499999999999
 20
4.111439999999999
 30
0.0
 10
1.13072
 20
4.08786
 30
0.0
 10
1.13512
 20
4.072169999999999
 30
0.0
 10
1.13512
 20
4.072169999999999
 30
0.0
 10
1.140249999999999
 20
4.089519999999999
 30
0.0
 10
1.148209999999999
 20
4.11512
 30
0.0
 10
1.1591
 20
4.14883
 30
0.0
 10
1.1591
 20
4.14883
 30
0.0
 10
1.1591
 20
4.14883
 30
0.0
 10
1.266739999999999
 20
4.481309999999999
 30
0.0
 10
1.266739999999999
 20
4.481309999999999
 30
0.0
 10
1.266739999999999
 20
4.481309999999999
 30
0.0
 10
1.266739999999999
 20
4.481309999999999
 30
0.0
 10
1.34684
 20
4.481309999999999
 30
0.0
 10
1.34684
 20
4.481309999999999
 30
0.0
 10
1.34684
 20
4.481309999999999
 30
0.0
 10
1.34684
 20
4.481309999999999
 30
0.0
 10
1.34684
 20
4.0034
 30
0.0
 10
1.34684
 20
4.0034
 30
0.0
 10
1.34684
 20
4.0034
 30
0.0
 10
1.34684
 20
4.0034
 30
0.0
 10
1.28946
 20
4.0034
 30
0.0
 10
1.28946
 20
4.0034
 30
0.0
 10
1.28946
 20
4.0034
 30
0.0
 10
1.28946
 20
4.0034
 30
0.0
 10
1.28946
 20
4.403419999999999
 30
0.0
 10
1.28946
 20
4.403419999999999
 30
0.0
 10
1.28946
 20
4.403419999999999
 30
0.0
 10
1.28946
 20
4.403419999999999
 30
0.0
 10
1.158779999999999
 20
4.0034
 30
0.0
 10
1.158779999999999
 20
4.0034
 30
0.0
 10
1.158779999999999
 20
4.0034
 30
0.0
 10
1.158779999999999
 20
4.0034
 30
0.0
 10
1.105069999999999
 20
4.0034
 30
0.0
 10
1.105069999999999
 20
4.0034
 30
0.0
 10
1.105069999999999
 20
4.0034
 30
0.0
 10
1.105069999999999
 20
4.0034
 30
0.0
 10
0.9750200000000001
 20
4.41021
 30
0.0
 10
0.9750200000000001
 20
4.41021
 30
0.0
 10
0.9750200000000001
 20
4.41021
 30
0.0
 10
0.9750200000000001
 20
4.41021
 30
0.0
 10
0.9750200000000001
 20
4.0034
 30
0.0
 10
0.9750200000000001
 20
4.0034
 30
0.0
 10
0.9750200000000001
 20
4.0034
 30
0.0
 10
0.9750200000000001
 20
4.0034
 30
0.0
 10
0.9176499999999998
 20
4.0034
 30
0.0
 10
0.9176499999999998
 20
4.0034
 30
0.0
  0
SPLINE
  5
BF
330
1F
100
AcDbEntity
  8
layer 1
 62
   250
100
AcDbSpline
210
0.0
220
0.0
230
1.0
 70
    11
 71
     3
 72
    92
 73
    88
 74
     0
 42
0.0000000001
 43
0.0000000001
 40
0.0
 40
0.0
 40
0.0
 40
0.0
 40
0.0434782608695652
 40
0.0434782608695652
 40
0.0434782608695652
 40
0.0652173913043478
 40
0.0869565217391304
 40
0.0869565217391304
 40
0.0869565217391304
 40
0.108695652173913
 40
0.1304347826086956
 40
0.1304347826086956
 40
0.1304347826086956
 40
0.1521739130434782
 40
0.1739130434782609
 40
0.1739130434782609
 40
0.1739130434782609
 40
0.1956521739130435
 40
0.2173913043478261
 40
0.2173913043478261
 40
0.2173913043478261
 40
0.2391304347826087
 40
0.2608695652173913
 40
0.2608695652173913
 40
0.2608695652173913
 40
0.2826086956521739
 40
0.3043478260869565
 40
0.3043478260869565
 40
0.3043478260869565
 40
0.3260869565217391
 40
0.3478260869565217
 40
0.3478260869565217
 40
0.3478260869565217
 40
0.3695652173913043
 40
0.391304347826087
 40
0.391304347826087
 40
0.391304347826087
 40
0.4130434782608697
 40
0.4347826086956523
 40
0.4347826086956523
 40
0.4347826086956523
 40
0.4565217391304348
 40
0.4782608695652174
 40
0.4782608695652174
 40
0.4782608695652174
 40
0.5
 40
0.5217391304347827
 40
0.5217391304347827
 40
0.5217391304347827
 40
0.5434782608695653
 40
0.5652173913043478
 40
0.5652173913043478
 40
0.5652173913043478
 40
0.5869565217391304
 40
0.6086956521739131
 40
0.6086956521739131
 40
0.6086956521739131
 40
0.6304347826086957
 40
0.6521739130434784
 40
0.6521739130434784
 40
0.6521739130434784
 40
0.6739130434782609
 40
0.6956521739130435
 40
0.6956521739130435
 40
0.6956521739130435
 40
0.7173913043478261
 40
0.7391304347826086
 40
0.7391304347826086
 40
0.7391304347826086
 40
0.7608695652173914
 40
0.7826086956521741
 40
0.7826086956521741
 40
0.7826086956521741
 40
0.8043478260869566
 40
0.826086956521739
 40
0.826086956521739
 40
0.826086956521739
 40
0.8478260869565216
 40
0.8695652173913043
 40
0.8695652173913043
 40
0.8695652173913043
 40
0.8913043478260869
 40
0.9130434782608695
 40
0.9130434782608695
 40
0.9130434782608695
 40
0.9565217391304347
 40
1.0
 40
1.0
 40
1.0
 40
1.0
 10
18.6134
 20
18.77606999999973
 30
0.0
 10
18.6134
 20
18.77606999999973
 30
0.0
 10
18.6134
 20
18.73859999999973
 30
0.0
 10
18.6134
 20
18.73859999999973
 30
0.0
 10
18.6134
 20
18.73859999999973
 30
0.0
 10
18.6134
 20
18.73859999999973
 30
0.0
 10
18.4036
 20
18.73859999999973
 30
0.0
 10
18.4036
 20
18.73859999999973
 30
0.0
 10
18.4036
 20
18.73859999999973
 30
0.0
 10
18.4033
 20
18.74798999999972
 30
0.0
 10
18.40478
 20
18.75699999999973
 30
0.0
 10
18.40811
 20
18.76564999999972
 30
0.0
 10
18.40811
 20
18.76564999999972
 30
0.0
 10
18.41343
 20
18.77997999999973
 30
0.0
 10
18.422
 20
18.79402999999973
 30
0.0
 10
18.43375
 20
18.80791999999973
 30
0.0
 10
18.43375
 20
18.80791999999973
 30
0.0
 10
18.44558
 20
18.82173999999973
 30
0.0
 10
18.46257
 20
18.83776999999973
 30
0.0
 10
18.48474
 20
18.85594999999973
 30
0.0
 10
18.48474
 20
18.85594999999973
 30
0.0
 10
18.51925
 20
18.88425999999973
 30
0.0
 10
18.54261
 20
18.90664999999973
 30
0.0
 10
18.55473
 20
18.92319999999973
 30
0.0
 10
18.55473
 20
18.92319999999973
 30
0.0
 10
18.56684
 20
18.93967999999973
 30
0.0
 10
18.5729
 20
18.95534999999973
 30
0.0
 10
18.5729
 20
18.97004999999973
 30
0.0
 10
18.5729
 20
18.97004999999973
 30
0.0
 10
18.5729
 20
18.98549999999973
 30
0.0
 10
18.56736
 20
18.99850999999973
 30
0.0
 10
18.55635
 20
19.00914999999972
 30
0.0
 10
18.55635
 20
19.00914999999972
 30
0.0
 10
18.54527
 20
19.01971999999973
 30
0.0
 10
18.53086
 20
19.02503999999973
 30
0.0
 10
18.51312
 20
19.02503999999973
 30
0.0
 10
18.51312
 20
19.02503999999973
 30
0.0
 10
18.49435
 20
19.02503999999973
 30
0.0
 10
18.47935
 20
19.01941999999973
 30
0.0
 10
18.46811
 20
19.00810999999973
 30
0.0
 10
18.46811
 20
19.00810999999973
 30
0.0
 10
18.45681
 20
18.99687999999972
 30
0.0
 10
18.45112
 20
18.98128999999973
 30
0.0
 10
18.45097
 20
18.96140999999973
 30
0.0
 10
18.45097
 20
18.96140999999973
 30
0.0
 10
18.45097
 20
18.96140999999973
 30
0.0
 10
18.41092
 20
18.96546999999973
 30
0.0
 10
18.41092
 20
18.96546999999973
 30
0.0
 10
18.41092
 20
18.96546999999973
 30
0.0
 10
18.41365
 20
18.99539999999973
 30
0.0
 10
18.424
 20
19.01815999999973
 30
0.0
 10
18.44188
 20
19.03382999999973
 30
0.0
 10
18.44188
 20
19.03382999999973
 30
0.0
 10
18.45976
 20
19.04949999999973
 30
0.0
 10
18.48386
 20
19.05732999999973
 30
0.0
 10
18.51401
 20
19.05732999999973
 30
0.0
 10
18.51401
 20
19.05732999999973
 30
0.0
 10
18.54445
 20
19.05732999999973
 30
0.0
 10
18.56854
 20
19.04882999999973
 30
0.0
 10
18.58628
 20
19.03197999999973
 30
0.0
 10
18.58628
 20
19.03197999999973
 30
0.0
 10
18.60409
 20
19.01505999999973
 30
0.0
 10
18.61296
 20
18.99414999999972
 30
0.0
 10
18.61296
 20
18.96916999999973
 30
0.0
 10
18.61296
 20
18.96916999999973
 30
0.0
 10
18.61296
 20
18.95645999999973
 30
0.0
 10
18.61037
 20
18.94396999999973
 30
0.0
 10
18.60513
 20
18.93169999999973
 30
0.0
 10
18.60513
 20
18.93169999999973
 30
0.0
 10
18.59995
 20
18.91942999999973
 30
0.0
 10
18.59131
 20
18.90649999999973
 30
0.0
 10
18.57926
 20
18.89297999999973
 30
0.0
 10
18.57926
 20
18.89297999999973
 30
0.0
 10
18.56721
 20
18.87937999999973
 30
0.0
 10
18.54719
 20
18.86075999999973
 30
0.0
 10
18.51918
 20
18.83710999999973
 30
0.0
 10
18.51918
 20
18.83710999999973
 30
0.0
 10
18.49583
 20
18.81744999999973
 30
0.0
 10
18.48083
 20
18.80414999999973
 30
0.0
 10
18.47417
 20
18.79712999999973
 30
0.0
 10
18.47417
 20
18.79712999999973
 30
0.0
 10
18.46752
 20
18.79017999999973
 30
0.0
 10
18.46205
 20
18.78315999999973
 30
0.0
 10
18.45769
 20
18.77606999999973
 30
0.0
 10
18.45769
 20
18.77606999999973
 30
0.0
 10
18.45769
 20
18.77606999999973
 30
0.0
 10
18.6134
 20
18.77606999999973
 30
0.0
 10
18.6134
 20
18.77606999999973
 30
0.0
  0
SPLINE
  5
C0
330
1F
100
AcDbEntity
  8
layer 1
 62
   250
100
AcDbSpline
210
0.0
220
0.0
230
1.0
 70
     9
 71
     3
 72
    52
 73
    48
 74
     0
 42
0.0000000001
 43
0.0000000001
 40
0.0
 40
0.0
 40
0.0
 40
0.0
 40
0.0769230769230769
 40
0.0769230769230769
 40
0.0769230769230769
 40
0.1153846153846154
 40
0.1538461538461539
 40
0.1538461538461539
 40
0.1538461538461539
 40
0.1923076923076923
 40
0.2307692307692308
 40
0.2307692307692308
 40
0.2307692307692308
 40
0.2692307692307692
 40
0.3076923076923077
 40
0.3076923076923077
 40
0.3076923076923077
 40
0.3461538461538462
 40
0.3846153846153846
 40
0.3846153846153846
 40
0.3846153846153846
 40
0.4230769230769232
 40
0.4615384615384616
 40
0.4615384615384616
 40
0.4615384615384616
 40
0.5
 40
0.5384615384615385
 40
0.5384615384615385
 40
0.5384615384615385
 40
0.5769230769230769
 40
0.6153846153846155
 40
0.6153846153846155
 40
0.6153846153846155
 40
0.6538461538461539
 40
0.6923076923076924
 40
0.6923076923076924
 40
0.6923076923076924
 40
0.7307692307692309
 40
0.7692307692307693
 40
0.7692307692307693
 40
0.7692307692307693
 40
0.8076923076923076
 40
0.8461538461538461
 40
0.8461538461538461
 40
0.8461538461538461
 40
0.9230769230769231
 40
1.0
 40
1.0
 40
1.0
 40
1.0
 10
18.67979
 20
18.89511999999973
 30
0.0
 10
18.67979
 20
18.93265999999973
 30
0.0
 10
18.68363
 20
18.96288999999972
 30
0.0
 10
18.69139
 20
18.98571999999973
 30
0.0
 10
18.69139
 20
18.98571999999973
 30
0.0
 10
18.69908
 20
19.00862999999972
 30
0.0
 10
18.71061
 20
19.02628999999973
 30
0.0
 10
18.72583
 20
19.03870999999973
 30
0.0
 10
18.72583
 20
19.03870999999973
 30
0.0
 10
18.74105
 20
19.05111999999973
 30
0.0
 10
18.76019
 20
19.05732999999973
 30
0.0
 10
18.78325
 20
19.05732999999973
 30
0.0
 10
18.78325
 20
19.05732999999973
 30
0.0
 10
18.80032
 20
19.05732999999973
 30
0.0
 10
18.81525
 20
19.05385999999973
 30
0.0
 10
18.82811
 20
19.04697999999973
 30
0.0
 10
18.82811
 20
19.04697999999973
 30
0.0
 10
18.84097
 20
19.04018999999973
 30
0.0
 10
18.85153
 20
19.03027999999973
 30
0.0
 10
18.85996
 20
19.01734999999973
 30
0.0
 10
18.85996
 20
19.01734999999973
 30
0.0
 10
18.86831
 20
19.00441999999973
 30
0.0
 10
18.87489
 20
18.98867999999973
 30
0.0
 10
18.87962
 20
18.97012999999972
 30
0.0
 10
18.87962
 20
18.97012999999972
 30
0.0
 10
18.88442
 20
18.95157999999972
 30
0.0
 10
18.88679
 20
18.92659999999973
 30
0.0
 10
18.88679
 20
18.89511999999973
 30
0.0
 10
18.88679
 20
18.89511999999973
 30
0.0
 10
18.88679
 20
18.85786999999973
 30
0.0
 10
18.88294
 20
18.82786999999973
 30
0.0
 10
18.87533
 20
18.80495999999973
 30
0.0
 10
18.87533
 20
18.80495999999973
 30
0.0
 10
18.86764
 20
18.78204999999972
 30
0.0
 10
18.85619
 20
18.76438999999973
 30
0.0
 10
18.84097
 20
18.75189999999973
 30
0.0
 10
18.84097
 20
18.75189999999973
 30
0.0
 10
18.82574
 20
18.73940999999973
 30
0.0
 10
18.80653
 20
18.73320999999973
 30
0.0
 10
18.78325
 20
18.73320999999973
 30
0.0
 10
18.78325
 20
18.73320999999973
 30
0.0
 10
18.75266
 20
18.73320999999973
 30
0.0
 10
18.72864
 20
18.74413999999973
 30
0.0
 10
18.7112
 20
18.76608999999973
 30
0.0
 10
18.7112
 20
18.76608999999973
 30
0.0
 10
18.69028
 20
18.79246999999973
 30
0.0
 10
18.67979
 20
18.83555999999973
 30
0.0
 10
18.67979
 20
18.89511999999973
 30
0.0
  0
SPLINE
  5
C1
330
1F
100
AcDbEntity
  8
layer 1
 62
   250
100
AcDbSpline
210
0.0
220
0.0
230
1.0
 70
    11
 71
     3
 72
    36
 73
    32
 74
     0
 42
0.0000000001
 43
0.0000000001
 40
0.0
 40
0.0
 40
0.0
 40
0.0
 40
0.1111111111111111
 40
0.1111111111111111
 40
0.1111111111111111
 40
0.1666666666666666
 40
0.2222222222222222
 40
0.2222222222222222
 40
0.2222222222222222
 40
0.2777777777777778
 40
0.3333333333333333
 40
0.3333333333333333
 40
0.3333333333333333
 40
0.3888888888888888
 40
0.4444444444444445
 40
0.4444444444444445
 40
0.4444444444444445
 40
0.5
 40
0.5555555555555556
 40
0.5555555555555556
 40
0.5555555555555556
 40
0.6111111111111112
 40
0.6666666666666666
 40
0.6666666666666666
 40
0.6666666666666666
 40
0.7222222222222223
 40
0.7777777777777778
 40
0.7777777777777778
 40
0.7777777777777778
 40
0.8888888888888889
 40
1.0
 40
1.0
 40
1.0
 40
1.0
 10
18.71984
 20
18.89511999999973
 30
0.0
 10
18.71984
 20
18.84301999999973
 30
0.0
 10
18.72598
 20
18.80835999999973
 30
0.0
 10
18.73817
 20
18.79106999999973
 30
0.0
 10
18.73817
 20
18.79106999999973
 30
0.0
 10
18.75037
 20
18.77384999999973
 30
0.0
 10
18.76537
 20
18.76519999999973
 30
0.0
 10
18.78325
 20
18.76519999999973
 30
0.0
 10
18.78325
 20
18.76519999999973
 30
0.0
 10
18.80121
 20
18.76519999999973
 30
0.0
 10
18.81621
 20
18.77391999999973
 30
0.0
 10
18.8284
 20
18.79121999999973
 30
0.0
 10
18.8284
 20
18.79121999999973
 30
0.0
 10
18.8406
 20
18.80850999999973
 30
0.0
 10
18.84673
 20
18.84316999999973
 30
0.0
 10
18.84673
 20
18.89511999999973
 30
0.0
 10
18.84673
 20
18.89511999999973
 30
0.0
 10
18.84673
 20
18.94736999999973
 30
0.0
 10
18.8406
 20
18.98209999999973
 30
0.0
 10
18.8284
 20
18.99924999999973
 30
0.0
 10
18.8284
 20
18.99924999999973
 30
0.0
 10
18.81621
 20
19.01645999999973
 30
0.0
 10
18.80106
 20
19.02503999999973
 30
0.0
 10
18.78288
 20
19.02503999999973
 30
0.0
 10
18.78288
 20
19.02503999999973
 30
0.0
 10
18.76492
 20
19.02503999999973
 30
0.0
 10
18.75066
 20
19.01741999999973
 30
0.0
 10
18.73995
 20
19.00227999999973
 30
0.0
 10
18.73995
 20
19.00227999999973
 30
0.0
 10
18.72657
 20
18.98298999999973
 30
0.0
 10
18.71984
 20
18.94721999999973
 30
0.0
 10
18.71984
 20
18.89511999999973
 30
0.0
  0
SPLINE
  5
C2
330
1F
100
AcDbEntity
  8
layer 1
 62
   250
100
AcDbSpline
210
0.0
220
0.0
230
1.0
 70
     9
 71
     3
 72
    52
 73
    48
 74
     0
 42
0.0000000001
 43
0.0000000001
 40
0.0
 40
0.0
 40
0.0
 40
0.0
 40
0.0769230769230769
 40
0.0769230769230769
 40
0.0769230769230769
 40
0.1153846153846154
 40
0.1538461538461539
 40
0.1538461538461539
 40
0.1538461538461539
 40
0.1923076923076923
 40
0.2307692307692308
 40
0.2307692307692308
 40
0.2307692307692308
 40
0.2692307692307692
 40
0.3076923076923077
 40
0.3076923076923077
 40
0.3076923076923077
 40
0.3461538461538462
 40
0.3846153846153846
 40
0.3846153846153846
 40
0.3846153846153846
 40
0.4230769230769232
 40
0.4615384615384616
 40
0.4615384615384616
 40
0.4615384615384616
 40
0.5
 40
0.5384615384615385
 40
0.5384615384615385
 40
0.5384615384615385
 40
0.5769230769230769
 40
0.6153846153846155
 40
0.6153846153846155
 40
0.6153846153846155
 40
0.6538461538461539
 40
0.6923076923076924
 40
0.6923076923076924
 40
0.6923076923076924
 40
0.7307692307692309
 40
0.7692307692307693
 40
0.7692307692307693
 40
0.7692307692307693
 40
0.8076923076923076
 40
0.8461538461538461
 40
0.8461538461538461
 40
0.8461538461538461
 40
0.9230769230769231
 40
1.0
 40
1.0
 40
1.0
 40
1.0
 10
19.49853546715408
 20
18.89511999999973
 30
0.0
 10
19.49853546715408
 20
18.93265999999973
 30
0.0
 10
19.50237546715408
 20
18.96288999999972
 30
0.0
 10
19.51013546715408
 20
18.98571999999973
 30
0.0
 10
19.51013546715408
 20
18.98571999999973
 30
0.0
 10
19.51782546715408
 20
19.00862999999972
 30
0.0
 10
19.52935546715408
 20
19.02628999999973
 30
0.0
 10
19.54457546715408
 20
19.03870999999973
 30
0.0
 10
19.54457546715408
 20
19.03870999999973
 30
0.0
 10
19.55979546715408
 20
19.05111999999973
 30
0.0
 10
19.57893546715408
 20
19.05732999999973
 30
0.0
 10
19.60199546715408
 20
19.05732999999973
 30
0.0
 10
19.60199546715408
 20
19.05732999999973
 30
0.0
 10
19.61906546715408
 20
19.05732999999973
 30
0.0
 10
19.63399546715408
 20
19.05385999999973
 30
0.0
 10
19.64685546715408
 20
19.04697999999973
 30
0.0
 10
19.64685546715408
 20
19.04697999999973
 30
0.0
 10
19.65971546715408
 20
19.04018999999973
 30
0.0
 10
19.67027546715408
 20
19.03027999999973
 30
0.0
 10
19.67870546715408
 20
19.01734999999973
 30
0.0
 10
19.67870546715408
 20
19.01734999999973
 30
0.0
 10
19.68705546715408
 20
19.00441999999973
 30
0.0
 10
19.69363546715408
 20
18.98867999999973
 30
0.0
 10
19.69836546715408
 20
18.97012999999972
 30
0.0
 10
19.69836546715408
 20
18.97012999999972
 30
0.0
 10
19.70316546715408
 20
18.95157999999972
 30
0.0
 10
19.70553546715408
 20
18.92659999999973
 30
0.0
 10
19.70553546715408
 20
18.89511999999973
 30
0.0
 10
19.70553546715408
 20
18.89511999999973
 30
0.0
 10
19.70553546715408
 20
18.85786999999973
 30
0.0
 10
19.70168546715408
 20
18.82786999999973
 30
0.0
 10
19.69407546715408
 20
18.80495999999973
 30
0.0
 10
19.69407546715408
 20
18.80495999999973
 30
0.0
 10
19.68638546715408
 20
18.78204999999972
 30
0.0
 10
19.67493546715408
 20
18.76438999999973
 30
0.0
 10
19.65971546715408
 20
18.75189999999973
 30
0.0
 10
19.65971546715408
 20
18.75189999999973
 30
0.0
 10
19.64448546715408
 20
18.73940999999973
 30
0.0
 10
19.62527546715408
 20
18.73320999999973
 30
0.0
 10
19.60199546715408
 20
18.73320999999973
 30
0.0
 10
19.60199546715408
 20
18.73320999999973
 30
0.0
 10
19.57140546715408
 20
18.73320999999973
 30
0.0
 10
19.54738546715408
 20
18.74413999999973
 30
0.0
 10
19.52994546715408
 20
18.76608999999973
 30
0.0
 10
19.52994546715408
 20
18.76608999999973
 30
0.0
 10
19.50902546715408
 20
18.79246999999973
 30
0.0
 10
19.49853546715408
 20
18.83555999999973
 30
0.0
 10
19.49853546715408
 20
18.89511999999973
 30
0.0
  0
SPLINE
  5
C3
330
1F
100
AcDbEntity
  8
layer 1
 62
   250
100
AcDbSpline
210
0.0
220
0.0
230
1.0
 70
    11
 71
     3
 72
    36
 73
    32
 74
     0
 42
0.0000000001
 43
0.0000000001
 40
0.0
 40
0.0
 40
0.0
 40
0.0
 40
0.1111111111111111
 40
0.1111111111111111
 40
0.1111111111111111
 40
0.1666666666666666
 40
0.2222222222222222
 40
0.2222222222222222
 40
0.2222222222222222
 40
0.2777777777777778
 40
0.3333333333333333
 40
0.3333333333333333
 40
0.3333333333333333
 40
0.3888888888888888
 40
0.4444444444444445
 40
0.4444444444444445
 40
0.4444444444444445
 40
0.5
 40
0.5555555555555556
 40
0.5555555555555556
 40
0.5555555555555556
 40
0.6111111111111112
 40
0.6666666666666666
 40
0.6666666666666666
 40
0.6666666666666666
 40
0.7222222222222223
 40
0.7777777777777778
 40
0.7777777777777778
 40
0.7777777777777778
 40
0.8888888888888889
 40
1.0
 40
1.0
 40
1.0
 40
1.0
 10
19.53858546715408
 20
18.89511999999973
 30
0.0
 10
19.53858546715408
 20
18.84301999999973
 30
0.0
 10
19.54472546715408
 20
18.80835999999973
 30
0.0
 10
19.55691546715408
 20
18.79106999999973
 30
0.0
 10
19.55691546715408
 20
18.79106999999973
 30
0.0
 10
19.56911546715408
 20
18.77384999999973
 30
0.0
 10
19.58411546715408
 20
18.76519999999973
 30
0.0
 10
19.60199546715408
 20
18.76519999999973
 30
0.0
 10
19.60199546715408
 20
18.76519999999973
 30
0.0
 10
19.61995546715408
 20
18.76519999999973
 30
0.0
 10
19.63495546715408
 20
18.77391999999973
 30
0.0
 10
19.64714546715408
 20
18.79121999999973
 30
0.0
 10
19.64714546715408
 20
18.79121999999973
 30
0.0
 10
19.65934546715408
 20
18.80850999999973
 30
0.0
 10
19.66547546715408
 20
18.84316999999973
 30
0.0
 10
19.66547546715408
 20
18.89511999999973
 30
0.0
 10
19.66547546715408
 20
18.89511999999973
 30
0.0
 10
19.66547546715408
 20
18.94736999999973
 30
0.0
 10
19.65934546715408
 20
18.98209999999973
 30
0.0
 10
19.64714546715408
 20
18.99924999999973
 30
0.0
 10
19.64714546715408
 20
18.99924999999973
 30
0.0
 10
19.63495546715408
 20
19.01645999999973
 30
0.0
 10
19.61980546715408
 20
19.02503999999973
 30
0.0
 10
19.60162546715408
 20
19.02503999999973
 30
0.0
 10
19.60162546715408
 20
19.02503999999973
 30
0.0
 10
19.58366546715408
 20
19.02503999999973
 30
0.0
 10
19.56940546715408
 20
19.01741999999973
 30
0.0
 10
19.55869546715408
 20
19.00227999999973
 30
0.0
 10
19.55869546715408
 20
19.00227999999973
 30
0.0
 10
19.54531546715408
 20
18.98298999999973
 30
0.0
 10
19.53858546715408
 20
18.94721999999973
 30
0.0
 10
19.53858546715408
 20
18.89511999999973
 30
0.0
  0
SPLINE
  5
C4
330
1F
100
AcDbEntity
  8
layer 1
 62
   250
100
AcDbSpline
210
0.0
220
0.0
230
1.0
 70
     9
 71
     3
 72
   124
 73
   120
 74
     0
 42
0.0000000001
 43
0.0000000001
 40
0.0
 40
0.0
 40
0.0
 40
0.0
 40
0.032258064516129
 40
0.032258064516129
 40
0.032258064516129
 40
0.0483870967741936
 40
0.0645161290322581
 40
0.0645161290322581
 40
0.0645161290322581
 40
0.0806451612903226
 40
0.0967741935483871
 40
0.0967741935483871
 40
0.0967741935483871
 40
0.1129032258064516
 40
0.1290322580645161
 40
0.1290322580645161
 40
0.1290322580645161
 40
0.1451612903225806
 40
0.1612903225806452
 40
0.1612903225806452
 40
0.1612903225806452
 40
0.1774193548387097
 40
0.1935483870967742
 40
0.1935483870967742
 40
0.1935483870967742
 40
0.2096774193548387
 40
0.2258064516129032
 40
0.2258064516129032
 40
0.2258064516129032
 40
0.2419354838709677
 40
0.2580645161290323
 40
0.2580645161290323
 40
0.2580645161290323
 40
0.2741935483870968
 40
0.2903225806451613
 40
0.2903225806451613
 40
0.2903225806451613
 40
0.3064516129032258
 40
0.3225806451612903
 40
0.3225806451612903
 40
0.3225806451612903
 40
0.3387096774193549
 40
0.3548387096774194
 40
0.3548387096774194
 40
0.3548387096774194
 40
0.3709677419354839
 40
0.3870967741935484
 40
0.3870967741935484
 40
0.3870967741935484
 40
0.4032258064516129
 40
0.4193548387096774
 40
0.4193548387096774
 40
0.4193548387096774
 40
0.4354838709677419
 40
0.4516129032258064
 40
0.4516129032258064
 40
0.4516129032258064
 40
0.4677419354838709
 40
0.4838709677419355
 40
0.4838709677419355
 40
0.4838709677419355
 40
0.5
 40
0.5161290322580645
 40
0.5161290322580645
 40
0.5161290322580645
 40
0.532258064516129
 40
0.5483870967741935
 40
0.5483870967741935
 40
0.5483870967741935
 40
0.564516129032258
 40
0.5806451612903226
 40
0.5806451612903226
 40
0.5806451612903226
 40
0.5967741935483871
 40
0.6129032258064516
 40
0.6129032258064516
 40
0.6129032258064516
 40
0.6290322580645161
 40
0.6451612903225806
 40
0.6451612903225806
 40
0.6451612903225806
 40
0.6612903225806451
 40
0.6774193548387096
 40
0.6774193548387096
 40
0.6774193548387096
 40
0.6935483870967742
 40
0.7096774193548388
 40
0.7096774193548388
 40
0.7096774193548388
 40
0.7258064516129032
 40
0.7419354838709678
 40
0.7419354838709678
 40
0.7419354838709678
 40
0.7580645161290322
 40
0.7741935483870968
 40
0.7741935483870968
 40
0.7741935483870968
 40
0.7903225806451612
 40
0.8064516129032258
 40
0.8064516129032258
 40
0.8064516129032258
 40
0.8225806451612902
 40
0.8387096774193548
 40
0.8387096774193548
 40
0.8387096774193548
 40
0.8548387096774193
 40
0.8709677419354838
 40
0.8709677419354838
 40
0.8709677419354838
 40
0.8870967741935482
 40
0.9032258064516128
 40
0.9032258064516128
 40
0.9032258064516128
 40
0.9193548387096774
 40
0.9354838709677419
 40
0.9354838709677419
 40
0.9354838709677419
 40
0.9677419354838709
 40
1.0
 40
1.0
 40
1.0
 40
1.0
 10
18.94767389635461
 20
18.82467244420481
 30
0.0
 10
18.94767389635461
 20
18.82467244420481
 30
0.0
 10
18.98712314450823
 20
18.82991234671588
 30
0.0
 10
18.98712314450823
 20
18.82991234671588
 30
0.0
 10
18.98712314450823
 20
18.82991234671588
 30
0.0
 10
18.99168814007692
 20
18.80753261998029
 30
0.0
 10
18.999398014523
 20
18.79143796414573
 30
0.0
 10
19.01024808099272
 20
18.78155807640569
 30
0.0
 10
19.01024808099272
 20
18.78155807640569
 30
0.0
 10
19.02117782397647
 20
18.77167818866567
 30
0.0
 10
19.0344275595747
 20
18.76673824479565
 30
0.0
 10
19.0500675905939
 20
18.76673824479565
 30
0.0
 10
19.0500675905939
 20
18.76673824479565
 30
0.0
 10
19.06863221836347
 20
18.76673824479565
 30
0.0
 10
19.08435192589671
 20
18.77317798187099
 30
0.0
 10
19.09715172353334
 20
18.78604808231411
 30
0.0
 10
19.09715172353334
 20
18.78604808231411
 30
0.0
 10
19.10987184465594
 20
18.79892286961101
 30
0.0
 10
19.11631158173127
 20
18.81486754612504
 30
0.0
 10
19.11631158173127
 20
18.83387742500245
 30
0.0
 10
19.11631158173127
 20
18.83387742500245
 30
0.0
 10
19.11631158173127
 20
18.85199211481042
 30
0.0
 10
19.1103967722778
 20
18.866961925741
 30
0.0
 10
19.09857184022463
 20
18.87871186813391
 30
0.0
 10
19.09857184022463
 20
18.87871186813391
 30
0.0
 10
19.08667191851118
 20
18.89046649738059
 30
0.0
 10
19.07162711792034
 20
18.89637661998029
 30
0.0
 10
19.05336244879183
 20
18.89637661998029
 30
0.0
 10
19.05336244879183
 20
18.89637661998029
 30
0.0
 10
19.04587754332655
 20
18.89637661998029
 30
0.0
 10
19.03659757286865
 20
18.89488151362874
 30
0.0
 10
19.02551785056436
 20
18.89196160373213
 30
0.0
 10
19.02551785056436
 20
18.89196160373213
 30
0.0
 10
19.02551785056436
 20
18.89196160373213
 30
0.0
 10
19.02993286681251
 20
18.9266162004825
 30
0.0
 10
19.02993286681251
 20
18.9266162004825
 30
0.0
 10
19.02993286681251
 20
18.9266162004825
 30
0.0
 10
19.03255281806805
 20
18.92631624184144
 30
0.0
 10
19.0346525285555
 20
18.92616626252091
 30
0.0
 10
19.03629761422758
 20
18.92616626252091
 30
0.0
 10
19.03629761422758
 20
18.92616626252091
 30
0.0
 10
19.05306249015077
 20
18.92616626252091
 30
0.0
 10
19.06818228040188
 20
18.93058596562283
 30
0.0
 10
19.0816569849809
 20
18.93934100845887
 30
0.0
 10
19.0816569849809
 20
18.93934100845887
 30
0.0
 10
19.09512700270617
 20
18.94810073814868
 30
0.0
 10
19.10186669842256
 20
18.9616457455342
 30
0.0
 10
19.10186669842256
 20
18.97991041466271
 30
0.0
 10
19.10186669842256
 20
18.97991041466271
 30
0.0
 10
19.10186669842256
 20
18.99435529797143
 30
0.0
 10
19.09692675455255
 20
19.0064051990054
 30
0.0
 10
19.08712185647278
 20
19.01583514878383
 30
0.0
 10
19.08712185647278
 20
19.01583514878383
 30
0.0
 10
19.07731227153925
 20
19.0253447750763
 30
0.0
 10
19.06466714007692
 20
19.03013473962579
 30
0.0
 10
19.04917240152448
 20
19.03013473962579
 30
0.0
 10
19.04917240152448
 20
19.03013473962579
 30
0.0
 10
19.03382764229257
 20
19.03013473962579
 30
0.0
 10
19.02102784465594
 20
19.02526978541603
 30
0.0
 10
19.01084799827485
 20
19.0156851694633
 30
0.0
 10
19.01084799827485
 20
19.0156851694633
 30
0.0
 10
19.00059316223349
 20
19.00603025070407
 30
0.0
 10
18.99400813269139
 20
18.99151037773509
 30
0.0
 10
18.99108822279479
 20
18.97220054021662
 30
0.0
 10
18.99108822279479
 20
18.97220054021662
 30
0.0
 10
18.99108822279479
 20
18.97220054021662
 30
0.0
 10
18.95164366149494
 20
18.97923550772032
 30
0.0
 10
18.95164366149494
 20
18.97923550772032
 30
0.0
 10
18.95164366149494
 20
18.97923550772032
 30
0.0
 10
18.95643362604442
 20
19.00573029206301
 30
0.0
 10
18.96743835868844
 20
19.02623996414573
 30
0.0
 10
18.98450319325269
 20
19.0407598371147
 30
0.0
 10
18.98450319325269
 20
19.0407598371147
 30
0.0
 10
19.00164301747721
 20
19.05528439693745
 30
0.0
 10
19.02289789930882
 20
19.06261932308221
 30
0.0
 10
19.04834751526156
 20
19.06261932308221
 30
0.0
 10
19.04834751526156
 20
19.06261932308221
 30
0.0
 10
19.0658622877874
 20
19.06261932308221
 30
0.0
 10
19.08203193328224
 20
19.05879953726241
 30
0.0
 10
19.09677677523201
 20
19.05131463179713
 30
0.0
 10
19.09677677523201
 20
19.05131463179713
 30
0.0
 10
19.11152161718179
 20
19.04375473667157
 30
0.0
 10
19.1228216216131
 20
19.03349990063022
 30
0.0
 10
19.13068147537972
 20
19.02047982086655
 30
0.0
 10
19.13068147537972
 20
19.02047982086655
 30
0.0
 10
19.13846633948608
 20
19.00745505424912
 30
0.0
 10
19.14243141777263
 20
18.99368039102903
 30
0.0
 10
19.14243141777263
 20
18.97901053873952
 30
0.0
 10
19.14243141777263
 20
18.97901053873952
 30
0.0
 10
19.14243141777263
 20
18.96516557271293
 30
0.0
 10
19.13869130846687
 20
18.95251575439683
 30
0.0
 10
19.13120640300158
 20
18.94106108379122
 30
0.0
 10
19.13120640300158
 20
18.94106108379122
 30
0.0
 10
19.1237214975363
 20
18.92968608969964
 30
0.0
 10
19.11271676489228
 20
18.92063108822253
 30
0.0
 10
19.09812190226303
 20
18.91389139250614
 30
0.0
 10
19.09812190226303
 20
18.91389139250614
 30
0.0
 10
19.1171364679942
 20
18.90955136591825
 30
0.0
 10
19.13188130994398
 20
18.90042137478088
 30
0.0
 10
19.14243141777263
 20
18.88657172190052
 30
0.0
 10
19.14243141777263
 20
18.88657172190052
 30
0.0
 10
19.15291122279479
 20
18.8728017455342
 30
0.0
 10
19.15815112530587
 20
18.85551194198915
 30
0.0
 10
19.15815112530587
 20
18.83477730092564
 30
0.0
 10
19.15815112530587
 20
18.83477730092564
 30
0.0
 10
19.15815112530587
 20
18.80670773371736
 30
0.0
 10
19.14797127892478
 20
18.78290789029048
 30
0.0
 10
19.12746160684206
 20
18.76337308379122
 30
0.0
 10
19.12746160684206
 20
18.76337308379122
 30
0.0
 10
19.10703161127337
 20
18.74383359043819
 30
0.0
 10
19.08113205735904
 20
18.73410368201869
 30
0.0
 10
19.04984262161311
 20
18.73410368201869
 30
0.0
 10
19.04984262161311
 20
18.73410368201869
 30
0.0
 10
19.02162776193807
 20
18.73410368201869
 30
0.0
 10
18.99819817995875
 20
18.74248846340717
 30
0.0
 10
18.97956324938268
 20
18.75932832899063
 30
0.0
 10
18.97956324938268
 20
18.75932832899063
 30
0.0
 10
18.96092363195284
 20
18.77609320491382
 30
0.0
 10
18.95029384761015
 20
18.79787770122106
 30
0.0
 10
18.94767389635461
 20
18.82467244420481
 30
0.0
  0
SPLINE
  5
C5
330
1F
100
AcDbEntity
  8
layer 1
 62
   250
100
AcDbSpline
210
0.0
220
0.0
230
1.0
 70
    11
 71
     3
 72
    48
 73
    44
 74
     0
 42
0.0000000001
 43
0.0000000001
 40
0.0
 40
0.0
 40
0.0
 40
0.0
 40
0.0833333333333333
 40
0.0833333333333333
 40
0.0833333333333333
 40
0.125
 40
0.1666666666666667
 40
0.1666666666666667
 40
0.1666666666666667
 40
0.2083333333333334
 40
0.25
 40
0.25
 40
0.25
 40
0.2916666666666666
 40
0.3333333333333333
 40
0.3333333333333333
 40
0.3333333333333333
 40
0.375
 40
0.4166666666666667
 40
0.4166666666666667
 40
0.4166666666666667
 40
0.4583333333333334
 40
0.5
 40
0.5
 40
0.5
 40
0.5416666666666668
 40
0.5833333333333334
 40
0.5833333333333334
 40
0.5833333333333334
 40
0.625
 40
0.6666666666666666
 40
0.6666666666666666
 40
0.6666666666666666
 40
0.7083333333333333
 40
0.75
 40
0.75
 40
0.75
 40
0.7916666666666668
 40
0.8333333333333333
 40
0.8333333333333333
 40
0.8333333333333333
 40
0.9166666666666667
 40
1.0
 40
1.0
 40
1.0
 40
1.0
 10
19.2247934990134
 20
19.01913000698177
 30
0.0
 10
19.2247934990134
 20
19.01913000698177
 30
0.0
 10
19.2247934990134
 20
19.05707946193007
 30
0.0
 10
19.2247934990134
 20
19.05707946193007
 30
0.0
 10
19.2247934990134
 20
19.05707946193007
 30
0.0
 10
19.2247934990134
 20
19.05707946193007
 30
0.0
 10
19.43287574568992
 20
19.05707946193007
 30
0.0
 10
19.43287574568992
 20
19.05707946193007
 30
0.0
 10
19.43287574568992
 20
19.05707946193007
 30
0.0
 10
19.43287574568992
 20
19.05707946193007
 30
0.0
 10
19.43287574568992
 20
19.02638994346625
 30
0.0
 10
19.43287574568992
 20
19.02638994346625
 30
0.0
 10
19.43287574568992
 20
19.02638994346625
 30
0.0
 10
19.41244106326746
 20
19.00461013401278
 30
0.0
 10
19.39215636016554
 20
18.97564069088132
 30
0.0
 10
19.37202163638415
 20
18.93956597743967
 30
0.0
 10
19.37202163638415
 20
18.93956597743967
 30
0.0
 10
19.3519665891168
 20
18.90348657714425
 30
0.0
 10
19.33639686090409
 20
18.86628701879861
 30
0.0
 10
19.32546711792035
 20
18.82819227138354
 30
0.0
 10
19.32546711792035
 20
18.82819227138354
 30
0.0
 10
19.31753227449346
 20
18.80124286222549
 30
0.0
 10
19.31251734096318
 20
18.7718281679862
 30
0.0
 10
19.31034732766924
 20
18.73979352249136
 30
0.0
 10
19.31034732766924
 20
18.73979352249136
 30
0.0
 10
19.31034732766924
 20
18.73979352249136
 30
0.0
 10
19.2697779214654
 20
18.73979352249136
 30
0.0
 10
19.2697779214654
 20
18.73979352249136
 30
0.0
 10
19.2697779214654
 20
18.73979352249136
 30
0.0
 10
19.27022785942699
 20
18.76509315912357
 30
0.0
 10
19.27516780329701
 20
18.79563269826685
 30
0.0
 10
19.28467274273571
 20
18.8314824427277
 30
0.0
 10
19.28467274273571
 20
18.8314824427277
 30
0.0
 10
19.29418236902817
 20
18.86726188438206
 30
0.0
 10
19.30780236607396
 20
18.90184149147216
 30
0.0
 10
19.32554210758061
 20
18.93507597153125
 30
0.0
 10
19.32554210758061
 20
18.93507597153125
 30
0.0
 10
19.34335683874752
 20
18.96830576473657
 30
0.0
 10
19.36221673830439
 20
18.99637533194484
 30
0.0
 10
19.38227647242552
 20
19.01913000698177
 30
0.0
 10
19.38227647242552
 20
19.01913000698177
 30
0.0
 10
19.38227647242552
 20
19.01913000698177
 30
0.0
 10
19.2247934990134
 20
19.01913000698177
 30
0.0
 10
19.2247934990134
 20
19.01913000698177
 30
0.0
  0
SPLINE
  5
CD
330
1F
100
AcDbEntity
  8
layer 1
 62
   250
100
AcDbSpline
210
0.0
220
0.0
230
1.0
 70
     9
 71
     3
 72
    92
 73
    88
 74
     0
 42
0.0000000001
 43
0.0000000001
 40
0.0
 40
0.0
 40
0.0
 40
0.0
 40
0.0434782608695652
 40
0.0434782608695652
 40
0.0434782608695652
 40
0.0652173913043478
 40
0.0869565217391304
 40
0.0869565217391304
 40
0.0869565217391304
 40
0.108695652173913
 40
0.1304347826086956
 40
0.1304347826086956
 40
0.1304347826086956
 40
0.1521739130434782
 40
0.1739130434782609
 40
0.1739130434782609
 40
0.1739130434782609
 40
0.1956521739130435
 40
0.2173913043478261
 40
0.2173913043478261
 40
0.2173913043478261
 40
0.2391304347826087
 40
0.2608695652173913
 40
0.2608695652173913
 40
0.2608695652173913
 40
0.2826086956521739
 40
0.3043478260869565
 40
0.3043478260869565
 40
0.3043478260869565
 40
0.3260869565217391
 40
0.3478260869565217
 40
0.3478260869565217
 40
0.3478260869565217
 40
0.3695652173913043
 40
0.391304347826087
 40
0.391304347826087
 40
0.391304347826087
 40
0.4130434782608697
 40
0.4347826086956523
 40
0.4347826086956523
 40
0.4347826086956523
 40
0.4565217391304348
 40
0.4782608695652174
 40
0.4782608695652174
 40
0.4782608695652174
 40
0.5
 40
0.5217391304347827
 40
0.5217391304347827
 40
0.5217391304347827
 40
0.5434782608695653
 40
0.5652173913043478
 40
0.5652173913043478
 40
0.5652173913043478
 40
0.5869565217391304
 40
0.6086956521739131
 40
0.6086956521739131
 40
0.6086956521739131
 40
0.6304347826086957
 40
0.6521739130434784
 40
0.6521739130434784
 40
0.6521739130434784
 40
0.6739130434782609
 40
0.6956521739130435
 40
0.6956521739130435
 40
0.6956521739130435
 40
0.7173913043478261
 40
0.7391304347826086
 40
0.7391304347826086
 40
0.7391304347826086
 40
0.7608695652173914
 40
0.7826086956521741
 40
0.7826086956521741
 40
0.7826086956521741
 40
0.8043478260869566
 40
0.826086956521739
 40
0.826086956521739
 40
0.826086956521739
 40
0.8478260869565216
 40
0.8695652173913043
 40
0.8695652173913043
 40
0.8695652173913043
 40
0.8913043478260869
 40
0.9130434782608695
 40
0.9130434782608695
 40
0.9130434782608695
 40
0.9565217391304347
 40
1.0
 40
1.0
 40
1.0
 40
1.0
 10
19.81381960525471
 20
18.8208766374007
 30
0.0
 10
19.81381960525471
 20
18.8208766374007
 30
0.0
 10
19.8470962669977
 20
18.82394652661784
 30
0.0
 10
19.8470962669977
 20
18.82394652661784
 30
0.0
 10
19.8470962669977
 20
18.82394652661784
 30
0.0
 10
19.84992243981897
 20
18.8084096063815
 30
0.0
 10
19.85530294794304
 20
18.79711897565772
 30
0.0
 10
19.86324716507746
 20
18.79006994759272
 30
0.0
 10
19.86324716507746
 20
18.79006994759272
 30
0.0
 10
19.87118669535811
 20
18.78308653548047
 30
0.0
 10
19.88136185488544
 20
18.77956202144797
 30
0.0
 10
19.89383357275841
 20
18.77956202144797
 30
0.0
 10
19.89383357275841
 20
18.77956202144797
 30
0.0
 10
19.90446804395486
 20
18.77956202144797
 30
0.0
 10
19.91379019609666
 20
18.78197575113778
 30
0.0
 10
19.92180002918381
 20
18.78686882647013
 30
0.0
 10
19.92180002918381
 20
18.78686882647013
 30
0.0
 10
19.92980517541719
 20
18.79170097270351
 30
0.0
 10
19.93636677069046
 20
18.79816414404768
 30
0.0
 10
19.94148950185737
 20
18.80625834050262
 30
0.0
 10
19.94148950185737
 20
18.80625834050262
 30
0.0
 10
19.94667316212325
 20
18.81435253695757
 30
0.0
 10
19.95093819905087
 20
18.82531508791769
 30
0.0
 10
19.95441584454571
 20
18.83902413518505
 30
0.0
 10
19.95441584454571
 20
18.83902413518505
 30
0.0
 10
19.9578278740878
 20
18.85279879840513
 30
0.0
 10
19.95960419166535
 20
18.86683123858238
 30
0.0
 10
19.95960419166535
 20
18.88112614257057
 30
0.0
 10
19.95960419166535
 20
18.88112614257057
 30
0.0
 10
19.95960419166535
 20
18.88262593577588
 30
0.0
 10
19.95953857571262
 20
18.88497404951296
 30
0.0
 10
19.95940734380715
 20
18.88797832277736
 30
0.0
 10
19.95940734380715
 20
18.88797832277736
 30
0.0
 10
19.95244736596372
 20
18.87707670091621
 30
0.0
 10
19.94299866877022
 20
18.8681341839295
 30
0.0
 10
19.93105187851911
 20
18.86134761967544
 30
0.0
 10
19.93105187851911
 20
18.86134761967544
 30
0.0
 10
19.91903947231527
 20
18.85449543946865
 30
0.0
 10
19.90604282682044
 20
18.85109747048785
 30
0.0
 10
19.89212755798735
 20
18.85109747048785
 30
0.0
 10
19.89212755798735
 20
18.85109747048785
 30
0.0
 10
19.868758905107
 20
18.85109747048785
 30
0.0
 10
19.84900381648071
 20
18.85951974670646
 30
0.0
 10
19.83285760525471
 20
18.87635961228992
 30
0.0
 10
19.83285760525471
 20
18.87635961228992
 30
0.0
 10
19.81670670717495
 20
18.89319947787338
 30
0.0
 10
19.80863594498883
 20
18.91532611450558
 30
0.0
 10
19.80863594498883
 20
18.94287544094576
 30
0.0
 10
19.80863594498883
 20
18.94287544094576
 30
0.0
 10
19.80863594498883
 20
18.97133401701665
 30
0.0
 10
19.81703478693861
 20
18.99417774227515
 30
0.0
 10
19.83390746049844
 20
19.01154253548047
 30
0.0
 10
19.83390746049844
 20
19.01154253548047
 30
0.0
 10
19.85077544720449
 20
19.02890264183202
 30
0.0
 10
19.87190847083817
 20
19.0375826950078
 30
0.0
 10
19.89731121825323
 20
19.0375826950078
 30
0.0
 10
19.89731121825323
 20
19.0375826950078
 30
0.0
 10
19.91562744277318
 20
19.0375826950078
 30
0.0
 10
19.93236419757377
 20
19.03262400372271
 30
0.0
 10
19.94759178546151
 20
19.02283316620425
 30
0.0
 10
19.94759178546151
 20
19.02283316620425
 30
0.0
 10
19.96275375739651
 20
19.01304232868579
 30
0.0
 10
19.97430685193123
 20
18.99900988850853
 30
0.0
 10
19.98218076625915
 20
18.98086239072419
 30
0.0
 10
19.98218076625915
 20
18.98086239072419
 30
0.0
 10
19.99006405429459
 20
18.96271489293985
 30
0.0
 10
19.99400101145855
 20
18.93641226960159
 30
0.0
 10
19.99400101145855
 20
18.90194514700188
 30
0.0
 10
19.99400101145855
 20
18.90194514700188
 30
0.0
 10
19.99400101145855
 20
18.86617976590882
 30
0.0
 10
19.99012498339356
 20
18.83765557388519
 30
0.0
 10
19.98231668501837
 20
18.81637257093098
 30
0.0
 10
19.98231668501837
 20
18.81637257093098
 30
0.0
 10
19.97443808383669
 20
18.79515987078328
 30
0.0
 10
19.96281937334925
 20
18.77903709382611
 30
0.0
 10
19.94739493760331
 20
18.76794331096053
 30
0.0
 10
19.94739493760331
 20
18.76794331096053
 30
0.0
 10
19.93190488590464
 20
18.75684484124118
 30
0.0
 10
19.91385112519562
 20
18.7512956063815
 30
0.0
 10
19.89304618132561
 20
18.7512956063815
 30
0.0
 10
19.89304618132561
 20
18.7512956063815
 30
0.0
 10
19.87098984749991
 20
18.7512956063815
 30
0.0
 10
19.8530063895974
 20
18.75736976886304
 30
0.0
 10
19.83902550481158
 20
18.76957433607131
 30
0.0
 10
19.83902550481158
 20
18.76957433607131
 30
0.0
 10
19.825039933172
 20
18.78171328732685
 30
0.0
 10
19.81664109122221
 20
18.79881561672124
 30
0.0
 10
19.81381960525471
 20
18.8208766374007
 30
0.0
  0
SPLINE
  5
CE
330
1F
100
AcDbEntity
  8
layer 1
 62
   250
100
AcDbSpline
210
0.0
220
0.0
230
1.0
 70
     9
 71
     3
 72
    36
 73
    32
 74
     0
 42
0.0000000001
 43
0.0000000001
 40
0.0
 40
0.0
 40
0.0
 40
0.0
 40
0.1111111111111111
 40
0.1111111111111111
 40
0.1111111111111111
 40
0.1666666666666666
 40
0.2222222222222222
 40
0.2222222222222222
 40
0.2222222222222222
 40
0.2777777777777778
 40
0.3333333333333333
 40
0.3333333333333333
 40
0.3333333333333333
 40
0.3888888888888888
 40
0.4444444444444445
 40
0.4444444444444445
 40
0.4444444444444445
 40
0.5
 40
0.5555555555555556
 40
0.5555555555555556
 40
0.5555555555555556
 40
0.6111111111111112
 40
0.6666666666666666
 40
0.6666666666666666
 40
0.6666666666666666
 40
0.7222222222222223
 40
0.7777777777777778
 40
0.7777777777777778
 40
0.7777777777777778
 40
0.8888888888888889
 40
1.0
 40
1.0
 40
1.0
 40
1.0
 10
19.95553600259593
 20
18.944637697962
 30
0.0
 10
19.95553600259593
 20
18.9643506049044
 30
0.0
 10
19.95028203952355
 20
18.98007968614517
 30
0.0
 10
19.93971787113359
 20
18.99163278067987
 30
0.0
 10
19.93971787113359
 20
18.99163278067987
 30
0.0
 10
19.92908339993713
 20
19.00325149116732
 30
0.0
 10
19.91641483420597
 20
19.00905850298416
 30
0.0
 10
19.90151063922813
 20
19.00905850298416
 30
0.0
 10
19.90151063922813
 20
19.00905850298416
 30
0.0
 10
19.88615181943492
 20
19.00905850298416
 30
0.0
 10
19.87276147822369
 20
19.00279217949819
 30
0.0
 10
19.86133961559444
 20
18.99032514847899
 30
0.0
 10
19.86133961559444
 20
18.99032514847899
 30
0.0
 10
19.84992243981897
 20
18.97779250150706
 30
0.0
 10
19.84420916507746
 20
18.96160879545092
 30
0.0
 10
19.84420916507746
 20
18.94176465660307
 30
0.0
 10
19.84420916507746
 20
18.94176465660307
 30
0.0
 10
19.84420916507746
 20
18.92387962262965
 30
0.0
 10
19.84965997600804
 20
18.90938787078327
 30
0.0
 10
19.86048660820892
 20
18.89822847196496
 30
0.0
 10
19.86048660820892
 20
18.89822847196496
 30
0.0
 10
19.87131792726357
 20
18.88706438629288
 30
0.0
 10
19.88464265252207
 20
18.8815151514332
 30
0.0
 10
19.90052639993713
 20
18.8815151514332
 30
0.0
 10
19.90052639993713
 20
18.8815151514332
 30
0.0
 10
19.9166069952104
 20
18.8815151514332
 30
0.0
 10
19.92973955946446
 20
18.88706438629288
 30
0.0
 10
19.94004126404348
 20
18.89822847196496
 30
0.0
 10
19.94004126404348
 20
18.89822847196496
 30
0.0
 10
19.95041795828278
 20
18.90938787078327
 30
0.0
 10
19.95553600259593
 20
18.92485917506688
 30
0.0
 10
19.95553600259593
 20
18.944637697962
 30
0.0
  0
ENDSEC
  0
SECTION
  2
OBJECTS
  0
DICTIONARY
  5
C
330
0
100
AcDbDictionary
281
     1
  3
ACAD_2007HEADERVARS_RT
350
131
  3
ACAD_CIP_PREVIOUS_PRODUCT_INFO
350
A9
  3
ACAD_COLOR
350
92
  3
ACAD_GROUP
350
D
  3
ACAD_IMAGE_DICT
350
42
  3
ACAD_IMAGE_VARS
350
AA
  3
ACAD_LAYOUT
350
1A
  3
ACAD_MATERIAL
350
3B
  3
ACAD_MLEADERSTYLE
350
85
  3
ACAD_MLINESTYLE
350
17
  3
ACAD_PLOTSETTINGS
350
19
  3
ACAD_PLOTSTYLENAME
350
E
  3
ACAD_SCALELIST
350
94
  3
ACAD_TABLESTYLE
350
84
  3
ACAD_VISUALSTYLE
350
2A
  3
ACDB_RECOMPOSE_DATA
350
12F
  3
AcDbVariableDictionary
350
D3
  3
AEC_PROPERTY_SET_DEFS
350
BD
  3
DWGPROPS
350
130
  0
DICTIONARY
  5
131
102
{ACAD_REACTORS
330
C
102
}
330
C
100
AcDbDictionary
281
     1
  3
INTERFERECOLOR
350
132
  0
XRECORD
  5
A9
102
{ACAD_REACTORS
330
C
102
}
330
C
100
AcDbXrecord
280
     1
300
STRDET
300
2012
300
REVSU_F_S
  0
DICTIONARY
  5
92
102
{ACAD_REACTORS
330
C
102
}
330
C
100
AcDbDictionary
281
     1
  0
DICTIONARY
  5
D
102
{ACAD_REACTORS
330
C
102
}
330
C
100
AcDbDictionary
281
     1
  0
DICTIONARY
  5
42
102
{ACAD_REACTORS
330
C
102
}
330
C
100
AcDbDictionary
281
     1
  3
Image #1
350
43
  0
RASTERVARIABLES
  5
AA
102
{ACAD_REACTORS
330
C
102
}
330
C
100
AcDbRasterVariables
 90
        0
 70
     1
 71
     1
 72
     2
  0
DICTIONARY
  5
1A
102
{ACAD_REACTORS
330
C
102
}
330
C
100
AcDbDictionary
281
     1
  3
Layout1
350
1E
  3
Layout2
350
26
  3
Model
350
22
  0
DICTIONARY
  5
3B
102
{ACAD_REACTORS
330
C
102
}
330
C
100
AcDbDictionary
281
     1
  3
ByBlock
350
3D
  3
ByLayer
350
3C
  3
Global
350
3E
  0
DICTIONARY
  5
85
102
{ACAD_REACTORS
330
C
102
}
330
C
100
AcDbDictionary
281
     1
  3
Standard
350
A6
  0
DICTIONARY
  5
17
102
{ACAD_REACTORS
330
C
102
}
330
C
100
AcDbDictionary
281
     1
  3
Standard
350
18
  0
DICTIONARY
  5
19
102
{ACAD_REACTORS
330
C
102
}
330
C
100
AcDbDictionary
281
     1
  0
ACDBDICTIONARYWDFLT
  5
E
102
{ACAD_REACTORS
330
C
102
}
330
C
100
AcDbDictionary
281
     1
  3
Normal
350
F
100
AcDbDictionaryWithDefault
340
F
  0
DICTIONARY
  5
94
102
{ACAD_REACTORS
330
C
102
}
330
C
100
AcDbDictionary
281
     1
  3
A0
350
95
  3
A1
350
96
  3
A2
350
97
  3
A3
350
98
  3
A4
350
99
  3
A5
350
9A
  3
A6
350
9B
  3
A7
350
9C
  3
A8
350
9D
  3
A9
350
9E
  3
B0
350
9F
  3
B1
350
A0
  3
B2
350
A1
  3
B3
350
A2
  3
B4
350
A3
  3
B5
350
A4
  3
B6
350
A5
  0
DICTIONARY
  5
84
102
{ACAD_REACTORS
330
C
102
}
330
C
100
AcDbDictionary
281
     1
  3
Standard
350
93
  0
DICTIONARY
  5
2A
102
{ACAD_REACTORS
330
C
102
}
330
C
100
AcDbDictionary
281
     1
  3
2dWireframe
350
2F
  3
3D Hidden
350
31
  3
3dWireframe
350
30
  3
Basic
350
32
  3
Brighten
350
36
  3
ColorChange
350
3A
  3
Conceptual
350
34
  3
Dim
350
35
  3
EdgeColorOff
350
91
  3
Facepattern
350
39
  3
Flat
350
2B
  3
FlatWithEdges
350
2C
  3
Gouraud
350
2D
  3
GouraudWithEdges
350
2E
  3
Hidden
350
89
  3
JitterOff
350
8F
  3
Linepattern
350
38
  3
OverhangOff
350
90
  3
Realistic
350
33
  3
Shaded
350
8E
  3
Shaded with edges
350
8D
  3
Shades of Gray
350
8A
  3
Sketchy
350
8B
  3
Thicken
350
37
  3
Wireframe
350
88
  3
X-Ray
350
8C
  0
XRECORD
  5
12F
102
{ACAD_REACTORS
330
C
102
}
330
C
100
AcDbXrecord
280
     1
 90
        1
330
93
  0
DICTIONARY
  5
D3
102
{ACAD_REACTORS
330
C
102
}
330
C
100
AcDbDictionary
281
     1
  3
CANNOSCALE
350
D7
  3
CMLEADERSTYLE
350
D5
  3
CTABLESTYLE
350
D4
  3
DGNFRAME
350
E1
  3
DIMASSOC
350
DF
  3
HIDETEXT
350
DD
  3
INDEXCTL
350
DC
  3
LAYEREVAL
350
D9
  3
LAYERNOTIFY
350
DA
  3
LIGHTINGUNITS
350
D8
  3
LOFTANG1
350
E2
  3
LOFTANG2
350
E3
  3
LONGITUDE
350
E4
  3
MSLTSCALE
350
D6
  3
SOLIDHIST
350
E0
  3
SORTENTS
350
DB
  3
XCLIPFRAME
350
DE
  0
DICTIONARY
  5
BD
102
{ACAD_REACTORS
330
C
102
}
330
C
100
AcDbDictionary
281
     1
  0
XRECORD
  5
130
102
{ACAD_REACTORS
330
C
102
}
330
C
100
AcDbXrecord
280
     1
  1
DWGPROPS COOKIE
  2

  3

  4

  6

  7

  8
mlis
  9

300
=
301
=
302
=
303
=
304
=
305
=
306
=
307
=
308
=
309
=
 40
0.0252953703703704
 41
2457474.222959525
 42
2457523.423661053
  1

 90
        0
  0
XRECORD
  5
132
102
{ACAD_REACTORS
330
131
102
}
330
131
100
AcDbXrecord
280
     1
1004
1800000001000000000000C0000000000000000000000000
  0
IMAGEDEF
  5
43
102
{ACAD_REACTORS
330
42
330
45
102
}
330
42
100
AcDbRasterImageDef
 90
        0
  1
C:\Documents and Settings\Administrator\\U+684C\U+9762\\U+5F00\U+5B54\U+7EB8\\U+5F00\U+5B54\U+7EB82305_1_ACD_0.jpg
 10
696.0
 20
684.0
 11
0.0014367816091954
 21
0.0014367816091954
280
     1
281
     5
  0
LAYOUT
  5
1E
102
{ACAD_XDICTIONARY
360
133
102
}
102
{ACAD_REACTORS
330
1A
102
}
330
1A
100
AcDbPlotSettings
  1

  2
none_device
  4

  6

 40
0.0
 41
0.0
 42
0.0
 43
0.0
 44
0.0
 45
0.0
 46
0.0
 47
0.0
 48
0.0
 49
0.0
140
0.0
141
0.0
142
1.0
143
1.0
 70
   688
 72
     0
 73
     0
 74
     5
  7

 75
    16
147
1.0
148
0.0
149
0.0
100
AcDbLayout
  1
Layout1
 70
     1
 71
     1
 10
0.0
 20
0.0
 11
12.0
 21
9.0
 12
0.0
 22
0.0
 32
0.0
 14
1.000000000000000E+20
 24
1.000000000000000E+20
 34
1.000000000000000E+20
 15
-1.000000000000000E+20
 25
-1.000000000000000E+20
 35
-1.000000000000000E+20
146
0.0
 13
0.0
 23
0.0
 33
0.0
 16
1.0
 26
0.0
 36
0.0
 17
0.0
 27
1.0
 37
0.0
 76
     0
330
1B
  0
LAYOUT
  5
26
102
{ACAD_XDICTIONARY
360
137
102
}
102
{ACAD_REACTORS
330
1A
102
}
330
1A
100
AcDbPlotSettings
  1

  2
none_device
  4

  6

 40
0.0
 41
0.0
 42
0.0
 43
0.0
 44
0.0
 45
0.0
 46
0.0
 47
0.0
 48
0.0
 49
0.0
140
0.0
141
0.0
142
1.0
143
1.0
 70
   688
 72
     0
 73
     0
 74
     5
  7

 75
    16
147
1.0
148
0.0
149
0.0
100
AcDbLayout
  1
Layout2
 70
     1
 71
     2
 10
0.0
 20
0.0
 11
0.0
 21
0.0
 12
0.0
 22
0.0
 32
0.0
 14
0.0
 24
0.0
 34
0.0
 15
0.0
 25
0.0
 35
0.0
146
0.0
 13
0.0
 23
0.0
 33
0.0
 16
1.0
 26
0.0
 36
0.0
 17
0.0
 27
1.0
 37
0.0
 76
     0
330
23
  0
LAYOUT
  5
22
102
{ACAD_XDICTIONARY
360
135
102
}
102
{ACAD_REACTORS
330
1A
102
}
330
1A
100
AcDbPlotSettings
  1

  2
none_device
  4

  6

 40
0.0
 41
0.0
 42
0.0
 43
0.0
 44
0.0
 45
0.0
 46
0.0
 47
0.0
 48
0.0
 49
0.0
140
0.0
141
0.0
142
1.0
143
1.0
 70
  1712
 72
     0
 73
     0
 74
     0
  7

 75
     0
147
1.0
148
0.0
149
0.0
100
AcDbLayout
  1
Model
 70
     1
 71
     0
 10
0.0
 20
0.0
 11
12.0
 21
9.0
 12
0.0
 22
0.0
 32
0.0
 14
-17.85698
 24
-13.69622
 34
0.0
 15
18.27553
 25
14.38329
 35
0.0
146
0.0
 13
0.0
 23
0.0
 33
0.0
 16
1.0
 26
0.0
 36
0.0
 17
0.0
 27
1.0
 37
0.0
 76
     0
330
1F
331
29
  0
MATERIAL
  5
3D
102
{ACAD_XDICTIONARY
360
15B
102
}
102
{ACAD_REACTORS
330
3B
102
}
330
3B
100
AcDbMaterial
  1
ByBlock
  0
MATERIAL
  5
3C
102
{ACAD_XDICTIONARY
360
159
102
}
102
{ACAD_REACTORS
330
3B
102
}
330
3B
100
AcDbMaterial
  1
ByLayer
  0
MATERIAL
  5
3E
102
{ACAD_XDICTIONARY
360
15D
102
}
102
{ACAD_REACTORS
330
3B
102
}
330
3B
100
AcDbMaterial
  1
Global
  0
MLEADERSTYLE
  5
A6
102
{ACAD_REACTORS
330
85
102
}
330
85
100
AcDbMLeaderStyle
170
     2
171
     1
172
     0
 90
        2
 40
0.0
 41
0.0
173
     1
 91
-1056964608
340
14
 92
       -2
290
     1
 42
0.09
291
     1
 43
0.36
  3
Standard
 44
0.18
300

342
11
174
     1
178
     6
175
     1
176
     0
 93
-1056964608
 45
0.18
292
     0
297
     0
 46
0.18
 94
-1056964608
 47
1.0
 49
1.0
140
1.0
293
     1
141
0.0
294
     1
177
     0
142
1.0
295
     0
296
     0
143
0.125
1001
ACAD_MLEADERVER
1070
     2
  0
MLINESTYLE
  5
18
102
{ACAD_REACTORS
330
17
102
}
330
17
100
AcDbMlineStyle
  2
STANDARD
 70
     0
  3

 62
   256
 51
90.0
 52
90.0
 71
     2
 49
0.5
 62
   256
  6
BYLAYER
 49
-0.5
 62
   256
  6
BYLAYER
  0
ACDBPLACEHOLDER
  5
F
102
{ACAD_REACTORS
330
E
102
}
330
E
  0
SCALE
  5
95
102
{ACAD_REACTORS
330
94
102
}
330
94
100
AcDbScale
 70
     0
300
1:1
140
1.0
141
1.0
290
     1
  0
SCALE
  5
96
102
{ACAD_REACTORS
330
94
102
}
330
94
100
AcDbScale
 70
     0
300
1/128" = 1'-0"
140
0.0078125
141
12.0
290
     0
  0
SCALE
  5
97
102
{ACAD_REACTORS
330
94
102
}
330
94
100
AcDbScale
 70
     0
300
1/64" = 1'-0"
140
0.015625
141
12.0
290
     0
  0
SCALE
  5
98
102
{ACAD_REACTORS
330
94
102
}
330
94
100
AcDbScale
 70
     0
300
1/32" = 1'-0"
140
0.03125
141
12.0
290
     0
  0
SCALE
  5
99
102
{ACAD_REACTORS
330
94
102
}
330
94
100
AcDbScale
 70
     0
300
1/16" = 1'-0"
140
0.0625
141
12.0
290
     0
  0
SCALE
  5
9A
102
{ACAD_REACTORS
330
94
102
}
330
94
100
AcDbScale
 70
     0
300
3/32" = 1'-0"
140
0.09375
141
12.0
290
     0
  0
SCALE
  5
9B
102
{ACAD_REACTORS
330
94
102
}
330
94
100
AcDbScale
 70
     0
300
1/8" = 1'-0"
140
0.125
141
12.0
290
     0
  0
SCALE
  5
9C
102
{ACAD_REACTORS
330
94
102
}
330
94
100
AcDbScale
 70
     0
300
3/16" = 1'-0"
140
0.1875
141
12.0
290
     0
  0
SCALE
  5
9D
102
{ACAD_REACTORS
330
94
102
}
330
94
100
AcDbScale
 70
     0
300
1/4" = 1'-0"
140
0.25
141
12.0
290
     0
  0
SCALE
  5
9E
102
{ACAD_REACTORS
330
94
102
}
330
94
100
AcDbScale
 70
     0
300
3/8" = 1'-0"
140
0.375
141
12.0
290
     0
  0
SCALE
  5
9F
102
{ACAD_REACTORS
330
94
102
}
330
94
100
AcDbScale
 70
     0
300
1/2" = 1'-0"
140
0.5
141
12.0
290
     0
  0
SCALE
  5
A0
102
{ACAD_REACTORS
330
94
102
}
330
94
100
AcDbScale
 70
     0
300
3/4" = 1'-0"
140
0.75
141
12.0
290
     0
  0
SCALE
  5
A1
102
{ACAD_REACTORS
330
94
102
}
330
94
100
AcDbScale
 70
     0
300
1" = 1'-0"
140
1.0
141
12.0
290
     0
  0
SCALE
  5
A2
102
{ACAD_REACTORS
330
94
102
}
330
94
100
AcDbScale
 70
     0
300
1-1/2" = 1'-0"
140
1.5
141
12.0
290
     0
  0
SCALE
  5
A3
102
{ACAD_REACTORS
330
94
102
}
330
94
100
AcDbScale
 70
     0
300
3" = 1'-0"
140
3.0
141
12.0
290
     0
  0
SCALE
  5
A4
102
{ACAD_REACTORS
330
94
102
}
330
94
100
AcDbScale
 70
     0
300
6" = 1'-0"
140
6.0
141
12.0
290
     0
  0
SCALE
  5
A5
102
{ACAD_REACTORS
330
94
102
}
330
94
100
AcDbScale
 70
     0
300
1'-0" = 1'-0"
140
12.0
141
12.0
290
     0
  0
TABLESTYLE
  5
93
102
{ACAD_XDICTIONARY
360
12D
102
}
102
{ACAD_REACTORS
330
84
102
}
330
84
100
AcDbTableStyle
  3
Standard
 70
     0
 71
     0
 40
0.06
 41
0.06
280
     0
281
     0
  7
Standard
140
0.18
170
     2
 62
     0
 63
     7
283
     0
274
    -2
284
     1
 64
     0
275
    -2
285
     1
 65
     0
276
    -2
286
     1
 66
     0
277
    -2
287
     1
 67
     0
278
    -2
288
     1
 68
     0
279
    -2
289
     1
 69
     0
  7
Standard
140
0.25
170
     5
 62
     0
 63
     7
283
     0
274
    -2
284
     1
 64
     0
275
    -2
285
     1
 65
     0
276
    -2
286
     1
 66
     0
277
    -2
287
     1
 67
     0
278
    -2
288
     1
 68
     0
279
    -2
289
     1
 69
     0
  7
Standard
140
0.18
170
     5
 62
     0
 63
     7
283
     0
274
    -2
284
     1
 64
     0
275
    -2
285
     1
 65
     0
276
    -2
286
     1
 66
     0
277
    -2
287
     1
 67
     0
278
    -2
288
     1
 68
     0
279
    -2
289
     1
 69
     0
  0
VISUALSTYLE
  5
2F
102
{ACAD_XDICTIONARY
360
141
102
}
102
{ACAD_REACTORS
330
2A
102
}
330
2A
100
AcDbVisualStyle
  2

 70
     4
 71
     0
 72
     2
 73
     0
 90
        0
 40
-0.6
 41
-30.0
 62
     5
 63
     7
 74
     1
 91
        4
 64
     7
 65
   257
 75
     1
175
     1
 42
1.0
 92
        0
 66
   257
 43
1.0
 76
     1
 77
     6
 78
     2
 67
     7
 79
     5
170
     0
171
     0
290
     0
174
     0
 93
        1
 44
0.0
173
     0
291
     0
 45
0.0
1001
ACAD
1000
AcDbSavedByObjectVersion
1070
     0
  0
VISUALSTYLE
  5
31
102
{ACAD_XDICTIONARY
360
145
102
}
102
{ACAD_REACTORS
330
2A
102
}
330
2A
100
AcDbVisualStyle
  2

 70
     6
 71
     1
 72
     2
 73
     2
 90
        0
 40
-0.6
 41
-30.0
 62
     5
 63
     7
 74
     2
 91
        2
 64
     7
 65
   257
 75
     2
175
     1
 42
40.0
 92
        0
 66
   257
 43
1.0
 76
     1
 77
     6
 78
     2
 67
     7
 79
     3
170
     0
171
     0
290
     0
174
     0
 93
        1
 44
0.0
173
     0
291
     0
 45
0.0
1001
ACAD
1000
AcDbSavedByObjectVersion
1070
     0
  0
VISUALSTYLE
  5
30
102
{ACAD_XDICTIONARY
360
143
102
}
102
{ACAD_REACTORS
330
2A
102
}
330
2A
100
AcDbVisualStyle
  2

 70
     5
 71
     0
 72
     2
 73
     0
 90
        0
 40
-0.6
 41
-30.0
 62
     5
 63
     7
 74
     1
 91
        4
 64
     7
 65
   257
 75
     1
175
     1
 42
1.0
 92
        0
 66
   257
 43
1.0
 76
     1
 77
     6
 78
     2
 67
     7
 79
     5
170
     0
171
     0
290
     0
174
     0
 93
        1
 44
0.0
173
     0
291
     0
 45
0.0
1001
ACAD
1000
AcDbSavedByObjectVersion
1070
     0
  0
VISUALSTYLE
  5
32
102
{ACAD_XDICTIONARY
360
147
102
}
102
{ACAD_REACTORS
330
2A
102
}
330
2A
100
AcDbVisualStyle
  2

 70
     7
 71
     1
 72
     0
 73
     1
 90
        0
 40
-0.6
 41
-30.0
 62
     5
 63
     7
 74
     0
 91
        4
 64
     7
 65
   257
 75
     1
175
     1
 42
1.0
 92
        8
 66
     7
 43
1.0
 76
     1
 77
     6
 78
     2
 67
     7
 79
     5
170
     0
171
     0
290
     0
174
     0
 93
        1
 44
0.0
173
     0
291
     1
 45
0.0
1001
ACAD
1000
AcDbSavedByObjectVersion
1070
     0
  0
VISUALSTYLE
  5
36
102
{ACAD_XDICTIONARY
360
14F
102
}
102
{ACAD_REACTORS
330
2A
102
}
330
2A
100
AcDbVisualStyle
  2

 70
    12
 71
     2
 72
     2
 73
     0
 90
        0
 40
-0.6
 41
-30.0
 62
     5
 63
     7
 74
     1
 91
        4
 64
     7
 65
   257
 75
     1
175
     1
 42
1.0
 92
        8
 66
     7
 43
1.0
 76
     1
 77
     6
 78
     2
 67
     7
 79
     5
170
     0
171
     0
290
     0
174
     0
 93
        1
 44
50.0
173
     0
291
     1
 45
0.0
1001
ACAD
1000
AcDbSavedByObjectVersion
1070
     0
  0
VISUALSTYLE
  5
3A
102
{ACAD_XDICTIONARY
360
157
102
}
102
{ACAD_REACTORS
330
2A
102
}
330
2A
100
AcDbVisualStyle
  2

 70
    16
 71
     2
 72
     2
 73
     3
 90
        0
 40
-0.6
 41
-30.0
 62
     5
 63
     8
 74
     1
 91
        4
 64
     7
 65
   257
 75
     1
175
     1
 42
1.0
 92
        8
 66
     8
 43
1.0
 76
     1
 77
     6
 78
     2
 67
     7
 79
     5
170
     0
171
     0
290
     0
174
     0
 93
        1
 44
0.0
173
     0
291
     1
 45
0.0
1001
ACAD
1000
AcDbSavedByObjectVersion
1070
     0
  0
VISUALSTYLE
  5
34
102
{ACAD_XDICTIONARY
360
14B
102
}
102
{ACAD_REACTORS
330
2A
102
}
330
2A
100
AcDbVisualStyle
  2

 70
     9
 71
     3
 72
     2
 73
     0
 90
        0
 40
-0.6
 41
-30.0
 62
     5
 63
     7
 74
     2
 91
        2
 64
     7
 65
   257
 75
     1
175
     1
 42
40.0
 92
        8
 66
     7
 43
1.0
 76
     1
 77
     6
 78
     2
 67
     7
 79
     3
170
     0
171
     0
290
     0
174
     0
 93
        1
 44
0.0
173
     0
291
     0
 45
0.0
1001
ACAD
1000
AcDbSavedByObjectVersion
1070
     0
  0
VISUALSTYLE
  5
35
102
{ACAD_XDICTIONARY
360
14D
102
}
102
{ACAD_REACTORS
330
2A
102
}
330
2A
100
AcDbVisualStyle
  2

 70
    11
 71
     2
 72
     2
 73
     0
 90
        0
 40
-0.6
 41
-30.0
 62
     5
 63
     7
 74
     1
 91
        4
 64
     7
 65
   257
 75
     1
175
     1
 42
1.0
 92
        8
 66
     7
 43
1.0
 76
     1
 77
     6
 78
     2
 67
     7
 79
     5
170
     0
171
     0
290
     0
174
     0
 93
        1
 44
-50.0
173
     0
291
     1
 45
0.0
1001
ACAD
1000
AcDbSavedByObjectVersion
1070
     0
  0
VISUALSTYLE
  5
91
102
{ACAD_XDICTIONARY
360
171
102
}
102
{ACAD_REACTORS
330
2A
102
}
330
2A
100
AcDbVisualStyle
  2
EdgeColorOff
 70
    22
 71
     2
 72
     2
 73
     0
 90
        0
 40
-0.6
 41
-30.0
 62
     5
 63
     7
 74
     1
 91
        4
 64
     7
 65
   257
 75
     1
175
     1
 42
1.0
 92
        8
 66
     7
 43
1.0
 76
     1
 77
     6
 78
     2
 67
     7
 79
     5
170
     0
171
     0
290
     0
174
     0
 93
        1
 44
0.0
173
     0
291
     1
 45
0.0
1001
ACAD
1000
AcDbSavedByObjectVersion
1070
     0
  0
VISUALSTYLE
  5
39
102
{ACAD_XDICTIONARY
360
155
102
}
102
{ACAD_REACTORS
330
2A
102
}
330
2A
100
AcDbVisualStyle
  2

 70
    15
 71
     2
 72
     2
 73
     0
 90
        0
 40
-0.6
 41
-30.0
 62
     5
 63
     7
 74
     1
 91
        4
 64
     7
 65
   257
 75
     1
175
     1
 42
1.0
 92
        8
 66
     7
 43
1.0
 76
     1
 77
     6
 78
     2
 67
     7
 79
     5
170
     0
171
     0
290
     0
174
     0
 93
        1
 44
0.0
173
     0
291
     1
 45
0.0
1001
ACAD
1000
AcDbSavedByObjectVersion
1070
     0
  0
VISUALSTYLE
  5
2B
102
{ACAD_XDICTIONARY
360
139
102
}
102
{ACAD_REACTORS
330
2A
102
}
330
2A
100
AcDbVisualStyle
  2

 70
     0
 71
     2
 72
     1
 73
     1
 90
        2
 40
-0.6
 41
30.0
 62
     5
 63
     7
 74
     0
 91
        4
 64
     7
 65
   257
 75
     1
175
     1
 42
1.0
 92
        8
 66
     7
 43
1.0
 76
     1
 77
     6
 78
     2
 67
     7
 79
     5
170
     0
171
     0
290
     0
174
     0
 93
       13
 44
0.0
173
     0
291
     1
 45
0.0
1001
ACAD
1000
AcDbSavedByObjectVersion
1070
     0
  0
VISUALSTYLE
  5
2C
102
{ACAD_XDICTIONARY
360
13B
102
}
102
{ACAD_REACTORS
330
2A
102
}
330
2A
100
AcDbVisualStyle
  2

 70
     1
 71
     2
 72
     1
 73
     1
 90
        2
 40
-0.6
 41
30.0
 62
     5
 63
     7
 74
     1
 91
        4
 64
     7
 65
   257
 75
     1
175
     1
 42
1.0
 92
        0
 66
   257
 43
1.0
 76
     1
 77
     6
 78
     2
 67
     7
 79
     5
170
     0
171
     0
290
     0
174
     0
 93
       13
 44
0.0
173
     0
291
     1
 45
0.0
1001
ACAD
1000
AcDbSavedByObjectVersion
1070
     0
  0
VISUALSTYLE
  5
2D
102
{ACAD_XDICTIONARY
360
13D
102
}
102
{ACAD_REACTORS
330
2A
102
}
330
2A
100
AcDbVisualStyle
  2

 70
     2
 71
     2
 72
     2
 73
     1
 90
        2
 40
-0.6
 41
30.0
 62
     5
 63
     7
 74
     0
 91
        4
 64
     7
 65
   257
 75
     1
175
     1
 42
1.0
 92
        0
 66
     7
 43
1.0
 76
     1
 77
     6
 78
     2
 67
     7
 79
     5
170
     0
171
     0
290
     0
174
     0
 93
       13
 44
0.0
173
     0
291
     1
 45
0.0
1001
ACAD
1000
AcDbSavedByObjectVersion
1070
     0
  0
VISUALSTYLE
  5
2E
102
{ACAD_XDICTIONARY
360
13F
102
}
102
{ACAD_REACTORS
330
2A
102
}
330
2A
100
AcDbVisualStyle
  2

 70
     3
 71
     2
 72
     2
 73
     1
 90
        2
 40
-0.6
 41
30.0
 62
     5
 63
     7
 74
     1
 91
        4
 64
     7
 65
   257
 75
     1
175
     1
 42
1.0
 92
        0
 66
   257
 43
1.0
 76
     1
 77
     6
 78
     2
 67
     7
 79
     5
170
     0
171
     0
290
     0
174
     0
 93
       13
 44
0.0
173
     0
291
     1
 45
0.0
1001
ACAD
1000
AcDbSavedByObjectVersion
1070
     0
  0
VISUALSTYLE
  5
89
102
{ACAD_XDICTIONARY
360
161
102
}
102
{ACAD_REACTORS
330
2A
102
}
330
2A
100
AcDbVisualStyle
  2
Hidden
 70
     6
 71
     1
 72
     2
 73
     2
 90
        0
 40
-0.6
 41
-30.0
 62
     5
 63
     7
 74
     2
 91
        2
 64
     7
 65
   257
 75
     2
175
     1
 42
40.0
 92
        0
 66
   257
 43
1.0
 76
     1
 77
     6
 78
     2
 67
     7
 79
     3
170
     0
171
     0
290
     0
174
     0
 93
        1
 44
0.0
173
     0
291
     0
 45
0.0
1001
ACAD
1000
AcDbSavedByObjectVersion
1070
     0
  0
VISUALSTYLE
  5
8F
102
{ACAD_XDICTIONARY
360
16D
102
}
102
{ACAD_REACTORS
330
2A
102
}
330
2A
100
AcDbVisualStyle
  2
JitterOff
 70
    20
 71
     2
 72
     2
 73
     0
 90
        0
 40
-0.6
 41
-30.0
 62
     5
 63
     7
 74
     1
 91
        4
 64
     7
 65
   257
 75
     1
175
     1
 42
1.0
 92
       10
 66
     7
 43
1.0
 76
     1
 77
     6
 78
     2
 67
     7
 79
     5
170
     0
171
     0
290
     0
174
     0
 93
        1
 44
0.0
173
     0
291
     1
 45
0.0
1001
ACAD
1000
AcDbSavedByObjectVersion
1070
     0
  0
VISUALSTYLE
  5
38
102
{ACAD_XDICTIONARY
360
153
102
}
102
{ACAD_REACTORS
330
2A
102
}
330
2A
100
AcDbVisualStyle
  2

 70
    14
 71
     2
 72
     2
 73
     0
 90
        0
 40
-0.6
 41
-30.0
 62
     5
 63
     7
 74
     1
 91
        4
 64
     7
 65
   257
 75
     7
175
     7
 42
1.0
 92
        8
 66
     7
 43
1.0
 76
     1
 77
     6
 78
     2
 67
     7
 79
     5
170
     0
171
     0
290
     0
174
     0
 93
        1
 44
0.0
173
     0
291
     1
 45
0.0
1001
ACAD
1000
AcDbSavedByObjectVersion
1070
     0
  0
VISUALSTYLE
  5
90
102
{ACAD_XDICTIONARY
360
16F
102
}
102
{ACAD_REACTORS
330
2A
102
}
330
2A
100
AcDbVisualStyle
  2
OverhangOff
 70
    21
 71
     2
 72
     2
 73
     0
 90
        0
 40
-0.6
 41
-30.0
 62
     5
 63
     7
 74
     1
 91
        4
 64
     7
 65
   257
 75
     1
175
     1
 42
1.0
 92
        9
 66
     7
 43
1.0
 76
     1
 77
     6
 78
     2
 67
     7
 79
     5
170
     0
171
     0
290
     0
174
     0
 93
        1
 44
0.0
173
     0
291
     1
 45
0.0
1001
ACAD
1000
AcDbSavedByObjectVersion
1070
     0
  0
VISUALSTYLE
  5
33
102
{ACAD_XDICTIONARY
360
149
102
}
102
{ACAD_REACTORS
330
2A
102
}
330
2A
100
AcDbVisualStyle
  2

 70
     8
 71
     2
 72
     2
 73
     0
 90
        0
 40
-0.6
 41
-30.0
 62
     5
 63
     7
 74
     1
 91
        0
 64
     7
 65
   257
 75
     1
175
     1
 42
1.0
 92
        8
 66
     8
 43
1.0
 76
     1
 77
     6
 78
     2
 67
     7
 79
     5
170
     0
171
     0
290
     0
174
     0
 93
       13
 44
0.0
173
     0
291
     0
 45
0.0
1001
ACAD
1000
AcDbSavedByObjectVersion
1070
     0
  0
VISUALSTYLE
  5
8E
102
{ACAD_XDICTIONARY
360
16B
102
}
102
{ACAD_REACTORS
330
2A
102
}
330
2A
100
AcDbVisualStyle
  2
Shaded
 70
    27
 71
     2
 72
     2
 73
     1
 90
        2
 40
-0.6
 41
30.0
 62
     5
 63
     7
 74
     0
 91
        4
 64
     7
 65
   257
 75
     1
175
     1
 42
1.0
 92
        8
 66
   257
 43
1.0
 76
     1
 77
     6
 78
     2
 67
     8
 79
     3
170
     0
171
     0
290
     0
174
     0
 93
        5
 44
0.0
173
     0
291
     0
 45
0.0
1001
ACAD
1000
AcDbSavedByObjectVersion
1070
     0
  0
VISUALSTYLE
  5
8D
102
{ACAD_XDICTIONARY
360
169
102
}
102
{ACAD_REACTORS
330
2A
102
}
330
2A
100
AcDbVisualStyle
  2
Shaded with edges
 70
    26
 71
     2
 72
     2
 73
     1
 90
        2
 40
-0.6
 41
30.0
 62
     5
 63
     7
 74
     1
 91
       10
 64
     7
 65
   257
 75
     2
175
     1
 42
1.0
 92
        8
 66
   257
 43
1.0
 76
     1
 77
     6
 78
     2
 67
     7
 79
     3
170
     0
171
     0
290
     0
174
     0
 93
        5
 44
0.0
173
     0
291
     0
 45
0.0
1001
ACAD
1000
AcDbSavedByObjectVersion
1070
     0
  0
VISUALSTYLE
  5
8A
102
{ACAD_XDICTIONARY
360
163
102
}
102
{ACAD_REACTORS
330
2A
102
}
330
2A
100
AcDbVisualStyle
  2
Shades of Gray
 70
    23
 71
     2
 72
     2
 73
     3
 90
        0
 40
-0.6
 41
-30.0
 62
     5
 63
     7
 74
     2
 91
        2
 64
     7
 65
     7
 75
     1
175
     1
 42
40.0
 92
        8
 66
     7
 43
1.0
 76
     1
 77
     6
 78
     2
 67
     7
 79
     3
170
     0
171
     0
290
     0
174
     0
 93
        1
 44
0.0
173
     0
291
     0
 45
0.0
1001
ACAD
1000
AcDbSavedByObjectVersion
1070
     0
  0
VISUALSTYLE
  5
8B
102
{ACAD_XDICTIONARY
360
165
102
}
102
{ACAD_REACTORS
330
2A
102
}
330
2A
100
AcDbVisualStyle
  2
Sketchy
 70
    24
 71
     1
 72
     2
 73
     2
 90
        0
 40
-0.6
 41
-30.0
 62
     5
 63
     7
 74
     2
 91
        2
 64
     7
 65
     7
 75
     1
175
     1
 42
40.0
 92
       11
 66
     7
 43
1.0
 76
     1
 77
     6
 78
     2
 67
     7
 79
     6
170
     0
171
     0
290
     0
174
     0
 93
        1
 44
0.0
173
     0
291
     0
 45
0.0
1001
ACAD
1000
AcDbSavedByObjectVersion
1070
     0
  0
VISUALSTYLE
  5
37
102
{ACAD_XDICTIONARY
360
151
102
}
102
{ACAD_REACTORS
330
2A
102
}
330
2A
100
AcDbVisualStyle
  2

 70
    13
 71
     2
 72
     2
 73
     0
 90
        0
 40
-0.6
 41
-30.0
 62
     5
 63
     7
 74
     1
 91
        4
 64
     7
 65
   257
 75
     1
175
     1
 42
1.0
 92
       12
 66
     7
 43
1.0
 76
     1
 77
     6
 78
     2
 67
     7
 79
     5
170
     0
171
     0
290
     0
174
     0
 93
        1
 44
0.0
173
     0
291
     1
 45
0.0
1001
ACAD
1000
AcDbSavedByObjectVersion
1070
     0
  0
VISUALSTYLE
  5
88
102
{ACAD_XDICTIONARY
360
15F
102
}
102
{ACAD_REACTORS
330
2A
102
}
330
2A
100
AcDbVisualStyle
  2
Wireframe
 70
     5
 71
     0
 72
     2
 73
     0
 90
        0
 40
-0.6
 41
-30.0
 62
     5
 63
     7
 74
     1
 91
        4
 64
     7
 65
   257
 75
     1
175
     1
 42
1.0
 92
        0
 66
   257
 43
1.0
 76
     1
 77
     6
 78
     2
 67
     7
 79
     3
170
     0
171
     0
290
     0
174
     0
 93
        1
 44
0.0
173
     0
291
     0
 45
0.0
1001
ACAD
1000
AcDbSavedByObjectVersion
1070
     0
  0
VISUALSTYLE
  5
8C
102
{ACAD_XDICTIONARY
360
167
102
}
102
{ACAD_REACTORS
330
2A
102
}
330
2A
100
AcDbVisualStyle
  2
X-Ray
 70
    25
 71
     2
 72
     2
 73
     1
 90
        1
 40
0.5
 41
-30.0
 62
     5
 63
     7
 74
     1
 91
        0
 64
     7
 65
   257
 75
     1
175
     1
 42
1.0
 92
        8
 66
     7
 43
1.0
 76
     1
 77
     6
 78
     2
 67
     7
 79
     3
170
     0
171
     0
290
     0
174
     0
 93
       13
 44
0.0
173
     0
291
     0
 45
0.0
1001
ACAD
1000
AcDbSavedByObjectVersion
1070
     0
  0
DICTIONARYVAR
  5
D7
102
{ACAD_REACTORS
330
D3
102
}
330
D3
100
DictionaryVariables
280
     0
  1
1:1
  0
DICTIONARYVAR
  5
D5
102
{ACAD_REACTORS
330
D3
102
}
330
D3
100
DictionaryVariables
280
     0
  1
STANDARD
  0
DICTIONARYVAR
  5
D4
102
{ACAD_REACTORS
330
D3
102
}
330
D3
100
DictionaryVariables
280
     0
  1
STANDARD
  0
DICTIONARYVAR
  5
E1
102
{ACAD_REACTORS
330
D3
102
}
330
D3
100
DictionaryVariables
280
     0
  1
2
  0
DICTIONARYVAR
  5
DF
102
{ACAD_REACTORS
330
D3
102
}
330
D3
100
DictionaryVariables
280
     0
  1
2
  0
DICTIONARYVAR
  5
DD
102
{ACAD_REACTORS
330
D3
102
}
330
D3
100
DictionaryVariables
280
     0
  1
1
  0
DICTIONARYVAR
  5
DC
102
{ACAD_REACTORS
330
D3
102
}
330
D3
100
DictionaryVariables
280
     0
  1
0
  0
DICTIONARYVAR
  5
D9
102
{ACAD_REACTORS
330
D3
102
}
330
D3
100
DictionaryVariables
280
     0
  1
0
  0
DICTIONARYVAR
  5
DA
102
{ACAD_REACTORS
330
D3
102
}
330
D3
100
DictionaryVariables
280
     0
  1
0
  0
DICTIONARYVAR
  5
D8
102
{ACAD_REACTORS
330
D3
102
}
330
D3
100
DictionaryVariables
280
     0
  1
2
  0
DICTIONARYVAR
  5
E2
102
{ACAD_REACTORS
330
D3
102
}
330
D3
100
DictionaryVariables
280
     0
  1
1.570796
  0
DICTIONARYVAR
  5
E3
102
{ACAD_REACTORS
330
D3
102
}
330
D3
100
DictionaryVariables
280
     0
  1
1.570796
  0
DICTIONARYVAR
  5
E4
102
{ACAD_REACTORS
330
D3
102
}
330
D3
100
DictionaryVariables
280
     0
  1
-122.394000
  0
DICTIONARYVAR
  5
D6
102
{ACAD_REACTORS
330
D3
102
}
330
D3
100
DictionaryVariables
280
     0
  1
1
  0
DICTIONARYVAR
  5
E0
102
{ACAD_REACTORS
330
D3
102
}
330
D3
100
DictionaryVariables
280
     0
  1
1
  0
DICTIONARYVAR
  5
DB
102
{ACAD_REACTORS
330
D3
102
}
330
D3
100
DictionaryVariables
280
     0
  1
127
  0
DICTIONARYVAR
  5
DE
102
{ACAD_REACTORS
330
D3
102
}
330
D3
100
DictionaryVariables
280
     0
  1
0
  0
DICTIONARY
  5
133
330
1E
100
AcDbDictionary
280
     1
281
     1
  3
ACAD_XREC_ROUNDTRIP
360
134
  0
DICTIONARY
  5
137
330
26
100
AcDbDictionary
280
     1
281
     1
  3
ACAD_XREC_ROUNDTRIP
360
138
  0
DICTIONARY
  5
135
330
22
100
AcDbDictionary
280
     1
281
     1
  3
ACAD_XREC_ROUNDTRIP
360
136
  0
DICTIONARY
  5
15B
330
3D
100
AcDbDictionary
280
     1
281
     1
  3
ACAD_XREC_ROUNDTRIP
360
15C
  0
DICTIONARY
  5
159
330
3C
100
AcDbDictionary
280
     1
281
     1
  3
ACAD_XREC_ROUNDTRIP
360
15A
  0
DICTIONARY
  5
15D
330
3E
100
AcDbDictionary
280
     1
281
     1
  3
ACAD_XREC_ROUNDTRIP
360
15E
  0
DICTIONARY
  5
12D
330
93
100
AcDbDictionary
280
     1
281
     1
  3
ACAD_ROUNDTRIP_2008_TABLESTYLE_CELLSTYLEMAP
360
12E
  3
ACAD_XREC_ROUNDTRIP
360
173
  0
DICTIONARY
  5
141
330
2F
100
AcDbDictionary
280
     1
281
     1
  3
ACAD_XREC_ROUNDTRIP
360
142
  0
DICTIONARY
  5
145
330
31
100
AcDbDictionary
280
     1
281
     1
  3
ACAD_XREC_ROUNDTRIP
360
146
  0
DICTIONARY
  5
143
330
30
100
AcDbDictionary
280
     1
281
     1
  3
ACAD_XREC_ROUNDTRIP
360
144
  0
DICTIONARY
  5
147
330
32
100
AcDbDictionary
280
     1
281
     1
  3
ACAD_XREC_ROUNDTRIP
360
148
  0
DICTIONARY
  5
14F
330
36
100
AcDbDictionary
280
     1
281
     1
  3
ACAD_XREC_ROUNDTRIP
360
150
  0
DICTIONARY
  5
157
330
3A
100
AcDbDictionary
280
     1
281
     1
  3
ACAD_XREC_ROUNDTRIP
360
158
  0
DICTIONARY
  5
14B
330
34
100
AcDbDictionary
280
     1
281
     1
  3
ACAD_XREC_ROUNDTRIP
360
14C
  0
DICTIONARY
  5
14D
330
35
100
AcDbDictionary
280
     1
281
     1
  3
ACAD_XREC_ROUNDTRIP
360
14E
  0
DICTIONARY
  5
171
330
91
100
AcDbDictionary
280
     1
281
     1
  3
ACAD_XREC_ROUNDTRIP
360
172
  0
DICTIONARY
  5
155
330
39
100
AcDbDictionary
280
     1
281
     1
  3
ACAD_XREC_ROUNDTRIP
360
156
  0
DICTIONARY
  5
139
330
2B
100
AcDbDictionary
280
     1
281
     1
  3
ACAD_XREC_ROUNDTRIP
360
13A
  0
DICTIONARY
  5
13B
330
2C
100
AcDbDictionary
280
     1
281
     1
  3
ACAD_XREC_ROUNDTRIP
360
13C
  0
DICTIONARY
  5
13D
330
2D
100
AcDbDictionary
280
     1
281
     1
  3
ACAD_XREC_ROUNDTRIP
360
13E
  0
DICTIONARY
  5
13F
330
2E
100
AcDbDictionary
280
     1
281
     1
  3
ACAD_XREC_ROUNDTRIP
360
140
  0
DICTIONARY
  5
161
330
89
100
AcDbDictionary
280
     1
281
     1
  3
ACAD_XREC_ROUNDTRIP
360
162
  0
DICTIONARY
  5
16D
330
8F
100
AcDbDictionary
280
     1
281
     1
  3
ACAD_XREC_ROUNDTRIP
360
16E
  0
DICTIONARY
  5
153
330
38
100
AcDbDictionary
280
     1
281
     1
  3
ACAD_XREC_ROUNDTRIP
360
154
  0
DICTIONARY
  5
16F
330
90
100
AcDbDictionary
280
     1
281
     1
  3
ACAD_XREC_ROUNDTRIP
360
170
  0
DICTIONARY
  5
149
330
33
100
AcDbDictionary
280
     1
281
     1
  3
ACAD_XREC_ROUNDTRIP
360
14A
  0
DICTIONARY
  5
16B
330
8E
100
AcDbDictionary
280
     1
281
     1
  3
ACAD_XREC_ROUNDTRIP
360
16C
  0
DICTIONARY
  5
169
330
8D
100
AcDbDictionary
280
     1
281
     1
  3
ACAD_XREC_ROUNDTRIP
360
16A
  0
DICTIONARY
  5
163
330
8A
100
AcDbDictionary
280
     1
281
     1
  3
ACAD_XREC_ROUNDTRIP
360
164
  0
DICTIONARY
  5
165
330
8B
100
AcDbDictionary
280
     1
281
     1
  3
ACAD_XREC_ROUNDTRIP
360
166
  0
DICTIONARY
  5
151
330
37
100
AcDbDictionary
280
     1
281
     1
  3
ACAD_XREC_ROUNDTRIP
360
152
  0
DICTIONARY
  5
15F
330
88
100
AcDbDictionary
280
     1
281
     1
  3
ACAD_XREC_ROUNDTRIP
360
160
  0
DICTIONARY
  5
167
330
8C
100
AcDbDictionary
280
     1
281
     1
  3
ACAD_XREC_ROUNDTRIP
360
168
  0
XRECORD
  5
134
102
{ACAD_REACTORS
330
133
102
}
330
133
100
AcDbXrecord
280
     1
102
SHADEPLOT
 70
     0
102
SHADEPLOTRESLEVEL
 70
     2
102
SHADEPLOTCUSTOMDPI
 70
   300
  0
XRECORD
  5
138
102
{ACAD_REACTORS
330
137
102
}
330
137
100
AcDbXrecord
280
     1
102
SHADEPLOT
 70
     0
102
SHADEPLOTRESLEVEL
 70
     2
102
SHADEPLOTCUSTOMDPI
 70
   300
  0
XRECORD
  5
136
102
{ACAD_REACTORS
330
135
102
}
330
135
100
AcDbXrecord
280
     1
102
SHADEPLOT
 70
     0
102
SHADEPLOTRESLEVEL
 70
     2
102
SHADEPLOTCUSTOMDPI
 70
   300
  0
XRECORD
  5
15C
102
{ACAD_REACTORS
330
15B
102
}
330
15B
100
AcDbXrecord
280
     1
102
MATERIAL
148
0.0
149
0.0
149
0.0
 93
        0
 94
      127
282
     0
 72
     1
 77
     1
171
     1
175
     1
179
     1
273
     0
  0
XRECORD
  5
15A
102
{ACAD_REACTORS
330
159
102
}
330
159
100
AcDbXrecord
280
     1
102
MATERIAL
148
0.0
149
0.0
149
0.0
 93
        0
 94
      127
282
     0
 72
     1
 77
     1
171
     1
175
     1
179
     1
273
     0
  0
XRECORD
  5
15E
102
{ACAD_REACTORS
330
15D
102
}
330
15D
100
AcDbXrecord
280
     1
102
MATERIAL
148
0.0
149
0.0
149
0.0
 93
        0
 94
      127
282
     0
 72
     1
 77
     1
171
     1
175
     1
179
     1
273
     0
  0
CELLSTYLEMAP
  5
12E
102
{ACAD_REACTORS
330
12D
102
}
330
12D
100
AcDbCellStyleMap
 90
        3
300
CELLSTYLE
  1
TABLEFORMAT_BEGIN
 90
        5
170
     1
 91
        0
 92
    32768
 62
   257
 93
        1
300
CONTENTFORMAT
  1
CONTENTFORMAT_BEGIN
 90
        0
 91
        0
 92
      512
 93
        0
300

 40
0.0
140
1.0
 94
        5
 62
     0
340
11
144
0.25
309
CONTENTFORMAT_END
171
     0
 94
        0
309
TABLEFORMAT_END
  1
CELLSTYLE_BEGIN
 90
        1
 91
        1
300
_TITLE
309
CELLSTYLE_END
300
CELLSTYLE
  1
TABLEFORMAT_BEGIN
 90
        5
170
     1
 91
        0
 92
        0
 62
   257
 93
        1
300
CONTENTFORMAT
  1
CONTENTFORMAT_BEGIN
 90
        0
 91
        0
 92
      512
 93
        0
300

 40
0.0
140
1.0
 94
        5
 62
     0
340
11
144
0.18
309
CONTENTFORMAT_END
171
     0
 94
        0
309
TABLEFORMAT_END
  1
CELLSTYLE_BEGIN
 90
        2
 91
        1
300
_HEADER
309
CELLSTYLE_END
300
CELLSTYLE
  1
TABLEFORMAT_BEGIN
 90
        5
170
     1
 91
        0
 92
        0
 62
   257
 93
        1
300
CONTENTFORMAT
  1
CONTENTFORMAT_BEGIN
 90
        0
 91
        0
 92
      512
 93
        0
300

 40
0.0
140
1.0
 94
        2
 62
     0
340
11
144
0.18
309
CONTENTFORMAT_END
171
     0
 94
        0
309
TABLEFORMAT_END
  1
CELLSTYLE_BEGIN
 90
        3
 91
        2
300
_DATA
309
CELLSTYLE_END
  0
XRECORD
  5
173
102
{ACAD_REACTORS
330
12D
102
}
330
12D
100
AcDbXrecord
280
     1
102
ACAD_ROUNDTRIP_PRE2007_TABLESTYLE
 90
      512
 91
        0
  1

 92
      512
 93
        0
  2

 94
      512
 95
        0
  3

  0
XRECORD
  5
142
102
{ACAD_REACTORS
330
141
102
}
330
141
100
AcDbXrecord
280
     1
102
RTVSPropertyOp0
 70
     1
102
RTVSPropertyOp1
 70
     1
102
RTVSPropertyOp2
 70
     1
102
RTVSPropertyOp3
 70
     1
102
RTVSPropertyOp4
 70
     1
102
RTVSPropertyOp5
 70
     1
102
RTVSPropertyOp6
 70
     1
102
RTVSPropertyOp7
 70
     1
102
RTVSPropertyOp8
 70
     1
102
RTVSPropertyOp9
 70
     1
102
RTVSPropertyOp10
 70
     1
102
RTVSPropertyOp11
 70
     1
102
RTVSPropertyOp12
 70
     1
102
RTVSPropertyOp13
 70
     1
102
RTVSPropertyOp14
 70
     1
102
RTVSPropertyOp15
 70
     1
102
RTVSPropertyOp16
 70
     1
102
RTVSPropertyOp17
 70
     1
102
RTVSPropertyOp18
 70
     1
102
RTVSPropertyOp19
 70
     1
102
RTVSPropertyOp20
 70
     1
102
RTVSPropertyOp21
 70
     1
102
RTVSPropertyOp22
 70
     1
102
RTVSPropertyOp23
 70
     1
102
RTVSPropertyOp24
 70
     1
102
RTVSPropertyOp25
 70
     1
102
RTVSPropertyOp26
 70
     1
102
RTVSPropertyOp27
 70
     1
102
RTVSPropertyOp28
 70
     1
102
RTVSPropertyOp29
 70
     1
102
RTVSPropertyOp30
 70
     1
102
RTVSPropertyOp31
 70
     1
102
RTVSPropertyOp32
 70
     1
  0
XRECORD
  5
146
102
{ACAD_REACTORS
330
145
102
}
330
145
100
AcDbXrecord
280
     1
102
RTVSPropertyOp0
 70
     1
102
RTVSPropertyOp1
 70
     1
102
RTVSPropertyOp2
 70
     1
102
RTVSPropertyOp3
 70
     1
102
RTVSPropertyOp4
 70
     1
102
RTVSPropertyOp5
 70
     1
102
RTVSPropertyOp6
 70
     1
102
RTVSPropertyOp7
 70
     1
102
RTVSPropertyOp8
 70
     1
102
RTVSPropertyOp9
 70
     1
102
RTVSPropertyOp10
 70
     1
102
RTVSPropertyOp11
 70
     1
102
RTVSPropertyOp12
 70
     1
102
RTVSPropertyOp13
 70
     1
102
RTVSPropertyOp14
 70
     1
102
RTVSPropertyOp15
 70
     1
102
RTVSPropertyOp16
 70
     1
102
RTVSPropertyOp17
 70
     1
102
RTVSPropertyOp18
 70
     1
102
RTVSPropertyOp19
 70
     1
102
RTVSPropertyOp20
 70
     1
102
RTVSPropertyOp21
 70
     1
102
RTVSPropertyOp22
 70
     1
102
RTVSPropertyOp23
 70
     1
102
RTVSPropertyOp24
 70
     1
102
RTVSPropertyOp25
 70
     1
102
RTVSPropertyOp26
 70
     1
102
RTVSPropertyOp27
 70
     1
102
RTVSPropertyOp28
 70
     1
102
RTVSPropertyOp29
 70
     1
102
RTVSPropertyOp30
 70
     1
102
RTVSPropertyOp31
 70
     1
102
RTVSPropertyOp32
 70
     1
  0
XRECORD
  5
144
102
{ACAD_REACTORS
330
143
102
}
330
143
100
AcDbXrecord
280
     1
102
RTVSPropertyOp0
 70
     1
102
RTVSPropertyOp1
 70
     1
102
RTVSPropertyOp2
 70
     1
102
RTVSPropertyOp3
 70
     1
102
RTVSPropertyOp4
 70
     1
102
RTVSPropertyOp5
 70
     1
102
RTVSPropertyOp6
 70
     1
102
RTVSPropertyOp7
 70
     1
102
RTVSPropertyOp8
 70
     1
102
RTVSPropertyOp9
 70
     1
102
RTVSPropertyOp10
 70
     1
102
RTVSPropertyOp11
 70
     1
102
RTVSPropertyOp12
 70
     1
102
RTVSPropertyOp13
 70
     1
102
RTVSPropertyOp14
 70
     1
102
RTVSPropertyOp15
 70
     1
102
RTVSPropertyOp16
 70
     1
102
RTVSPropertyOp17
 70
     1
102
RTVSPropertyOp18
 70
     1
102
RTVSPropertyOp19
 70
     1
102
RTVSPropertyOp20
 70
     1
102
RTVSPropertyOp21
 70
     1
102
RTVSPropertyOp22
 70
     1
102
RTVSPropertyOp23
 70
     1
102
RTVSPropertyOp24
 70
     1
102
RTVSPropertyOp25
 70
     1
102
RTVSPropertyOp26
 70
     1
102
RTVSPropertyOp27
 70
     1
102
RTVSPropertyOp28
 70
     1
102
RTVSPropertyOp29
 70
     1
102
RTVSPropertyOp30
 70
     1
102
RTVSPropertyOp31
 70
     1
102
RTVSPropertyOp32
 70
     1
  0
XRECORD
  5
148
102
{ACAD_REACTORS
330
147
102
}
330
147
100
AcDbXrecord
280
     1
102
RTVSPropertyOp0
 70
     1
102
RTVSPropertyOp1
 70
     1
102
RTVSPropertyOp2
 70
     1
102
RTVSPropertyOp3
 70
     1
102
RTVSPropertyOp4
 70
     1
102
RTVSPropertyOp5
 70
     1
102
RTVSPropertyOp6
 70
     1
102
RTVSPropertyOp7
 70
     1
102
RTVSPropertyOp8
 70
     1
102
RTVSPropertyOp9
 70
     1
102
RTVSPropertyOp10
 70
     1
102
RTVSPropertyOp11
 70
     1
102
RTVSPropertyOp12
 70
     1
102
RTVSPropertyOp13
 70
     1
102
RTVSPropertyOp14
 70
     1
102
RTVSPropertyOp15
 70
     1
102
RTVSPropertyOp16
 70
     1
102
RTVSPropertyOp17
 70
     1
102
RTVSPropertyOp18
 70
     1
102
RTVSPropertyOp19
 70
     1
102
RTVSPropertyOp20
 70
     1
102
RTVSPropertyOp21
 70
     1
102
RTVSPropertyOp22
 70
     1
102
RTVSPropertyOp23
 70
     1
102
RTVSPropertyOp24
 70
     1
102
RTVSPropertyOp25
 70
     1
102
RTVSPropertyOp26
 70
     1
102
RTVSPropertyOp27
 70
     1
102
RTVSPropertyOp28
 70
     1
102
RTVSPropertyOp29
 70
     1
102
RTVSPropertyOp30
 70
     1
102
RTVSPropertyOp31
 70
     1
102
RTVSPropertyOp32
 70
     1
  0
XRECORD
  5
150
102
{ACAD_REACTORS
330
14F
102
}
330
14F
100
AcDbXrecord
280
     1
102
RTVSPropertyOp0
 70
     1
102
RTVSPropertyOp1
 70
     1
102
RTVSPropertyOp2
 70
     1
102
RTVSPropertyOp3
 70
     1
102
RTVSPropertyOp4
 70
     1
102
RTVSPropertyOp5
 70
     1
102
RTVSPropertyOp6
 70
     1
102
RTVSPropertyOp7
 70
     1
102
RTVSPropertyOp8
 70
     1
102
RTVSPropertyOp9
 70
     1
102
RTVSPropertyOp10
 70
     1
102
RTVSPropertyOp11
 70
     1
102
RTVSPropertyOp12
 70
     1
102
RTVSPropertyOp13
 70
     1
102
RTVSPropertyOp14
 70
     1
102
RTVSPropertyOp15
 70
     1
102
RTVSPropertyOp16
 70
     1
102
RTVSPropertyOp17
 70
     1
102
RTVSPropertyOp18
 70
     1
102
RTVSPropertyOp19
 70
     1
102
RTVSPropertyOp20
 70
     1
102
RTVSPropertyOp21
 70
     1
102
RTVSPropertyOp22
 70
     1
102
RTVSPropertyOp23
 70
     1
102
RTVSPropertyOp24
 70
     1
102
RTVSPropertyOp25
 70
     1
102
RTVSPropertyOp26
 70
     1
102
RTVSPropertyOp27
 70
     1
102
RTVSPropertyOp28
 70
     1
102
RTVSPropertyOp29
 70
     1
102
RTVSPropertyOp30
 70
     1
102
RTVSPropertyOp31
 70
     1
102
RTVSPropertyOp32
 70
     1
  0
XRECORD
  5
158
102
{ACAD_REACTORS
330
157
102
}
330
157
100
AcDbXrecord
280
     1
102
RTVSPropertyOp0
 70
     1
102
RTVSPropertyOp1
 70
     1
102
RTVSPropertyOp2
 70
     1
102
RTVSPropertyOp3
 70
     1
102
RTVSPropertyOp4
 70
     1
102
RTVSPropertyOp5
 70
     1
102
RTVSPropertyOp6
 70
     1
102
RTVSPropertyOp7
 70
     1
102
RTVSPropertyOp8
 70
     1
102
RTVSPropertyOp9
 70
     1
102
RTVSPropertyOp10
 70
     1
102
RTVSPropertyOp11
 70
     1
102
RTVSPropertyOp12
 70
     1
102
RTVSPropertyOp13
 70
     1
102
RTVSPropertyOp14
 70
     1
102
RTVSPropertyOp15
 70
     1
102
RTVSPropertyOp16
 70
     1
102
RTVSPropertyOp17
 70
     1
102
RTVSPropertyOp18
 70
     1
102
RTVSPropertyOp19
 70
     1
102
RTVSPropertyOp20
 70
     1
102
RTVSPropertyOp21
 70
     1
102
RTVSPropertyOp22
 70
     1
102
RTVSPropertyOp23
 70
     1
102
RTVSPropertyOp24
 70
     1
102
RTVSPropertyOp25
 70
     1
102
RTVSPropertyOp26
 70
     1
102
RTVSPropertyOp27
 70
     1
102
RTVSPropertyOp28
 70
     1
102
RTVSPropertyOp29
 70
     1
102
RTVSPropertyOp30
 70
     1
102
RTVSPropertyOp31
 70
     1
102
RTVSPropertyOp32
 70
     1
  0
XRECORD
  5
14C
102
{ACAD_REACTORS
330
14B
102
}
330
14B
100
AcDbXrecord
280
     1
102
RTVSPropertyOp0
 70
     1
102
RTVSPropertyOp1
 70
     1
102
RTVSPropertyOp2
 70
     1
102
RTVSPropertyOp3
 70
     1
102
RTVSPropertyOp4
 70
     1
102
RTVSPropertyOp5
 70
     1
102
RTVSPropertyOp6
 70
     1
102
RTVSPropertyOp7
 70
     1
102
RTVSPropertyOp8
 70
     1
102
RTVSPropertyOp9
 70
     1
102
RTVSPropertyOp10
 70
     1
102
RTVSPropertyOp11
 70
     1
102
RTVSPropertyOp12
 70
     1
102
RTVSPropertyOp13
 70
     1
102
RTVSPropertyOp14
 70
     1
102
RTVSPropertyOp15
 70
     1
102
RTVSPropertyOp16
 70
     1
102
RTVSPropertyOp17
 70
     1
102
RTVSPropertyOp18
 70
     1
102
RTVSPropertyOp19
 70
     1
102
RTVSPropertyOp20
 70
     1
102
RTVSPropertyOp21
 70
     1
102
RTVSPropertyOp22
 70
     1
102
RTVSPropertyOp23
 70
     1
102
RTVSPropertyOp24
 70
     1
102
RTVSPropertyOp25
 70
     1
102
RTVSPropertyOp26
 70
     1
102
RTVSPropertyOp27
 70
     1
102
RTVSPropertyOp28
 70
     1
102
RTVSPropertyOp29
 70
     1
102
RTVSPropertyOp30
 70
     1
102
RTVSPropertyOp31
 70
     1
102
RTVSPropertyOp32
 70
     1
  0
XRECORD
  5
14E
102
{ACAD_REACTORS
330
14D
102
}
330
14D
100
AcDbXrecord
280
     1
102
RTVSPropertyOp0
 70
     1
102
RTVSPropertyOp1
 70
     1
102
RTVSPropertyOp2
 70
     1
102
RTVSPropertyOp3
 70
     1
102
RTVSPropertyOp4
 70
     1
102
RTVSPropertyOp5
 70
     1
102
RTVSPropertyOp6
 70
     1
102
RTVSPropertyOp7
 70
     1
102
RTVSPropertyOp8
 70
     1
102
RTVSPropertyOp9
 70
     1
102
RTVSPropertyOp10
 70
     1
102
RTVSPropertyOp11
 70
     1
102
RTVSPropertyOp12
 70
     1
102
RTVSPropertyOp13
 70
     1
102
RTVSPropertyOp14
 70
     1
102
RTVSPropertyOp15
 70
     1
102
RTVSPropertyOp16
 70
     1
102
RTVSPropertyOp17
 70
     1
102
RTVSPropertyOp18
 70
     1
102
RTVSPropertyOp19
 70
     1
102
RTVSPropertyOp20
 70
     1
102
RTVSPropertyOp21
 70
     1
102
RTVSPropertyOp22
 70
     1
102
RTVSPropertyOp23
 70
     1
102
RTVSPropertyOp24
 70
     1
102
RTVSPropertyOp25
 70
     1
102
RTVSPropertyOp26
 70
     1
102
RTVSPropertyOp27
 70
     1
102
RTVSPropertyOp28
 70
     1
102
RTVSPropertyOp29
 70
     1
102
RTVSPropertyOp30
 70
     1
102
RTVSPropertyOp31
 70
     1
102
RTVSPropertyOp32
 70
     1
  0
XRECORD
  5
172
102
{ACAD_REACTORS
330
171
102
}
330
171
100
AcDbXrecord
280
     1
102
RTVSPropertyOp0
 70
     0
102
RTVSPropertyOp1
 70
     0
102
RTVSPropertyOp2
 70
     0
102
RTVSPropertyOp3
 70
     0
102
RTVSPropertyOp4
 70
     0
102
RTVSPropertyOp5
 70
     0
102
RTVSPropertyOp6
 70
     0
102
RTVSPropertyOp7
 70
     0
102
RTVSPropertyOp8
 70
     0
102
RTVSPropertyOp9
 70
     0
102
RTVSPropertyOp10
 70
     0
102
RTVSPropertyOp11
 70
     0
102
RTVSPropertyOp12
 70
     0
102
RTVSPropertyOp13
 70
     0
102
RTVSPropertyOp14
 70
     2
102
RTVSPropertyOp15
 70
     0
102
RTVSPropertyOp16
 70
     0
102
RTVSPropertyOp17
 70
     0
102
RTVSPropertyOp18
 70
     0
102
RTVSPropertyOp19
 70
     0
102
RTVSPropertyOp20
 70
     0
102
RTVSPropertyOp21
 70
     0
102
RTVSPropertyOp22
 70
     0
102
RTVSPropertyOp23
 70
     0
102
RTVSPropertyOp24
 70
     0
102
RTVSPropertyOp25
 70
     0
102
RTVSPropertyOp26
 70
     0
102
RTVSPropertyOp27
 70
     0
102
RTVSPropertyOp28
 70
     0
102
RTVSPropertyOp29
 70
     0
102
RTVSPropertyOp30
 70
     0
102
RTVSPropertyOp31
 70
     0
102
RTVSPropertyOp32
 70
     0
  0
XRECORD
  5
156
102
{ACAD_REACTORS
330
155
102
}
330
155
100
AcDbXrecord
280
     1
102
RTVSPropertyOp0
 70
     1
102
RTVSPropertyOp1
 70
     1
102
RTVSPropertyOp2
 70
     1
102
RTVSPropertyOp3
 70
     1
102
RTVSPropertyOp4
 70
     1
102
RTVSPropertyOp5
 70
     1
102
RTVSPropertyOp6
 70
     1
102
RTVSPropertyOp7
 70
     1
102
RTVSPropertyOp8
 70
     1
102
RTVSPropertyOp9
 70
     1
102
RTVSPropertyOp10
 70
     1
102
RTVSPropertyOp11
 70
     1
102
RTVSPropertyOp12
 70
     1
102
RTVSPropertyOp13
 70
     1
102
RTVSPropertyOp14
 70
     1
102
RTVSPropertyOp15
 70
     1
102
RTVSPropertyOp16
 70
     1
102
RTVSPropertyOp17
 70
     1
102
RTVSPropertyOp18
 70
     1
102
RTVSPropertyOp19
 70
     1
102
RTVSPropertyOp20
 70
     1
102
RTVSPropertyOp21
 70
     1
102
RTVSPropertyOp22
 70
     1
102
RTVSPropertyOp23
 70
     1
102
RTVSPropertyOp24
 70
     1
102
RTVSPropertyOp25
 70
     1
102
RTVSPropertyOp26
 70
     1
102
RTVSPropertyOp27
 70
     1
102
RTVSPropertyOp28
 70
     1
102
RTVSPropertyOp29
 70
     1
102
RTVSPropertyOp30
 70
     1
102
RTVSPropertyOp31
 70
     1
102
RTVSPropertyOp32
 70
     1
  0
XRECORD
  5
13A
102
{ACAD_REACTORS
330
139
102
}
330
139
100
AcDbXrecord
280
     1
102
RTVSPropertyOp0
 70
     1
102
RTVSPropertyOp1
 70
     1
102
RTVSPropertyOp2
 70
     1
102
RTVSPropertyOp3
 70
     1
102
RTVSPropertyOp4
 70
     1
102
RTVSPropertyOp5
 70
     1
102
RTVSPropertyOp6
 70
     1
102
RTVSPropertyOp7
 70
     1
102
RTVSPropertyOp8
 70
     1
102
RTVSPropertyOp9
 70
     1
102
RTVSPropertyOp10
 70
     1
102
RTVSPropertyOp11
 70
     1
102
RTVSPropertyOp12
 70
     1
102
RTVSPropertyOp13
 70
     1
102
RTVSPropertyOp14
 70
     1
102
RTVSPropertyOp15
 70
     1
102
RTVSPropertyOp16
 70
     1
102
RTVSPropertyOp17
 70
     1
102
RTVSPropertyOp18
 70
     1
102
RTVSPropertyOp19
 70
     1
102
RTVSPropertyOp20
 70
     1
102
RTVSPropertyOp21
 70
     1
102
RTVSPropertyOp22
 70
     1
102
RTVSPropertyOp23
 70
     1
102
RTVSPropertyOp24
 70
     1
102
RTVSPropertyOp25
 70
     1
102
RTVSPropertyOp26
 70
     1
102
RTVSPropertyOp27
 70
     1
102
RTVSPropertyOp28
 70
     1
102
RTVSPropertyOp29
 70
     1
102
RTVSPropertyOp30
 70
     1
102
RTVSPropertyOp31
 70
     1
102
RTVSPropertyOp32
 70
     1
  0
XRECORD
  5
13C
102
{ACAD_REACTORS
330
13B
102
}
330
13B
100
AcDbXrecord
280
     1
102
RTVSPropertyOp0
 70
     1
102
RTVSPropertyOp1
 70
     1
102
RTVSPropertyOp2
 70
     1
102
RTVSPropertyOp3
 70
     1
102
RTVSPropertyOp4
 70
     1
102
RTVSPropertyOp5
 70
     1
102
RTVSPropertyOp6
 70
     1
102
RTVSPropertyOp7
 70
     1
102
RTVSPropertyOp8
 70
     1
102
RTVSPropertyOp9
 70
     1
102
RTVSPropertyOp10
 70
     1
102
RTVSPropertyOp11
 70
     1
102
RTVSPropertyOp12
 70
     1
102
RTVSPropertyOp13
 70
     1
102
RTVSPropertyOp14
 70
     1
102
RTVSPropertyOp15
 70
     1
102
RTVSPropertyOp16
 70
     1
102
RTVSPropertyOp17
 70
     1
102
RTVSPropertyOp18
 70
     1
102
RTVSPropertyOp19
 70
     1
102
RTVSPropertyOp20
 70
     1
102
RTVSPropertyOp21
 70
     1
102
RTVSPropertyOp22
 70
     1
102
RTVSPropertyOp23
 70
     1
102
RTVSPropertyOp24
 70
     1
102
RTVSPropertyOp25
 70
     1
102
RTVSPropertyOp26
 70
     1
102
RTVSPropertyOp27
 70
     1
102
RTVSPropertyOp28
 70
     1
102
RTVSPropertyOp29
 70
     1
102
RTVSPropertyOp30
 70
     1
102
RTVSPropertyOp31
 70
     1
102
RTVSPropertyOp32
 70
     1
  0
XRECORD
  5
13E
102
{ACAD_REACTORS
330
13D
102
}
330
13D
100
AcDbXrecord
280
     1
102
RTVSPropertyOp0
 70
     1
102
RTVSPropertyOp1
 70
     1
102
RTVSPropertyOp2
 70
     1
102
RTVSPropertyOp3
 70
     1
102
RTVSPropertyOp4
 70
     1
102
RTVSPropertyOp5
 70
     1
102
RTVSPropertyOp6
 70
     1
102
RTVSPropertyOp7
 70
     1
102
RTVSPropertyOp8
 70
     1
102
RTVSPropertyOp9
 70
     1
102
RTVSPropertyOp10
 70
     1
102
RTVSPropertyOp11
 70
     1
102
RTVSPropertyOp12
 70
     1
102
RTVSPropertyOp13
 70
     1
102
RTVSPropertyOp14
 70
     1
102
RTVSPropertyOp15
 70
     1
102
RTVSPropertyOp16
 70
     1
102
RTVSPropertyOp17
 70
     1
102
RTVSPropertyOp18
 70
     1
102
RTVSPropertyOp19
 70
     1
102
RTVSPropertyOp20
 70
     1
102
RTVSPropertyOp21
 70
     1
102
RTVSPropertyOp22
 70
     1
102
RTVSPropertyOp23
 70
     1
102
RTVSPropertyOp24
 70
     1
102
RTVSPropertyOp25
 70
     1
102
RTVSPropertyOp26
 70
     1
102
RTVSPropertyOp27
 70
     1
102
RTVSPropertyOp28
 70
     1
102
RTVSPropertyOp29
 70
     1
102
RTVSPropertyOp30
 70
     1
102
RTVSPropertyOp31
 70
     1
102
RTVSPropertyOp32
 70
     1
  0
XRECORD
  5
140
102
{ACAD_REACTORS
330
13F
102
}
330
13F
100
AcDbXrecord
280
     1
102
RTVSPropertyOp0
 70
     1
102
RTVSPropertyOp1
 70
     1
102
RTVSPropertyOp2
 70
     1
102
RTVSPropertyOp3
 70
     1
102
RTVSPropertyOp4
 70
     1
102
RTVSPropertyOp5
 70
     1
102
RTVSPropertyOp6
 70
     1
102
RTVSPropertyOp7
 70
     1
102
RTVSPropertyOp8
 70
     1
102
RTVSPropertyOp9
 70
     1
102
RTVSPropertyOp10
 70
     1
102
RTVSPropertyOp11
 70
     1
102
RTVSPropertyOp12
 70
     1
102
RTVSPropertyOp13
 70
     1
102
RTVSPropertyOp14
 70
     1
102
RTVSPropertyOp15
 70
     1
102
RTVSPropertyOp16
 70
     1
102
RTVSPropertyOp17
 70
     1
102
RTVSPropertyOp18
 70
     1
102
RTVSPropertyOp19
 70
     1
102
RTVSPropertyOp20
 70
     1
102
RTVSPropertyOp21
 70
     1
102
RTVSPropertyOp22
 70
     1
102
RTVSPropertyOp23
 70
     1
102
RTVSPropertyOp24
 70
     1
102
RTVSPropertyOp25
 70
     1
102
RTVSPropertyOp26
 70
     1
102
RTVSPropertyOp27
 70
     1
102
RTVSPropertyOp28
 70
     1
102
RTVSPropertyOp29
 70
     1
102
RTVSPropertyOp30
 70
     1
102
RTVSPropertyOp31
 70
     1
102
RTVSPropertyOp32
 70
     1
  0
XRECORD
  5
162
102
{ACAD_REACTORS
330
161
102
}
330
161
100
AcDbXrecord
280
     1
102
RTVSPropertyOp0
 70
     1
102
RTVSPropertyOp1
 70
     1
102
RTVSPropertyOp2
 70
     1
102
RTVSPropertyOp3
 70
     1
102
RTVSPropertyOp4
 70
     1
102
RTVSPropertyOp5
 70
     1
102
RTVSPropertyOp6
 70
     1
102
RTVSPropertyOp7
 70
     1
102
RTVSPropertyOp8
 70
     1
102
RTVSPropertyOp9
 70
     1
102
RTVSPropertyOp10
 70
     1
102
RTVSPropertyOp11
 70
     1
102
RTVSPropertyOp12
 70
     1
102
RTVSPropertyOp13
 70
     1
102
RTVSPropertyOp14
 70
     1
102
RTVSPropertyOp15
 70
     1
102
RTVSPropertyOp16
 70
     1
102
RTVSPropertyOp17
 70
     1
102
RTVSPropertyOp18
 70
     1
102
RTVSPropertyOp19
 70
     1
102
RTVSPropertyOp20
 70
     1
102
RTVSPropertyOp21
 70
     1
102
RTVSPropertyOp22
 70
     1
102
RTVSPropertyOp23
 70
     1
102
RTVSPropertyOp24
 70
     1
102
RTVSPropertyOp25
 70
     1
102
RTVSPropertyOp26
 70
     1
102
RTVSPropertyOp27
 70
     1
102
RTVSPropertyOp28
 70
     1
102
RTVSPropertyOp29
 70
     1
102
RTVSPropertyOp30
 70
     1
102
RTVSPropertyOp31
 70
     1
102
RTVSPropertyOp32
 70
     1
  0
XRECORD
  5
16E
102
{ACAD_REACTORS
330
16D
102
}
330
16D
100
AcDbXrecord
280
     1
102
RTVSPropertyOp0
 70
     0
102
RTVSPropertyOp1
 70
     0
102
RTVSPropertyOp2
 70
     0
102
RTVSPropertyOp3
 70
     0
102
RTVSPropertyOp4
 70
     0
102
RTVSPropertyOp5
 70
     0
102
RTVSPropertyOp6
 70
     0
102
RTVSPropertyOp7
 70
     0
102
RTVSPropertyOp8
 70
     0
102
RTVSPropertyOp9
 70
     0
102
RTVSPropertyOp10
 70
     0
102
RTVSPropertyOp11
 70
     0
102
RTVSPropertyOp12
 70
     0
102
RTVSPropertyOp13
 70
     0
102
RTVSPropertyOp14
 70
     2
102
RTVSPropertyOp15
 70
     0
102
RTVSPropertyOp16
 70
     0
102
RTVSPropertyOp17
 70
     0
102
RTVSPropertyOp18
 70
     0
102
RTVSPropertyOp19
 70
     0
102
RTVSPropertyOp20
 70
     0
102
RTVSPropertyOp21
 70
     0
102
RTVSPropertyOp22
 70
     0
102
RTVSPropertyOp23
 70
     0
102
RTVSPropertyOp24
 70
     0
102
RTVSPropertyOp25
 70
     0
102
RTVSPropertyOp26
 70
     0
102
RTVSPropertyOp27
 70
     0
102
RTVSPropertyOp28
 70
     0
102
RTVSPropertyOp29
 70
     0
102
RTVSPropertyOp30
 70
     0
102
RTVSPropertyOp31
 70
     0
102
RTVSPropertyOp32
 70
     0
  0
XRECORD
  5
154
102
{ACAD_REACTORS
330
153
102
}
330
153
100
AcDbXrecord
280
     1
102
RTVSPropertyOp0
 70
     1
102
RTVSPropertyOp1
 70
     1
102
RTVSPropertyOp2
 70
     1
102
RTVSPropertyOp3
 70
     1
102
RTVSPropertyOp4
 70
     1
102
RTVSPropertyOp5
 70
     1
102
RTVSPropertyOp6
 70
     1
102
RTVSPropertyOp7
 70
     1
102
RTVSPropertyOp8
 70
     1
102
RTVSPropertyOp9
 70
     1
102
RTVSPropertyOp10
 70
     1
102
RTVSPropertyOp11
 70
     1
102
RTVSPropertyOp12
 70
     1
102
RTVSPropertyOp13
 70
     1
102
RTVSPropertyOp14
 70
     1
102
RTVSPropertyOp15
 70
     1
102
RTVSPropertyOp16
 70
     1
102
RTVSPropertyOp17
 70
     1
102
RTVSPropertyOp18
 70
     1
102
RTVSPropertyOp19
 70
     1
102
RTVSPropertyOp20
 70
     1
102
RTVSPropertyOp21
 70
     1
102
RTVSPropertyOp22
 70
     1
102
RTVSPropertyOp23
 70
     1
102
RTVSPropertyOp24
 70
     1
102
RTVSPropertyOp25
 70
     1
102
RTVSPropertyOp26
 70
     1
102
RTVSPropertyOp27
 70
     1
102
RTVSPropertyOp28
 70
     1
102
RTVSPropertyOp29
 70
     1
102
RTVSPropertyOp30
 70
     1
102
RTVSPropertyOp31
 70
     1
102
RTVSPropertyOp32
 70
     1
  0
XRECORD
  5
170
102
{ACAD_REACTORS
330
16F
102
}
330
16F
100
AcDbXrecord
280
     1
102
RTVSPropertyOp0
 70
     0
102
RTVSPropertyOp1
 70
     0
102
RTVSPropertyOp2
 70
     0
102
RTVSPropertyOp3
 70
     0
102
RTVSPropertyOp4
 70
     0
102
RTVSPropertyOp5
 70
     0
102
RTVSPropertyOp6
 70
     0
102
RTVSPropertyOp7
 70
     0
102
RTVSPropertyOp8
 70
     0
102
RTVSPropertyOp9
 70
     0
102
RTVSPropertyOp10
 70
     0
102
RTVSPropertyOp11
 70
     0
102
RTVSPropertyOp12
 70
     0
102
RTVSPropertyOp13
 70
     0
102
RTVSPropertyOp14
 70
     2
102
RTVSPropertyOp15
 70
     0
102
RTVSPropertyOp16
 70
     0
102
RTVSPropertyOp17
 70
     0
102
RTVSPropertyOp18
 70
     0
102
RTVSPropertyOp19
 70
     0
102
RTVSPropertyOp20
 70
     0
102
RTVSPropertyOp21
 70
     0
102
RTVSPropertyOp22
 70
     0
102
RTVSPropertyOp23
 70
     0
102
RTVSPropertyOp24
 70
     0
102
RTVSPropertyOp25
 70
     0
102
RTVSPropertyOp26
 70
     0
102
RTVSPropertyOp27
 70
     0
102
RTVSPropertyOp28
 70
     0
102
RTVSPropertyOp29
 70
     0
102
RTVSPropertyOp30
 70
     0
102
RTVSPropertyOp31
 70
     0
102
RTVSPropertyOp32
 70
     0
  0
XRECORD
  5
14A
102
{ACAD_REACTORS
330
149
102
}
330
149
100
AcDbXrecord
280
     1
102
RTVSPropertyOp0
 70
     1
102
RTVSPropertyOp1
 70
     1
102
RTVSPropertyOp2
 70
     1
102
RTVSPropertyOp3
 70
     1
102
RTVSPropertyOp4
 70
     1
102
RTVSPropertyOp5
 70
     1
102
RTVSPropertyOp6
 70
     1
102
RTVSPropertyOp7
 70
     1
102
RTVSPropertyOp8
 70
     1
102
RTVSPropertyOp9
 70
     1
102
RTVSPropertyOp10
 70
     1
102
RTVSPropertyOp11
 70
     1
102
RTVSPropertyOp12
 70
     1
102
RTVSPropertyOp13
 70
     1
102
RTVSPropertyOp14
 70
     1
102
RTVSPropertyOp15
 70
     1
102
RTVSPropertyOp16
 70
     1
102
RTVSPropertyOp17
 70
     1
102
RTVSPropertyOp18
 70
     1
102
RTVSPropertyOp19
 70
     1
102
RTVSPropertyOp20
 70
     1
102
RTVSPropertyOp21
 70
     1
102
RTVSPropertyOp22
 70
     1
102
RTVSPropertyOp23
 70
     1
102
RTVSPropertyOp24
 70
     1
102
RTVSPropertyOp25
 70
     1
102
RTVSPropertyOp26
 70
     1
102
RTVSPropertyOp27
 70
     1
102
RTVSPropertyOp28
 70
     1
102
RTVSPropertyOp29
 70
     1
102
RTVSPropertyOp30
 70
     1
102
RTVSPropertyOp31
 70
     1
102
RTVSPropertyOp32
 70
     1
  0
XRECORD
  5
16C
102
{ACAD_REACTORS
330
16B
102
}
330
16B
100
AcDbXrecord
280
     1
102
RTVSPropertyOp0
 70
     1
102
RTVSPropertyOp1
 70
     1
102
RTVSPropertyOp2
 70
     1
102
RTVSPropertyOp3
 70
     1
102
RTVSPropertyOp4
 70
     1
102
RTVSPropertyOp5
 70
     1
102
RTVSPropertyOp6
 70
     1
102
RTVSPropertyOp7
 70
     1
102
RTVSPropertyOp8
 70
     1
102
RTVSPropertyOp9
 70
     1
102
RTVSPropertyOp10
 70
     1
102
RTVSPropertyOp11
 70
     1
102
RTVSPropertyOp12
 70
     1
102
RTVSPropertyOp13
 70
     1
102
RTVSPropertyOp14
 70
     1
102
RTVSPropertyOp15
 70
     1
102
RTVSPropertyOp16
 70
     1
102
RTVSPropertyOp17
 70
     1
102
RTVSPropertyOp18
 70
     1
102
RTVSPropertyOp19
 70
     1
102
RTVSPropertyOp20
 70
     1
102
RTVSPropertyOp21
 70
     1
102
RTVSPropertyOp22
 70
     1
102
RTVSPropertyOp23
 70
     1
102
RTVSPropertyOp24
 70
     1
102
RTVSPropertyOp25
 70
     1
102
RTVSPropertyOp26
 70
     1
102
RTVSPropertyOp27
 70
     1
102
RTVSPropertyOp28
 70
     1
102
RTVSPropertyOp29
 70
     1
102
RTVSPropertyOp30
 70
     1
102
RTVSPropertyOp31
 70
     1
102
RTVSPropertyOp32
 70
     1
  0
XRECORD
  5
16A
102
{ACAD_REACTORS
330
169
102
}
330
169
100
AcDbXrecord
280
     1
102
RTVSPropertyOp0
 70
     1
102
RTVSPropertyOp1
 70
     1
102
RTVSPropertyOp2
 70
     1
102
RTVSPropertyOp3
 70
     1
102
RTVSPropertyOp4
 70
     1
102
RTVSPropertyOp5
 70
     1
102
RTVSPropertyOp6
 70
     1
102
RTVSPropertyOp7
 70
     1
102
RTVSPropertyOp8
 70
     1
102
RTVSPropertyOp9
 70
     1
102
RTVSPropertyOp10
 70
     1
102
RTVSPropertyOp11
 70
     1
102
RTVSPropertyOp12
 70
     1
102
RTVSPropertyOp13
 70
     1
102
RTVSPropertyOp14
 70
     1
102
RTVSPropertyOp15
 70
     1
102
RTVSPropertyOp16
 70
     1
102
RTVSPropertyOp17
 70
     1
102
RTVSPropertyOp18
 70
     1
102
RTVSPropertyOp19
 70
     1
102
RTVSPropertyOp20
 70
     1
102
RTVSPropertyOp21
 70
     1
102
RTVSPropertyOp22
 70
     1
102
RTVSPropertyOp23
 70
     1
102
RTVSPropertyOp24
 70
     1
102
RTVSPropertyOp25
 70
     1
102
RTVSPropertyOp26
 70
     1
102
RTVSPropertyOp27
 70
     1
102
RTVSPropertyOp28
 70
     1
102
RTVSPropertyOp29
 70
     1
102
RTVSPropertyOp30
 70
     1
102
RTVSPropertyOp31
 70
     1
102
RTVSPropertyOp32
 70
     1
  0
XRECORD
  5
164
102
{ACAD_REACTORS
330
163
102
}
330
163
100
AcDbXrecord
280
     1
102
RTVSPropertyOp0
 70
     1
102
RTVSPropertyOp1
 70
     1
102
RTVSPropertyOp2
 70
     1
102
RTVSPropertyOp3
 70
     1
102
RTVSPropertyOp4
 70
     1
102
RTVSPropertyOp5
 70
     1
102
RTVSPropertyOp6
 70
     1
102
RTVSPropertyOp7
 70
     1
102
RTVSPropertyOp8
 70
     1
102
RTVSPropertyOp9
 70
     1
102
RTVSPropertyOp10
 70
     1
102
RTVSPropertyOp11
 70
     1
102
RTVSPropertyOp12
 70
     1
102
RTVSPropertyOp13
 70
     1
102
RTVSPropertyOp14
 70
     1
102
RTVSPropertyOp15
 70
     1
102
RTVSPropertyOp16
 70
     1
102
RTVSPropertyOp17
 70
     1
102
RTVSPropertyOp18
 70
     1
102
RTVSPropertyOp19
 70
     1
102
RTVSPropertyOp20
 70
     1
102
RTVSPropertyOp21
 70
     1
102
RTVSPropertyOp22
 70
     1
102
RTVSPropertyOp23
 70
     1
102
RTVSPropertyOp24
 70
     1
102
RTVSPropertyOp25
 70
     1
102
RTVSPropertyOp26
 70
     1
102
RTVSPropertyOp27
 70
     1
102
RTVSPropertyOp28
 70
     1
102
RTVSPropertyOp29
 70
     1
102
RTVSPropertyOp30
 70
     1
102
RTVSPropertyOp31
 70
     1
102
RTVSPropertyOp32
 70
     1
  0
XRECORD
  5
166
102
{ACAD_REACTORS
330
165
102
}
330
165
100
AcDbXrecord
280
     1
102
RTVSPropertyOp0
 70
     1
102
RTVSPropertyOp1
 70
     1
102
RTVSPropertyOp2
 70
     1
102
RTVSPropertyOp3
 70
     1
102
RTVSPropertyOp4
 70
     1
102
RTVSPropertyOp5
 70
     1
102
RTVSPropertyOp6
 70
     1
102
RTVSPropertyOp7
 70
     1
102
RTVSPropertyOp8
 70
     1
102
RTVSPropertyOp9
 70
     1
102
RTVSPropertyOp10
 70
     1
102
RTVSPropertyOp11
 70
     1
102
RTVSPropertyOp12
 70
     1
102
RTVSPropertyOp13
 70
     1
102
RTVSPropertyOp14
 70
     1
102
RTVSPropertyOp15
 70
     1
102
RTVSPropertyOp16
 70
     1
102
RTVSPropertyOp17
 70
     1
102
RTVSPropertyOp18
 70
     1
102
RTVSPropertyOp19
 70
     1
102
RTVSPropertyOp20
 70
     1
102
RTVSPropertyOp21
 70
     1
102
RTVSPropertyOp22
 70
     1
102
RTVSPropertyOp23
 70
     1
102
RTVSPropertyOp24
 70
     1
102
RTVSPropertyOp25
 70
     1
102
RTVSPropertyOp26
 70
     1
102
RTVSPropertyOp27
 70
     1
102
RTVSPropertyOp28
 70
     1
102
RTVSPropertyOp29
 70
     1
102
RTVSPropertyOp30
 70
     1
102
RTVSPropertyOp31
 70
     1
102
RTVSPropertyOp32
 70
     1
  0
XRECORD
  5
152
102
{ACAD_REACTORS
330
151
102
}
330
151
100
AcDbXrecord
280
     1
102
RTVSPropertyOp0
 70
     1
102
RTVSPropertyOp1
 70
     1
102
RTVSPropertyOp2
 70
     1
102
RTVSPropertyOp3
 70
     1
102
RTVSPropertyOp4
 70
     1
102
RTVSPropertyOp5
 70
     1
102
RTVSPropertyOp6
 70
     1
102
RTVSPropertyOp7
 70
     1
102
RTVSPropertyOp8
 70
     1
102
RTVSPropertyOp9
 70
     1
102
RTVSPropertyOp10
 70
     1
102
RTVSPropertyOp11
 70
     1
102
RTVSPropertyOp12
 70
     1
102
RTVSPropertyOp13
 70
     1
102
RTVSPropertyOp14
 70
     1
102
RTVSPropertyOp15
 70
     1
102
RTVSPropertyOp16
 70
     1
102
RTVSPropertyOp17
 70
     1
102
RTVSPropertyOp18
 70
     1
102
RTVSPropertyOp19
 70
     1
102
RTVSPropertyOp20
 70
     1
102
RTVSPropertyOp21
 70
     1
102
RTVSPropertyOp22
 70
     1
102
RTVSPropertyOp23
 70
     1
102
RTVSPropertyOp24
 70
     1
102
RTVSPropertyOp25
 70
     1
102
RTVSPropertyOp26
 70
     1
102
RTVSPropertyOp27
 70
     1
102
RTVSPropertyOp28
 70
     1
102
RTVSPropertyOp29
 70
     1
102
RTVSPropertyOp30
 70
     1
102
RTVSPropertyOp31
 70
     1
102
RTVSPropertyOp32
 70
     1
  0
XRECORD
  5
160
102
{ACAD_REACTORS
330
15F
102
}
330
15F
100
AcDbXrecord
280
     1
102
RTVSPropertyOp0
 70
     1
102
RTVSPropertyOp1
 70
     1
102
RTVSPropertyOp2
 70
     1
102
RTVSPropertyOp3
 70
     1
102
RTVSPropertyOp4
 70
     1
102
RTVSPropertyOp5
 70
     1
102
RTVSPropertyOp6
 70
     1
102
RTVSPropertyOp7
 70
     1
102
RTVSPropertyOp8
 70
     1
102
RTVSPropertyOp9
 70
     1
102
RTVSPropertyOp10
 70
     1
102
RTVSPropertyOp11
 70
     1
102
RTVSPropertyOp12
 70
     1
102
RTVSPropertyOp13
 70
     1
102
RTVSPropertyOp14
 70
     1
102
RTVSPropertyOp15
 70
     1
102
RTVSPropertyOp16
 70
     1
102
RTVSPropertyOp17
 70
     1
102
RTVSPropertyOp18
 70
     1
102
RTVSPropertyOp19
 70
     1
102
RTVSPropertyOp20
 70
     1
102
RTVSPropertyOp21
 70
     1
102
RTVSPropertyOp22
 70
     1
102
RTVSPropertyOp23
 70
     1
102
RTVSPropertyOp24
 70
     1
102
RTVSPropertyOp25
 70
     1
102
RTVSPropertyOp26
 70
     1
102
RTVSPropertyOp27
 70
     1
102
RTVSPropertyOp28
 70
     1
102
RTVSPropertyOp29
 70
     1
102
RTVSPropertyOp30
 70
     1
102
RTVSPropertyOp31
 70
     1
102
RTVSPropertyOp32
 70
     1
  0
XRECORD
  5
168
102
{ACAD_REACTORS
330
167
102
}
330
167
100
AcDbXrecord
280
     1
102
RTVSPropertyOp0
 70
     1
102
RTVSPropertyOp1
 70
     1
102
RTVSPropertyOp2
 70
     1
102
RTVSPropertyOp3
 70
     1
102
RTVSPropertyOp4
 70
     1
102
RTVSPropertyOp5
 70
     1
102
RTVSPropertyOp6
 70
     1
102
RTVSPropertyOp7
 70
     1
102
RTVSPropertyOp8
 70
     1
102
RTVSPropertyOp9
 70
     1
102
RTVSPropertyOp10
 70
     1
102
RTVSPropertyOp11
 70
     1
102
RTVSPropertyOp12
 70
     1
102
RTVSPropertyOp13
 70
     1
102
RTVSPropertyOp14
 70
     1
102
RTVSPropertyOp15
 70
     1
102
RTVSPropertyOp16
 70
     1
102
RTVSPropertyOp17
 70
     1
102
RTVSPropertyOp18
 70
     1
102
RTVSPropertyOp19
 70
     1
102
RTVSPropertyOp20
 70
     1
102
RTVSPropertyOp21
 70
     1
102
RTVSPropertyOp22
 70
     1
102
RTVSPropertyOp23
 70
     1
102
RTVSPropertyOp24
 70
     1
102
RTVSPropertyOp25
 70
     1
102
RTVSPropertyOp26
 70
     1
102
RTVSPropertyOp27
 70
     1
102
RTVSPropertyOp28
 70
     1
102
RTVSPropertyOp29
 70
     1
102
RTVSPropertyOp30
 70
     1
102
RTVSPropertyOp31
 70
     1
102
RTVSPropertyOp32
 70
     1
  0
ENDSEC
  0
EOF
