  0
SECTION
  2
HEADER
  9
$ACADVER
  1
AC1021
  9
$ACADMAINTVER
 70
    25
  9
$DWGCODEPAGE
  3
ANSI_1252
  9
$INSBASE
 10
0.0
 20
0.0
 30
0.0
  9
$EXTMIN
 10
-13.40202
 20
-8.47553
 30
0.0
  9
$EXTMAX
 10
13.18382
 20
8.00135
 30
0.0
  9
$LIMMIN
 10
0.0
 20
0.0
  9
$LIMMAX
 10
12.0
 20
9.0
  9
$ORTHOMODE
 70
     0
  9
$REGENMODE
 70
     1
  9
$FILLMODE
 70
     1
  9
$QTEXTMODE
 70
     0
  9
$MIRRTEXT
 70
     1
  9
$LTSCALE
 40
1.0
  9
$ATTMODE
 70
     1
  9
$TEXTSIZE
 40
0.2
  9
$TRACEWID
 40
0.05
  9
$TEXTSTYLE
  7
Standard
  9
$CLAYER
  8
0
  9
$CELTYPE
  6
ByLayer
  9
$CECOLOR
 62
   256
  9
$CELTSCALE
 40
1.0
  9
$DISPSILH
 70
     0
  9
$DIMSCALE
 40
1.0
  9
$DIMASZ
 40
0.18
  9
$DIMEXO
 40
0.0625
  9
$DIMDLI
 40
0.38
  9
$DIMRND
 40
0.0
  9
$DIMDLE
 40
0.0
  9
$DIMEXE
 40
0.18
  9
$DIMTP
 40
0.0
  9
$DIMTM
 40
0.0
  9
$DIMTXT
 40
0.18
  9
$DIMCEN
 40
0.09
  9
$DIMTSZ
 40
0.0
  9
$DIMTOL
 70
     0
  9
$DIMLIM
 70
     0
  9
$DIMTIH
 70
     1
  9
$DIMTOH
 70
     1
  9
$DIMSE1
 70
     0
  9
$DIMSE2
 70
     0
  9
$DIMTAD
 70
     0
  9
$DIMZIN
 70
     0
  9
$DIMBLK
  1

  9
$DIMASO
 70
     1
  9
$DIMSHO
 70
     1
  9
$DIMPOST
  1

  9
$DIMAPOST
  1

  9
$DIMALT
 70
     0
  9
$DIMALTD
 70
     2
  9
$DIMALTF
 40
25.4
  9
$DIMLFAC
 40
1.0
  9
$DIMTOFL
 70
     0
  9
$DIMTVP
 40
0.0
  9
$DIMTIX
 70
     0
  9
$DIMSOXD
 70
     0
  9
$DIMSAH
 70
     0
  9
$DIMBLK1
  1

  9
$DIMBLK2
  1

  9
$DIMSTYLE
  2
Standard
  9
$DIMCLRD
 70
     0
  9
$DIMCLRE
 70
     0
  9
$DIMCLRT
 70
     0
  9
$DIMTFAC
 40
1.0
  9
$DIMGAP
 40
0.09
  9
$DIMJUST
 70
     0
  9
$DIMSD1
 70
     0
  9
$DIMSD2
 70
     0
  9
$DIMTOLJ
 70
     1
  9
$DIMTZIN
 70
     0
  9
$DIMALTZ
 70
     0
  9
$DIMALTTZ
 70
     0
  9
$DIMUPT
 70
     0
  9
$DIMDEC
 70
     4
  9
$DIMTDEC
 70
     4
  9
$DIMALTU
 70
     2
  9
$DIMALTTD
 70
     2
  9
$DIMTXSTY
  7
Standard
  9
$DIMAUNIT
 70
     0
  9
$DIMADEC
 70
     0
  9
$DIMALTRND
 40
0.0
  9
$DIMAZIN
 70
     0
  9
$DIMDSEP
 70
    46
  9
$DIMATFIT
 70
     3
  9
$DIMFRAC
 70
     0
  9
$DIMLDRBLK
  1

  9
$DIMLUNIT
 70
     2
  9
$DIMLWD
 70
    -2
  9
$DIMLWE
 70
    -2
  9
$DIMTMOVE
 70
     0
  9
$DIMFXL
 40
1.0
  9
$DIMFXLON
 70
     0
  9
$DIMJOGANG
 40
0.7853981633974483
  9
$DIMTFILL
 70
     0
  9
$DIMTFILLCLR
 70
     0
  9
$DIMARCSYM
 70
     0
  9
$DIMLTYPE
  6

  9
$DIMLTEX1
  6

  9
$DIMLTEX2
  6

  9
$LUNITS
 70
     2
  9
$LUPREC
 70
     4
  9
$SKETCHINC
 40
0.1
  9
$FILLETRAD
 40
0.5
  9
$AUNITS
 70
     0
  9
$AUPREC
 70
     0
  9
$MENU
  1
.
  9
$ELEVATION
 40
0.0
  9
$PELEVATION
 40
0.0
  9
$THICKNESS
 40
0.0
  9
$LIMCHECK
 70
     0
  9
$CHAMFERA
 40
0.5
  9
$CHAMFERB
 40
0.5
  9
$CHAMFERC
 40
1.0
  9
$CHAMFERD
 40
0.0
  9
$SKPOLY
 70
     0
  9
$TDCREATE
 40
2456231.960658449
  9
$TDUCREATE
 40
2456232.127325116
  9
$TDUPDATE
 40
2456231.960658495
  9
$TDUUPDATE
 40
2456232.127325162
  9
$TDINDWG
 40
0.0000000116
  9
$TDUSRTIMER
 40
0.0000000116
  9
$USRTIMER
 70
     1
  9
$ANGBASE
 50
0.0
  9
$ANGDIR
 70
     0
  9
$PDMODE
 70
     0
  9
$PDSIZE
 40
0.0
  9
$PLINEWID
 40
0.0
  9
$SPLFRAME
 70
     0
  9
$SPLINETYPE
 70
     6
  9
$SPLINESEGS
 70
     8
  9
$HANDSEED
  5
AC
  9
$SURFTAB1
 70
     6
  9
$SURFTAB2
 70
     6
  9
$SURFTYPE
 70
     6
  9
$SURFU
 70
     6
  9
$SURFV
 70
     6
  9
$UCSBASE
  2

  9
$UCSNAME
  2

  9
$UCSORG
 10
0.0
 20
0.0
 30
0.0
  9
$UCSXDIR
 10
1.0
 20
0.0
 30
0.0
  9
$UCSYDIR
 10
0.0
 20
1.0
 30
0.0
  9
$UCSORTHOREF
  2

  9
$UCSORTHOVIEW
 70
     0
  9
$UCSORGTOP
 10
0.0
 20
0.0
 30
0.0
  9
$UCSORGBOTTOM
 10
0.0
 20
0.0
 30
0.0
  9
$UCSORGLEFT
 10
0.0
 20
0.0
 30
0.0
  9
$UCSORGRIGHT
 10
0.0
 20
0.0
 30
0.0
  9
$UCSORGFRONT
 10
0.0
 20
0.0
 30
0.0
  9
$UCSORGBACK
 10
0.0
 20
0.0
 30
0.0
  9
$PUCSBASE
  2

  9
$PUCSNAME
  2

  9
$PUCSORG
 10
0.0
 20
0.0
 30
0.0
  9
$PUCSXDIR
 10
1.0
 20
0.0
 30
0.0
  9
$PUCSYDIR
 10
0.0
 20
1.0
 30
0.0
  9
$PUCSORTHOREF
  2

  9
$PUCSORTHOVIEW
 70
     0
  9
$PUCSORGTOP
 10
0.0
 20
0.0
 30
0.0
  9
$PUCSORGBOTTOM
 10
0.0
 20
0.0
 30
0.0
  9
$PUCSORGLEFT
 10
0.0
 20
0.0
 30
0.0
  9
$PUCSORGRIGHT
 10
0.0
 20
0.0
 30
0.0
  9
$PUCSORGFRONT
 10
0.0
 20
0.0
 30
0.0
  9
$PUCSORGBACK
 10
0.0
 20
0.0
 30
0.0
  9
$USERI1
 70
     0
  9
$USERI2
 70
     0
  9
$USERI3
 70
     0
  9
$USERI4
 70
     0
  9
$USERI5
 70
     0
  9
$USERR1
 40
0.0
  9
$USERR2
 40
0.0
  9
$USERR3
 40
0.0
  9
$USERR4
 40
0.0
  9
$USERR5
 40
0.0
  9
$WORLDVIEW
 70
     1
  9
$SHADEDGE
 70
     3
  9
$SHADEDIF
 70
    70
  9
$TILEMODE
 70
     1
  9
$MAXACTVP
 70
    64
  9
$PINSBASE
 10
0.0
 20
0.0
 30
0.0
  9
$PLIMCHECK
 70
     0
  9
$PEXTMIN
 10
1.000000000000000E+20
 20
1.000000000000000E+20
 30
1.000000000000000E+20
  9
$PEXTMAX
 10
-1.000000000000000E+20
 20
-1.000000000000000E+20
 30
-1.000000000000000E+20
  9
$PLIMMIN
 10
0.0
 20
0.0
  9
$PLIMMAX
 10
12.0
 20
9.0
  9
$UNITMODE
 70
     0
  9
$VISRETAIN
 70
     1
  9
$PLINEGEN
 70
     0
  9
$PSLTSCALE
 70
     1
  9
$TREEDEPTH
 70
  3020
  9
$CMLSTYLE
  2
Standard
  9
$CMLJUST
 70
     0
  9
$CMLSCALE
 40
1.0
  9
$PROXYGRAPHICS
 70
     1
  9
$MEASUREMENT
 70
     0
  9
$CELWEIGHT
370
    -1
  9
$ENDCAPS
280
     0
  9
$JOINSTYLE
280
     0
  9
$LWDISPLAY
290
     0
  9
$INSUNITS
 70
     5
  9
$HYPERLINKBASE
  1

  9
$STYLESHEET
  1

  9
$XEDIT
290
     1
  9
$CEPSNTYPE
380
     0
  9
$PSTYLEMODE
290
     1
  9
$FINGERPRINTGUID
  2
{EC792E42-AA38-4AF9-97FB-2E7D9EFEF104}
  9
$VERSIONGUID
  2
{FAEB1C32-E019-11D5-929B-00C0DF256EC4}
  9
$EXTNAMES
290
     1
  9
$PSVPSCALE
 40
0.0
  9
$OLESTARTUP
290
     0
  9
$SORTENTS
280
   127
  9
$INDEXCTL
280
     0
  9
$HIDETEXT
280
     1
  9
$XCLIPFRAME
290
     0
  9
$HALOGAP
280
     0
  9
$OBSCOLOR
 70
   257
  9
$OBSLTYPE
280
     0
  9
$INTERSECTIONDISPLAY
280
     0
  9
$INTERSECTIONCOLOR
 70
   257
  9
$DIMASSOC
280
     2
  9
$PROJECTNAME
  1

  9
$CAMERADISPLAY
290
     0
  9
$LENSLENGTH
 40
50.0
  9
$CAMERAHEIGHT
 40
0.0
  9
$STEPSPERSEC
 40
2.0
  9
$STEPSIZE
 40
6.0
  9
$3DDWFPREC
 40
2.0
  9
$PSOLWIDTH
 40
0.25
  9
$PSOLHEIGHT
 40
4.0
  9
$LOFTANG1
 40
1.570796326794897
  9
$LOFTANG2
 40
1.570796326794897
  9
$LOFTMAG1
 40
0.0
  9
$LOFTMAG2
 40
0.0
  9
$LOFTPARAM
 70
     7
  9
$LOFTNORMALS
280
     1
  9
$LATITUDE
 40
37.795
  9
$LONGITUDE
 40
-122.394
  9
$NORTHDIRECTION
 40
0.0
  9
$TIMEZONE
 70
 -8000
  9
$LIGHTGLYPHDISPLAY
280
     1
  9
$TILEMODELIGHTSYNCH
280
     1
  9
$SOLIDHIST
280
     1
  9
$SHOWHIST
280
     1
  9
$DWFFRAME
280
     2
  9
$DGNFRAME
280
     2
  9
$REALWORLDSCALE
290
     1
  9
$INTERFERECOLOR
 62
   256
  9
$CSHADOW
280
     0
  9
$SHADOWPLANELOCATION
 40
0.0
  0
ENDSEC
  0
SECTION
  2
CLASSES
  0
CLASS
  1
ACDBDICTIONARYWDFLT
  2
AcDbDictionaryWithDefault
  3
ObjectDBX Classes
 90
        0
 91
        4
280
     0
281
     0
  0
CLASS
  1
VISUALSTYLE
  2
AcDbVisualStyle
  3
ObjectDBX Classes
 90
     4095
 91
        4
280
     0
281
     0
  0
CLASS
  1
MATERIAL
  2
AcDbMaterial
  3
ObjectDBX Classes
 90
     1153
 91
        4
280
     0
281
     0
  0
ENDSEC
  0
SECTION
  2
TABLES
  0
TABLE
  2
VPORT
  5
8
330
0
100
AcDbSymbolTable
 70
     1
  0
VPORT
  5
29
330
8
100
AcDbSymbolTableRecord
100
AcDbViewportTableRecord
  2
*Active
 70
     0
 10
0.0
 20
0.0
 11
1.0
 21
1.0
 12
10.42990654205607
 22
4.5
 13
0.0
 23
0.0
 14
0.5
 24
0.5
 15
0.5
 25
0.5
 16
0.0
 26
0.0
 36
1.0
 17
0.0
 27
0.0
 37
0.0
 40
9.0
 41
1.972972972850329
 42
50.0
 43
0.0
 44
0.0
 50
0.0
 51
0.0
 71
     0
 72
   100
 73
     1
 74
     3
 75
     0
 76
     0
 77
     0
 78
     0
281
     0
 65
     1
110
0.0
120
0.0
130
0.0
111
1.0
121
0.0
131
0.0
112
0.0
122
1.0
132
0.0
 79
     0
146
0.0
 60
     3
 61
     5
292
     1
282
     1
141
0.0
142
0.0
 63
   250
  0
ENDTAB
  0
TABLE
  2
LTYPE
  5
5
330
0
100
AcDbSymbolTable
 70
     1
  0
LTYPE
  5
14
330
5
100
AcDbSymbolTableRecord
100
AcDbLinetypeTableRecord
  2
ByBlock
 70
     0
  3

 72
    65
 73
     0
 40
0.0
  0
LTYPE
  5
15
330
5
100
AcDbSymbolTableRecord
100
AcDbLinetypeTableRecord
  2
ByLayer
 70
     0
  3

 72
    65
 73
     0
 40
0.0
  0
LTYPE
  5
16
330
5
100
AcDbSymbolTableRecord
100
AcDbLinetypeTableRecord
  2
Continuous
 70
     0
  3
Solid line
 72
    65
 73
     0
 40
0.0
  0
ENDTAB
  0
TABLE
  2
LAYER
  5
2
330
0
100
AcDbSymbolTable
 70
     3
  0
LAYER
  5
10
330
2
100
AcDbSymbolTableRecord
100
AcDbLayerTableRecord
  2
0
 70
     0
 62
     7
  6
Continuous
370
    -3
390
F
347
3E
  0
LAYER
  5
40
330
2
100
AcDbSymbolTableRecord
100
AcDbLayerTableRecord
  2
Layer 1
 70
     0
 62
     7
  6
Continuous
370
    -3
390
F
347
3E
  0
LAYER
  5
5E
330
2
100
AcDbSymbolTableRecord
100
AcDbLayerTableRecord
  2
layer 2
 70
     0
 62
     7
  6
Continuous
370
    -3
390
F
347
3E
  0
ENDTAB
  0
TABLE
  2
STYLE
  5
3
330
0
100
AcDbSymbolTable
 70
     1
  0
STYLE
  5
11
330
3
100
AcDbSymbolTableRecord
100
AcDbTextStyleTableRecord
  2
Standard
 70
     0
 40
0.0
 41
1.0
 50
0.0
 71
     0
 42
0.2
  3
txt
  4

  0
ENDTAB
  0
TABLE
  2
VIEW
  5
6
330
0
100
AcDbSymbolTable
 70
     0
  0
ENDTAB
  0
TABLE
  2
UCS
  5
7
330
0
100
AcDbSymbolTable
 70
     0
  0
ENDTAB
  0
TABLE
  2
APPID
  5
9
330
0
100
AcDbSymbolTable
 70
     2
  0
APPID
  5
12
330
9
100
AcDbSymbolTableRecord
100
AcDbRegAppTableRecord
  2
ACAD
 70
     0
  0
APPID
  5
3F
330
9
100
AcDbSymbolTableRecord
100
AcDbRegAppTableRecord
  2
ODA
 70
     0
  0
ENDTAB
  0
TABLE
  2
DIMSTYLE
  5
A
330
0
100
AcDbSymbolTable
 70
     1
100
AcDbDimStyleTable
  0
DIMSTYLE
105
27
330
A
100
AcDbSymbolTableRecord
100
AcDbDimStyleTableRecord
  2
Standard
 70
     0
178
     0
340
11
  0
ENDTAB
  0
TABLE
  2
BLOCK_RECORD
  5
1
330
0
100
AcDbSymbolTable
 70
     1
  0
BLOCK_RECORD
  5
1F
330
1
100
AcDbSymbolTableRecord
100
AcDbBlockTableRecord
  2
*Model_Space
340
22
 70
     0
280
     1
281
     0
  0
BLOCK_RECORD
  5
1B
330
1
100
AcDbSymbolTableRecord
100
AcDbBlockTableRecord
  2
*Paper_Space
340
1E
 70
     0
280
     1
281
     0
  0
BLOCK_RECORD
  5
23
330
1
100
AcDbSymbolTableRecord
100
AcDbBlockTableRecord
  2
*Paper_Space0
340
26
 70
     0
280
     1
281
     0
  0
ENDTAB
  0
ENDSEC
  0
SECTION
  2
BLOCKS
  0
BLOCK
  5
20
330
1F
100
AcDbEntity
  8
0
100
AcDbBlockBegin
  2
*Model_Space
 70
     0
 10
0.0
 20
0.0
 30
0.0
  3
*Model_Space
  1

  0
ENDBLK
  5
21
330
1F
100
AcDbEntity
  8
0
100
AcDbBlockEnd
  0
BLOCK
  5
1C
330
1B
100
AcDbEntity
 67
     1
  8
0
100
AcDbBlockBegin
  2
*Paper_Space
 70
     0
 10
0.0
 20
0.0
 30
0.0
  3
*Paper_Space
  1

  0
ENDBLK
  5
1D
330
1B
100
AcDbEntity
 67
     1
  8
0
100
AcDbBlockEnd
  0
BLOCK
  5
24
330
23
100
AcDbEntity
  8
0
100
AcDbBlockBegin
  2
*Paper_Space0
 70
     0
 10
0.0
 20
0.0
 30
0.0
  3
*Paper_Space0
  1

  0
ENDBLK
  5
25
330
23
100
AcDbEntity
  8
0
100
AcDbBlockEnd
  0
ENDSEC
  0
SECTION
  2
ENTITIES
  0
SPLINE
  5
41
330
1F
100
AcDbEntity
  8
Layer 1
 62
   250
100
AcDbSpline
210
0.0
220
0.0
230
1.0
 70
    11
 71
     3
 72
    92
 73
    88
 74
     0
 42
0.0000000001
 43
0.0000000001
 12
1.0
 22
0.0
 32
0.0
 13
1.0
 23
0.0
 33
0.0
 40
0.0
 40
0.0
 40
0.0
 40
0.0
 40
0.0434782608695652
 40
0.0434782608695652
 40
0.0434782608695652
 40
0.0434782608695652
 40
0.0869565217391304
 40
0.0869565217391304
 40
0.0869565217391304
 40
0.0869565217391304
 40
0.1304347826086956
 40
0.1304347826086956
 40
0.1304347826086956
 40
0.1304347826086956
 40
0.1739130434782609
 40
0.1739130434782609
 40
0.1739130434782609
 40
0.1739130434782609
 40
0.2173913043478261
 40
0.2173913043478261
 40
0.2173913043478261
 40
0.2173913043478261
 40
0.2608695652173913
 40
0.2608695652173913
 40
0.2608695652173913
 40
0.2608695652173913
 40
0.3043478260869565
 40
0.3043478260869565
 40
0.3043478260869565
 40
0.3043478260869565
 40
0.3478260869565217
 40
0.3478260869565217
 40
0.3478260869565217
 40
0.3478260869565217
 40
0.391304347826087
 40
0.391304347826087
 40
0.391304347826087
 40
0.391304347826087
 40
0.4347826086956522
 40
0.4347826086956522
 40
0.4347826086956522
 40
0.4347826086956522
 40
0.4782608695652174
 40
0.4782608695652174
 40
0.4782608695652174
 40
0.4782608695652174
 40
0.5217391304347826
 40
0.5217391304347826
 40
0.5217391304347826
 40
0.5217391304347826
 40
0.5652173913043478
 40
0.5652173913043478
 40
0.5652173913043478
 40
0.5652173913043478
 40
0.6086956521739131
 40
0.6086956521739131
 40
0.6086956521739131
 40
0.6086956521739131
 40
0.6521739130434783
 40
0.6521739130434783
 40
0.6521739130434783
 40
0.6521739130434783
 40
0.6956521739130435
 40
0.6956521739130435
 40
0.6956521739130435
 40
0.6956521739130435
 40
0.7391304347826086
 40
0.7391304347826086
 40
0.7391304347826086
 40
0.7391304347826086
 40
0.782608695652174
 40
0.782608695652174
 40
0.782608695652174
 40
0.782608695652174
 40
0.8260869565217391
 40
0.8260869565217391
 40
0.8260869565217391
 40
0.8260869565217391
 40
0.8695652173913043
 40
0.8695652173913043
 40
0.8695652173913043
 40
0.8695652173913043
 40
0.9130434782608695
 40
0.9130434782608695
 40
0.9130434782608695
 40
0.9130434782608695
 40
1.0
 40
1.0
 40
1.0
 40
1.0
 10
-3.1543
 20
-8.39425
 30
0.0
 10
-3.1543
 20
-8.39425
 30
0.0
 10
-3.1543
 20
-8.46537
 30
0.0
 10
-3.1543
 20
-8.46537
 30
0.0
 10
-3.1543
 20
-8.46537
 30
0.0
 10
-3.1543
 20
-8.46537
 30
0.0
 10
-3.55563
 20
-8.46537
 30
0.0
 10
-3.55563
 20
-8.46537
 30
0.0
 10
-3.55563
 20
-8.46537
 30
0.0
 10
-3.55619
 20
-8.44745
 30
0.0
 10
-3.55323
 20
-8.43023
 30
0.0
 10
-3.54688
 20
-8.41358
 30
0.0
 10
-3.54688
 20
-8.41358
 30
0.0
 10
-3.53658
 20
-8.38635
 30
0.0
 10
-3.52007
 20
-8.3594
 30
0.0
 10
-3.49735
 20
-8.33301
 30
0.0
 10
-3.49735
 20
-8.33301
 30
0.0
 10
-3.47463
 20
-8.30662
 30
0.0
 10
-3.44217
 20
-8.27614
 30
0.0
 10
-3.39998
 20
-8.24157
 30
0.0
 10
-3.39998
 20
-8.24157
 30
0.0
 10
-3.33436
 20
-8.18752
 30
0.0
 10
-3.28977
 20
-8.14476
 30
0.0
 10
-3.26649
 20
-8.11316
 30
0.0
 10
-3.26649
 20
-8.11316
 30
0.0
 10
-3.24306
 20
-8.08155
 30
0.0
 10
-3.23135
 20
-8.05163
 30
0.0
 10
-3.23135
 20
-8.02341
 30
0.0
 10
-3.23135
 20
-8.02341
 30
0.0
 10
-3.23135
 20
-7.99392
 30
0.0
 10
-3.24194
 20
-7.96908
 30
0.0
 10
-3.2631
 20
-7.94876
 30
0.0
 10
-3.2631
 20
-7.94876
 30
0.0
 10
-3.28427
 20
-7.92858
 30
0.0
 10
-3.31193
 20
-7.91842
 30
0.0
 10
-3.34593
 20
-7.91842
 30
0.0
 10
-3.34593
 20
-7.91842
 30
0.0
 10
-3.38192
 20
-7.91842
 30
0.0
 10
-3.4107
 20
-7.92915
 30
0.0
 10
-3.43229
 20
-7.95059
 30
0.0
 10
-3.43229
 20
-7.95059
 30
0.0
 10
-3.45389
 20
-7.9719
 30
0.0
 10
-3.46475
 20
-8.00154
 30
0.0
 10
-3.46503
 20
-8.03949
 30
0.0
 10
-3.46503
 20
-8.03949
 30
0.0
 10
-3.46503
 20
-8.03949
 30
0.0
 10
-3.54123
 20
-8.03187
 30
0.0
 10
-3.54123
 20
-8.03187
 30
0.0
 10
-3.54123
 20
-8.03187
 30
0.0
 10
-3.53601
 20
-7.97487
 30
0.0
 10
-3.51626
 20
-7.9314
 30
0.0
 10
-3.48211
 20
-7.90149
 30
0.0
 10
-3.48211
 20
-7.90149
 30
0.0
 10
-3.44782
 20
-7.87157
 30
0.0
 10
-3.40196
 20
-7.85661
 30
0.0
 10
-3.34424
 20
-7.85661
 30
0.0
 10
-3.34424
 20
-7.85661
 30
0.0
 10
-3.2861
 20
-7.85661
 30
0.0
 10
-3.23996
 20
-7.8727
 30
0.0
 10
-3.20609
 20
-7.90502
 30
0.0
 10
-3.20609
 20
-7.90502
 30
0.0
 10
-3.17209
 20
-7.93733
 30
0.0
 10
-3.15515
 20
-7.97741
 30
0.0
 10
-3.15515
 20
-8.0251
 30
0.0
 10
-3.15515
 20
-8.0251
 30
0.0
 10
-3.15515
 20
-8.04937
 30
0.0
 10
-3.16009
 20
-8.07322
 30
0.0
 10
-3.17011
 20
-8.09665
 30
0.0
 10
-3.17011
 20
-8.09665
 30
0.0
 10
-3.17999
 20
-8.12021
 30
0.0
 10
-3.1965
 20
-8.14491
 30
0.0
 10
-3.2195
 20
-8.17087
 30
0.0
 10
-3.2195
 20
-8.17087
 30
0.0
 10
-3.24264
 20
-8.19669
 30
0.0
 10
-3.28088
 20
-8.23239
 30
0.0
 10
-3.33422
 20
-8.27755
 30
0.0
 10
-3.33422
 20
-8.27755
 30
0.0
 10
-3.37895
 20
-8.31509
 30
0.0
 10
-3.40774
 20
-8.34049
 30
0.0
 10
-3.42044
 20
-8.35389
 30
0.0
 10
-3.42044
 20
-8.35389
 30
0.0
 10
-3.43314
 20
-8.3673
 30
0.0
 10
-3.44358
 20
-8.3807
 30
0.0
 10
-3.45191
 20
-8.39425
 30
0.0
 10
-3.45191
 20
-8.39425
 30
0.0
 10
-3.45191
 20
-8.39425
 30
0.0
 10
-3.1543
 20
-8.39425
 30
0.0
 10
-3.1543
 20
-8.39425
 30
0.0
  0
SPLINE
  5
42
330
1F
100
AcDbEntity
  8
Layer 1
 62
   250
100
AcDbSpline
210
0.0
220
0.0
230
1.0
 70
    11
 71
     3
 72
    52
 73
    48
 74
     0
 42
0.0000000001
 43
0.0000000001
 12
1.0
 22
0.0
 32
0.0
 13
1.0
 23
0.0
 33
0.0
 40
0.0
 40
0.0
 40
0.0
 40
0.0
 40
0.0769230769230769
 40
0.0769230769230769
 40
0.0769230769230769
 40
0.0769230769230769
 40
0.1538461538461539
 40
0.1538461538461539
 40
0.1538461538461539
 40
0.1538461538461539
 40
0.2307692307692308
 40
0.2307692307692308
 40
0.2307692307692308
 40
0.2307692307692308
 40
0.3076923076923077
 40
0.3076923076923077
 40
0.3076923076923077
 40
0.3076923076923077
 40
0.3846153846153846
 40
0.3846153846153846
 40
0.3846153846153846
 40
0.3846153846153846
 40
0.4615384615384616
 40
0.4615384615384616
 40
0.4615384615384616
 40
0.4615384615384616
 40
0.5384615384615384
 40
0.5384615384615384
 40
0.5384615384615384
 40
0.5384615384615384
 40
0.6153846153846154
 40
0.6153846153846154
 40
0.6153846153846154
 40
0.6153846153846154
 40
0.6923076923076923
 40
0.6923076923076923
 40
0.6923076923076923
 40
0.6923076923076923
 40
0.7692307692307693
 40
0.7692307692307693
 40
0.7692307692307693
 40
0.7692307692307693
 40
0.8461538461538461
 40
0.8461538461538461
 40
0.8461538461538461
 40
0.8461538461538461
 40
1.0
 40
1.0
 40
1.0
 40
1.0
 10
-3.07373
 20
-8.16621
 30
0.0
 10
-3.07373
 20
-8.09467
 30
0.0
 10
-3.06639
 20
-8.03681
 30
0.0
 10
-3.05172
 20
-7.99307
 30
0.0
 10
-3.05172
 20
-7.99307
 30
0.0
 10
-3.0369
 20
-7.94918
 30
0.0
 10
-3.01503
 20
-7.91546
 30
0.0
 10
-2.98596
 20
-7.89189
 30
0.0
 10
-2.98596
 20
-7.89189
 30
0.0
 10
-2.95703
 20
-7.86833
 30
0.0
 10
-2.92048
 20
-7.85661
 30
0.0
 10
-2.87646
 20
-7.85661
 30
0.0
 10
-2.87646
 20
-7.85661
 30
0.0
 10
-2.844
 20
-7.85661
 30
0.0
 10
-2.8155
 20
-7.86311
 30
0.0
 10
-2.7908
 20
-7.87623
 30
0.0
 10
-2.7908
 20
-7.87623
 30
0.0
 10
-2.76625
 20
-7.88935
 30
0.0
 10
-2.74593
 20
-7.90826
 30
0.0
 10
-2.73012
 20
-7.93296
 30
0.0
 10
-2.73012
 20
-7.93296
 30
0.0
 10
-2.71432
 20
-7.95751
 30
0.0
 10
-2.7019
 20
-7.98757
 30
0.0
 10
-2.69287
 20
-8.02298
 30
0.0
 10
-2.69287
 20
-8.02298
 30
0.0
 10
-2.6837
 20
-8.0584
 30
0.0
 10
-2.67918
 20
-8.10624
 30
0.0
 10
-2.67918
 20
-8.16621
 30
0.0
 10
-2.67918
 20
-8.16621
 30
0.0
 10
-2.67918
 20
-8.23733
 30
0.0
 10
-2.68652
 20
-8.29491
 30
0.0
 10
-2.70105
 20
-8.33865
 30
0.0
 10
-2.70105
 20
-8.33865
 30
0.0
 10
-2.71559
 20
-8.38254
 30
0.0
 10
-2.73746
 20
-8.41626
 30
0.0
 10
-2.76653
 20
-8.43997
 30
0.0
 10
-2.76653
 20
-8.43997
 30
0.0
 10
-2.79546
 20
-8.46368
 30
0.0
 10
-2.83215
 20
-8.47553
 30
0.0
 10
-2.87646
 20
-8.47553
 30
0.0
 10
-2.87646
 20
-8.47553
 30
0.0
 10
-2.93473
 20
-8.47553
 30
0.0
 10
-2.9806
 20
-8.45479
 30
0.0
 10
-3.0139
 20
-8.41316
 30
0.0
 10
-3.0139
 20
-8.41316
 30
0.0
 10
-3.05383
 20
-8.36236
 30
0.0
 10
-3.07373
 20
-8.28009
 30
0.0
 10
-3.07373
 20
-8.16621
 30
0.0
  0
SPLINE
  5
43
330
1F
100
AcDbEntity
  8
Layer 1
 62
   250
100
AcDbSpline
210
0.0
220
0.0
230
1.0
 70
    11
 71
     3
 72
    36
 73
    32
 74
     0
 42
0.0000000001
 43
0.0000000001
 12
1.0
 22
0.0
 32
0.0
 13
1.0
 23
0.0
 33
0.0
 40
0.0
 40
0.0
 40
0.0
 40
0.0
 40
0.1111111111111111
 40
0.1111111111111111
 40
0.1111111111111111
 40
0.1111111111111111
 40
0.2222222222222222
 40
0.2222222222222222
 40
0.2222222222222222
 40
0.2222222222222222
 40
0.3333333333333333
 40
0.3333333333333333
 40
0.3333333333333333
 40
0.3333333333333333
 40
0.4444444444444444
 40
0.4444444444444444
 40
0.4444444444444444
 40
0.4444444444444444
 40
0.5555555555555556
 40
0.5555555555555556
 40
0.5555555555555556
 40
0.5555555555555556
 40
0.6666666666666666
 40
0.6666666666666666
 40
0.6666666666666666
 40
0.6666666666666666
 40
0.7777777777777778
 40
0.7777777777777778
 40
0.7777777777777778
 40
0.7777777777777778
 40
1.0
 40
1.0
 40
1.0
 40
1.0
 10
-2.99753
 20
-8.1665
 30
0.0
 10
-2.99753
 20
-8.26626
 30
0.0
 10
-2.98596
 20
-8.33258
 30
0.0
 10
-2.96267
 20
-8.36532
 30
0.0
 10
-2.96267
 20
-8.36532
 30
0.0
 10
-2.93939
 20
-8.3982
 30
0.0
 10
-2.9106
 20
-8.41457
 30
0.0
 10
-2.87646
 20
-8.41457
 30
0.0
 10
-2.87646
 20
-8.41457
 30
0.0
 10
-2.84231
 20
-8.41457
 30
0.0
 10
-2.81352
 20
-8.39806
 30
0.0
 10
-2.79024
 20
-8.36518
 30
0.0
 10
-2.79024
 20
-8.36518
 30
0.0
 10
-2.76695
 20
-8.33216
 30
0.0
 10
-2.75538
 20
-8.26598
 30
0.0
 10
-2.75538
 20
-8.1665
 30
0.0
 10
-2.75538
 20
-8.1665
 30
0.0
 10
-2.75538
 20
-8.06673
 30
0.0
 10
-2.76695
 20
-8.00041
 30
0.0
 10
-2.79024
 20
-7.96767
 30
0.0
 10
-2.79024
 20
-7.96767
 30
0.0
 10
-2.81338
 20
-7.93479
 30
0.0
 10
-2.84245
 20
-7.91842
 30
0.0
 10
-2.8773
 20
-7.91842
 30
0.0
 10
-2.8773
 20
-7.91842
 30
0.0
 10
-2.91145
 20
-7.91842
 30
0.0
 10
-2.93883
 20
-7.93296
 30
0.0
 10
-2.95929
 20
-7.96188
 30
0.0
 10
-2.95929
 20
-7.96188
 30
0.0
 10
-2.98483
 20
-7.99871
 30
0.0
 10
-2.99753
 20
-8.06701
 30
0.0
 10
-2.99753
 20
-8.1665
 30
0.0
  0
SPLINE
  5
44
330
1F
100
AcDbEntity
  8
Layer 1
 62
   250
100
AcDbSpline
210
0.0
220
0.0
230
1.0
 70
    11
 71
     3
 72
   124
 73
   120
 74
     0
 42
0.0000000001
 43
0.0000000001
 12
1.0
 22
0.0
 32
0.0
 13
1.0
 23
0.0
 33
0.0
 40
0.0
 40
0.0
 40
0.0
 40
0.0
 40
0.032258064516129
 40
0.032258064516129
 40
0.032258064516129
 40
0.032258064516129
 40
0.0645161290322581
 40
0.0645161290322581
 40
0.0645161290322581
 40
0.0645161290322581
 40
0.0967741935483871
 40
0.0967741935483871
 40
0.0967741935483871
 40
0.0967741935483871
 40
0.1290322580645161
 40
0.1290322580645161
 40
0.1290322580645161
 40
0.1290322580645161
 40
0.1612903225806452
 40
0.1612903225806452
 40
0.1612903225806452
 40
0.1612903225806452
 40
0.1935483870967742
 40
0.1935483870967742
 40
0.1935483870967742
 40
0.1935483870967742
 40
0.2258064516129032
 40
0.2258064516129032
 40
0.2258064516129032
 40
0.2258064516129032
 40
0.2580645161290323
 40
0.2580645161290323
 40
0.2580645161290323
 40
0.2580645161290323
 40
0.2903225806451613
 40
0.2903225806451613
 40
0.2903225806451613
 40
0.2903225806451613
 40
0.3225806451612903
 40
0.3225806451612903
 40
0.3225806451612903
 40
0.3225806451612903
 40
0.3548387096774194
 40
0.3548387096774194
 40
0.3548387096774194
 40
0.3548387096774194
 40
0.3870967741935484
 40
0.3870967741935484
 40
0.3870967741935484
 40
0.3870967741935484
 40
0.4193548387096774
 40
0.4193548387096774
 40
0.4193548387096774
 40
0.4193548387096774
 40
0.4516129032258064
 40
0.4516129032258064
 40
0.4516129032258064
 40
0.4516129032258064
 40
0.4838709677419355
 40
0.4838709677419355
 40
0.4838709677419355
 40
0.4838709677419355
 40
0.5161290322580645
 40
0.5161290322580645
 40
0.5161290322580645
 40
0.5161290322580645
 40
0.5483870967741935
 40
0.5483870967741935
 40
0.5483870967741935
 40
0.5483870967741935
 40
0.5806451612903226
 40
0.5806451612903226
 40
0.5806451612903226
 40
0.5806451612903226
 40
0.6129032258064516
 40
0.6129032258064516
 40
0.6129032258064516
 40
0.6129032258064516
 40
0.6451612903225806
 40
0.6451612903225806
 40
0.6451612903225806
 40
0.6451612903225806
 40
0.6774193548387096
 40
0.6774193548387096
 40
0.6774193548387096
 40
0.6774193548387096
 40
0.7096774193548387
 40
0.7096774193548387
 40
0.7096774193548387
 40
0.7096774193548387
 40
0.7419354838709677
 40
0.7419354838709677
 40
0.7419354838709677
 40
0.7419354838709677
 40
0.7741935483870968
 40
0.7741935483870968
 40
0.7741935483870968
 40
0.7741935483870968
 40
0.8064516129032258
 40
0.8064516129032258
 40
0.8064516129032258
 40
0.8064516129032258
 40
0.8387096774193549
 40
0.8387096774193549
 40
0.8387096774193549
 40
0.8387096774193549
 40
0.8709677419354839
 40
0.8709677419354839
 40
0.8709677419354839
 40
0.8709677419354839
 40
0.9032258064516129
 40
0.9032258064516129
 40
0.9032258064516129
 40
0.9032258064516129
 40
0.9354838709677419
 40
0.9354838709677419
 40
0.9354838709677419
 40
0.9354838709677419
 40
1.0
 40
1.0
 40
1.0
 40
1.0
 10
-2.60284
 20
-8.3045
 30
0.0
 10
-2.60284
 20
-8.3045
 30
0.0
 10
-2.52833
 20
-8.29434
 30
0.0
 10
-2.52833
 20
-8.29434
 30
0.0
 10
-2.52833
 20
-8.29434
 30
0.0
 10
-2.51973
 20
-8.33668
 30
0.0
 10
-2.50533
 20
-8.36716
 30
0.0
 10
-2.48487
 20
-8.38578
 30
0.0
 10
-2.48487
 20
-8.38578
 30
0.0
 10
-2.46441
 20
-8.40441
 30
0.0
 10
-2.43929
 20
-8.41372
 30
0.0
 10
-2.40952
 20
-8.41372
 30
0.0
 10
-2.40952
 20
-8.41372
 30
0.0
 10
-2.37424
 20
-8.41372
 30
0.0
 10
-2.34446
 20
-8.40159
 30
0.0
 10
-2.32048
 20
-8.37732
 30
0.0
 10
-2.32048
 20
-8.37732
 30
0.0
 10
-2.29649
 20
-8.35305
 30
0.0
 10
-2.28449
 20
-8.32299
 30
0.0
 10
-2.28449
 20
-8.28715
 30
0.0
 10
-2.28449
 20
-8.28715
 30
0.0
 10
-2.28449
 20
-8.253
 30
0.0
 10
-2.29564
 20
-8.22477
 30
0.0
 10
-2.31808
 20
-8.20248
 30
0.0
 10
-2.31808
 20
-8.20248
 30
0.0
 10
-2.34037
 20
-8.18032
 30
0.0
 10
-2.36874
 20
-8.16918
 30
0.0
 10
-2.40331
 20
-8.16918
 30
0.0
 10
-2.40331
 20
-8.16918
 30
0.0
 10
-2.41742
 20
-8.16918
 30
0.0
 10
-2.43492
 20
-8.172
 30
0.0
 10
-2.45594
 20
-8.1775
 30
0.0
 10
-2.45594
 20
-8.1775
 30
0.0
 10
-2.45594
 20
-8.1775
 30
0.0
 10
-2.44762
 20
-8.11231
 30
0.0
 10
-2.44762
 20
-8.11231
 30
0.0
 10
-2.44762
 20
-8.11231
 30
0.0
 10
-2.44268
 20
-8.11287
 30
0.0
 10
-2.43859
 20
-8.11316
 30
0.0
 10
-2.43562
 20
-8.11316
 30
0.0
 10
-2.43562
 20
-8.11316
 30
0.0
 10
-2.40373
 20
-8.11316
 30
0.0
 10
-2.37523
 20
-8.10483
 30
0.0
 10
-2.34969
 20
-8.08832
 30
0.0
 10
-2.34969
 20
-8.08832
 30
0.0
 10
-2.32429
 20
-8.07181
 30
0.0
 10
-2.31159
 20
-8.04641
 30
0.0
 10
-2.31159
 20
-8.01212
 30
0.0
 10
-2.31159
 20
-8.01212
 30
0.0
 10
-2.31159
 20
-7.98488
 30
0.0
 10
-2.3209
 20
-7.96231
 30
0.0
 10
-2.33938
 20
-7.94439
 30
0.0
 10
-2.33938
 20
-7.94439
 30
0.0
 10
-2.35787
 20
-7.92646
 30
0.0
 10
-2.38172
 20
-7.91757
 30
0.0
 10
-2.41093
 20
-7.91757
 30
0.0
 10
-2.41093
 20
-7.91757
 30
0.0
 10
-2.44
 20
-7.91757
 30
0.0
 10
-2.46413
 20
-7.92675
 30
0.0
 10
-2.48346
 20
-7.94509
 30
0.0
 10
-2.48346
 20
-7.94509
 30
0.0
 10
-2.50279
 20
-7.96344
 30
0.0
 10
-2.51521
 20
-7.99095
 30
0.0
 10
-2.52071
 20
-8.02764
 30
0.0
 10
-2.52071
 20
-8.02764
 30
0.0
 10
-2.52071
 20
-8.02764
 30
0.0
 10
-2.59522
 20
-8.01409
 30
0.0
 10
-2.59522
 20
-8.01409
 30
0.0
 10
-2.59522
 20
-8.01409
 30
0.0
 10
-2.58605
 20
-7.96414
 30
0.0
 10
-2.56545
 20
-7.92534
 30
0.0
 10
-2.53313
 20
-7.89782
 30
0.0
 10
-2.53313
 20
-7.89782
 30
0.0
 10
-2.50096
 20
-7.8703
 30
0.0
 10
-2.46074
 20
-7.85661
 30
0.0
 10
-2.41276
 20
-7.85661
 30
0.0
 10
-2.41276
 20
-7.85661
 30
0.0
 10
-2.37974
 20
-7.85661
 30
0.0
 10
-2.34926
 20
-7.86367
 30
0.0
 10
-2.32146
 20
-7.87792
 30
0.0
 10
-2.32146
 20
-7.87792
 30
0.0
 10
-2.29352
 20
-7.89203
 30
0.0
 10
-2.27222
 20
-7.91137
 30
0.0
 10
-2.25754
 20
-7.93578
 30
0.0
 10
-2.25754
 20
-7.93578
 30
0.0
 10
-2.24272
 20
-7.96033
 30
0.0
 10
-2.23539
 20
-7.9863
 30
0.0
 10
-2.23539
 20
-8.01381
 30
0.0
 10
-2.23539
 20
-8.01381
 30
0.0
 10
-2.23539
 20
-8.03992
 30
0.0
 10
-2.24244
 20
-8.06363
 30
0.0
 10
-2.25641
 20
-8.08507
 30
0.0
 10
-2.25641
 20
-8.08507
 30
0.0
 10
-2.27052
 20
-8.10652
 30
0.0
 10
-2.29141
 20
-8.1236
 30
0.0
 10
-2.31892
 20
-8.1363
 30
0.0
 10
-2.31892
 20
-8.1363
 30
0.0
 10
-2.28308
 20
-8.14448
 30
0.0
 10
-2.25528
 20
-8.1617
 30
0.0
 10
-2.23539
 20
-8.1878
 30
0.0
 10
-2.23539
 20
-8.1878
 30
0.0
 10
-2.21563
 20
-8.21377
 30
0.0
 10
-2.20575
 20
-8.24651
 30
0.0
 10
-2.20575
 20
-8.28559
 30
0.0
 10
-2.20575
 20
-8.28559
 30
0.0
 10
-2.20575
 20
-8.33851
 30
0.0
 10
-2.22508
 20
-8.38353
 30
0.0
 10
-2.26361
 20
-8.42036
 30
0.0
 10
-2.26361
 20
-8.42036
 30
0.0
 10
-2.30227
 20
-8.45719
 30
0.0
 10
-2.3511
 20
-8.47553
 30
0.0
 10
-2.41008
 20
-8.47553
 30
0.0
 10
-2.41008
 20
-8.47553
 30
0.0
 10
-2.46328
 20
-8.47553
 30
0.0
 10
-2.50745
 20
-8.45958
 30
0.0
 10
-2.54259
 20
-8.42783
 30
0.0
 10
-2.54259
 20
-8.42783
 30
0.0
 10
-2.57786
 20
-8.39608
 30
0.0
 10
-2.5979
 20
-8.35502
 30
0.0
 10
-2.60284
 20
-8.3045
 30
0.0
  0
SPLINE
  5
45
330
1F
100
AcDbEntity
  8
Layer 1
 62
   250
100
AcDbSpline
210
0.0
220
0.0
230
1.0
 70
    11
 71
     3
 72
    80
 73
    76
 74
     0
 42
0.0000000001
 43
0.0000000001
 12
1.0
 22
0.0
 32
0.0
 13
1.0
 23
0.0
 33
0.0
 40
0.0
 40
0.0
 40
0.0
 40
0.0
 40
0.05
 40
0.05
 40
0.05
 40
0.05
 40
0.1
 40
0.1
 40
0.1
 40
0.1
 40
0.15
 40
0.15
 40
0.15
 40
0.15
 40
0.2
 40
0.2
 40
0.2
 40
0.2
 40
0.25
 40
0.25
 40
0.25
 40
0.25
 40
0.3
 40
0.3
 40
0.3
 40
0.3
 40
0.35
 40
0.35
 40
0.35
 40
0.35
 40
0.4
 40
0.4
 40
0.4
 40
0.4
 40
0.45
 40
0.45
 40
0.45
 40
0.45
 40
0.5
 40
0.5
 40
0.5
 40
0.5
 40
0.55
 40
0.55
 40
0.55
 40
0.55
 40
0.6
 40
0.6
 40
0.6
 40
0.6
 40
0.65
 40
0.65
 40
0.65
 40
0.65
 40
0.7
 40
0.7
 40
0.7
 40
0.7
 40
0.75
 40
0.75
 40
0.75
 40
0.75
 40
0.8
 40
0.8
 40
0.8
 40
0.8
 40
0.85
 40
0.85
 40
0.85
 40
0.85
 40
0.9
 40
0.9
 40
0.9
 40
0.9
 40
1.0
 40
1.0
 40
1.0
 40
1.0
 10
-1.74502
 20
-8.00732
 30
0.0
 10
-1.74502
 20
-8.00732
 30
0.0
 10
-1.81868
 20
-8.01325
 30
0.0
 10
-1.81868
 20
-8.01325
 30
0.0
 10
-1.81868
 20
-8.01325
 30
0.0
 10
-1.82531
 20
-7.98404
 30
0.0
 10
-1.83477
 20
-7.96273
 30
0.0
 10
-1.84705
 20
-7.94947
 30
0.0
 10
-1.84705
 20
-7.94947
 30
0.0
 10
-1.86722
 20
-7.92816
 30
0.0
 10
-1.8922
 20
-7.91757
 30
0.0
 10
-1.92183
 20
-7.91757
 30
0.0
 10
-1.92183
 20
-7.91757
 30
0.0
 10
-1.94568
 20
-7.91757
 30
0.0
 10
-1.96685
 20
-7.92421
 30
0.0
 10
-1.98505
 20
-7.93747
 30
0.0
 10
-1.98505
 20
-7.93747
 30
0.0
 10
-2.00848
 20
-7.95455
 30
0.0
 10
-2.02682
 20
-7.97938
 30
0.0
 10
-2.04051
 20
-8.01212
 30
0.0
 10
-2.04051
 20
-8.01212
 30
0.0
 10
-2.05406
 20
-8.045
 30
0.0
 10
-2.06111
 20
-8.09171
 30
0.0
 10
-2.06168
 20
-8.15224
 30
0.0
 10
-2.06168
 20
-8.15224
 30
0.0
 10
-2.04376
 20
-8.12501
 30
0.0
 10
-2.02174
 20
-8.10469
 30
0.0
 10
-1.99578
 20
-8.09157
 30
0.0
 10
-1.99578
 20
-8.09157
 30
0.0
 10
-1.96981
 20
-8.0783
 30
0.0
 10
-1.94272
 20
-8.07167
 30
0.0
 10
-1.91421
 20
-8.07167
 30
0.0
 10
-1.91421
 20
-8.07167
 30
0.0
 10
-1.86454
 20
-8.07167
 30
0.0
 10
-1.82221
 20
-8.09001
 30
0.0
 10
-1.78721
 20
-8.12656
 30
0.0
 10
-1.78721
 20
-8.12656
 30
0.0
 10
-1.75236
 20
-8.16311
 30
0.0
 10
-1.73486
 20
-8.21024
 30
0.0
 10
-1.73486
 20
-8.26824
 30
0.0
 10
-1.73486
 20
-8.26824
 30
0.0
 10
-1.73486
 20
-8.30634
 30
0.0
 10
-1.74305
 20
-8.34162
 30
0.0
 10
-1.75942
 20
-8.37435
 30
0.0
 10
-1.75942
 20
-8.37435
 30
0.0
 10
-1.77593
 20
-8.40709
 30
0.0
 10
-1.79836
 20
-8.43207
 30
0.0
 10
-1.82715
 20
-8.44942
 30
0.0
 10
-1.82715
 20
-8.44942
 30
0.0
 10
-1.85579
 20
-8.46678
 30
0.0
 10
-1.88839
 20
-8.47553
 30
0.0
 10
-1.9248
 20
-8.47553
 30
0.0
 10
-1.9248
 20
-8.47553
 30
0.0
 10
-1.98675
 20
-8.47553
 30
0.0
 10
-2.03741
 20
-8.45267
 30
0.0
 10
-2.07663
 20
-8.40709
 30
0.0
 10
-2.07663
 20
-8.40709
 30
0.0
 10
-2.11572
 20
-8.36151
 30
0.0
 10
-2.13534
 20
-8.2863
 30
0.0
 10
-2.13534
 20
-8.18159
 30
0.0
 10
-2.13534
 20
-8.18159
 30
0.0
 10
-2.13534
 20
-8.06447
 30
0.0
 10
-2.11361
 20
-7.97924
 30
0.0
 10
-2.07028
 20
-7.92604
 30
0.0
 10
-2.07028
 20
-7.92604
 30
0.0
 10
-2.03247
 20
-7.87976
 30
0.0
 10
-1.98152
 20
-7.85661
 30
0.0
 10
-1.91732
 20
-7.85661
 30
0.0
 10
-1.91732
 20
-7.85661
 30
0.0
 10
-1.86962
 20
-7.85661
 30
0.0
 10
-1.83039
 20
-7.87002
 30
0.0
 10
-1.79991
 20
-7.89669
 30
0.0
 10
-1.79991
 20
-7.89669
 30
0.0
 10
-1.76943
 20
-7.92336
 30
0.0
 10
-1.75109
 20
-7.96019
 30
0.0
 10
-1.74502
 20
-8.00732
 30
0.0
  0
SPLINE
  5
46
330
1F
100
AcDbEntity
  8
Layer 1
 62
   250
100
AcDbSpline
210
0.0
220
0.0
230
1.0
 70
    11
 71
     3
 72
    40
 73
    36
 74
     0
 42
0.0000000001
 43
0.0000000001
 12
1.0
 22
0.0
 32
0.0
 13
1.0
 23
0.0
 33
0.0
 40
0.0
 40
0.0
 40
0.0
 40
0.0
 40
0.1
 40
0.1
 40
0.1
 40
0.1
 40
0.2
 40
0.2
 40
0.2
 40
0.2
 40
0.3
 40
0.3
 40
0.3
 40
0.3
 40
0.4
 40
0.4
 40
0.4
 40
0.4
 40
0.5
 40
0.5
 40
0.5
 40
0.5
 40
0.6
 40
0.6
 40
0.6
 40
0.6
 40
0.7
 40
0.7
 40
0.7
 40
0.7
 40
0.8
 40
0.8
 40
0.8
 40
0.8
 40
1.0
 40
1.0
 40
1.0
 40
1.0
 10
-2.04982
 20
-8.26894
 30
0.0
 10
-2.04982
 20
-8.29462
 30
0.0
 10
-2.04432
 20
-8.31918
 30
0.0
 10
-2.03345
 20
-8.3426
 30
0.0
 10
-2.03345
 20
-8.3426
 30
0.0
 10
-2.02259
 20
-8.36603
 30
0.0
 10
-2.00735
 20
-8.38381
 30
0.0
 10
-1.98802
 20
-8.39608
 30
0.0
 10
-1.98802
 20
-8.39608
 30
0.0
 10
-1.96854
 20
-8.40836
 30
0.0
 10
-1.94794
 20
-8.41457
 30
0.0
 10
-1.92607
 20
-8.41457
 30
0.0
 10
-1.92607
 20
-8.41457
 30
0.0
 10
-1.89432
 20
-8.41457
 30
0.0
 10
-1.86722
 20
-8.40187
 30
0.0
 10
-1.84479
 20
-8.37647
 30
0.0
 10
-1.84479
 20
-8.37647
 30
0.0
 10
-1.82235
 20
-8.35107
 30
0.0
 10
-1.81106
 20
-8.31664
 30
0.0
 10
-1.81106
 20
-8.27303
 30
0.0
 10
-1.81106
 20
-8.27303
 30
0.0
 10
-1.81106
 20
-8.23112
 30
0.0
 10
-1.82221
 20
-8.1981
 30
0.0
 10
-1.84436
 20
-8.17397
 30
0.0
 10
-1.84436
 20
-8.17397
 30
0.0
 10
-1.86652
 20
-8.14984
 30
0.0
 10
-1.89474
 20
-8.13771
 30
0.0
 10
-1.92903
 20
-8.13771
 30
0.0
 10
-1.92903
 20
-8.13771
 30
0.0
 10
-1.96262
 20
-8.13771
 30
0.0
 10
-1.99126
 20
-8.14984
 30
0.0
 10
-2.01469
 20
-8.17397
 30
0.0
 10
-2.01469
 20
-8.17397
 30
0.0
 10
-2.03811
 20
-8.1981
 30
0.0
 10
-2.04982
 20
-8.22971
 30
0.0
 10
-2.04982
 20
-8.26894
 30
0.0
  0
SPLINE
  5
47
330
1F
100
AcDbEntity
  8
Layer 1
 62
   250
100
AcDbSpline
210
0.0
220
0.0
230
1.0
 70
    11
 71
     3
 72
    92
 73
    88
 74
     0
 42
0.0000000001
 43
0.0000000001
 12
1.0
 22
0.0
 32
0.0
 13
1.0
 23
0.0
 33
0.0
 40
0.0
 40
0.0
 40
0.0
 40
0.0
 40
0.0434782608695652
 40
0.0434782608695652
 40
0.0434782608695652
 40
0.0434782608695652
 40
0.0869565217391304
 40
0.0869565217391304
 40
0.0869565217391304
 40
0.0869565217391304
 40
0.1304347826086956
 40
0.1304347826086956
 40
0.1304347826086956
 40
0.1304347826086956
 40
0.1739130434782609
 40
0.1739130434782609
 40
0.1739130434782609
 40
0.1739130434782609
 40
0.2173913043478261
 40
0.2173913043478261
 40
0.2173913043478261
 40
0.2173913043478261
 40
0.2608695652173913
 40
0.2608695652173913
 40
0.2608695652173913
 40
0.2608695652173913
 40
0.3043478260869565
 40
0.3043478260869565
 40
0.3043478260869565
 40
0.3043478260869565
 40
0.3478260869565217
 40
0.3478260869565217
 40
0.3478260869565217
 40
0.3478260869565217
 40
0.391304347826087
 40
0.391304347826087
 40
0.391304347826087
 40
0.391304347826087
 40
0.4347826086956522
 40
0.4347826086956522
 40
0.4347826086956522
 40
0.4347826086956522
 40
0.4782608695652174
 40
0.4782608695652174
 40
0.4782608695652174
 40
0.4782608695652174
 40
0.5217391304347826
 40
0.5217391304347826
 40
0.5217391304347826
 40
0.5217391304347826
 40
0.5652173913043478
 40
0.5652173913043478
 40
0.5652173913043478
 40
0.5652173913043478
 40
0.6086956521739131
 40
0.6086956521739131
 40
0.6086956521739131
 40
0.6086956521739131
 40
0.6521739130434783
 40
0.6521739130434783
 40
0.6521739130434783
 40
0.6521739130434783
 40
0.6956521739130435
 40
0.6956521739130435
 40
0.6956521739130435
 40
0.6956521739130435
 40
0.7391304347826086
 40
0.7391304347826086
 40
0.7391304347826086
 40
0.7391304347826086
 40
0.782608695652174
 40
0.782608695652174
 40
0.782608695652174
 40
0.782608695652174
 40
0.8260869565217391
 40
0.8260869565217391
 40
0.8260869565217391
 40
0.8260869565217391
 40
0.8695652173913043
 40
0.8695652173913043
 40
0.8695652173913043
 40
0.8695652173913043
 40
0.9130434782608695
 40
0.9130434782608695
 40
0.9130434782608695
 40
0.9130434782608695
 40
1.0
 40
1.0
 40
1.0
 40
1.0
 10
-1.27074
 20
-8.39425
 30
0.0
 10
-1.27074
 20
-8.39425
 30
0.0
 10
-1.27074
 20
-8.46537
 30
0.0
 10
-1.27074
 20
-8.46537
 30
0.0
 10
-1.27074
 20
-8.46537
 30
0.0
 10
-1.27074
 20
-8.46537
 30
0.0
 10
-1.67207
 20
-8.46537
 30
0.0
 10
-1.67207
 20
-8.46537
 30
0.0
 10
-1.67207
 20
-8.46537
 30
0.0
 10
-1.67263
 20
-8.44745
 30
0.0
 10
-1.66967
 20
-8.43023
 30
0.0
 10
-1.66332
 20
-8.41358
 30
0.0
 10
-1.66332
 20
-8.41358
 30
0.0
 10
-1.65302
 20
-8.38635
 30
0.0
 10
-1.63651
 20
-8.3594
 30
0.0
 10
-1.61379
 20
-8.33301
 30
0.0
 10
-1.61379
 20
-8.33301
 30
0.0
 10
-1.59107
 20
-8.30662
 30
0.0
 10
-1.55861
 20
-8.27614
 30
0.0
 10
-1.51642
 20
-8.24157
 30
0.0
 10
-1.51642
 20
-8.24157
 30
0.0
 10
-1.4508
 20
-8.18752
 30
0.0
 10
-1.40621
 20
-8.14476
 30
0.0
 10
-1.38293
 20
-8.11316
 30
0.0
 10
-1.38293
 20
-8.11316
 30
0.0
 10
-1.3595
 20
-8.08155
 30
0.0
 10
-1.34779
 20
-8.05163
 30
0.0
 10
-1.34779
 20
-8.02341
 30
0.0
 10
-1.34779
 20
-8.02341
 30
0.0
 10
-1.34779
 20
-7.99392
 30
0.0
 10
-1.35838
 20
-7.96908
 30
0.0
 10
-1.37954
 20
-7.94876
 30
0.0
 10
-1.37954
 20
-7.94876
 30
0.0
 10
-1.40071
 20
-7.92858
 30
0.0
 10
-1.42837
 20
-7.91842
 30
0.0
 10
-1.46237
 20
-7.91842
 30
0.0
 10
-1.46237
 20
-7.91842
 30
0.0
 10
-1.49836
 20
-7.91842
 30
0.0
 10
-1.52714
 20
-7.92915
 30
0.0
 10
-1.54873
 20
-7.95059
 30
0.0
 10
-1.54873
 20
-7.95059
 30
0.0
 10
-1.57033
 20
-7.9719
 30
0.0
 10
-1.58119
 20
-8.00154
 30
0.0
 10
-1.58147
 20
-8.03949
 30
0.0
 10
-1.58147
 20
-8.03949
 30
0.0
 10
-1.58147
 20
-8.03949
 30
0.0
 10
-1.65767
 20
-8.03187
 30
0.0
 10
-1.65767
 20
-8.03187
 30
0.0
 10
-1.65767
 20
-8.03187
 30
0.0
 10
-1.65245
 20
-7.97487
 30
0.0
 10
-1.6327
 20
-7.9314
 30
0.0
 10
-1.59855
 20
-7.90149
 30
0.0
 10
-1.59855
 20
-7.90149
 30
0.0
 10
-1.56426
 20
-7.87157
 30
0.0
 10
-1.5184
 20
-7.85661
 30
0.0
 10
-1.46068
 20
-7.85661
 30
0.0
 10
-1.46068
 20
-7.85661
 30
0.0
 10
-1.40254
 20
-7.85661
 30
0.0
 10
-1.3564
 20
-7.8727
 30
0.0
 10
-1.32253
 20
-7.90502
 30
0.0
 10
-1.32253
 20
-7.90502
 30
0.0
 10
-1.28853
 20
-7.93733
 30
0.0
 10
-1.27159
 20
-7.97741
 30
0.0
 10
-1.27159
 20
-8.0251
 30
0.0
 10
-1.27159
 20
-8.0251
 30
0.0
 10
-1.27159
 20
-8.04937
 30
0.0
 10
-1.27653
 20
-8.07322
 30
0.0
 10
-1.28655
 20
-8.09665
 30
0.0
 10
-1.28655
 20
-8.09665
 30
0.0
 10
-1.29643
 20
-8.12021
 30
0.0
 10
-1.31294
 20
-8.14491
 30
0.0
 10
-1.33594
 20
-8.17087
 30
0.0
 10
-1.33594
 20
-8.17087
 30
0.0
 10
-1.35908
 20
-8.19669
 30
0.0
 10
-1.39732
 20
-8.23239
 30
0.0
 10
-1.45066
 20
-8.27755
 30
0.0
 10
-1.45066
 20
-8.27755
 30
0.0
 10
-1.49539
 20
-8.31509
 30
0.0
 10
-1.52418
 20
-8.34049
 30
0.0
 10
-1.53688
 20
-8.35389
 30
0.0
 10
-1.53688
 20
-8.35389
 30
0.0
 10
-1.54958
 20
-8.3673
 30
0.0
 10
-1.56002
 20
-8.3807
 30
0.0
 10
-1.56835
 20
-8.39425
 30
0.0
 10
-1.56835
 20
-8.39425
 30
0.0
 10
-1.56835
 20
-8.39425
 30
0.0
 10
-1.27074
 20
-8.39425
 30
0.0
 10
-1.27074
 20
-8.39425
 30
0.0
  0
SPLINE
  5
48
330
1F
100
AcDbEntity
  8
Layer 1
 62
   250
100
AcDbSpline
210
0.0
220
0.0
230
1.0
 70
    11
 71
     3
 72
    48
 73
    44
 74
     0
 42
0.0000000001
 43
0.0000000001
 12
1.0
 22
0.0
 32
0.0
 13
1.0
 23
0.0
 33
0.0
 40
0.0
 40
0.0
 40
0.0
 40
0.0
 40
0.0833333333333333
 40
0.0833333333333333
 40
0.0833333333333333
 40
0.0833333333333333
 40
0.1666666666666667
 40
0.1666666666666667
 40
0.1666666666666667
 40
0.1666666666666667
 40
0.25
 40
0.25
 40
0.25
 40
0.25
 40
0.3333333333333333
 40
0.3333333333333333
 40
0.3333333333333333
 40
0.3333333333333333
 40
0.4166666666666667
 40
0.4166666666666667
 40
0.4166666666666667
 40
0.4166666666666667
 40
0.5
 40
0.5
 40
0.5
 40
0.5
 40
0.5833333333333334
 40
0.5833333333333334
 40
0.5833333333333334
 40
0.5833333333333334
 40
0.6666666666666666
 40
0.6666666666666666
 40
0.6666666666666666
 40
0.6666666666666666
 40
0.75
 40
0.75
 40
0.75
 40
0.75
 40
0.8333333333333334
 40
0.8333333333333334
 40
0.8333333333333334
 40
0.8333333333333334
 40
1.0
 40
1.0
 40
1.0
 40
1.0
 10
-0.95226
 20
-8.46537
 30
0.0
 10
-0.95226
 20
-8.46537
 30
0.0
 10
-0.95226
 20
-8.32059
 30
0.0
 10
-0.95226
 20
-8.32059
 30
0.0
 10
-0.95226
 20
-8.32059
 30
0.0
 10
-0.95226
 20
-8.32059
 30
0.0
 10
-1.21557
 20
-8.32059
 30
0.0
 10
-1.21557
 20
-8.32059
 30
0.0
 10
-1.21557
 20
-8.32059
 30
0.0
 10
-1.21557
 20
-8.32059
 30
0.0
 10
-1.21557
 20
-8.25201
 30
0.0
 10
-1.21557
 20
-8.25201
 30
0.0
 10
-1.21557
 20
-8.25201
 30
0.0
 10
-1.21557
 20
-8.25201
 30
0.0
 10
-0.93871
 20
-7.85915
 30
0.0
 10
-0.93871
 20
-7.85915
 30
0.0
 10
-0.93871
 20
-7.85915
 30
0.0
 10
-0.93871
 20
-7.85915
 30
0.0
 10
-0.87775
 20
-7.85915
 30
0.0
 10
-0.87775
 20
-7.85915
 30
0.0
 10
-0.87775
 20
-7.85915
 30
0.0
 10
-0.87775
 20
-7.85915
 30
0.0
 10
-0.87775
 20
-8.25201
 30
0.0
 10
-0.87775
 20
-8.25201
 30
0.0
 10
-0.87775
 20
-8.25201
 30
0.0
 10
-0.87775
 20
-8.25201
 30
0.0
 10
-0.79562
 20
-8.25201
 30
0.0
 10
-0.79562
 20
-8.25201
 30
0.0
 10
-0.79562
 20
-8.25201
 30
0.0
 10
-0.79562
 20
-8.25201
 30
0.0
 10
-0.79562
 20
-8.32059
 30
0.0
 10
-0.79562
 20
-8.32059
 30
0.0
 10
-0.79562
 20
-8.32059
 30
0.0
 10
-0.79562
 20
-8.32059
 30
0.0
 10
-0.87775
 20
-8.32059
 30
0.0
 10
-0.87775
 20
-8.32059
 30
0.0
 10
-0.87775
 20
-8.32059
 30
0.0
 10
-0.87775
 20
-8.32059
 30
0.0
 10
-0.87775
 20
-8.46537
 30
0.0
 10
-0.87775
 20
-8.46537
 30
0.0
 10
-0.87775
 20
-8.46537
 30
0.0
 10
-0.87775
 20
-8.46537
 30
0.0
 10
-0.95226
 20
-8.46537
 30
0.0
 10
-0.95226
 20
-8.46537
 30
0.0
  0
SPLINE
  5
49
330
1F
100
AcDbEntity
  8
Layer 1
 62
   250
100
AcDbSpline
210
0.0
220
0.0
230
1.0
 70
    11
 71
     3
 72
    16
 73
    12
 74
     0
 42
0.0000000001
 43
0.0000000001
 12
1.0
 22
0.0
 32
0.0
 13
1.0
 23
0.0
 33
0.0
 40
0.0
 40
0.0
 40
0.0
 40
0.0
 40
0.25
 40
0.25
 40
0.25
 40
0.25
 40
0.5
 40
0.5
 40
0.5
 40
0.5
 40
1.0
 40
1.0
 40
1.0
 40
1.0
 10
-0.95226
 20
-8.25201
 30
0.0
 10
-0.95226
 20
-8.25201
 30
0.0
 10
-0.95226
 20
-7.97924
 30
0.0
 10
-0.95226
 20
-7.97924
 30
0.0
 10
-0.95226
 20
-7.97924
 30
0.0
 10
-0.95226
 20
-7.97924
 30
0.0
 10
-1.14233
 20
-8.25201
 30
0.0
 10
-1.14233
 20
-8.25201
 30
0.0
 10
-1.14233
 20
-8.25201
 30
0.0
 10
-1.14233
 20
-8.25201
 30
0.0
 10
-0.95226
 20
-8.25201
 30
0.0
 10
-0.95226
 20
-8.25201
 30
0.0
  0
SPLINE
  5
4A
330
1F
100
AcDbEntity
  8
Layer 1
 62
   250
100
AcDbSpline
210
0.0
220
0.0
230
1.0
 70
    11
 71
     3
 72
    80
 73
    76
 74
     0
 42
0.0000000001
 43
0.0000000001
 12
1.0
 22
0.0
 32
0.0
 13
1.0
 23
0.0
 33
0.0
 40
0.0
 40
0.0
 40
0.0
 40
0.0
 40
0.05
 40
0.05
 40
0.05
 40
0.05
 40
0.1
 40
0.1
 40
0.1
 40
0.1
 40
0.15
 40
0.15
 40
0.15
 40
0.15
 40
0.2
 40
0.2
 40
0.2
 40
0.2
 40
0.25
 40
0.25
 40
0.25
 40
0.25
 40
0.3
 40
0.3
 40
0.3
 40
0.3
 40
0.35
 40
0.35
 40
0.35
 40
0.35
 40
0.4
 40
0.4
 40
0.4
 40
0.4
 40
0.45
 40
0.45
 40
0.45
 40
0.45
 40
0.5
 40
0.5
 40
0.5
 40
0.5
 40
0.55
 40
0.55
 40
0.55
 40
0.55
 40
0.6
 40
0.6
 40
0.6
 40
0.6
 40
0.65
 40
0.65
 40
0.65
 40
0.65
 40
0.7
 40
0.7
 40
0.7
 40
0.7
 40
0.75
 40
0.75
 40
0.75
 40
0.75
 40
0.8
 40
0.8
 40
0.8
 40
0.8
 40
0.85
 40
0.85
 40
0.85
 40
0.85
 40
0.9
 40
0.9
 40
0.9
 40
0.9
 40
1.0
 40
1.0
 40
1.0
 40
1.0
 10
-0.68795
 20
-8.46537
 30
0.0
 10
-0.68795
 20
-8.46537
 30
0.0
 10
-0.68795
 20
-7.85915
 30
0.0
 10
-0.68795
 20
-7.85915
 30
0.0
 10
-0.68795
 20
-7.85915
 30
0.0
 10
-0.68795
 20
-7.85915
 30
0.0
 10
-0.41928
 20
-7.85915
 30
0.0
 10
-0.41928
 20
-7.85915
 30
0.0
 10
-0.41928
 20
-7.85915
 30
0.0
 10
-0.36523
 20
-7.85915
 30
0.0
 10
-0.32417
 20
-7.86466
 30
0.0
 10
-0.29609
 20
-7.87552
 30
0.0
 10
-0.29609
 20
-7.87552
 30
0.0
 10
-0.268
 20
-7.88639
 30
0.0
 10
-0.24557
 20
-7.90558
 30
0.0
 10
-0.22878
 20
-7.9331
 30
0.0
 10
-0.22878
 20
-7.9331
 30
0.0
 10
-0.21198
 20
-7.96061
 30
0.0
 10
-0.20366
 20
-7.99109
 30
0.0
 10
-0.20366
 20
-8.0244
 30
0.0
 10
-0.20366
 20
-8.0244
 30
0.0
 10
-0.20366
 20
-8.06744
 30
0.0
 10
-0.21763
 20
-8.1037
 30
0.0
 10
-0.24543
 20
-8.13319
 30
0.0
 10
-0.24543
 20
-8.13319
 30
0.0
 10
-0.27323
 20
-8.16269
 30
0.0
 10
-0.31612
 20
-8.18131
 30
0.0
 10
-0.37426
 20
-8.18936
 30
0.0
 10
-0.37426
 20
-8.18936
 30
0.0
 10
-0.35295
 20
-8.19952
 30
0.0
 10
-0.33687
 20
-8.20968
 30
0.0
 10
-0.32586
 20
-8.21955
 30
0.0
 10
-0.32586
 20
-8.21955
 30
0.0
 10
-0.30244
 20
-8.241
 30
0.0
 10
-0.28028
 20
-8.26795
 30
0.0
 10
-0.25954
 20
-8.30027
 30
0.0
 10
-0.25954
 20
-8.30027
 30
0.0
 10
-0.25954
 20
-8.30027
 30
0.0
 10
-0.15469
 20
-8.46537
 30
0.0
 10
-0.15469
 20
-8.46537
 30
0.0
 10
-0.15469
 20
-8.46537
 30
0.0
 10
-0.15469
 20
-8.46537
 30
0.0
 10
-0.25488
 20
-8.46537
 30
0.0
 10
-0.25488
 20
-8.46537
 30
0.0
 10
-0.25488
 20
-8.46537
 30
0.0
 10
-0.25488
 20
-8.46537
 30
0.0
 10
-0.33503
 20
-8.33922
 30
0.0
 10
-0.33503
 20
-8.33922
 30
0.0
 10
-0.33503
 20
-8.33922
 30
0.0
 10
-0.35832
 20
-8.30267
 30
0.0
 10
-0.37765
 20
-8.27487
 30
0.0
 10
-0.39275
 20
-8.25554
 30
0.0
 10
-0.39275
 20
-8.25554
 30
0.0
 10
-0.40799
 20
-8.2362
 30
0.0
 10
-0.42153
 20
-8.2228
 30
0.0
 10
-0.43353
 20
-8.21504
 30
0.0
 10
-0.43353
 20
-8.21504
 30
0.0
 10
-0.44538
 20
-8.20742
 30
0.0
 10
-0.45766
 20
-8.20206
 30
0.0
 10
-0.47008
 20
-8.19895
 30
0.0
 10
-0.47008
 20
-8.19895
 30
0.0
 10
-0.47911
 20
-8.19712
 30
0.0
 10
-0.49392
 20
-8.19613
 30
0.0
 10
-0.51467
 20
-8.19613
 30
0.0
 10
-0.51467
 20
-8.19613
 30
0.0
 10
-0.51467
 20
-8.19613
 30
0.0
 10
-0.60752
 20
-8.19613
 30
0.0
 10
-0.60752
 20
-8.19613
 30
0.0
 10
-0.60752
 20
-8.19613
 30
0.0
 10
-0.60752
 20
-8.19613
 30
0.0
 10
-0.60752
 20
-8.46537
 30
0.0
 10
-0.60752
 20
-8.46537
 30
0.0
 10
-0.60752
 20
-8.46537
 30
0.0
 10
-0.60752
 20
-8.46537
 30
0.0
 10
-0.68795
 20
-8.46537
 30
0.0
 10
-0.68795
 20
-8.46537
 30
0.0
  0
SPLINE
  5
4B
330
1F
100
AcDbEntity
  8
Layer 1
 62
   250
100
AcDbSpline
210
0.0
220
0.0
230
1.0
 70
    11
 71
     3
 72
    36
 73
    32
 74
     0
 42
0.0000000001
 43
0.0000000001
 12
1.0
 22
0.0
 32
0.0
 13
1.0
 23
0.0
 33
0.0
 40
0.0
 40
0.0
 40
0.0
 40
0.0
 40
0.1111111111111111
 40
0.1111111111111111
 40
0.1111111111111111
 40
0.1111111111111111
 40
0.2222222222222222
 40
0.2222222222222222
 40
0.2222222222222222
 40
0.2222222222222222
 40
0.3333333333333333
 40
0.3333333333333333
 40
0.3333333333333333
 40
0.3333333333333333
 40
0.4444444444444444
 40
0.4444444444444444
 40
0.4444444444444444
 40
0.4444444444444444
 40
0.5555555555555556
 40
0.5555555555555556
 40
0.5555555555555556
 40
0.5555555555555556
 40
0.6666666666666666
 40
0.6666666666666666
 40
0.6666666666666666
 40
0.6666666666666666
 40
0.7777777777777778
 40
0.7777777777777778
 40
0.7777777777777778
 40
0.7777777777777778
 40
1.0
 40
1.0
 40
1.0
 40
1.0
 10
-0.60752
 20
-8.1267
 30
0.0
 10
-0.60752
 20
-8.1267
 30
0.0
 10
-0.43536
 20
-8.1267
 30
0.0
 10
-0.43536
 20
-8.1267
 30
0.0
 10
-0.43536
 20
-8.1267
 30
0.0
 10
-0.39867
 20
-8.1267
 30
0.0
 10
-0.37017
 20
-8.12289
 30
0.0
 10
-0.34957
 20
-8.11527
 30
0.0
 10
-0.34957
 20
-8.11527
 30
0.0
 10
-0.32896
 20
-8.10779
 30
0.0
 10
-0.3133
 20
-8.09566
 30
0.0
 10
-0.30272
 20
-8.07887
 30
0.0
 10
-0.30272
 20
-8.07887
 30
0.0
 10
-0.29199
 20
-8.06221
 30
0.0
 10
-0.28663
 20
-8.04415
 30
0.0
 10
-0.28663
 20
-8.02454
 30
0.0
 10
-0.28663
 20
-8.02454
 30
0.0
 10
-0.28663
 20
-7.99589
 30
0.0
 10
-0.29693
 20
-7.97218
 30
0.0
 10
-0.31768
 20
-7.9537
 30
0.0
 10
-0.31768
 20
-7.9537
 30
0.0
 10
-0.33842
 20
-7.93521
 30
0.0
 10
-0.37116
 20
-7.92604
 30
0.0
 10
-0.41589
 20
-7.92604
 30
0.0
 10
-0.41589
 20
-7.92604
 30
0.0
 10
-0.41589
 20
-7.92604
 30
0.0
 10
-0.60752
 20
-7.92604
 30
0.0
 10
-0.60752
 20
-7.92604
 30
0.0
 10
-0.60752
 20
-7.92604
 30
0.0
 10
-0.60752
 20
-7.92604
 30
0.0
 10
-0.60752
 20
-8.1267
 30
0.0
 10
-0.60752
 20
-8.1267
 30
0.0
  0
SPLINE
  5
4C
330
1F
100
AcDbEntity
  8
Layer 1
 62
   250
100
AcDbSpline
210
0.0
220
0.0
230
1.0
 70
    11
 71
     3
 72
    36
 73
    32
 74
     0
 42
0.0000000001
 43
0.0000000001
 12
1.0
 22
0.0
 32
0.0
 13
1.0
 23
0.0
 33
0.0
 40
0.0
 40
0.0
 40
0.0
 40
0.0
 40
0.1111111111111111
 40
0.1111111111111111
 40
0.1111111111111111
 40
0.1111111111111111
 40
0.2222222222222222
 40
0.2222222222222222
 40
0.2222222222222222
 40
0.2222222222222222
 40
0.3333333333333333
 40
0.3333333333333333
 40
0.3333333333333333
 40
0.3333333333333333
 40
0.4444444444444444
 40
0.4444444444444444
 40
0.4444444444444444
 40
0.4444444444444444
 40
0.5555555555555556
 40
0.5555555555555556
 40
0.5555555555555556
 40
0.5555555555555556
 40
0.6666666666666666
 40
0.6666666666666666
 40
0.6666666666666666
 40
0.6666666666666666
 40
0.7777777777777778
 40
0.7777777777777778
 40
0.7777777777777778
 40
0.7777777777777778
 40
1.0
 40
1.0
 40
1.0
 40
1.0
 10
0.29588
 20
-8.46537
 30
0.0
 10
0.29588
 20
-8.46537
 30
0.0
 10
0.29588
 20
-7.93027
 30
0.0
 10
0.29588
 20
-7.93027
 30
0.0
 10
0.29588
 20
-7.93027
 30
0.0
 10
0.29588
 20
-7.93027
 30
0.0
 10
0.09606
 20
-7.93027
 30
0.0
 10
0.09606
 20
-7.93027
 30
0.0
 10
0.09606
 20
-7.93027
 30
0.0
 10
0.09606
 20
-7.93027
 30
0.0
 10
0.09606
 20
-7.85915
 30
0.0
 10
0.09606
 20
-7.85915
 30
0.0
 10
0.09606
 20
-7.85915
 30
0.0
 10
0.09606
 20
-7.85915
 30
0.0
 10
0.57613
 20
-7.85915
 30
0.0
 10
0.57613
 20
-7.85915
 30
0.0
 10
0.57613
 20
-7.85915
 30
0.0
 10
0.57613
 20
-7.85915
 30
0.0
 10
0.57613
 20
-7.93027
 30
0.0
 10
0.57613
 20
-7.93027
 30
0.0
 10
0.57613
 20
-7.93027
 30
0.0
 10
0.57613
 20
-7.93027
 30
0.0
 10
0.37631
 20
-7.93027
 30
0.0
 10
0.37631
 20
-7.93027
 30
0.0
 10
0.37631
 20
-7.93027
 30
0.0
 10
0.37631
 20
-7.93027
 30
0.0
 10
0.37631
 20
-8.46537
 30
0.0
 10
0.37631
 20
-8.46537
 30
0.0
 10
0.37631
 20
-8.46537
 30
0.0
 10
0.37631
 20
-8.46537
 30
0.0
 10
0.29588
 20
-8.46537
 30
0.0
 10
0.29588
 20
-8.46537
 30
0.0
  0
SPLINE
  5
4D
330
1F
100
AcDbEntity
  8
Layer 1
 62
   250
100
AcDbSpline
210
0.0
220
0.0
230
1.0
 70
    11
 71
     3
 72
    52
 73
    48
 74
     0
 42
0.0000000001
 43
0.0000000001
 12
1.0
 22
0.0
 32
0.0
 13
1.0
 23
0.0
 33
0.0
 40
0.0
 40
0.0
 40
0.0
 40
0.0
 40
0.0769230769230769
 40
0.0769230769230769
 40
0.0769230769230769
 40
0.0769230769230769
 40
0.1538461538461539
 40
0.1538461538461539
 40
0.1538461538461539
 40
0.1538461538461539
 40
0.2307692307692308
 40
0.2307692307692308
 40
0.2307692307692308
 40
0.2307692307692308
 40
0.3076923076923077
 40
0.3076923076923077
 40
0.3076923076923077
 40
0.3076923076923077
 40
0.3846153846153846
 40
0.3846153846153846
 40
0.3846153846153846
 40
0.3846153846153846
 40
0.4615384615384616
 40
0.4615384615384616
 40
0.4615384615384616
 40
0.4615384615384616
 40
0.5384615384615384
 40
0.5384615384615384
 40
0.5384615384615384
 40
0.5384615384615384
 40
0.6153846153846154
 40
0.6153846153846154
 40
0.6153846153846154
 40
0.6153846153846154
 40
0.6923076923076923
 40
0.6923076923076923
 40
0.6923076923076923
 40
0.6923076923076923
 40
0.7692307692307693
 40
0.7692307692307693
 40
0.7692307692307693
 40
0.7692307692307693
 40
0.8461538461538461
 40
0.8461538461538461
 40
0.8461538461538461
 40
0.8461538461538461
 40
1.0
 40
1.0
 40
1.0
 40
1.0
 10
0.66065
 20
-8.46537
 30
0.0
 10
0.66065
 20
-8.46537
 30
0.0
 10
0.66065
 20
-7.85915
 30
0.0
 10
0.66065
 20
-7.85915
 30
0.0
 10
0.66065
 20
-7.85915
 30
0.0
 10
0.66065
 20
-7.85915
 30
0.0
 10
1.09838
 20
-7.85915
 30
0.0
 10
1.09838
 20
-7.85915
 30
0.0
 10
1.09838
 20
-7.85915
 30
0.0
 10
1.09838
 20
-7.85915
 30
0.0
 10
1.09838
 20
-7.93027
 30
0.0
 10
1.09838
 20
-7.93027
 30
0.0
 10
1.09838
 20
-7.93027
 30
0.0
 10
1.09838
 20
-7.93027
 30
0.0
 10
0.74108
 20
-7.93027
 30
0.0
 10
0.74108
 20
-7.93027
 30
0.0
 10
0.74108
 20
-7.93027
 30
0.0
 10
0.74108
 20
-7.93027
 30
0.0
 10
0.74108
 20
-8.11654
 30
0.0
 10
0.74108
 20
-8.11654
 30
0.0
 10
0.74108
 20
-8.11654
 30
0.0
 10
0.74108
 20
-8.11654
 30
0.0
 10
1.07552
 20
-8.11654
 30
0.0
 10
1.07552
 20
-8.11654
 30
0.0
 10
1.07552
 20
-8.11654
 30
0.0
 10
1.07552
 20
-8.11654
 30
0.0
 10
1.07552
 20
-8.18766
 30
0.0
 10
1.07552
 20
-8.18766
 30
0.0
 10
1.07552
 20
-8.18766
 30
0.0
 10
1.07552
 20
-8.18766
 30
0.0
 10
0.74108
 20
-8.18766
 30
0.0
 10
0.74108
 20
-8.18766
 30
0.0
 10
0.74108
 20
-8.18766
 30
0.0
 10
0.74108
 20
-8.18766
 30
0.0
 10
0.74108
 20
-8.39425
 30
0.0
 10
0.74108
 20
-8.39425
 30
0.0
 10
0.74108
 20
-8.39425
 30
0.0
 10
0.74108
 20
-8.39425
 30
0.0
 10
1.11277
 20
-8.39425
 30
0.0
 10
1.11277
 20
-8.39425
 30
0.0
 10
1.11277
 20
-8.39425
 30
0.0
 10
1.11277
 20
-8.39425
 30
0.0
 10
1.11277
 20
-8.46537
 30
0.0
 10
1.11277
 20
-8.46537
 30
0.0
 10
1.11277
 20
-8.46537
 30
0.0
 10
1.11277
 20
-8.46537
 30
0.0
 10
0.66065
 20
-8.46537
 30
0.0
 10
0.66065
 20
-8.46537
 30
0.0
  0
SPLINE
  5
4E
330
1F
100
AcDbEntity
  8
Layer 1
 62
   250
100
AcDbSpline
210
0.0
220
0.0
230
1.0
 70
    11
 71
     3
 72
    64
 73
    60
 74
     0
 42
0.0000000001
 43
0.0000000001
 12
1.0
 22
0.0
 32
0.0
 13
1.0
 23
0.0
 33
0.0
 40
0.0
 40
0.0
 40
0.0
 40
0.0
 40
0.0625
 40
0.0625
 40
0.0625
 40
0.0625
 40
0.125
 40
0.125
 40
0.125
 40
0.125
 40
0.1875
 40
0.1875
 40
0.1875
 40
0.1875
 40
0.25
 40
0.25
 40
0.25
 40
0.25
 40
0.3125
 40
0.3125
 40
0.3125
 40
0.3125
 40
0.375
 40
0.375
 40
0.375
 40
0.375
 40
0.4375
 40
0.4375
 40
0.4375
 40
0.4375
 40
0.5
 40
0.5
 40
0.5
 40
0.5
 40
0.5625
 40
0.5625
 40
0.5625
 40
0.5625
 40
0.625
 40
0.625
 40
0.625
 40
0.625
 40
0.6875
 40
0.6875
 40
0.6875
 40
0.6875
 40
0.75
 40
0.75
 40
0.75
 40
0.75
 40
0.8125
 40
0.8125
 40
0.8125
 40
0.8125
 40
0.875
 40
0.875
 40
0.875
 40
0.875
 40
1.0
 40
1.0
 40
1.0
 40
1.0
 10
1.22199
 20
-8.46537
 30
0.0
 10
1.22199
 20
-8.46537
 30
0.0
 10
1.22199
 20
-7.85915
 30
0.0
 10
1.22199
 20
-7.85915
 30
0.0
 10
1.22199
 20
-7.85915
 30
0.0
 10
1.22199
 20
-7.85915
 30
0.0
 10
1.34222
 20
-7.85915
 30
0.0
 10
1.34222
 20
-7.85915
 30
0.0
 10
1.34222
 20
-7.85915
 30
0.0
 10
1.34222
 20
-7.85915
 30
0.0
 10
1.48559
 20
-8.28827
 30
0.0
 10
1.48559
 20
-8.28827
 30
0.0
 10
1.48559
 20
-8.28827
 30
0.0
 10
1.49885
 20
-8.32821
 30
0.0
 10
1.50845
 20
-8.35813
 30
0.0
 10
1.51451
 20
-8.37802
 30
0.0
 10
1.51451
 20
-8.37802
 30
0.0
 10
1.52143
 20
-8.35601
 30
0.0
 10
1.53229
 20
-8.32355
 30
0.0
 10
1.54697
 20
-8.2808
 30
0.0
 10
1.54697
 20
-8.2808
 30
0.0
 10
1.54697
 20
-8.2808
 30
0.0
 10
1.69288
 20
-7.85915
 30
0.0
 10
1.69288
 20
-7.85915
 30
0.0
 10
1.69288
 20
-7.85915
 30
0.0
 10
1.69288
 20
-7.85915
 30
0.0
 10
1.80027
 20
-7.85915
 30
0.0
 10
1.80027
 20
-7.85915
 30
0.0
 10
1.80027
 20
-7.85915
 30
0.0
 10
1.80027
 20
-7.85915
 30
0.0
 10
1.80027
 20
-8.46537
 30
0.0
 10
1.80027
 20
-8.46537
 30
0.0
 10
1.80027
 20
-8.46537
 30
0.0
 10
1.80027
 20
-8.46537
 30
0.0
 10
1.72322
 20
-8.46537
 30
0.0
 10
1.72322
 20
-8.46537
 30
0.0
 10
1.72322
 20
-8.46537
 30
0.0
 10
1.72322
 20
-8.46537
 30
0.0
 10
1.72322
 20
-7.95821
 30
0.0
 10
1.72322
 20
-7.95821
 30
0.0
 10
1.72322
 20
-7.95821
 30
0.0
 10
1.72322
 20
-7.95821
 30
0.0
 10
1.54626
 20
-8.46537
 30
0.0
 10
1.54626
 20
-8.46537
 30
0.0
 10
1.54626
 20
-8.46537
 30
0.0
 10
1.54626
 20
-8.46537
 30
0.0
 10
1.47402
 20
-8.46537
 30
0.0
 10
1.47402
 20
-8.46537
 30
0.0
 10
1.47402
 20
-8.46537
 30
0.0
 10
1.47402
 20
-8.46537
 30
0.0
 10
1.29904
 20
-7.9489
 30
0.0
 10
1.29904
 20
-7.9489
 30
0.0
 10
1.29904
 20
-7.9489
 30
0.0
 10
1.29904
 20
-7.9489
 30
0.0
 10
1.29904
 20
-8.46537
 30
0.0
 10
1.29904
 20
-8.46537
 30
0.0
 10
1.29904
 20
-8.46537
 30
0.0
 10
1.29904
 20
-8.46537
 30
0.0
 10
1.22199
 20
-8.46537
 30
0.0
 10
1.22199
 20
-8.46537
 30
0.0
  0
SPLINE
  5
4F
330
1F
100
AcDbEntity
  8
Layer 1
 62
   250
100
AcDbSpline
210
0.0
220
0.0
230
1.0
 70
    11
 71
     3
 72
    48
 73
    44
 74
     0
 42
0.0000000001
 43
0.0000000001
 12
1.0
 22
0.0
 32
0.0
 13
1.0
 23
0.0
 33
0.0
 40
0.0
 40
0.0
 40
0.0
 40
0.0
 40
0.0833333333333333
 40
0.0833333333333333
 40
0.0833333333333333
 40
0.0833333333333333
 40
0.1666666666666667
 40
0.1666666666666667
 40
0.1666666666666667
 40
0.1666666666666667
 40
0.25
 40
0.25
 40
0.25
 40
0.25
 40
0.3333333333333333
 40
0.3333333333333333
 40
0.3333333333333333
 40
0.3333333333333333
 40
0.4166666666666667
 40
0.4166666666666667
 40
0.4166666666666667
 40
0.4166666666666667
 40
0.5
 40
0.5
 40
0.5
 40
0.5
 40
0.5833333333333334
 40
0.5833333333333334
 40
0.5833333333333334
 40
0.5833333333333334
 40
0.6666666666666666
 40
0.6666666666666666
 40
0.6666666666666666
 40
0.6666666666666666
 40
0.75
 40
0.75
 40
0.75
 40
0.75
 40
0.8333333333333334
 40
0.8333333333333334
 40
0.8333333333333334
 40
0.8333333333333334
 40
1.0
 40
1.0
 40
1.0
 40
1.0
 10
1.92896
 20
-8.46537
 30
0.0
 10
1.92896
 20
-8.46537
 30
0.0
 10
1.92896
 20
-7.85915
 30
0.0
 10
1.92896
 20
-7.85915
 30
0.0
 10
1.92896
 20
-7.85915
 30
0.0
 10
1.92896
 20
-7.85915
 30
0.0
 10
2.15785
 20
-7.85915
 30
0.0
 10
2.15785
 20
-7.85915
 30
0.0
 10
2.15785
 20
-7.85915
 30
0.0
 10
2.19806
 20
-7.85915
 30
0.0
 10
2.22883
 20
-7.86113
 30
0.0
 10
2.25013
 20
-7.86494
 30
0.0
 10
2.25013
 20
-7.86494
 30
0.0
 10
2.27991
 20
-7.86988
 30
0.0
 10
2.30489
 20
-7.87933
 30
0.0
 10
2.32506
 20
-7.89316
 30
0.0
 10
2.32506
 20
-7.89316
 30
0.0
 10
2.34524
 20
-7.90713
 30
0.0
 10
2.36147
 20
-7.92661
 30
0.0
 10
2.37375
 20
-7.95158
 30
0.0
 10
2.37375
 20
-7.95158
 30
0.0
 10
2.38602
 20
-7.97656
 30
0.0
 10
2.39209
 20
-8.00408
 30
0.0
 10
2.39209
 20
-8.03413
 30
0.0
 10
2.39209
 20
-8.03413
 30
0.0
 10
2.39209
 20
-8.0855
 30
0.0
 10
2.37572
 20
-8.1291
 30
0.0
 10
2.34284
 20
-8.16466
 30
0.0
 10
2.34284
 20
-8.16466
 30
0.0
 10
2.31011
 20
-8.20036
 30
0.0
 10
2.2507
 20
-8.21814
 30
0.0
 10
2.1649
 20
-8.21814
 30
0.0
 10
2.1649
 20
-8.21814
 30
0.0
 10
2.1649
 20
-8.21814
 30
0.0
 10
2.0094
 20
-8.21814
 30
0.0
 10
2.0094
 20
-8.21814
 30
0.0
 10
2.0094
 20
-8.21814
 30
0.0
 10
2.0094
 20
-8.21814
 30
0.0
 10
2.0094
 20
-8.46537
 30
0.0
 10
2.0094
 20
-8.46537
 30
0.0
 10
2.0094
 20
-8.46537
 30
0.0
 10
2.0094
 20
-8.46537
 30
0.0
 10
1.92896
 20
-8.46537
 30
0.0
 10
1.92896
 20
-8.46537
 30
0.0
  0
SPLINE
  5
50
330
1F
100
AcDbEntity
  8
Layer 1
 62
   250
100
AcDbSpline
210
0.0
220
0.0
230
1.0
 70
    11
 71
     3
 72
    36
 73
    32
 74
     0
 42
0.0000000001
 43
0.0000000001
 12
1.0
 22
0.0
 32
0.0
 13
1.0
 23
0.0
 33
0.0
 40
0.0
 40
0.0
 40
0.0
 40
0.0
 40
0.1111111111111111
 40
0.1111111111111111
 40
0.1111111111111111
 40
0.1111111111111111
 40
0.2222222222222222
 40
0.2222222222222222
 40
0.2222222222222222
 40
0.2222222222222222
 40
0.3333333333333333
 40
0.3333333333333333
 40
0.3333333333333333
 40
0.3333333333333333
 40
0.4444444444444444
 40
0.4444444444444444
 40
0.4444444444444444
 40
0.4444444444444444
 40
0.5555555555555556
 40
0.5555555555555556
 40
0.5555555555555556
 40
0.5555555555555556
 40
0.6666666666666666
 40
0.6666666666666666
 40
0.6666666666666666
 40
0.6666666666666666
 40
0.7777777777777778
 40
0.7777777777777778
 40
0.7777777777777778
 40
0.7777777777777778
 40
1.0
 40
1.0
 40
1.0
 40
1.0
 10
2.0094
 20
-8.14702
 30
0.0
 10
2.0094
 20
-8.14702
 30
0.0
 10
2.16603
 20
-8.14702
 30
0.0
 10
2.16603
 20
-8.14702
 30
0.0
 10
2.16603
 20
-8.14702
 30
0.0
 10
2.21796
 20
-8.14702
 30
0.0
 10
2.25465
 20
-8.13743
 30
0.0
 10
2.27652
 20
-8.11809
 30
0.0
 10
2.27652
 20
-8.11809
 30
0.0
 10
2.29825
 20
-8.09876
 30
0.0
 10
2.30912
 20
-8.07167
 30
0.0
 10
2.30912
 20
-8.03653
 30
0.0
 10
2.30912
 20
-8.03653
 30
0.0
 10
2.30912
 20
-8.01127
 30
0.0
 10
2.30277
 20
-7.98954
 30
0.0
 10
2.28993
 20
-7.97148
 30
0.0
 10
2.28993
 20
-7.97148
 30
0.0
 10
2.27709
 20
-7.95342
 30
0.0
 10
2.26015
 20
-7.94142
 30
0.0
 10
2.23927
 20
-7.93564
 30
0.0
 10
2.23927
 20
-7.93564
 30
0.0
 10
2.22572
 20
-7.93211
 30
0.0
 10
2.20074
 20
-7.93027
 30
0.0
 10
2.16448
 20
-7.93027
 30
0.0
 10
2.16448
 20
-7.93027
 30
0.0
 10
2.16448
 20
-7.93027
 30
0.0
 10
2.0094
 20
-7.93027
 30
0.0
 10
2.0094
 20
-7.93027
 30
0.0
 10
2.0094
 20
-7.93027
 30
0.0
 10
2.0094
 20
-7.93027
 30
0.0
 10
2.0094
 20
-8.14702
 30
0.0
 10
2.0094
 20
-8.14702
 30
0.0
  0
SPLINE
  5
51
330
1F
100
AcDbEntity
  8
Layer 1
 62
   250
100
AcDbSpline
210
0.0
220
0.0
230
1.0
 70
    11
 71
     3
 72
    28
 73
    24
 74
     0
 42
0.0000000001
 43
0.0000000001
 12
1.0
 22
0.0
 32
0.0
 13
1.0
 23
0.0
 33
0.0
 40
0.0
 40
0.0
 40
0.0
 40
0.0
 40
0.1428571428571428
 40
0.1428571428571428
 40
0.1428571428571428
 40
0.1428571428571428
 40
0.2857142857142857
 40
0.2857142857142857
 40
0.2857142857142857
 40
0.2857142857142857
 40
0.4285714285714285
 40
0.4285714285714285
 40
0.4285714285714285
 40
0.4285714285714285
 40
0.5714285714285714
 40
0.5714285714285714
 40
0.5714285714285714
 40
0.5714285714285714
 40
0.7142857142857143
 40
0.7142857142857143
 40
0.7142857142857143
 40
0.7142857142857143
 40
1.0
 40
1.0
 40
1.0
 40
1.0
 10
2.49031
 20
-8.46537
 30
0.0
 10
2.49031
 20
-8.46537
 30
0.0
 10
2.49031
 20
-7.85915
 30
0.0
 10
2.49031
 20
-7.85915
 30
0.0
 10
2.49031
 20
-7.85915
 30
0.0
 10
2.49031
 20
-7.85915
 30
0.0
 10
2.57074
 20
-7.85915
 30
0.0
 10
2.57074
 20
-7.85915
 30
0.0
 10
2.57074
 20
-7.85915
 30
0.0
 10
2.57074
 20
-7.85915
 30
0.0
 10
2.57074
 20
-8.39425
 30
0.0
 10
2.57074
 20
-8.39425
 30
0.0
 10
2.57074
 20
-8.39425
 30
0.0
 10
2.57074
 20
-8.39425
 30
0.0
 10
2.86877
 20
-8.39425
 30
0.0
 10
2.86877
 20
-8.39425
 30
0.0
 10
2.86877
 20
-8.39425
 30
0.0
 10
2.86877
 20
-8.39425
 30
0.0
 10
2.86877
 20
-8.46537
 30
0.0
 10
2.86877
 20
-8.46537
 30
0.0
 10
2.86877
 20
-8.46537
 30
0.0
 10
2.86877
 20
-8.46537
 30
0.0
 10
2.49031
 20
-8.46537
 30
0.0
 10
2.49031
 20
-8.46537
 30
0.0
  0
SPLINE
  5
52
330
1F
100
AcDbEntity
  8
Layer 1
 62
   250
100
AcDbSpline
210
0.0
220
0.0
230
1.0
 70
    11
 71
     3
 72
    36
 73
    32
 74
     0
 42
0.0000000001
 43
0.0000000001
 12
1.0
 22
0.0
 32
0.0
 13
1.0
 23
0.0
 33
0.0
 40
0.0
 40
0.0
 40
0.0
 40
0.0
 40
0.1111111111111111
 40
0.1111111111111111
 40
0.1111111111111111
 40
0.1111111111111111
 40
0.2222222222222222
 40
0.2222222222222222
 40
0.2222222222222222
 40
0.2222222222222222
 40
0.3333333333333333
 40
0.3333333333333333
 40
0.3333333333333333
 40
0.3333333333333333
 40
0.4444444444444444
 40
0.4444444444444444
 40
0.4444444444444444
 40
0.4444444444444444
 40
0.5555555555555556
 40
0.5555555555555556
 40
0.5555555555555556
 40
0.5555555555555556
 40
0.6666666666666666
 40
0.6666666666666666
 40
0.6666666666666666
 40
0.6666666666666666
 40
0.7777777777777778
 40
0.7777777777777778
 40
0.7777777777777778
 40
0.7777777777777778
 40
1.0
 40
1.0
 40
1.0
 40
1.0
 10
2.89812
 20
-8.46537
 30
0.0
 10
2.89812
 20
-8.46537
 30
0.0
 10
3.13067
 20
-7.85915
 30
0.0
 10
3.13067
 20
-7.85915
 30
0.0
 10
3.13067
 20
-7.85915
 30
0.0
 10
3.13067
 20
-7.85915
 30
0.0
 10
3.21887
 20
-7.85915
 30
0.0
 10
3.21887
 20
-7.85915
 30
0.0
 10
3.21887
 20
-7.85915
 30
0.0
 10
3.21887
 20
-7.85915
 30
0.0
 10
3.46567
 20
-8.46537
 30
0.0
 10
3.46567
 20
-8.46537
 30
0.0
 10
3.46567
 20
-8.46537
 30
0.0
 10
3.46567
 20
-8.46537
 30
0.0
 10
3.37437
 20
-8.46537
 30
0.0
 10
3.37437
 20
-8.46537
 30
0.0
 10
3.37437
 20
-8.46537
 30
0.0
 10
3.37437
 20
-8.46537
 30
0.0
 10
3.30424
 20
-8.28164
 30
0.0
 10
3.30424
 20
-8.28164
 30
0.0
 10
3.30424
 20
-8.28164
 30
0.0
 10
3.30424
 20
-8.28164
 30
0.0
 10
3.04897
 20
-8.28164
 30
0.0
 10
3.04897
 20
-8.28164
 30
0.0
 10
3.04897
 20
-8.28164
 30
0.0
 10
3.04897
 20
-8.28164
 30
0.0
 10
2.98321
 20
-8.46537
 30
0.0
 10
2.98321
 20
-8.46537
 30
0.0
 10
2.98321
 20
-8.46537
 30
0.0
 10
2.98321
 20
-8.46537
 30
0.0
 10
2.89812
 20
-8.46537
 30
0.0
 10
2.89812
 20
-8.46537
 30
0.0
  0
SPLINE
  5
53
330
1F
100
AcDbEntity
  8
Layer 1
 62
   250
100
AcDbSpline
210
0.0
220
0.0
230
1.0
 70
    11
 71
     3
 72
    24
 73
    20
 74
     0
 42
0.0000000001
 43
0.0000000001
 12
1.0
 22
0.0
 32
0.0
 13
1.0
 23
0.0
 33
0.0
 40
0.0
 40
0.0
 40
0.0
 40
0.0
 40
0.1666666666666667
 40
0.1666666666666667
 40
0.1666666666666667
 40
0.1666666666666667
 40
0.3333333333333333
 40
0.3333333333333333
 40
0.3333333333333333
 40
0.3333333333333333
 40
0.5
 40
0.5
 40
0.5
 40
0.5
 40
0.6666666666666666
 40
0.6666666666666666
 40
0.6666666666666666
 40
0.6666666666666666
 40
1.0
 40
1.0
 40
1.0
 40
1.0
 10
3.07253
 20
-8.21645
 30
0.0
 10
3.07253
 20
-8.21645
 30
0.0
 10
3.27912
 20
-8.21645
 30
0.0
 10
3.27912
 20
-8.21645
 30
0.0
 10
3.27912
 20
-8.21645
 30
0.0
 10
3.27912
 20
-8.21645
 30
0.0
 10
3.2159
 20
-8.04839
 30
0.0
 10
3.2159
 20
-8.04839
 30
0.0
 10
3.2159
 20
-8.04839
 30
0.0
 10
3.19685
 20
-7.9973
 30
0.0
 10
3.18246
 20
-7.95511
 30
0.0
 10
3.17244
 20
-7.92181
 30
0.0
 10
3.17244
 20
-7.92181
 30
0.0
 10
3.16412
 20
-7.96132
 30
0.0
 10
3.15297
 20
-8.00012
 30
0.0
 10
3.139
 20
-8.03851
 30
0.0
 10
3.139
 20
-8.03851
 30
0.0
 10
3.139
 20
-8.03851
 30
0.0
 10
3.07253
 20
-8.21645
 30
0.0
 10
3.07253
 20
-8.21645
 30
0.0
  0
SPLINE
  5
54
330
1F
100
AcDbEntity
  8
Layer 1
 62
   250
100
AcDbSpline
210
0.0
220
0.0
230
1.0
 70
    11
 71
     3
 72
    36
 73
    32
 74
     0
 42
0.0000000001
 43
0.0000000001
 12
1.0
 22
0.0
 32
0.0
 13
1.0
 23
0.0
 33
0.0
 40
0.0
 40
0.0
 40
0.0
 40
0.0
 40
0.1111111111111111
 40
0.1111111111111111
 40
0.1111111111111111
 40
0.1111111111111111
 40
0.2222222222222222
 40
0.2222222222222222
 40
0.2222222222222222
 40
0.2222222222222222
 40
0.3333333333333333
 40
0.3333333333333333
 40
0.3333333333333333
 40
0.3333333333333333
 40
0.4444444444444444
 40
0.4444444444444444
 40
0.4444444444444444
 40
0.4444444444444444
 40
0.5555555555555556
 40
0.5555555555555556
 40
0.5555555555555556
 40
0.5555555555555556
 40
0.6666666666666666
 40
0.6666666666666666
 40
0.6666666666666666
 40
0.6666666666666666
 40
0.7777777777777778
 40
0.7777777777777778
 40
0.7777777777777778
 40
0.7777777777777778
 40
1.0
 40
1.0
 40
1.0
 40
1.0
 10
3.62062
 20
-8.46537
 30
0.0
 10
3.62062
 20
-8.46537
 30
0.0
 10
3.62062
 20
-7.93027
 30
0.0
 10
3.62062
 20
-7.93027
 30
0.0
 10
3.62062
 20
-7.93027
 30
0.0
 10
3.62062
 20
-7.93027
 30
0.0
 10
3.4208
 20
-7.93027
 30
0.0
 10
3.4208
 20
-7.93027
 30
0.0
 10
3.4208
 20
-7.93027
 30
0.0
 10
3.4208
 20
-7.93027
 30
0.0
 10
3.4208
 20
-7.85915
 30
0.0
 10
3.4208
 20
-7.85915
 30
0.0
 10
3.4208
 20
-7.85915
 30
0.0
 10
3.4208
 20
-7.85915
 30
0.0
 10
3.90087
 20
-7.85915
 30
0.0
 10
3.90087
 20
-7.85915
 30
0.0
 10
3.90087
 20
-7.85915
 30
0.0
 10
3.90087
 20
-7.85915
 30
0.0
 10
3.90087
 20
-7.93027
 30
0.0
 10
3.90087
 20
-7.93027
 30
0.0
 10
3.90087
 20
-7.93027
 30
0.0
 10
3.90087
 20
-7.93027
 30
0.0
 10
3.70105
 20
-7.93027
 30
0.0
 10
3.70105
 20
-7.93027
 30
0.0
 10
3.70105
 20
-7.93027
 30
0.0
 10
3.70105
 20
-7.93027
 30
0.0
 10
3.70105
 20
-8.46537
 30
0.0
 10
3.70105
 20
-8.46537
 30
0.0
 10
3.70105
 20
-8.46537
 30
0.0
 10
3.70105
 20
-8.46537
 30
0.0
 10
3.62062
 20
-8.46537
 30
0.0
 10
3.62062
 20
-8.46537
 30
0.0
  0
SPLINE
  5
55
330
1F
100
AcDbEntity
  8
Layer 1
 62
   250
100
AcDbSpline
210
0.0
220
0.0
230
1.0
 70
    11
 71
     3
 72
    52
 73
    48
 74
     0
 42
0.0000000001
 43
0.0000000001
 12
1.0
 22
0.0
 32
0.0
 13
1.0
 23
0.0
 33
0.0
 40
0.0
 40
0.0
 40
0.0
 40
0.0
 40
0.0769230769230769
 40
0.0769230769230769
 40
0.0769230769230769
 40
0.0769230769230769
 40
0.1538461538461539
 40
0.1538461538461539
 40
0.1538461538461539
 40
0.1538461538461539
 40
0.2307692307692308
 40
0.2307692307692308
 40
0.2307692307692308
 40
0.2307692307692308
 40
0.3076923076923077
 40
0.3076923076923077
 40
0.3076923076923077
 40
0.3076923076923077
 40
0.3846153846153846
 40
0.3846153846153846
 40
0.3846153846153846
 40
0.3846153846153846
 40
0.4615384615384616
 40
0.4615384615384616
 40
0.4615384615384616
 40
0.4615384615384616
 40
0.5384615384615384
 40
0.5384615384615384
 40
0.5384615384615384
 40
0.5384615384615384
 40
0.6153846153846154
 40
0.6153846153846154
 40
0.6153846153846154
 40
0.6153846153846154
 40
0.6923076923076923
 40
0.6923076923076923
 40
0.6923076923076923
 40
0.6923076923076923
 40
0.7692307692307693
 40
0.7692307692307693
 40
0.7692307692307693
 40
0.7692307692307693
 40
0.8461538461538461
 40
0.8461538461538461
 40
0.8461538461538461
 40
0.8461538461538461
 40
1.0
 40
1.0
 40
1.0
 40
1.0
 10
3.98539
 20
-8.46537
 30
0.0
 10
3.98539
 20
-8.46537
 30
0.0
 10
3.98539
 20
-7.85915
 30
0.0
 10
3.98539
 20
-7.85915
 30
0.0
 10
3.98539
 20
-7.85915
 30
0.0
 10
3.98539
 20
-7.85915
 30
0.0
 10
4.42312
 20
-7.85915
 30
0.0
 10
4.42312
 20
-7.85915
 30
0.0
 10
4.42312
 20
-7.85915
 30
0.0
 10
4.42312
 20
-7.85915
 30
0.0
 10
4.42312
 20
-7.93027
 30
0.0
 10
4.42312
 20
-7.93027
 30
0.0
 10
4.42312
 20
-7.93027
 30
0.0
 10
4.42312
 20
-7.93027
 30
0.0
 10
4.06582
 20
-7.93027
 30
0.0
 10
4.06582
 20
-7.93027
 30
0.0
 10
4.06582
 20
-7.93027
 30
0.0
 10
4.06582
 20
-7.93027
 30
0.0
 10
4.06582
 20
-8.11654
 30
0.0
 10
4.06582
 20
-8.11654
 30
0.0
 10
4.06582
 20
-8.11654
 30
0.0
 10
4.06582
 20
-8.11654
 30
0.0
 10
4.40026
 20
-8.11654
 30
0.0
 10
4.40026
 20
-8.11654
 30
0.0
 10
4.40026
 20
-8.11654
 30
0.0
 10
4.40026
 20
-8.11654
 30
0.0
 10
4.40026
 20
-8.18766
 30
0.0
 10
4.40026
 20
-8.18766
 30
0.0
 10
4.40026
 20
-8.18766
 30
0.0
 10
4.40026
 20
-8.18766
 30
0.0
 10
4.06582
 20
-8.18766
 30
0.0
 10
4.06582
 20
-8.18766
 30
0.0
 10
4.06582
 20
-8.18766
 30
0.0
 10
4.06582
 20
-8.18766
 30
0.0
 10
4.06582
 20
-8.39425
 30
0.0
 10
4.06582
 20
-8.39425
 30
0.0
 10
4.06582
 20
-8.39425
 30
0.0
 10
4.06582
 20
-8.39425
 30
0.0
 10
4.43751
 20
-8.39425
 30
0.0
 10
4.43751
 20
-8.39425
 30
0.0
 10
4.43751
 20
-8.39425
 30
0.0
 10
4.43751
 20
-8.39425
 30
0.0
 10
4.43751
 20
-8.46537
 30
0.0
 10
4.43751
 20
-8.46537
 30
0.0
 10
4.43751
 20
-8.46537
 30
0.0
 10
4.43751
 20
-8.46537
 30
0.0
 10
3.98539
 20
-8.46537
 30
0.0
 10
3.98539
 20
-8.46537
 30
0.0
  0
SPLINE
  5
56
330
1F
100
AcDbEntity
  8
Layer 1
 62
     3
370
     9
100
AcDbSpline
210
0.0
220
0.0
230
1.0
 70
    24
 71
     3
 72
     8
 73
     4
 74
     0
 42
0.0000000001
 43
0.0000000001
 12
1.0
 22
0.0
 32
0.0
 13
1.0
 23
0.0
 33
0.0
 40
0.0
 40
0.0
 40
0.0
 40
0.0
 40
1.0
 40
1.0
 40
1.0
 40
1.0
 10
-11.06995
 20
-6.0448
 30
0.0
 10
-11.06995
 20
-6.0448
 30
0.0
 10
10.92909
 20
-6.0448
 30
0.0
 10
10.92909
 20
-6.0448
 30
0.0
  0
SPLINE
  5
57
330
1F
100
AcDbEntity
  8
Layer 1
 62
     3
370
     9
100
AcDbSpline
210
0.0
220
0.0
230
1.0
 70
    24
 71
     3
 72
     8
 73
     4
 74
     0
 42
0.0000000001
 43
0.0000000001
 12
1.0
 22
0.0
 32
0.0
 13
1.0
 23
0.0
 33
0.0
 40
0.0
 40
0.0
 40
0.0
 40
0.0
 40
1.0
 40
1.0
 40
1.0
 40
1.0
 10
10.92909
 20
6.00427
 30
0.0
 10
10.92909
 20
6.00427
 30
0.0
 10
-11.06995
 20
6.00427
 30
0.0
 10
-11.06995
 20
6.00427
 30
0.0
  0
SPLINE
  5
58
330
1F
100
AcDbEntity
  8
Layer 1
 62
     3
370
     9
100
AcDbSpline
210
0.0
220
0.0
230
1.0
 70
    24
 71
     3
 72
     8
 73
     4
 74
     0
 42
0.0000000001
 43
0.0000000001
 12
1.0
 22
0.0
 32
0.0
 13
1.0
 23
0.0
 33
0.0
 40
0.0
 40
0.0
 40
0.0
 40
0.0
 40
1.0
 40
1.0
 40
1.0
 40
1.0
 10
-11.36643
 20
5.70778
 30
0.0
 10
-11.36643
 20
5.70778
 30
0.0
 10
-11.36643
 20
-5.74833
 30
0.0
 10
-11.36643
 20
-5.74833
 30
0.0
  0
SPLINE
  5
59
330
1F
100
AcDbEntity
  8
Layer 1
 62
     3
370
     9
100
AcDbSpline
210
0.0
220
0.0
230
1.0
 70
     8
 71
     3
 72
    12
 73
     8
 74
     0
 42
0.0000000001
 43
0.0000000001
 12
1.0
 22
0.0
 32
0.0
 13
1.0
 23
0.0
 33
0.0
 40
0.0
 40
0.0
 40
0.0
 40
0.0
 40
0.3333333333333333
 40
0.3333333333333333
 40
0.3333333333333333
 40
0.3333333333333333
 40
1.0
 40
1.0
 40
1.0
 40
1.0
 10
-11.06995
 20
6.00427
 30
0.0
 10
-11.14859
 20
6.00427
 30
0.0
 10
-11.22399
 20
5.97304
 30
0.0
 10
-11.27959
 20
5.91744
 30
0.0
 10
-11.27959
 20
5.91744
 30
0.0
 10
-11.3352
 20
5.86183
 30
0.0
 10
-11.36643
 20
5.78642
 30
0.0
 10
-11.36643
 20
5.70778
 30
0.0
  0
SPLINE
  5
5A
330
1F
100
AcDbEntity
  8
Layer 1
 62
     3
370
     9
100
AcDbSpline
210
0.0
220
0.0
230
1.0
 70
     8
 71
     3
 72
    12
 73
     8
 74
     0
 42
0.0000000001
 43
0.0000000001
 12
1.0
 22
0.0
 32
0.0
 13
1.0
 23
0.0
 33
0.0
 40
0.0
 40
0.0
 40
0.0
 40
0.0
 40
0.3333333333333333
 40
0.3333333333333333
 40
0.3333333333333333
 40
0.3333333333333333
 40
1.0
 40
1.0
 40
1.0
 40
1.0
 10
-11.36643
 20
-5.74833
 30
0.0
 10
-11.36643
 20
-5.82695
 30
0.0
 10
-11.3352
 20
-5.90238
 30
0.0
 10
-11.27959
 20
-5.95796
 30
0.0
 10
-11.27959
 20
-5.95796
 30
0.0
 10
-11.22399
 20
-6.01356
 30
0.0
 10
-11.14859
 20
-6.0448
 30
0.0
 10
-11.06995
 20
-6.0448
 30
0.0
  0
SPLINE
  5
5B
330
1F
100
AcDbEntity
  8
Layer 1
 62
     3
370
     9
100
AcDbSpline
210
0.0
220
0.0
230
1.0
 70
    24
 71
     3
 72
     8
 73
     4
 74
     0
 42
0.0000000001
 43
0.0000000001
 12
1.0
 22
0.0
 32
0.0
 13
1.0
 23
0.0
 33
0.0
 40
0.0
 40
0.0
 40
0.0
 40
0.0
 40
1.0
 40
1.0
 40
1.0
 40
1.0
 10
11.22558
 20
5.70778
 30
0.0
 10
11.22558
 20
5.70778
 30
0.0
 10
11.22558
 20
-5.74833
 30
0.0
 10
11.22558
 20
-5.74833
 30
0.0
  0
SPLINE
  5
5C
330
1F
100
AcDbEntity
  8
Layer 1
 62
     3
370
     9
100
AcDbSpline
210
0.0
220
0.0
230
1.0
 70
     8
 71
     3
 72
    12
 73
     8
 74
     0
 42
0.0000000001
 43
0.0000000001
 12
1.0
 22
0.0
 32
0.0
 13
1.0
 23
0.0
 33
0.0
 40
0.0
 40
0.0
 40
0.0
 40
0.0
 40
0.3333333333333333
 40
0.3333333333333333
 40
0.3333333333333333
 40
0.3333333333333333
 40
1.0
 40
1.0
 40
1.0
 40
1.0
 10
11.22558
 20
5.70778
 30
0.0
 10
11.22558
 20
5.78642
 30
0.0
 10
11.19434
 20
5.86183
 30
0.0
 10
11.13874
 20
5.91744
 30
0.0
 10
11.13874
 20
5.91744
 30
0.0
 10
11.08313
 20
5.97304
 30
0.0
 10
11.00773
 20
6.00427
 30
0.0
 10
10.92909
 20
6.00427
 30
0.0
  0
SPLINE
  5
5D
330
1F
100
AcDbEntity
  8
Layer 1
 62
     3
370
     9
100
AcDbSpline
210
0.0
220
0.0
230
1.0
 70
     8
 71
     3
 72
     8
 73
     4
 74
     0
 42
0.0000000001
 43
0.0000000001
 12
1.0
 22
0.0
 32
0.0
 13
1.0
 23
0.0
 33
0.0
 40
0.0
 40
0.0
 40
0.0
 40
0.0
 40
1.0
 40
1.0
 40
1.0
 40
1.0
 10
10.92909
 20
-6.0448
 30
0.0
 10
11.09284
 20
-6.0448
 30
0.0
 10
11.22558
 20
-5.91206
 30
0.0
 10
11.22558
 20
-5.74833
 30
0.0
  0
SPLINE
  5
5F
330
1F
100
AcDbEntity
  8
layer 2
 62
     1
370
     0
100
AcDbSpline
210
0.0
220
0.0
230
1.0
 70
    24
 71
     3
 72
     8
 73
     4
 74
     0
 42
0.0000000001
 43
0.0000000001
 12
1.0
 22
0.0
 32
0.0
 13
1.0
 23
0.0
 33
0.0
 40
0.0
 40
0.0
 40
0.0
 40
0.0
 40
1.0
 40
1.0
 40
1.0
 40
1.0
 10
-11.36643
 20
5.85604
 30
0.0
 10
-11.36643
 20
5.85604
 30
0.0
 10
-11.36643
 20
7.6521
 30
0.0
 10
-11.36643
 20
7.6521
 30
0.0
  0
SPLINE
  5
60
330
1F
100
AcDbEntity
  8
layer 2
 62
     1
370
     0
100
AcDbSpline
210
0.0
220
0.0
230
1.0
 70
    24
 71
     3
 72
     8
 73
     4
 74
     0
 42
0.0000000001
 43
0.0000000001
 12
1.0
 22
0.0
 32
0.0
 13
1.0
 23
0.0
 33
0.0
 40
0.0
 40
0.0
 40
0.0
 40
0.0
 40
1.0
 40
1.0
 40
1.0
 40
1.0
 10
11.22558
 20
5.85604
 30
0.0
 10
11.22558
 20
5.85604
 30
0.0
 10
11.22558
 20
7.6521
 30
0.0
 10
11.22558
 20
7.6521
 30
0.0
  0
SPLINE
  5
61
330
1F
100
AcDbEntity
  8
layer 2
 62
     1
370
     0
100
AcDbSpline
210
0.0
220
0.0
230
1.0
 70
    24
 71
     3
 72
     8
 73
     4
 74
     0
 42
0.0000000001
 43
0.0000000001
 12
1.0
 22
0.0
 32
0.0
 13
1.0
 23
0.0
 33
0.0
 40
0.0
 40
0.0
 40
0.0
 40
0.0
 40
1.0
 40
1.0
 40
1.0
 40
1.0
 10
-10.77346
 20
7.35561
 30
0.0
 10
-10.77346
 20
7.35561
 30
0.0
 10
10.63261
 20
7.35561
 30
0.0
 10
10.63261
 20
7.35561
 30
0.0
  0
SPLINE
  5
62
330
1F
100
AcDbEntity
  8
layer 2
 62
     1
100
AcDbSpline
210
0.0
220
0.0
230
1.0
 70
    27
 71
     3
 72
    12
 73
     8
 74
     0
 42
0.0000000001
 43
0.0000000001
 12
1.0
 22
0.0
 32
0.0
 13
1.0
 23
0.0
 33
0.0
 40
0.0
 40
0.0
 40
0.0
 40
0.0
 40
0.3333333333333333
 40
0.3333333333333333
 40
0.3333333333333333
 40
0.3333333333333333
 40
1.0
 40
1.0
 40
1.0
 40
1.0
 10
-10.77346
 20
7.45446
 30
0.0
 10
-10.77346
 20
7.45446
 30
0.0
 10
-11.36643
 20
7.35561
 30
0.0
 10
-11.36643
 20
7.35561
 30
0.0
 10
-11.36643
 20
7.35561
 30
0.0
 10
-11.36643
 20
7.35561
 30
0.0
 10
-10.77346
 20
7.45446
 30
0.0
 10
-10.77346
 20
7.45446
 30
0.0
  0
SPLINE
  5
63
330
1F
100
AcDbEntity
  8
layer 2
 62
     1
100
AcDbSpline
210
0.0
220
0.0
230
1.0
 70
     8
 71
     3
 72
    12
 73
     8
 74
     0
 42
0.0000000001
 43
0.0000000001
 12
1.0
 22
0.0
 32
0.0
 13
1.0
 23
0.0
 33
0.0
 40
0.0
 40
0.0
 40
0.0
 40
0.0
 40
0.3333333333333333
 40
0.3333333333333333
 40
0.3333333333333333
 40
0.3333333333333333
 40
1.0
 40
1.0
 40
1.0
 40
1.0
 10
-11.36643
 20
7.35561
 30
0.0
 10
-11.36643
 20
7.35561
 30
0.0
 10
-10.77346
 20
7.25679
 30
0.0
 10
-10.77346
 20
7.25679
 30
0.0
 10
-10.77346
 20
7.25679
 30
0.0
 10
-10.77346
 20
7.25679
 30
0.0
 10
-10.77346
 20
7.45446
 30
0.0
 10
-10.77346
 20
7.45446
 30
0.0
  0
SPLINE
  5
64
330
1F
100
AcDbEntity
  8
layer 2
 62
     1
370
     9
100
AcDbSpline
210
0.0
220
0.0
230
1.0
 70
    24
 71
     3
 72
     8
 73
     4
 74
     0
 42
0.0000000001
 43
0.0000000001
 12
1.0
 22
0.0
 32
0.0
 13
1.0
 23
0.0
 33
0.0
 40
0.0
 40
0.0
 40
0.0
 40
0.0
 40
1.0
 40
1.0
 40
1.0
 40
1.0
 10
-10.77346
 20
7.45446
 30
0.0
 10
-10.77346
 20
7.45446
 30
0.0
 10
-11.36643
 20
7.35561
 30
0.0
 10
-11.36643
 20
7.35561
 30
0.0
  0
SPLINE
  5
65
330
1F
100
AcDbEntity
  8
layer 2
 62
     1
370
     9
100
AcDbSpline
210
0.0
220
0.0
230
1.0
 70
     8
 71
     3
 72
    12
 73
     8
 74
     0
 42
0.0000000001
 43
0.0000000001
 12
1.0
 22
0.0
 32
0.0
 13
1.0
 23
0.0
 33
0.0
 40
0.0
 40
0.0
 40
0.0
 40
0.0
 40
0.3333333333333333
 40
0.3333333333333333
 40
0.3333333333333333
 40
0.3333333333333333
 40
1.0
 40
1.0
 40
1.0
 40
1.0
 10
-11.36643
 20
7.35561
 30
0.0
 10
-11.36643
 20
7.35561
 30
0.0
 10
-10.77346
 20
7.25679
 30
0.0
 10
-10.77346
 20
7.25679
 30
0.0
 10
-10.77346
 20
7.25679
 30
0.0
 10
-10.77346
 20
7.25679
 30
0.0
 10
-10.77346
 20
7.45446
 30
0.0
 10
-10.77346
 20
7.45446
 30
0.0
  0
SPLINE
  5
66
330
1F
100
AcDbEntity
  8
layer 2
 62
     1
100
AcDbSpline
210
0.0
220
0.0
230
1.0
 70
    27
 71
     3
 72
    12
 73
     8
 74
     0
 42
0.0000000001
 43
0.0000000001
 12
1.0
 22
0.0
 32
0.0
 13
1.0
 23
0.0
 33
0.0
 40
0.0
 40
0.0
 40
0.0
 40
0.0
 40
0.3333333333333333
 40
0.3333333333333333
 40
0.3333333333333333
 40
0.3333333333333333
 40
1.0
 40
1.0
 40
1.0
 40
1.0
 10
10.63261
 20
7.45446
 30
0.0
 10
10.63261
 20
7.45446
 30
0.0
 10
11.22558
 20
7.35561
 30
0.0
 10
11.22558
 20
7.35561
 30
0.0
 10
11.22558
 20
7.35561
 30
0.0
 10
11.22558
 20
7.35561
 30
0.0
 10
10.63261
 20
7.45446
 30
0.0
 10
10.63261
 20
7.45446
 30
0.0
  0
SPLINE
  5
67
330
1F
100
AcDbEntity
  8
layer 2
 62
     1
100
AcDbSpline
210
0.0
220
0.0
230
1.0
 70
     8
 71
     3
 72
    12
 73
     8
 74
     0
 42
0.0000000001
 43
0.0000000001
 12
1.0
 22
0.0
 32
0.0
 13
1.0
 23
0.0
 33
0.0
 40
0.0
 40
0.0
 40
0.0
 40
0.0
 40
0.3333333333333333
 40
0.3333333333333333
 40
0.3333333333333333
 40
0.3333333333333333
 40
1.0
 40
1.0
 40
1.0
 40
1.0
 10
11.22558
 20
7.35561
 30
0.0
 10
11.22558
 20
7.35561
 30
0.0
 10
10.63261
 20
7.25679
 30
0.0
 10
10.63261
 20
7.25679
 30
0.0
 10
10.63261
 20
7.25679
 30
0.0
 10
10.63261
 20
7.25679
 30
0.0
 10
10.63261
 20
7.45446
 30
0.0
 10
10.63261
 20
7.45446
 30
0.0
  0
SPLINE
  5
68
330
1F
100
AcDbEntity
  8
layer 2
 62
     1
370
     9
100
AcDbSpline
210
0.0
220
0.0
230
1.0
 70
    24
 71
     3
 72
     8
 73
     4
 74
     0
 42
0.0000000001
 43
0.0000000001
 12
1.0
 22
0.0
 32
0.0
 13
1.0
 23
0.0
 33
0.0
 40
0.0
 40
0.0
 40
0.0
 40
0.0
 40
1.0
 40
1.0
 40
1.0
 40
1.0
 10
10.63261
 20
7.45446
 30
0.0
 10
10.63261
 20
7.45446
 30
0.0
 10
11.22558
 20
7.35561
 30
0.0
 10
11.22558
 20
7.35561
 30
0.0
  0
SPLINE
  5
69
330
1F
100
AcDbEntity
  8
layer 2
 62
     1
370
     9
100
AcDbSpline
210
0.0
220
0.0
230
1.0
 70
     8
 71
     3
 72
    12
 73
     8
 74
     0
 42
0.0000000001
 43
0.0000000001
 12
1.0
 22
0.0
 32
0.0
 13
1.0
 23
0.0
 33
0.0
 40
0.0
 40
0.0
 40
0.0
 40
0.0
 40
0.3333333333333333
 40
0.3333333333333333
 40
0.3333333333333333
 40
0.3333333333333333
 40
1.0
 40
1.0
 40
1.0
 40
1.0
 10
11.22558
 20
7.35561
 30
0.0
 10
11.22558
 20
7.35561
 30
0.0
 10
10.63261
 20
7.25679
 30
0.0
 10
10.63261
 20
7.25679
 30
0.0
 10
10.63261
 20
7.25679
 30
0.0
 10
10.63261
 20
7.25679
 30
0.0
 10
10.63261
 20
7.45446
 30
0.0
 10
10.63261
 20
7.45446
 30
0.0
  0
SPLINE
  5
6A
330
1F
100
AcDbEntity
  8
layer 2
 62
     1
100
AcDbSpline
210
0.0
220
0.0
230
1.0
 70
    11
 71
     3
 72
   124
 73
   120
 74
     0
 42
0.0000000001
 43
0.0000000001
 12
1.0
 22
0.0
 32
0.0
 13
1.0
 23
0.0
 33
0.0
 40
0.0
 40
0.0
 40
0.0
 40
0.0
 40
0.032258064516129
 40
0.032258064516129
 40
0.032258064516129
 40
0.032258064516129
 40
0.0645161290322581
 40
0.0645161290322581
 40
0.0645161290322581
 40
0.0645161290322581
 40
0.0967741935483871
 40
0.0967741935483871
 40
0.0967741935483871
 40
0.0967741935483871
 40
0.1290322580645161
 40
0.1290322580645161
 40
0.1290322580645161
 40
0.1290322580645161
 40
0.1612903225806452
 40
0.1612903225806452
 40
0.1612903225806452
 40
0.1612903225806452
 40
0.1935483870967742
 40
0.1935483870967742
 40
0.1935483870967742
 40
0.1935483870967742
 40
0.2258064516129032
 40
0.2258064516129032
 40
0.2258064516129032
 40
0.2258064516129032
 40
0.2580645161290323
 40
0.2580645161290323
 40
0.2580645161290323
 40
0.2580645161290323
 40
0.2903225806451613
 40
0.2903225806451613
 40
0.2903225806451613
 40
0.2903225806451613
 40
0.3225806451612903
 40
0.3225806451612903
 40
0.3225806451612903
 40
0.3225806451612903
 40
0.3548387096774194
 40
0.3548387096774194
 40
0.3548387096774194
 40
0.3548387096774194
 40
0.3870967741935484
 40
0.3870967741935484
 40
0.3870967741935484
 40
0.3870967741935484
 40
0.4193548387096774
 40
0.4193548387096774
 40
0.4193548387096774
 40
0.4193548387096774
 40
0.4516129032258064
 40
0.4516129032258064
 40
0.4516129032258064
 40
0.4516129032258064
 40
0.4838709677419355
 40
0.4838709677419355
 40
0.4838709677419355
 40
0.4838709677419355
 40
0.5161290322580645
 40
0.5161290322580645
 40
0.5161290322580645
 40
0.5161290322580645
 40
0.5483870967741935
 40
0.5483870967741935
 40
0.5483870967741935
 40
0.5483870967741935
 40
0.5806451612903226
 40
0.5806451612903226
 40
0.5806451612903226
 40
0.5806451612903226
 40
0.6129032258064516
 40
0.6129032258064516
 40
0.6129032258064516
 40
0.6129032258064516
 40
0.6451612903225806
 40
0.6451612903225806
 40
0.6451612903225806
 40
0.6451612903225806
 40
0.6774193548387096
 40
0.6774193548387096
 40
0.6774193548387096
 40
0.6774193548387096
 40
0.7096774193548387
 40
0.7096774193548387
 40
0.7096774193548387
 40
0.7096774193548387
 40
0.7419354838709677
 40
0.7419354838709677
 40
0.7419354838709677
 40
0.7419354838709677
 40
0.7741935483870968
 40
0.7741935483870968
 40
0.7741935483870968
 40
0.7741935483870968
 40
0.8064516129032258
 40
0.8064516129032258
 40
0.8064516129032258
 40
0.8064516129032258
 40
0.8387096774193549
 40
0.8387096774193549
 40
0.8387096774193549
 40
0.8387096774193549
 40
0.8709677419354839
 40
0.8709677419354839
 40
0.8709677419354839
 40
0.8709677419354839
 40
0.9032258064516129
 40
0.9032258064516129
 40
0.9032258064516129
 40
0.9032258064516129
 40
0.9354838709677419
 40
0.9354838709677419
 40
0.9354838709677419
 40
0.9354838709677419
 40
1.0
 40
1.0
 40
1.0
 40
1.0
 10
-0.44776
 20
7.71277
 30
0.0
 10
-0.44776
 20
7.71277
 30
0.0
 10
-0.39974
 20
7.71931
 30
0.0
 10
-0.39974
 20
7.71931
 30
0.0
 10
-0.39974
 20
7.71931
 30
0.0
 10
-0.39421
 20
7.69203
 30
0.0
 10
-0.38493
 20
7.6724
 30
0.0
 10
-0.37175
 20
7.66039
 30
0.0
 10
-0.37175
 20
7.66039
 30
0.0
 10
-0.35855
 20
7.64839
 30
0.0
 10
-0.34237
 20
7.64239
 30
0.0
 10
-0.3232
 20
7.64239
 30
0.0
 10
-0.3232
 20
7.64239
 30
0.0
 10
-0.30046
 20
7.64239
 30
0.0
 10
-0.28128
 20
7.65021
 30
0.0
 10
-0.26581
 20
7.66585
 30
0.0
 10
-0.26581
 20
7.66585
 30
0.0
 10
-0.25036
 20
7.68149
 30
0.0
 10
-0.24263
 20
7.70087
 30
0.0
 10
-0.24263
 20
7.72395
 30
0.0
 10
-0.24263
 20
7.72395
 30
0.0
 10
-0.24263
 20
7.74596
 30
0.0
 10
-0.24982
 20
7.76414
 30
0.0
 10
-0.26427
 20
7.77851
 30
0.0
 10
-0.26427
 20
7.77851
 30
0.0
 10
-0.27864
 20
7.79278
 30
0.0
 10
-0.29692
 20
7.79995
 30
0.0
 10
-0.31919
 20
7.79995
 30
0.0
 10
-0.31919
 20
7.79995
 30
0.0
 10
-0.32827
 20
7.79995
 30
0.0
 10
-0.33956
 20
7.79814
 30
0.0
 10
-0.35311
 20
7.79459
 30
0.0
 10
-0.35311
 20
7.79459
 30
0.0
 10
-0.35311
 20
7.79459
 30
0.0
 10
-0.34775
 20
7.8366
 30
0.0
 10
-0.34775
 20
7.8366
 30
0.0
 10
-0.34775
 20
7.8366
 30
0.0
 10
-0.34455
 20
7.83623
 30
0.0
 10
-0.34192
 20
7.83606
 30
0.0
 10
-0.34001
 20
7.83606
 30
0.0
 10
-0.34001
 20
7.83606
 30
0.0
 10
-0.31946
 20
7.83606
 30
0.0
 10
-0.3011
 20
7.84141
 30
0.0
 10
-0.28465
 20
7.85206
 30
0.0
 10
-0.28465
 20
7.85206
 30
0.0
 10
-0.26828
 20
7.86269
 30
0.0
 10
-0.2601
 20
7.87906
 30
0.0
 10
-0.2601
 20
7.90116
 30
0.0
 10
-0.2601
 20
7.90116
 30
0.0
 10
-0.2601
 20
7.91871
 30
0.0
 10
-0.2661
 20
7.93325
 30
0.0
 10
-0.27801
 20
7.94479
 30
0.0
 10
-0.27801
 20
7.94479
 30
0.0
 10
-0.28992
 20
7.95634
 30
0.0
 10
-0.30529
 20
7.96207
 30
0.0
 10
-0.3241
 20
7.96207
 30
0.0
 10
-0.3241
 20
7.96207
 30
0.0
 10
-0.34284
 20
7.96207
 30
0.0
 10
-0.35838
 20
7.95616
 30
0.0
 10
-0.37083
 20
7.94435
 30
0.0
 10
-0.37083
 20
7.94435
 30
0.0
 10
-0.38329
 20
7.93252
 30
0.0
 10
-0.3913
 20
7.91478
 30
0.0
 10
-0.39484
 20
7.89116
 30
0.0
 10
-0.39484
 20
7.89116
 30
0.0
 10
-0.39484
 20
7.89116
 30
0.0
 10
-0.44285
 20
7.89987
 30
0.0
 10
-0.44285
 20
7.89987
 30
0.0
 10
-0.44285
 20
7.89987
 30
0.0
 10
-0.43693
 20
7.93208
 30
0.0
 10
-0.42366
 20
7.95707
 30
0.0
 10
-0.40283
 20
7.9748
 30
0.0
 10
-0.40283
 20
7.9748
 30
0.0
 10
-0.38212
 20
7.99252
 30
0.0
 10
-0.3562
 20
8.00135
 30
0.0
 10
-0.32528
 20
8.00135
 30
0.0
 10
-0.32528
 20
8.00135
 30
0.0
 10
-0.30402
 20
8.00135
 30
0.0
 10
-0.28438
 20
7.9968
 30
0.0
 10
-0.26647
 20
7.98762
 30
0.0
 10
-0.26647
 20
7.98762
 30
0.0
 10
-0.24846
 20
7.97854
 30
0.0
 10
-0.23472
 20
7.96607
 30
0.0
 10
-0.22528
 20
7.95035
 30
0.0
 10
-0.22528
 20
7.95035
 30
0.0
 10
-0.21572
 20
7.93452
 30
0.0
 10
-0.211
 20
7.91778
 30
0.0
 10
-0.211
 20
7.90006
 30
0.0
 10
-0.211
 20
7.90006
 30
0.0
 10
-0.211
 20
7.88325
 30
0.0
 10
-0.21555
 20
7.86797
 30
0.0
 10
-0.22454
 20
7.85415
 30
0.0
 10
-0.22454
 20
7.85415
 30
0.0
 10
-0.23363
 20
7.84034
 30
0.0
 10
-0.2471
 20
7.82933
 30
0.0
 10
-0.26483
 20
7.82114
 30
0.0
 10
-0.26483
 20
7.82114
 30
0.0
 10
-0.24172
 20
7.81586
 30
0.0
 10
-0.22382
 20
7.80478
 30
0.0
 10
-0.211
 20
7.78795
 30
0.0
 10
-0.211
 20
7.78795
 30
0.0
 10
-0.19827
 20
7.77124
 30
0.0
 10
-0.19191
 20
7.75014
 30
0.0
 10
-0.19191
 20
7.72495
 30
0.0
 10
-0.19191
 20
7.72495
 30
0.0
 10
-0.19191
 20
7.69086
 30
0.0
 10
-0.20435
 20
7.66185
 30
0.0
 10
-0.22919
 20
7.63811
 30
0.0
 10
-0.22919
 20
7.63811
 30
0.0
 10
-0.2541
 20
7.61439
 30
0.0
 10
-0.28555
 20
7.60256
 30
0.0
 10
-0.32357
 20
7.60256
 30
0.0
 10
-0.32357
 20
7.60256
 30
0.0
 10
-0.35784
 20
7.60256
 30
0.0
 10
-0.3863
 20
7.61284
 30
0.0
 10
-0.40894
 20
7.63331
 30
0.0
 10
-0.40894
 20
7.63331
 30
0.0
 10
-0.43166
 20
7.65375
 30
0.0
 10
-0.44456
 20
7.68022
 30
0.0
 10
-0.44776
 20
7.71277
 30
0.0
  0
SPLINE
  5
6B
330
1F
100
AcDbEntity
  8
layer 2
 62
     1
100
AcDbSpline
210
0.0
220
0.0
230
1.0
 70
    11
 71
     3
 72
    52
 73
    48
 74
     0
 42
0.0000000001
 43
0.0000000001
 12
1.0
 22
0.0
 32
0.0
 13
1.0
 23
0.0
 33
0.0
 40
0.0
 40
0.0
 40
0.0
 40
0.0
 40
0.0769230769230769
 40
0.0769230769230769
 40
0.0769230769230769
 40
0.0769230769230769
 40
0.1538461538461539
 40
0.1538461538461539
 40
0.1538461538461539
 40
0.1538461538461539
 40
0.2307692307692308
 40
0.2307692307692308
 40
0.2307692307692308
 40
0.2307692307692308
 40
0.3076923076923077
 40
0.3076923076923077
 40
0.3076923076923077
 40
0.3076923076923077
 40
0.3846153846153846
 40
0.3846153846153846
 40
0.3846153846153846
 40
0.3846153846153846
 40
0.4615384615384616
 40
0.4615384615384616
 40
0.4615384615384616
 40
0.4615384615384616
 40
0.5384615384615384
 40
0.5384615384615384
 40
0.5384615384615384
 40
0.5384615384615384
 40
0.6153846153846154
 40
0.6153846153846154
 40
0.6153846153846154
 40
0.6153846153846154
 40
0.6923076923076923
 40
0.6923076923076923
 40
0.6923076923076923
 40
0.6923076923076923
 40
0.7692307692307693
 40
0.7692307692307693
 40
0.7692307692307693
 40
0.7692307692307693
 40
0.8461538461538461
 40
0.8461538461538461
 40
0.8461538461538461
 40
0.8461538461538461
 40
1.0
 40
1.0
 40
1.0
 40
1.0
 10
-0.14435
 20
7.80186
 30
0.0
 10
-0.14435
 20
7.84797
 30
0.0
 10
-0.13962
 20
7.88525
 30
0.0
 10
-0.13017
 20
7.91343
 30
0.0
 10
-0.13017
 20
7.91343
 30
0.0
 10
-0.12061
 20
7.94171
 30
0.0
 10
-0.10653
 20
7.96343
 30
0.0
 10
-0.08779
 20
7.97861
 30
0.0
 10
-0.08779
 20
7.97861
 30
0.0
 10
-0.06915
 20
7.99381
 30
0.0
 10
-0.04561
 20
8.00135
 30
0.0
 10
-0.01724
 20
8.00135
 30
0.0
 10
-0.01724
 20
8.00135
 30
0.0
 10
0.00366
 20
8.00135
 30
0.0
 10
0.02204
 20
7.99717
 30
0.0
 10
0.03795
 20
7.98871
 30
0.0
 10
0.03795
 20
7.98871
 30
0.0
 10
0.05377
 20
7.98025
 30
0.0
 10
0.06686
 20
7.96807
 30
0.0
 10
0.07704
 20
7.95216
 30
0.0
 10
0.07704
 20
7.95216
 30
0.0
 10
0.08723
 20
7.93634
 30
0.0
 10
0.09523
 20
7.91698
 30
0.0
 10
0.10104
 20
7.89416
 30
0.0
 10
0.10104
 20
7.89416
 30
0.0
 10
0.10696
 20
7.87133
 30
0.0
 10
0.10987
 20
7.84051
 30
0.0
 10
0.10987
 20
7.80186
 30
0.0
 10
0.10987
 20
7.80186
 30
0.0
 10
0.10987
 20
7.75604
 30
0.0
 10
0.10514
 20
7.71895
 30
0.0
 10
0.09577
 20
7.69076
 30
0.0
 10
0.09577
 20
7.69076
 30
0.0
 10
0.0864
 20
7.66249
 30
0.0
 10
0.07232
 20
7.64075
 30
0.0
 10
0.05358
 20
7.62548
 30
0.0
 10
0.05358
 20
7.62548
 30
0.0
 10
0.03494
 20
7.6102
 30
0.0
 10
0.0113
 20
7.60256
 30
0.0
 10
-0.01724
 20
7.60256
 30
0.0
 10
-0.01724
 20
7.60256
 30
0.0
 10
-0.05479
 20
7.60256
 30
0.0
 10
-0.08435
 20
7.61593
 30
0.0
 10
-0.1058
 20
7.64275
 30
0.0
 10
-0.1058
 20
7.64275
 30
0.0
 10
-0.13153
 20
7.67549
 30
0.0
 10
-0.14435
 20
7.72848
 30
0.0
 10
-0.14435
 20
7.80186
 30
0.0
  0
SPLINE
  5
6C
330
1F
100
AcDbEntity
  8
layer 2
 62
     1
100
AcDbSpline
210
0.0
220
0.0
230
1.0
 70
    11
 71
     3
 72
    36
 73
    32
 74
     0
 42
0.0000000001
 43
0.0000000001
 12
1.0
 22
0.0
 32
0.0
 13
1.0
 23
0.0
 33
0.0
 40
0.0
 40
0.0
 40
0.0
 40
0.0
 40
0.1111111111111111
 40
0.1111111111111111
 40
0.1111111111111111
 40
0.1111111111111111
 40
0.2222222222222222
 40
0.2222222222222222
 40
0.2222222222222222
 40
0.2222222222222222
 40
0.3333333333333333
 40
0.3333333333333333
 40
0.3333333333333333
 40
0.3333333333333333
 40
0.4444444444444444
 40
0.4444444444444444
 40
0.4444444444444444
 40
0.4444444444444444
 40
0.5555555555555556
 40
0.5555555555555556
 40
0.5555555555555556
 40
0.5555555555555556
 40
0.6666666666666666
 40
0.6666666666666666
 40
0.6666666666666666
 40
0.6666666666666666
 40
0.7777777777777778
 40
0.7777777777777778
 40
0.7777777777777778
 40
0.7777777777777778
 40
1.0
 40
1.0
 40
1.0
 40
1.0
 10
-0.09525
 20
7.80169
 30
0.0
 10
-0.09525
 20
7.73741
 30
0.0
 10
-0.08779
 20
7.69467
 30
0.0
 10
-0.07278
 20
7.67358
 30
0.0
 10
-0.07278
 20
7.67358
 30
0.0
 10
-0.0578
 20
7.65238
 30
0.0
 10
-0.03924
 20
7.64185
 30
0.0
 10
-0.01724
 20
7.64185
 30
0.0
 10
-0.01724
 20
7.64185
 30
0.0
 10
0.00476
 20
7.64185
 30
0.0
 10
0.0233
 20
7.65248
 30
0.0
 10
0.03831
 20
7.67367
 30
0.0
 10
0.03831
 20
7.67367
 30
0.0
 10
0.05331
 20
7.69494
 30
0.0
 10
0.06077
 20
7.73759
 30
0.0
 10
0.06077
 20
7.80169
 30
0.0
 10
0.06077
 20
7.80169
 30
0.0
 10
0.06077
 20
7.86596
 30
0.0
 10
0.05331
 20
7.9087
 30
0.0
 10
0.03831
 20
7.92978
 30
0.0
 10
0.03831
 20
7.92978
 30
0.0
 10
0.0234
 20
7.95098
 30
0.0
 10
0.00467
 20
7.96153
 30
0.0
 10
-0.01778
 20
7.96153
 30
0.0
 10
-0.01778
 20
7.96153
 30
0.0
 10
-0.03979
 20
7.96153
 30
0.0
 10
-0.05743
 20
7.95216
 30
0.0
 10
-0.07062
 20
7.93352
 30
0.0
 10
-0.07062
 20
7.93352
 30
0.0
 10
-0.08707
 20
7.9098
 30
0.0
 10
-0.09525
 20
7.86579
 30
0.0
 10
-0.09525
 20
7.80169
 30
0.0
  0
SPLINE
  5
6D
330
1F
100
AcDbEntity
  8
layer 2
 62
     1
100
AcDbSpline
210
0.0
220
0.0
230
1.0
 70
    11
 71
     3
 72
    28
 73
    24
 74
     0
 42
0.0000000001
 43
0.0000000001
 12
1.0
 22
0.0
 32
0.0
 13
1.0
 23
0.0
 33
0.0
 40
0.0
 40
0.0
 40
0.0
 40
0.0
 40
0.1428571428571428
 40
0.1428571428571428
 40
0.1428571428571428
 40
0.1428571428571428
 40
0.2857142857142857
 40
0.2857142857142857
 40
0.2857142857142857
 40
0.2857142857142857
 40
0.4285714285714285
 40
0.4285714285714285
 40
0.4285714285714285
 40
0.4285714285714285
 40
0.5714285714285714
 40
0.5714285714285714
 40
0.5714285714285714
 40
0.5714285714285714
 40
0.7142857142857143
 40
0.7142857142857143
 40
0.7142857142857143
 40
0.7142857142857143
 40
1.0
 40
1.0
 40
1.0
 40
1.0
 10
0.17451
 20
7.86169
 30
0.0
 10
0.17451
 20
7.86169
 30
0.0
 10
0.16124
 20
7.93589
 30
0.0
 10
0.16124
 20
7.93589
 30
0.0
 10
0.16124
 20
7.93589
 30
0.0
 10
0.16124
 20
7.93589
 30
0.0
 10
0.16124
 20
7.99971
 30
0.0
 10
0.16124
 20
7.99971
 30
0.0
 10
0.16124
 20
7.99971
 30
0.0
 10
0.16124
 20
7.99971
 30
0.0
 10
0.21579
 20
7.99971
 30
0.0
 10
0.21579
 20
7.99971
 30
0.0
 10
0.21579
 20
7.99971
 30
0.0
 10
0.21579
 20
7.99971
 30
0.0
 10
0.21579
 20
7.93589
 30
0.0
 10
0.21579
 20
7.93589
 30
0.0
 10
0.21579
 20
7.93589
 30
0.0
 10
0.21579
 20
7.93589
 30
0.0
 10
0.20379
 20
7.86169
 30
0.0
 10
0.20379
 20
7.86169
 30
0.0
 10
0.20379
 20
7.86169
 30
0.0
 10
0.20379
 20
7.86169
 30
0.0
 10
0.17451
 20
7.86169
 30
0.0
 10
0.17451
 20
7.86169
 30
0.0
  0
SPLINE
  5
6E
330
1F
100
AcDbEntity
  8
layer 2
 62
     1
100
AcDbSpline
210
0.0
220
0.0
230
1.0
 70
    11
 71
     3
 72
    28
 73
    24
 74
     0
 42
0.0000000001
 43
0.0000000001
 12
1.0
 22
0.0
 32
0.0
 13
1.0
 23
0.0
 33
0.0
 40
0.0
 40
0.0
 40
0.0
 40
0.0
 40
0.1428571428571428
 40
0.1428571428571428
 40
0.1428571428571428
 40
0.1428571428571428
 40
0.2857142857142857
 40
0.2857142857142857
 40
0.2857142857142857
 40
0.2857142857142857
 40
0.4285714285714285
 40
0.4285714285714285
 40
0.4285714285714285
 40
0.4285714285714285
 40
0.5714285714285714
 40
0.5714285714285714
 40
0.5714285714285714
 40
0.5714285714285714
 40
0.7142857142857143
 40
0.7142857142857143
 40
0.7142857142857143
 40
0.7142857142857143
 40
1.0
 40
1.0
 40
1.0
 40
1.0
 10
0.26261
 20
7.86169
 30
0.0
 10
0.26261
 20
7.86169
 30
0.0
 10
0.24961
 20
7.93589
 30
0.0
 10
0.24961
 20
7.93589
 30
0.0
 10
0.24961
 20
7.93589
 30
0.0
 10
0.24961
 20
7.93589
 30
0.0
 10
0.24961
 20
7.99971
 30
0.0
 10
0.24961
 20
7.99971
 30
0.0
 10
0.24961
 20
7.99971
 30
0.0
 10
0.24961
 20
7.99971
 30
0.0
 10
0.30417
 20
7.99971
 30
0.0
 10
0.30417
 20
7.99971
 30
0.0
 10
0.30417
 20
7.99971
 30
0.0
 10
0.30417
 20
7.99971
 30
0.0
 10
0.30417
 20
7.93589
 30
0.0
 10
0.30417
 20
7.93589
 30
0.0
 10
0.30417
 20
7.93589
 30
0.0
 10
0.30417
 20
7.93589
 30
0.0
 10
0.29135
 20
7.86169
 30
0.0
 10
0.29135
 20
7.86169
 30
0.0
 10
0.29135
 20
7.86169
 30
0.0
 10
0.29135
 20
7.86169
 30
0.0
 10
0.26261
 20
7.86169
 30
0.0
 10
0.26261
 20
7.86169
 30
0.0
  0
SPLINE
  5
6F
330
1F
100
AcDbEntity
  8
layer 2
 62
     1
370
     0
100
AcDbSpline
210
0.0
220
0.0
230
1.0
 70
    24
 71
     3
 72
     8
 73
     4
 74
     0
 42
0.0000000001
 43
0.0000000001
 12
1.0
 22
0.0
 32
0.0
 13
1.0
 23
0.0
 33
0.0
 40
0.0
 40
0.0
 40
0.0
 40
0.0
 40
1.0
 40
1.0
 40
1.0
 40
1.0
 10
11.07734
 20
6.00427
 30
0.0
 10
11.07734
 20
6.00427
 30
0.0
 10
13.18382
 20
6.00427
 30
0.0
 10
13.18382
 20
6.00427
 30
0.0
  0
SPLINE
  5
70
330
1F
100
AcDbEntity
  8
layer 2
 62
     1
370
     0
100
AcDbSpline
210
0.0
220
0.0
230
1.0
 70
    24
 71
     3
 72
     8
 73
     4
 74
     0
 42
0.0000000001
 43
0.0000000001
 12
1.0
 22
0.0
 32
0.0
 13
1.0
 23
0.0
 33
0.0
 40
0.0
 40
0.0
 40
0.0
 40
0.0
 40
1.0
 40
1.0
 40
1.0
 40
1.0
 10
11.07734
 20
-6.0448
 30
0.0
 10
11.07734
 20
-6.0448
 30
0.0
 10
13.18382
 20
-6.0448
 30
0.0
 10
13.18382
 20
-6.0448
 30
0.0
  0
SPLINE
  5
71
330
1F
100
AcDbEntity
  8
layer 2
 62
     1
370
     0
100
AcDbSpline
210
0.0
220
0.0
230
1.0
 70
    24
 71
     3
 72
     8
 73
     4
 74
     0
 42
0.0000000001
 43
0.0000000001
 12
1.0
 22
0.0
 32
0.0
 13
1.0
 23
0.0
 33
0.0
 40
0.0
 40
0.0
 40
0.0
 40
0.0
 40
1.0
 40
1.0
 40
1.0
 40
1.0
 10
12.88735
 20
5.41131
 30
0.0
 10
12.88735
 20
5.41131
 30
0.0
 10
12.88735
 20
-5.45184
 30
0.0
 10
12.88735
 20
-5.45184
 30
0.0
  0
SPLINE
  5
72
330
1F
100
AcDbEntity
  8
layer 2
 62
     1
100
AcDbSpline
210
0.0
220
0.0
230
1.0
 70
    27
 71
     3
 72
    12
 73
     8
 74
     0
 42
0.0000000001
 43
0.0000000001
 12
1.0
 22
0.0
 32
0.0
 13
1.0
 23
0.0
 33
0.0
 40
0.0
 40
0.0
 40
0.0
 40
0.0
 40
0.3333333333333333
 40
0.3333333333333333
 40
0.3333333333333333
 40
0.3333333333333333
 40
1.0
 40
1.0
 40
1.0
 40
1.0
 10
12.78851
 20
5.41131
 30
0.0
 10
12.78851
 20
5.41131
 30
0.0
 10
12.88735
 20
6.00427
 30
0.0
 10
12.88735
 20
6.00427
 30
0.0
 10
12.88735
 20
6.00427
 30
0.0
 10
12.88735
 20
6.00427
 30
0.0
 10
12.78851
 20
5.41131
 30
0.0
 10
12.78851
 20
5.41131
 30
0.0
  0
SPLINE
  5
73
330
1F
100
AcDbEntity
  8
layer 2
 62
     1
100
AcDbSpline
210
0.0
220
0.0
230
1.0
 70
     8
 71
     3
 72
    12
 73
     8
 74
     0
 42
0.0000000001
 43
0.0000000001
 12
1.0
 22
0.0
 32
0.0
 13
1.0
 23
0.0
 33
0.0
 40
0.0
 40
0.0
 40
0.0
 40
0.0
 40
0.3333333333333333
 40
0.3333333333333333
 40
0.3333333333333333
 40
0.3333333333333333
 40
1.0
 40
1.0
 40
1.0
 40
1.0
 10
12.88735
 20
6.00427
 30
0.0
 10
12.88735
 20
6.00427
 30
0.0
 10
12.98617
 20
5.41131
 30
0.0
 10
12.98617
 20
5.41131
 30
0.0
 10
12.98617
 20
5.41131
 30
0.0
 10
12.98617
 20
5.41131
 30
0.0
 10
12.78851
 20
5.41131
 30
0.0
 10
12.78851
 20
5.41131
 30
0.0
  0
SPLINE
  5
74
330
1F
100
AcDbEntity
  8
layer 2
 62
     1
370
     9
100
AcDbSpline
210
0.0
220
0.0
230
1.0
 70
    24
 71
     3
 72
     8
 73
     4
 74
     0
 42
0.0000000001
 43
0.0000000001
 12
1.0
 22
0.0
 32
0.0
 13
1.0
 23
0.0
 33
0.0
 40
0.0
 40
0.0
 40
0.0
 40
0.0
 40
1.0
 40
1.0
 40
1.0
 40
1.0
 10
12.78851
 20
5.41131
 30
0.0
 10
12.78851
 20
5.41131
 30
0.0
 10
12.88735
 20
6.00427
 30
0.0
 10
12.88735
 20
6.00427
 30
0.0
  0
SPLINE
  5
75
330
1F
100
AcDbEntity
  8
layer 2
 62
     1
370
     9
100
AcDbSpline
210
0.0
220
0.0
230
1.0
 70
     8
 71
     3
 72
    12
 73
     8
 74
     0
 42
0.0000000001
 43
0.0000000001
 12
1.0
 22
0.0
 32
0.0
 13
1.0
 23
0.0
 33
0.0
 40
0.0
 40
0.0
 40
0.0
 40
0.0
 40
0.3333333333333333
 40
0.3333333333333333
 40
0.3333333333333333
 40
0.3333333333333333
 40
1.0
 40
1.0
 40
1.0
 40
1.0
 10
12.88735
 20
6.00427
 30
0.0
 10
12.88735
 20
6.00427
 30
0.0
 10
12.98617
 20
5.41131
 30
0.0
 10
12.98617
 20
5.41131
 30
0.0
 10
12.98617
 20
5.41131
 30
0.0
 10
12.98617
 20
5.41131
 30
0.0
 10
12.78851
 20
5.41131
 30
0.0
 10
12.78851
 20
5.41131
 30
0.0
  0
SPLINE
  5
76
330
1F
100
AcDbEntity
  8
layer 2
 62
     1
100
AcDbSpline
210
0.0
220
0.0
230
1.0
 70
    27
 71
     3
 72
    12
 73
     8
 74
     0
 42
0.0000000001
 43
0.0000000001
 12
1.0
 22
0.0
 32
0.0
 13
1.0
 23
0.0
 33
0.0
 40
0.0
 40
0.0
 40
0.0
 40
0.0
 40
0.3333333333333333
 40
0.3333333333333333
 40
0.3333333333333333
 40
0.3333333333333333
 40
1.0
 40
1.0
 40
1.0
 40
1.0
 10
12.78851
 20
-5.45184
 30
0.0
 10
12.78851
 20
-5.45184
 30
0.0
 10
12.88735
 20
-6.0448
 30
0.0
 10
12.88735
 20
-6.0448
 30
0.0
 10
12.88735
 20
-6.0448
 30
0.0
 10
12.88735
 20
-6.0448
 30
0.0
 10
12.78851
 20
-5.45184
 30
0.0
 10
12.78851
 20
-5.45184
 30
0.0
  0
SPLINE
  5
77
330
1F
100
AcDbEntity
  8
layer 2
 62
     1
100
AcDbSpline
210
0.0
220
0.0
230
1.0
 70
     8
 71
     3
 72
    12
 73
     8
 74
     0
 42
0.0000000001
 43
0.0000000001
 12
1.0
 22
0.0
 32
0.0
 13
1.0
 23
0.0
 33
0.0
 40
0.0
 40
0.0
 40
0.0
 40
0.0
 40
0.3333333333333333
 40
0.3333333333333333
 40
0.3333333333333333
 40
0.3333333333333333
 40
1.0
 40
1.0
 40
1.0
 40
1.0
 10
12.88735
 20
-6.0448
 30
0.0
 10
12.88735
 20
-6.0448
 30
0.0
 10
12.98617
 20
-5.45184
 30
0.0
 10
12.98617
 20
-5.45184
 30
0.0
 10
12.98617
 20
-5.45184
 30
0.0
 10
12.98617
 20
-5.45184
 30
0.0
 10
12.78851
 20
-5.45184
 30
0.0
 10
12.78851
 20
-5.45184
 30
0.0
  0
SPLINE
  5
78
330
1F
100
AcDbEntity
  8
layer 2
 62
     1
370
     9
100
AcDbSpline
210
0.0
220
0.0
230
1.0
 70
    24
 71
     3
 72
     8
 73
     4
 74
     0
 42
0.0000000001
 43
0.0000000001
 12
1.0
 22
0.0
 32
0.0
 13
1.0
 23
0.0
 33
0.0
 40
0.0
 40
0.0
 40
0.0
 40
0.0
 40
1.0
 40
1.0
 40
1.0
 40
1.0
 10
12.78851
 20
-5.45184
 30
0.0
 10
12.78851
 20
-5.45184
 30
0.0
 10
12.88735
 20
-6.0448
 30
0.0
 10
12.88735
 20
-6.0448
 30
0.0
  0
SPLINE
  5
79
330
1F
100
AcDbEntity
  8
layer 2
 62
     1
370
     9
100
AcDbSpline
210
0.0
220
0.0
230
1.0
 70
     8
 71
     3
 72
    12
 73
     8
 74
     0
 42
0.0000000001
 43
0.0000000001
 12
1.0
 22
0.0
 32
0.0
 13
1.0
 23
0.0
 33
0.0
 40
0.0
 40
0.0
 40
0.0
 40
0.0
 40
0.3333333333333333
 40
0.3333333333333333
 40
0.3333333333333333
 40
0.3333333333333333
 40
1.0
 40
1.0
 40
1.0
 40
1.0
 10
12.88735
 20
-6.0448
 30
0.0
 10
12.88735
 20
-6.0448
 30
0.0
 10
12.98617
 20
-5.45184
 30
0.0
 10
12.98617
 20
-5.45184
 30
0.0
 10
12.98617
 20
-5.45184
 30
0.0
 10
12.98617
 20
-5.45184
 30
0.0
 10
12.78851
 20
-5.45184
 30
0.0
 10
12.78851
 20
-5.45184
 30
0.0
  0
SPLINE
  5
7A
330
1F
100
AcDbEntity
  8
layer 2
 62
     1
100
AcDbSpline
210
0.0
220
0.0
230
1.0
 70
    11
 71
     3
 72
    40
 73
    36
 74
     0
 42
0.0000000001
 43
0.0000000001
 12
1.0
 22
0.0
 32
0.0
 13
1.0
 23
0.0
 33
0.0
 40
0.0
 40
0.0
 40
0.0
 40
0.0
 40
0.1
 40
0.1
 40
0.1
 40
0.1
 40
0.2
 40
0.2
 40
0.2
 40
0.2
 40
0.3
 40
0.3
 40
0.3
 40
0.3
 40
0.4
 40
0.4
 40
0.4
 40
0.4
 40
0.5
 40
0.5
 40
0.5
 40
0.5
 40
0.6
 40
0.6
 40
0.6
 40
0.6
 40
0.7
 40
0.7
 40
0.7
 40
0.7
 40
0.8
 40
0.8
 40
0.8
 40
0.8
 40
1.0
 40
1.0
 40
1.0
 40
1.0
 10
12.63385
 20
0.97739
 30
0.0
 10
12.63385
 20
0.97739
 30
0.0
 10
12.63385
 20
0.92939
 30
0.0
 10
12.63385
 20
0.92939
 30
0.0
 10
12.63385
 20
0.92939
 30
0.0
 10
12.63385
 20
0.92939
 30
0.0
 10
12.32818
 20
0.92939
 30
0.0
 10
12.32818
 20
0.92939
 30
0.0
 10
12.32818
 20
0.92939
 30
0.0
 10
12.33926
 20
0.91784
 30
0.0
 10
12.35026
 20
0.90266
 30
0.0
 10
12.36127
 20
0.88394
 30
0.0
 10
12.36127
 20
0.88394
 30
0.0
 10
12.37227
 20
0.86521
 30
0.0
 10
12.38054
 20
0.8483
 30
0.0
 10
12.38601
 20
0.83339
 30
0.0
 10
12.38601
 20
0.83339
 30
0.0
 10
12.38601
 20
0.83339
 30
0.0
 10
12.33963
 20
0.83339
 30
0.0
 10
12.33963
 20
0.83339
 30
0.0
 10
12.33963
 20
0.83339
 30
0.0
 10
12.32708
 20
0.8602
 30
0.0
 10
12.31181
 20
0.88365
 30
0.0
 10
12.29381
 20
0.90376
 30
0.0
 10
12.29381
 20
0.90376
 30
0.0
 10
12.27589
 20
0.92384
 30
0.0
 10
12.25852
 20
0.93811
 30
0.0
 10
12.24162
 20
0.94648
 30
0.0
 10
12.24162
 20
0.94648
 30
0.0
 10
12.24162
 20
0.94648
 30
0.0
 10
12.24162
 20
0.97739
 30
0.0
 10
12.24162
 20
0.97739
 30
0.0
 10
12.24162
 20
0.97739
 30
0.0
 10
12.24162
 20
0.97739
 30
0.0
 10
12.63385
 20
0.97739
 30
0.0
 10
12.63385
 20
0.97739
 30
0.0
  0
SPLINE
  5
7B
330
1F
100
AcDbEntity
  8
layer 2
 62
     1
100
AcDbSpline
210
0.0
220
0.0
230
1.0
 70
    11
 71
     3
 72
    80
 73
    76
 74
     0
 42
0.0000000001
 43
0.0000000001
 12
1.0
 22
0.0
 32
0.0
 13
1.0
 23
0.0
 33
0.0
 40
0.0
 40
0.0
 40
0.0
 40
0.0
 40
0.05
 40
0.05
 40
0.05
 40
0.05
 40
0.1
 40
0.1
 40
0.1
 40
0.1
 40
0.15
 40
0.15
 40
0.15
 40
0.15
 40
0.2
 40
0.2
 40
0.2
 40
0.2
 40
0.25
 40
0.25
 40
0.25
 40
0.25
 40
0.3
 40
0.3
 40
0.3
 40
0.3
 40
0.35
 40
0.35
 40
0.35
 40
0.35
 40
0.4
 40
0.4
 40
0.4
 40
0.4
 40
0.45
 40
0.45
 40
0.45
 40
0.45
 40
0.5
 40
0.5
 40
0.5
 40
0.5
 40
0.55
 40
0.55
 40
0.55
 40
0.55
 40
0.6
 40
0.6
 40
0.6
 40
0.6
 40
0.65
 40
0.65
 40
0.65
 40
0.65
 40
0.7
 40
0.7
 40
0.7
 40
0.7
 40
0.75
 40
0.75
 40
0.75
 40
0.75
 40
0.8
 40
0.8
 40
0.8
 40
0.8
 40
0.85
 40
0.85
 40
0.85
 40
0.85
 40
0.9
 40
0.9
 40
0.9
 40
0.9
 40
1.0
 40
1.0
 40
1.0
 40
1.0
 10
12.33872
 20
1.35008
 30
0.0
 10
12.33872
 20
1.35008
 30
0.0
 10
12.34254
 20
1.30262
 30
0.0
 10
12.34254
 20
1.30262
 30
0.0
 10
12.34254
 20
1.30262
 30
0.0
 10
12.32372
 20
1.29835
 30
0.0
 10
12.30999
 20
1.29227
 30
0.0
 10
12.30144
 20
1.28435
 30
0.0
 10
12.30144
 20
1.28435
 30
0.0
 10
12.28771
 20
1.27136
 30
0.0
 10
12.28089
 20
1.25526
 30
0.0
 10
12.28089
 20
1.23616
 30
0.0
 10
12.28089
 20
1.23616
 30
0.0
 10
12.28089
 20
1.2208
 30
0.0
 10
12.28517
 20
1.20716
 30
0.0
 10
12.29371
 20
1.19543
 30
0.0
 10
12.29371
 20
1.19543
 30
0.0
 10
12.30471
 20
1.18033
 30
0.0
 10
12.32071
 20
1.16851
 30
0.0
 10
12.34182
 20
1.1597
 30
0.0
 10
12.34182
 20
1.1597
 30
0.0
 10
12.363
 20
1.15098
 30
0.0
 10
12.39309
 20
1.14643
 30
0.0
 10
12.4321
 20
1.14607
 30
0.0
 10
12.4321
 20
1.14607
 30
0.0
 10
12.41456
 20
1.15761
 30
0.0
 10
12.40146
 20
1.17179
 30
0.0
 10
12.39301
 20
1.18853
 30
0.0
 10
12.39301
 20
1.18853
 30
0.0
 10
12.38445
 20
1.20524
 30
0.0
 10
12.38018
 20
1.2227
 30
0.0
 10
12.38018
 20
1.24108
 30
0.0
 10
12.38018
 20
1.24108
 30
0.0
 10
12.38018
 20
1.27307
 30
0.0
 10
12.39201
 20
1.30035
 30
0.0
 10
12.41556
 20
1.32289
 30
0.0
 10
12.41556
 20
1.32289
 30
0.0
 10
12.4391
 20
1.34536
 30
0.0
 10
12.46946
 20
1.35664
 30
0.0
 10
12.50684
 20
1.35664
 30
0.0
 10
12.50684
 20
1.35664
 30
0.0
 10
12.53138
 20
1.35664
 30
0.0
 10
12.5541
 20
1.35136
 30
0.0
 10
12.5752
 20
1.3408
 30
0.0
 10
12.5752
 20
1.3408
 30
0.0
 10
12.5963
 20
1.33017
 30
0.0
 10
12.6124
 20
1.31572
 30
0.0
 10
12.62359
 20
1.29718
 30
0.0
 10
12.62359
 20
1.29718
 30
0.0
 10
12.63476
 20
1.27871
 30
0.0
 10
12.6404
 20
1.25772
 30
0.0
 10
12.6404
 20
1.23425
 30
0.0
 10
12.6404
 20
1.23425
 30
0.0
 10
12.6404
 20
1.19433
 30
0.0
 10
12.62567
 20
1.16171
 30
0.0
 10
12.5963
 20
1.13642
 30
0.0
 10
12.5963
 20
1.13642
 30
0.0
 10
12.56693
 20
1.11124
 30
0.0
 10
12.51848
 20
1.09859
 30
0.0
 10
12.45101
 20
1.09859
 30
0.0
 10
12.45101
 20
1.09859
 30
0.0
 10
12.37554
 20
1.09859
 30
0.0
 10
12.32062
 20
1.1126
 30
0.0
 10
12.28635
 20
1.14051
 30
0.0
 10
12.28635
 20
1.14051
 30
0.0
 10
12.25653
 20
1.16488
 30
0.0
 10
12.24162
 20
1.1977
 30
0.0
 10
12.24162
 20
1.23908
 30
0.0
 10
12.24162
 20
1.23908
 30
0.0
 10
12.24162
 20
1.2698
 30
0.0
 10
12.25025
 20
1.29508
 30
0.0
 10
12.26743
 20
1.31472
 30
0.0
 10
12.26743
 20
1.31472
 30
0.0
 10
12.28463
 20
1.33436
 30
0.0
 10
12.30835
 20
1.34617
 30
0.0
 10
12.33872
 20
1.35008
 30
0.0
  0
SPLINE
  5
7C
330
1F
100
AcDbEntity
  8
layer 2
 62
     1
100
AcDbSpline
210
0.0
220
0.0
230
1.0
 70
    11
 71
     3
 72
    40
 73
    36
 74
     0
 42
0.0000000001
 43
0.0000000001
 12
1.0
 22
0.0
 32
0.0
 13
1.0
 23
0.0
 33
0.0
 40
0.0
 40
0.0
 40
0.0
 40
0.0
 40
0.1
 40
0.1
 40
0.1
 40
0.1
 40
0.2
 40
0.2
 40
0.2
 40
0.2
 40
0.3
 40
0.3
 40
0.3
 40
0.3
 40
0.4
 40
0.4
 40
0.4
 40
0.4
 40
0.5
 40
0.5
 40
0.5
 40
0.5
 40
0.6
 40
0.6
 40
0.6
 40
0.6
 40
0.7
 40
0.7
 40
0.7
 40
0.7
 40
0.8
 40
0.8
 40
0.8
 40
0.8
 40
1.0
 40
1.0
 40
1.0
 40
1.0
 10
12.50728
 20
1.1537
 30
0.0
 10
12.52384
 20
1.1537
 30
0.0
 10
12.53966
 20
1.15725
 30
0.0
 10
12.55476
 20
1.16425
 30
0.0
 10
12.55476
 20
1.16425
 30
0.0
 10
12.56984
 20
1.17125
 30
0.0
 10
12.5813
 20
1.18106
 30
0.0
 10
12.58921
 20
1.19352
 30
0.0
 10
12.58921
 20
1.19352
 30
0.0
 10
12.59711
 20
1.20606
 30
0.0
 10
12.60112
 20
1.21934
 30
0.0
 10
12.60112
 20
1.23344
 30
0.0
 10
12.60112
 20
1.23344
 30
0.0
 10
12.60112
 20
1.25389
 30
0.0
 10
12.59294
 20
1.27136
 30
0.0
 10
12.57657
 20
1.2858
 30
0.0
 10
12.57657
 20
1.2858
 30
0.0
 10
12.5602
 20
1.30027
 30
0.0
 10
12.53802
 20
1.30754
 30
0.0
 10
12.50992
 20
1.30754
 30
0.0
 10
12.50992
 20
1.30754
 30
0.0
 10
12.48292
 20
1.30754
 30
0.0
 10
12.46165
 20
1.30035
 30
0.0
 10
12.44611
 20
1.28607
 30
0.0
 10
12.44611
 20
1.28607
 30
0.0
 10
12.43054
 20
1.2718
 30
0.0
 10
12.42273
 20
1.25362
 30
0.0
 10
12.42273
 20
1.23152
 30
0.0
 10
12.42273
 20
1.23152
 30
0.0
 10
12.42273
 20
1.2099
 30
0.0
 10
12.43054
 20
1.19142
 30
0.0
 10
12.44611
 20
1.17633
 30
0.0
 10
12.44611
 20
1.17633
 30
0.0
 10
12.46165
 20
1.16124
 30
0.0
 10
12.48202
 20
1.1537
 30
0.0
 10
12.50728
 20
1.1537
 30
0.0
  0
SPLINE
  5
7D
330
1F
100
AcDbEntity
  8
layer 2
 62
     1
100
AcDbSpline
210
0.0
220
0.0
230
1.0
 70
    11
 71
     3
 72
    28
 73
    24
 74
     0
 42
0.0000000001
 43
0.0000000001
 12
1.0
 22
0.0
 32
0.0
 13
1.0
 23
0.0
 33
0.0
 40
0.0
 40
0.0
 40
0.0
 40
0.0
 40
0.1428571428571428
 40
0.1428571428571428
 40
0.1428571428571428
 40
0.1428571428571428
 40
0.2857142857142857
 40
0.2857142857142857
 40
0.2857142857142857
 40
0.2857142857142857
 40
0.4285714285714285
 40
0.4285714285714285
 40
0.4285714285714285
 40
0.4285714285714285
 40
0.5714285714285714
 40
0.5714285714285714
 40
0.5714285714285714
 40
0.5714285714285714
 40
0.7142857142857143
 40
0.7142857142857143
 40
0.7142857142857143
 40
0.7142857142857143
 40
1.0
 40
1.0
 40
1.0
 40
1.0
 10
12.38127
 20
1.41964
 30
0.0
 10
12.38127
 20
1.41964
 30
0.0
 10
12.30708
 20
1.40637
 30
0.0
 10
12.30708
 20
1.40637
 30
0.0
 10
12.30708
 20
1.40637
 30
0.0
 10
12.30708
 20
1.40637
 30
0.0
 10
12.24324
 20
1.40637
 30
0.0
 10
12.24324
 20
1.40637
 30
0.0
 10
12.24324
 20
1.40637
 30
0.0
 10
12.24324
 20
1.40637
 30
0.0
 10
12.24324
 20
1.46092
 30
0.0
 10
12.24324
 20
1.46092
 30
0.0
 10
12.24324
 20
1.46092
 30
0.0
 10
12.24324
 20
1.46092
 30
0.0
 10
12.30708
 20
1.46092
 30
0.0
 10
12.30708
 20
1.46092
 30
0.0
 10
12.30708
 20
1.46092
 30
0.0
 10
12.30708
 20
1.46092
 30
0.0
 10
12.38127
 20
1.44892
 30
0.0
 10
12.38127
 20
1.44892
 30
0.0
 10
12.38127
 20
1.44892
 30
0.0
 10
12.38127
 20
1.44892
 30
0.0
 10
12.38127
 20
1.41964
 30
0.0
 10
12.38127
 20
1.41964
 30
0.0
  0
SPLINE
  5
7E
330
1F
100
AcDbEntity
  8
layer 2
 62
     1
100
AcDbSpline
210
0.0
220
0.0
230
1.0
 70
    11
 71
     3
 72
    28
 73
    24
 74
     0
 42
0.0000000001
 43
0.0000000001
 12
1.0
 22
0.0
 32
0.0
 13
1.0
 23
0.0
 33
0.0
 40
0.0
 40
0.0
 40
0.0
 40
0.0
 40
0.1428571428571428
 40
0.1428571428571428
 40
0.1428571428571428
 40
0.1428571428571428
 40
0.2857142857142857
 40
0.2857142857142857
 40
0.2857142857142857
 40
0.2857142857142857
 40
0.4285714285714285
 40
0.4285714285714285
 40
0.4285714285714285
 40
0.4285714285714285
 40
0.5714285714285714
 40
0.5714285714285714
 40
0.5714285714285714
 40
0.5714285714285714
 40
0.7142857142857143
 40
0.7142857142857143
 40
0.7142857142857143
 40
0.7142857142857143
 40
1.0
 40
1.0
 40
1.0
 40
1.0
 10
12.38127
 20
1.50774
 30
0.0
 10
12.38127
 20
1.50774
 30
0.0
 10
12.30708
 20
1.49474
 30
0.0
 10
12.30708
 20
1.49474
 30
0.0
 10
12.30708
 20
1.49474
 30
0.0
 10
12.30708
 20
1.49474
 30
0.0
 10
12.24324
 20
1.49474
 30
0.0
 10
12.24324
 20
1.49474
 30
0.0
 10
12.24324
 20
1.49474
 30
0.0
 10
12.24324
 20
1.49474
 30
0.0
 10
12.24324
 20
1.5493
 30
0.0
 10
12.24324
 20
1.5493
 30
0.0
 10
12.24324
 20
1.5493
 30
0.0
 10
12.24324
 20
1.5493
 30
0.0
 10
12.30708
 20
1.5493
 30
0.0
 10
12.30708
 20
1.5493
 30
0.0
 10
12.30708
 20
1.5493
 30
0.0
 10
12.30708
 20
1.5493
 30
0.0
 10
12.38127
 20
1.53647
 30
0.0
 10
12.38127
 20
1.53647
 30
0.0
 10
12.38127
 20
1.53647
 30
0.0
 10
12.38127
 20
1.53647
 30
0.0
 10
12.38127
 20
1.50774
 30
0.0
 10
12.38127
 20
1.50774
 30
0.0
  0
SPLINE
  5
7F
330
1F
100
AcDbEntity
  8
layer 2
 62
     1
370
     0
100
AcDbSpline
210
0.0
220
0.0
230
1.0
 70
    24
 71
     3
 72
     8
 73
     4
 74
     0
 42
0.0000000001
 43
0.0000000001
 12
1.0
 22
0.0
 32
0.0
 13
1.0
 23
0.0
 33
0.0
 40
0.0
 40
0.0
 40
0.0
 40
0.0
 40
1.0
 40
1.0
 40
1.0
 40
1.0
 10
-13.40151
 20
-7.12432
 30
0.0
 10
-13.40151
 20
-7.12432
 30
0.0
 10
-11.63168
 20
-6.07984
 30
0.0
 10
-11.63168
 20
-6.07984
 30
0.0
  0
SPLINE
  5
80
330
1F
100
AcDbEntity
  8
layer 2
 62
     1
100
AcDbSpline
210
0.0
220
0.0
230
1.0
 70
    11
 71
     3
 72
    80
 73
    76
 74
     0
 42
0.0000000001
 43
0.0000000001
 12
1.0
 22
0.0
 32
0.0
 13
1.0
 23
0.0
 33
0.0
 40
0.0
 40
0.0
 40
0.0
 40
0.0
 40
0.05
 40
0.05
 40
0.05
 40
0.05
 40
0.1
 40
0.1
 40
0.1
 40
0.1
 40
0.15
 40
0.15
 40
0.15
 40
0.15
 40
0.2
 40
0.2
 40
0.2
 40
0.2
 40
0.25
 40
0.25
 40
0.25
 40
0.25
 40
0.3
 40
0.3
 40
0.3
 40
0.3
 40
0.35
 40
0.35
 40
0.35
 40
0.35
 40
0.4
 40
0.4
 40
0.4
 40
0.4
 40
0.45
 40
0.45
 40
0.45
 40
0.45
 40
0.5
 40
0.5
 40
0.5
 40
0.5
 40
0.55
 40
0.55
 40
0.55
 40
0.55
 40
0.6
 40
0.6
 40
0.6
 40
0.6
 40
0.65
 40
0.65
 40
0.65
 40
0.65
 40
0.7
 40
0.7
 40
0.7
 40
0.7
 40
0.75
 40
0.75
 40
0.75
 40
0.75
 40
0.8
 40
0.8
 40
0.8
 40
0.8
 40
0.85
 40
0.85
 40
0.85
 40
0.85
 40
0.9
 40
0.9
 40
0.9
 40
0.9
 40
1.0
 40
1.0
 40
1.0
 40
1.0
 10
-13.16605
 20
-5.9964
 30
0.0
 10
-13.16605
 20
-5.9964
 30
0.0
 10
-13.36457
 20
-5.66002
 30
0.0
 10
-13.36457
 20
-5.66002
 30
0.0
 10
-13.36457
 20
-5.66002
 30
0.0
 10
-13.36457
 20
-5.66002
 30
0.0
 10
-13.21548
 20
-5.57203
 30
0.0
 10
-13.21548
 20
-5.57203
 30
0.0
 10
-13.21548
 20
-5.57203
 30
0.0
 10
-13.1855
 20
-5.55434
 30
0.0
 10
-13.16092
 20
-5.54393
 30
0.0
 10
-13.14176
 20
-5.54077
 30
0.0
 10
-13.14176
 20
-5.54077
 30
0.0
 10
-13.12263
 20
-5.53761
 30
0.0
 10
-13.10389
 20
-5.5409
 30
0.0
 10
-13.08556
 20
-5.55068
 30
0.0
 10
-13.08556
 20
-5.55068
 30
0.0
 10
-13.06724
 20
-5.56044
 30
0.0
 10
-13.05264
 20
-5.57464
 30
0.0
 10
-13.04174
 20
-5.59312
 30
0.0
 10
-13.04174
 20
-5.59312
 30
0.0
 10
-13.02764
 20
-5.617
 30
0.0
 10
-13.0235
 20
-5.64169
 30
0.0
 10
-13.02927
 20
-5.66716
 30
0.0
 10
-13.02927
 20
-5.66716
 30
0.0
 10
-13.03505
 20
-5.69263
 30
0.0
 10
-13.05276
 20
-5.71702
 30
0.0
 10
-13.08238
 20
-5.74051
 30
0.0
 10
-13.08238
 20
-5.74051
 30
0.0
 10
-13.06721
 20
-5.73918
 30
0.0
 10
-13.05498
 20
-5.73954
 30
0.0
 10
-13.04563
 20
-5.74142
 30
0.0
 10
-13.04563
 20
-5.74142
 30
0.0
 10
-13.0256
 20
-5.74566
 30
0.0
 10
-13.00448
 20
-5.75336
 30
0.0
 10
-12.9824
 20
-5.76449
 30
0.0
 10
-12.9824
 20
-5.76449
 30
0.0
 10
-12.9824
 20
-5.76449
 30
0.0
 10
-12.87015
 20
-5.82177
 30
0.0
 10
-12.87015
 20
-5.82177
 30
0.0
 10
-12.87015
 20
-5.82177
 30
0.0
 10
-12.87015
 20
-5.82177
 30
0.0
 10
-12.92575
 20
-5.85458
 30
0.0
 10
-12.92575
 20
-5.85458
 30
0.0
 10
-12.92575
 20
-5.85458
 30
0.0
 10
-12.92575
 20
-5.85458
 30
0.0
 10
-13.01154
 20
-5.81084
 30
0.0
 10
-13.01154
 20
-5.81084
 30
0.0
 10
-13.01154
 20
-5.81084
 30
0.0
 10
-13.03642
 20
-5.79817
 30
0.0
 10
-13.05625
 20
-5.78908
 30
0.0
 10
-13.07096
 20
-5.78329
 30
0.0
 10
-13.07096
 20
-5.78329
 30
0.0
 10
-13.08575
 20
-5.77755
 30
0.0
 10
-13.09765
 20
-5.77456
 30
0.0
 10
-13.10685
 20
-5.77417
 30
0.0
 10
-13.10685
 20
-5.77417
 30
0.0
 10
-13.11593
 20
-5.77383
 30
0.0
 10
-13.12449
 20
-5.77487
 30
0.0
 10
-13.13239
 20
-5.77722
 30
0.0
 10
-13.13239
 20
-5.77722
 30
0.0
 10
-13.13802
 20
-5.77916
 30
0.0
 10
-13.14656
 20
-5.78347
 30
0.0
 10
-13.15807
 20
-5.79025
 30
0.0
 10
-13.15807
 20
-5.79025
 30
0.0
 10
-13.15807
 20
-5.79025
 30
0.0
 10
-13.20959
 20
-5.82066
 30
0.0
 10
-13.20959
 20
-5.82066
 30
0.0
 10
-13.20959
 20
-5.82066
 30
0.0
 10
-13.20959
 20
-5.82066
 30
0.0
 10
-13.12143
 20
-5.97006
 30
0.0
 10
-13.12143
 20
-5.97006
 30
0.0
 10
-13.12143
 20
-5.97006
 30
0.0
 10
-13.12143
 20
-5.97006
 30
0.0
 10
-13.16605
 20
-5.9964
 30
0.0
 10
-13.16605
 20
-5.9964
 30
0.0
  0
SPLINE
  5
81
330
1F
100
AcDbEntity
  8
layer 2
 62
     1
100
AcDbSpline
210
0.0
220
0.0
230
1.0
 70
    11
 71
     3
 72
    36
 73
    32
 74
     0
 42
0.0000000001
 43
0.0000000001
 12
1.0
 22
0.0
 32
0.0
 13
1.0
 23
0.0
 33
0.0
 40
0.0
 40
0.0
 40
0.0
 40
0.0
 40
0.1111111111111111
 40
0.1111111111111111
 40
0.1111111111111111
 40
0.1111111111111111
 40
0.2222222222222222
 40
0.2222222222222222
 40
0.2222222222222222
 40
0.2222222222222222
 40
0.3333333333333333
 40
0.3333333333333333
 40
0.3333333333333333
 40
0.3333333333333333
 40
0.4444444444444444
 40
0.4444444444444444
 40
0.4444444444444444
 40
0.4444444444444444
 40
0.5555555555555556
 40
0.5555555555555556
 40
0.5555555555555556
 40
0.5555555555555556
 40
0.6666666666666666
 40
0.6666666666666666
 40
0.6666666666666666
 40
0.6666666666666666
 40
0.7777777777777778
 40
0.7777777777777778
 40
0.7777777777777778
 40
0.7777777777777778
 40
1.0
 40
1.0
 40
1.0
 40
1.0
 10
-13.23233
 20
-5.78214
 30
0.0
 10
-13.23233
 20
-5.78214
 30
0.0
 10
-13.1368
 20
-5.72576
 30
0.0
 10
-13.1368
 20
-5.72576
 30
0.0
 10
-13.1368
 20
-5.72576
 30
0.0
 10
-13.11644
 20
-5.71374
 30
0.0
 10
-13.10187
 20
-5.70229
 30
0.0
 10
-13.09294
 20
-5.69133
 30
0.0
 10
-13.09294
 20
-5.69133
 30
0.0
 10
-13.08395
 20
-5.68044
 30
0.0
 10
-13.07923
 20
-5.66856
 30
0.0
 10
-13.07886
 20
-5.65577
 30
0.0
 10
-13.07886
 20
-5.65577
 30
0.0
 10
-13.07836
 20
-5.64303
 30
0.0
 10
-13.0813
 20
-5.63124
 30
0.0
 10
-13.08771
 20
-5.62036
 30
0.0
 10
-13.08771
 20
-5.62036
 30
0.0
 10
-13.0971
 20
-5.60448
 30
0.0
 10
-13.11058
 20
-5.5947
 30
0.0
 10
-13.12814
 20
-5.59123
 30
0.0
 10
-13.12814
 20
-5.59123
 30
0.0
 10
-13.14572
 20
-5.58775
 30
0.0
 10
-13.16688
 20
-5.59339
 30
0.0
 10
-13.1917
 20
-5.60804
 30
0.0
 10
-13.1917
 20
-5.60804
 30
0.0
 10
-13.1917
 20
-5.60804
 30
0.0
 10
-13.29804
 20
-5.6708
 30
0.0
 10
-13.29804
 20
-5.6708
 30
0.0
 10
-13.29804
 20
-5.6708
 30
0.0
 10
-13.29804
 20
-5.6708
 30
0.0
 10
-13.23233
 20
-5.78214
 30
0.0
 10
-13.23233
 20
-5.78214
 30
0.0
  0
SPLINE
  5
82
330
1F
100
AcDbEntity
  8
layer 2
 62
     1
100
AcDbSpline
210
0.0
220
0.0
230
1.0
 70
    11
 71
     3
 72
    40
 73
    36
 74
     0
 42
0.0000000001
 43
0.0000000001
 12
1.0
 22
0.0
 32
0.0
 13
1.0
 23
0.0
 33
0.0
 40
0.0
 40
0.0
 40
0.0
 40
0.0
 40
0.1
 40
0.1
 40
0.1
 40
0.1
 40
0.2
 40
0.2
 40
0.2
 40
0.2
 40
0.3
 40
0.3
 40
0.3
 40
0.3
 40
0.4
 40
0.4
 40
0.4
 40
0.4
 40
0.5
 40
0.5
 40
0.5
 40
0.5
 40
0.6
 40
0.6
 40
0.6
 40
0.6
 40
0.7
 40
0.7
 40
0.7
 40
0.7
 40
0.8
 40
0.8
 40
0.8
 40
0.8
 40
1.0
 40
1.0
 40
1.0
 40
1.0
 10
-12.68912
 20
-5.71494
 30
0.0
 10
-12.68912
 20
-5.71494
 30
0.0
 10
-12.73045
 20
-5.73934
 30
0.0
 10
-12.73045
 20
-5.73934
 30
0.0
 10
-12.73045
 20
-5.73934
 30
0.0
 10
-12.73045
 20
-5.73934
 30
0.0
 10
-12.88581
 20
-5.47609
 30
0.0
 10
-12.88581
 20
-5.47609
 30
0.0
 10
-12.88581
 20
-5.47609
 30
0.0
 10
-12.89013
 20
-5.4915
 30
0.0
 10
-12.89762
 20
-5.5087
 30
0.0
 10
-12.90815
 20
-5.52769
 30
0.0
 10
-12.90815
 20
-5.52769
 30
0.0
 10
-12.91868
 20
-5.54668
 30
0.0
 10
-12.92905
 20
-5.56239
 30
0.0
 10
-12.93912
 20
-5.57468
 30
0.0
 10
-12.93912
 20
-5.57468
 30
0.0
 10
-12.93912
 20
-5.57468
 30
0.0
 10
-12.96268
 20
-5.53474
 30
0.0
 10
-12.96268
 20
-5.53474
 30
0.0
 10
-12.96268
 20
-5.53474
 30
0.0
 10
-12.94596
 20
-5.5103
 30
0.0
 10
-12.93353
 20
-5.48524
 30
0.0
 10
-12.92536
 20
-5.45951
 30
0.0
 10
-12.92536
 20
-5.45951
 30
0.0
 10
-12.91718
 20
-5.43388
 30
0.0
 10
-12.9137
 20
-5.41167
 30
0.0
 10
-12.9151
 20
-5.39286
 30
0.0
 10
-12.9151
 20
-5.39286
 30
0.0
 10
-12.9151
 20
-5.39286
 30
0.0
 10
-12.88847
 20
-5.37713
 30
0.0
 10
-12.88847
 20
-5.37713
 30
0.0
 10
-12.88847
 20
-5.37713
 30
0.0
 10
-12.88847
 20
-5.37713
 30
0.0
 10
-12.68912
 20
-5.71494
 30
0.0
 10
-12.68912
 20
-5.71494
 30
0.0
  0
SPLINE
  5
83
330
1F
100
AcDbEntity
  8
layer 2
 62
     1
100
AcDbSpline
210
0.0
220
0.0
230
1.0
 70
    11
 71
     3
 72
    52
 73
    48
 74
     0
 42
0.0000000001
 43
0.0000000001
 12
1.0
 22
0.0
 32
0.0
 13
1.0
 23
0.0
 33
0.0
 40
0.0
 40
0.0
 40
0.0
 40
0.0
 40
0.0769230769230769
 40
0.0769230769230769
 40
0.0769230769230769
 40
0.0769230769230769
 40
0.1538461538461539
 40
0.1538461538461539
 40
0.1538461538461539
 40
0.1538461538461539
 40
0.2307692307692308
 40
0.2307692307692308
 40
0.2307692307692308
 40
0.2307692307692308
 40
0.3076923076923077
 40
0.3076923076923077
 40
0.3076923076923077
 40
0.3076923076923077
 40
0.3846153846153846
 40
0.3846153846153846
 40
0.3846153846153846
 40
0.3846153846153846
 40
0.4615384615384616
 40
0.4615384615384616
 40
0.4615384615384616
 40
0.4615384615384616
 40
0.5384615384615384
 40
0.5384615384615384
 40
0.5384615384615384
 40
0.5384615384615384
 40
0.6153846153846154
 40
0.6153846153846154
 40
0.6153846153846154
 40
0.6153846153846154
 40
0.6923076923076923
 40
0.6923076923076923
 40
0.6923076923076923
 40
0.6923076923076923
 40
0.7692307692307693
 40
0.7692307692307693
 40
0.7692307692307693
 40
0.7692307692307693
 40
0.8461538461538461
 40
0.8461538461538461
 40
0.8461538461538461
 40
0.8461538461538461
 40
1.0
 40
1.0
 40
1.0
 40
1.0
 10
-12.68082
 20
-5.48623
 30
0.0
 10
-12.70425
 20
-5.44652
 30
0.0
 10
-12.71913
 20
-5.41202
 30
0.0
 10
-12.7253
 20
-5.38295
 30
0.0
 10
-12.7253
 20
-5.38295
 30
0.0
 10
-12.73145
 20
-5.35373
 30
0.0
 10
-12.73038
 20
-5.32785
 30
0.0
 10
-12.72195
 20
-5.30525
 30
0.0
 10
-12.72195
 20
-5.30525
 30
0.0
 10
-12.71361
 20
-5.28271
 30
0.0
 10
-12.69717
 20
-5.26425
 30
0.0
 10
-12.67275
 20
-5.24982
 30
0.0
 10
-12.67275
 20
-5.24982
 30
0.0
 10
-12.65473
 20
-5.2392
 30
0.0
 10
-12.63678
 20
-5.23347
 30
0.0
 10
-12.61878
 20
-5.23266
 30
0.0
 10
-12.61878
 20
-5.23266
 30
0.0
 10
-12.60087
 20
-5.2319
 30
0.0
 10
-12.58341
 20
-5.23574
 30
0.0
 10
-12.56654
 20
-5.24426
 30
0.0
 10
-12.56654
 20
-5.24426
 30
0.0
 10
-12.54973
 20
-5.25272
 30
0.0
 10
-12.533
 20
-5.26532
 30
0.0
 10
-12.51639
 20
-5.28203
 30
0.0
 10
-12.51639
 20
-5.28203
 30
0.0
 10
-12.4997
 20
-5.29867
 30
0.0
 10
-12.48153
 20
-5.32374
 30
0.0
 10
-12.46189
 20
-5.35702
 30
0.0
 10
-12.46189
 20
-5.35702
 30
0.0
 10
-12.43859
 20
-5.39649
 30
0.0
 10
-12.42382
 20
-5.43083
 30
0.0
 10
-12.41756
 20
-5.45986
 30
0.0
 10
-12.41756
 20
-5.45986
 30
0.0
 10
-12.41126
 20
-5.48897
 30
0.0
 10
-12.41233
 20
-5.51486
 30
0.0
 10
-12.4207
 20
-5.53753
 30
0.0
 10
-12.4207
 20
-5.53753
 30
0.0
 10
-12.429
 20
-5.56016
 30
0.0
 10
-12.44548
 20
-5.57875
 30
0.0
 10
-12.47006
 20
-5.59326
 30
0.0
 10
-12.47006
 20
-5.59326
 30
0.0
 10
-12.50239
 20
-5.61235
 30
0.0
 10
-12.53465
 20
-5.61586
 30
0.0
 10
-12.56674
 20
-5.60366
 30
0.0
 10
-12.56674
 20
-5.60366
 30
0.0
 10
-12.60555
 20
-5.58855
 30
0.0
 10
-12.64354
 20
-5.54941
 30
0.0
 10
-12.68082
 20
-5.48623
 30
0.0
  0
SPLINE
  5
84
330
1F
100
AcDbEntity
  8
layer 2
 62
     1
100
AcDbSpline
210
0.0
220
0.0
230
1.0
 70
    11
 71
     3
 72
    36
 73
    32
 74
     0
 42
0.0000000001
 43
0.0000000001
 12
1.0
 22
0.0
 32
0.0
 13
1.0
 23
0.0
 33
0.0
 40
0.0
 40
0.0
 40
0.0
 40
0.0
 40
0.1111111111111111
 40
0.1111111111111111
 40
0.1111111111111111
 40
0.1111111111111111
 40
0.2222222222222222
 40
0.2222222222222222
 40
0.2222222222222222
 40
0.2222222222222222
 40
0.3333333333333333
 40
0.3333333333333333
 40
0.3333333333333333
 40
0.3333333333333333
 40
0.4444444444444444
 40
0.4444444444444444
 40
0.4444444444444444
 40
0.4444444444444444
 40
0.5555555555555556
 40
0.5555555555555556
 40
0.5555555555555556
 40
0.5555555555555556
 40
0.6666666666666666
 40
0.6666666666666666
 40
0.6666666666666666
 40
0.6666666666666666
 40
0.7777777777777778
 40
0.7777777777777778
 40
0.7777777777777778
 40
0.7777777777777778
 40
1.0
 40
1.0
 40
1.0
 40
1.0
 10
-12.63845
 20
-5.46143
 30
0.0
 10
-12.60578
 20
-5.51677
 30
0.0
 10
-12.57762
 20
-5.54981
 30
0.0
 10
-12.554
 20
-5.56033
 30
0.0
 10
-12.554
 20
-5.56033
 30
0.0
 10
-12.53031
 20
-5.57096
 30
0.0
 10
-12.50897
 20
-5.57062
 30
0.0
 10
-12.49003
 20
-5.55943
 30
0.0
 10
-12.49003
 20
-5.55943
 30
0.0
 10
-12.47107
 20
-5.54825
 30
0.0
 10
-12.46052
 20
-5.52966
 30
0.0
 10
-12.45835
 20
-5.50379
 30
0.0
 10
-12.45835
 20
-5.50379
 30
0.0
 10
-12.45626
 20
-5.47785
 30
0.0
 10
-12.4715
 20
-5.43732
 30
0.0
 10
-12.50408
 20
-5.38212
 30
0.0
 10
-12.50408
 20
-5.38212
 30
0.0
 10
-12.53676
 20
-5.32677
 30
0.0
 10
-12.56489
 20
-5.29376
 30
0.0
 10
-12.58854
 20
-5.28321
 30
0.0
 10
-12.58854
 20
-5.28321
 30
0.0
 10
-12.61215
 20
-5.27255
 30
0.0
 10
-12.63363
 20
-5.27299
 30
0.0
 10
-12.65297
 20
-5.28441
 30
0.0
 10
-12.65297
 20
-5.28441
 30
0.0
 10
-12.67193
 20
-5.29559
 30
0.0
 10
-12.68236
 20
-5.31261
 30
0.0
 10
-12.68423
 20
-5.33536
 30
0.0
 10
-12.68423
 20
-5.33536
 30
0.0
 10
-12.68634
 20
-5.36416
 30
0.0
 10
-12.67102
 20
-5.40623
 30
0.0
 10
-12.63845
 20
-5.46143
 30
0.0
  0
SPLINE
  5
85
330
1F
100
AcDbEntity
  8
layer 2
 62
     1
370
     0
100
AcDbSpline
210
0.0
220
0.0
230
1.0
 70
    24
 71
     3
 72
     8
 73
     4
 74
     0
 42
0.0000000001
 43
0.0000000001
 12
1.0
 22
0.0
 32
0.0
 13
1.0
 23
0.0
 33
0.0
 40
0.0
 40
0.0
 40
0.0
 40
0.0
 40
1.0
 40
1.0
 40
1.0
 40
1.0
 10
-11.06995
 20
-5.74833
 30
0.0
 10
-11.06995
 20
-5.74833
 30
0.0
 10
-11.32528
 20
-5.899
 30
0.0
 10
-11.32528
 20
-5.899
 30
0.0
  0
SPLINE
  5
86
330
1F
100
AcDbEntity
  8
layer 2
 62
     1
100
AcDbSpline
210
0.0
220
0.0
230
1.0
 70
    27
 71
     3
 72
    12
 73
     8
 74
     0
 42
0.0000000001
 43
0.0000000001
 12
1.0
 22
0.0
 32
0.0
 13
1.0
 23
0.0
 33
0.0
 40
0.0
 40
0.0
 40
0.0
 40
0.0
 40
0.3333333333333333
 40
0.3333333333333333
 40
0.3333333333333333
 40
0.3333333333333333
 40
1.0
 40
1.0
 40
1.0
 40
1.0
 10
-11.66182
 20
-6.02876
 30
0.0
 10
-11.66182
 20
-6.02876
 30
0.0
 10
-11.32528
 20
-5.899
 30
0.0
 10
-11.32528
 20
-5.899
 30
0.0
 10
-11.32528
 20
-5.899
 30
0.0
 10
-11.32528
 20
-5.899
 30
0.0
 10
-11.66182
 20
-6.02876
 30
0.0
 10
-11.66182
 20
-6.02876
 30
0.0
  0
SPLINE
  5
87
330
1F
100
AcDbEntity
  8
layer 2
 62
     1
100
AcDbSpline
210
0.0
220
0.0
230
1.0
 70
     8
 71
     3
 72
    12
 73
     8
 74
     0
 42
0.0000000001
 43
0.0000000001
 12
1.0
 22
0.0
 32
0.0
 13
1.0
 23
0.0
 33
0.0
 40
0.0
 40
0.0
 40
0.0
 40
0.0
 40
0.3333333333333333
 40
0.3333333333333333
 40
0.3333333333333333
 40
0.3333333333333333
 40
1.0
 40
1.0
 40
1.0
 40
1.0
 10
-11.32528
 20
-5.899
 30
0.0
 10
-11.32528
 20
-5.899
 30
0.0
 10
-11.60156
 20
-6.13091
 30
0.0
 10
-11.60156
 20
-6.13091
 30
0.0
 10
-11.60156
 20
-6.13091
 30
0.0
 10
-11.60156
 20
-6.13091
 30
0.0
 10
-11.66182
 20
-6.02876
 30
0.0
 10
-11.66182
 20
-6.02876
 30
0.0
  0
SPLINE
  5
88
330
1F
100
AcDbEntity
  8
layer 2
 62
     1
370
     9
100
AcDbSpline
210
0.0
220
0.0
230
1.0
 70
    24
 71
     3
 72
     8
 73
     4
 74
     0
 42
0.0000000001
 43
0.0000000001
 12
1.0
 22
0.0
 32
0.0
 13
1.0
 23
0.0
 33
0.0
 40
0.0
 40
0.0
 40
0.0
 40
0.0
 40
1.0
 40
1.0
 40
1.0
 40
1.0
 10
-11.66182
 20
-6.02876
 30
0.0
 10
-11.66182
 20
-6.02876
 30
0.0
 10
-11.32528
 20
-5.899
 30
0.0
 10
-11.32528
 20
-5.899
 30
0.0
  0
SPLINE
  5
89
330
1F
100
AcDbEntity
  8
layer 2
 62
     1
370
     9
100
AcDbSpline
210
0.0
220
0.0
230
1.0
 70
     8
 71
     3
 72
    12
 73
     8
 74
     0
 42
0.0000000001
 43
0.0000000001
 12
1.0
 22
0.0
 32
0.0
 13
1.0
 23
0.0
 33
0.0
 40
0.0
 40
0.0
 40
0.0
 40
0.0
 40
0.3333333333333333
 40
0.3333333333333333
 40
0.3333333333333333
 40
0.3333333333333333
 40
1.0
 40
1.0
 40
1.0
 40
1.0
 10
-11.32528
 20
-5.899
 30
0.0
 10
-11.32528
 20
-5.899
 30
0.0
 10
-11.60156
 20
-6.13091
 30
0.0
 10
-11.60156
 20
-6.13091
 30
0.0
 10
-11.60156
 20
-6.13091
 30
0.0
 10
-11.60156
 20
-6.13091
 30
0.0
 10
-11.66182
 20
-6.02876
 30
0.0
 10
-11.66182
 20
-6.02876
 30
0.0
  0
ENDSEC
  0
SECTION
  2
OBJECTS
  0
DICTIONARY
  5
C
330
0
100
AcDbDictionary
281
     1
  3
ACAD_GROUP
350
D
  3
ACAD_LAYOUT
350
1A
  3
ACAD_MATERIAL
350
3B
  3
ACAD_MLEADERSTYLE
350
AB
  3
ACAD_MLINESTYLE
350
17
  3
ACAD_PLOTSETTINGS
350
19
  3
ACAD_PLOTSTYLENAME
350
E
  3
ACAD_TABLESTYLE
350
AA
  3
ACAD_VISUALSTYLE
350
2A
  0
DICTIONARY
  5
D
102
{ACAD_REACTORS
330
C
102
}
330
C
100
AcDbDictionary
281
     1
  0
DICTIONARY
  5
1A
102
{ACAD_REACTORS
330
C
102
}
330
C
100
AcDbDictionary
281
     1
  3
Layout1
350
1E
  3
Layout2
350
26
  3
Model
350
22
  0
DICTIONARY
  5
3B
102
{ACAD_REACTORS
330
C
102
}
330
C
100
AcDbDictionary
281
     1
  3
ByBlock
350
3D
  3
ByLayer
350
3C
  3
Global
350
3E
  0
DICTIONARY
  5
AB
102
{ACAD_REACTORS
330
C
102
}
330
C
100
AcDbDictionary
281
     1
  0
DICTIONARY
  5
17
102
{ACAD_REACTORS
330
C
102
}
330
C
100
AcDbDictionary
281
     1
  3
Standard
350
18
  0
DICTIONARY
  5
19
102
{ACAD_REACTORS
330
C
102
}
330
C
100
AcDbDictionary
281
     1
  0
ACDBDICTIONARYWDFLT
  5
E
102
{ACAD_REACTORS
330
C
102
}
330
C
100
AcDbDictionary
281
     1
  3
Normal
350
F
100
AcDbDictionaryWithDefault
340
F
  0
DICTIONARY
  5
AA
102
{ACAD_REACTORS
330
C
102
}
330
C
100
AcDbDictionary
281
     1
  0
DICTIONARY
  5
2A
102
{ACAD_REACTORS
330
C
102
}
330
C
100
AcDbDictionary
281
     1
  3
2dWireframe
350
2F
  3
3D Hidden
350
31
  3
3dWireframe
350
30
  3
Basic
350
32
  3
Brighten
350
36
  3
ColorChange
350
3A
  3
Conceptual
350
34
  3
Dim
350
35
  3
Facepattern
350
39
  3
Flat
350
2B
  3
FlatWithEdges
350
2C
  3
Gouraud
350
2D
  3
GouraudWithEdges
350
2E
  3
Linepattern
350
38
  3
Realistic
350
33
  3
Thicken
350
37
  0
LAYOUT
  5
1E
102
{ACAD_REACTORS
330
1A
102
}
330
1A
100
AcDbPlotSettings
  1

  2
none_device
  4

  6

 40
0.0
 41
0.0
 42
0.0
 43
0.0
 44
0.0
 45
0.0
 46
0.0
 47
0.0
 48
0.0
 49
0.0
140
0.0
141
0.0
142
1.0
143
1.0
 70
   688
 72
     0
 73
     0
 74
     5
  7

 75
    16
 76
     0
 77
     2
 78
   300
147
1.0
148
0.0
149
0.0
100
AcDbLayout
  1
Layout1
 70
     1
 71
     1
 10
0.0
 20
0.0
 11
12.0
 21
9.0
 12
0.0
 22
0.0
 32
0.0
 14
1.000000000000000E+20
 24
1.000000000000000E+20
 34
1.000000000000000E+20
 15
-1.000000000000000E+20
 25
-1.000000000000000E+20
 35
-1.000000000000000E+20
146
0.0
 13
0.0
 23
0.0
 33
0.0
 16
1.0
 26
0.0
 36
0.0
 17
0.0
 27
1.0
 37
0.0
 76
     0
330
1B
  0
LAYOUT
  5
26
102
{ACAD_REACTORS
330
1A
102
}
330
1A
100
AcDbPlotSettings
  1

  2
none_device
  4

  6

 40
0.0
 41
0.0
 42
0.0
 43
0.0
 44
0.0
 45
0.0
 46
0.0
 47
0.0
 48
0.0
 49
0.0
140
0.0
141
0.0
142
1.0
143
1.0
 70
   688
 72
     0
 73
     0
 74
     5
  7

 75
    16
 76
     0
 77
     2
 78
   300
147
1.0
148
0.0
149
0.0
100
AcDbLayout
  1
Layout2
 70
     1
 71
     2
 10
0.0
 20
0.0
 11
0.0
 21
0.0
 12
0.0
 22
0.0
 32
0.0
 14
0.0
 24
0.0
 34
0.0
 15
0.0
 25
0.0
 35
0.0
146
0.0
 13
0.0
 23
0.0
 33
0.0
 16
1.0
 26
0.0
 36
0.0
 17
0.0
 27
1.0
 37
0.0
 76
     0
330
23
  0
LAYOUT
  5
22
102
{ACAD_REACTORS
330
1A
102
}
330
1A
100
AcDbPlotSettings
  1

  2
none_device
  4

  6

 40
0.0
 41
0.0
 42
0.0
 43
0.0
 44
0.0
 45
0.0
 46
0.0
 47
0.0
 48
0.0
 49
0.0
140
0.0
141
0.0
142
1.0
143
1.0
 70
  1712
 72
     0
 73
     0
 74
     0
  7

 75
     0
 76
     0
 77
     2
 78
   300
147
1.0
148
0.0
149
0.0
100
AcDbLayout
  1
Model
 70
     1
 71
     0
 10
0.0
 20
0.0
 11
12.0
 21
9.0
 12
0.0
 22
0.0
 32
0.0
 14
-13.40202
 24
-8.47553
 34
0.0
 15
13.18382
 25
8.00135
 35
0.0
146
0.0
 13
0.0
 23
0.0
 33
0.0
 16
1.0
 26
0.0
 36
0.0
 17
0.0
 27
1.0
 37
0.0
 76
     0
330
1F
331
29
  0
MATERIAL
  5
3D
102
{ACAD_REACTORS
330
3B
102
}
330
3B
100
AcDbMaterial
  1
ByBlock
 72
     1
 94
      127
  0
MATERIAL
  5
3C
102
{ACAD_REACTORS
330
3B
102
}
330
3B
100
AcDbMaterial
  1
ByLayer
 72
     1
 94
      127
  0
MATERIAL
  5
3E
102
{ACAD_REACTORS
330
3B
102
}
330
3B
100
AcDbMaterial
  1
Global
 72
     1
 94
      127
  0
MLINESTYLE
  5
18
102
{ACAD_REACTORS
330
17
102
}
330
17
100
AcDbMlineStyle
  2
Standard
 70
     0
  3

 62
   256
 51
90.0
 52
90.0
 71
     2
 49
0.5
 62
   256
  6
BYLAYER
 49
-0.5
 62
   256
  6
BYLAYER
  0
ACDBPLACEHOLDER
  5
F
102
{ACAD_REACTORS
330
E
102
}
330
E
  0
VISUALSTYLE
  5
2F
102
{ACAD_REACTORS
330
2A
102
}
102
{ACAD_XDICTIONARY
360
92
102
}
330
2A
100
AcDbVisualStyle
  2
2dWireframe
 70
     4
 71
     0
 72
     2
 73
     0
 90
        0
 40
-0.6
 41
-30.0
 62
     5
 63
     7
421
 16777215
 74
     1
 91
        4
 64
     7
 65
   257
 75
     1
175
     1
 42
1.0
 92
        0
 66
   257
 43
1.0
 76
     1
 77
     6
 78
     2
 67
     7
 79
     5
170
     0
171
     0
290
     0
174
     0
 93
        1
 44
0.0
173
     0
291
     0
 45
0.0
  0
VISUALSTYLE
  5
31
102
{ACAD_REACTORS
330
2A
102
}
102
{ACAD_XDICTIONARY
360
96
102
}
330
2A
100
AcDbVisualStyle
  2
3D Hidden
 70
     6
 71
     1
 72
     2
 73
     2
 90
        0
 40
-0.6
 41
-30.0
 62
     5
 63
     7
421
 16777215
 74
     2
 91
        2
 64
     7
 65
   257
 75
     2
175
     1
 42
40.0
 92
        0
 66
   257
 43
1.0
 76
     1
 77
     6
 78
     2
 67
     7
 79
     3
170
     0
171
     0
290
     0
174
     0
 93
        1
 44
0.0
173
     0
291
     0
 45
0.0
  0
VISUALSTYLE
  5
30
102
{ACAD_REACTORS
330
2A
102
}
102
{ACAD_XDICTIONARY
360
94
102
}
330
2A
100
AcDbVisualStyle
  2
3dWireframe
 70
     5
 71
     0
 72
     2
 73
     0
 90
        0
 40
-0.6
 41
-30.0
 62
     5
 63
     7
421
 16777215
 74
     1
 91
        4
 64
     7
 65
   257
 75
     1
175
     1
 42
1.0
 92
        0
 66
   257
 43
1.0
 76
     1
 77
     6
 78
     2
 67
     7
 79
     5
170
     0
171
     0
290
     0
174
     0
 93
        1
 44
0.0
173
     0
291
     0
 45
0.0
  0
VISUALSTYLE
  5
32
102
{ACAD_REACTORS
330
2A
102
}
102
{ACAD_XDICTIONARY
360
98
102
}
330
2A
100
AcDbVisualStyle
  2
Basic
 70
     7
 71
     1
 72
     0
 73
     1
 90
        0
 40
-0.6
 41
-30.0
 62
     5
 63
     7
421
 16777215
 74
     0
 91
        4
 64
     7
 65
   257
 75
     1
175
     1
 42
1.0
 92
        8
 66
     7
 43
1.0
 76
     1
 77
     6
 78
     2
 67
     7
 79
     5
170
     0
171
     0
290
     0
174
     0
 93
        1
 44
0.0
173
     0
291
     1
 45
0.0
  0
VISUALSTYLE
  5
36
102
{ACAD_REACTORS
330
2A
102
}
102
{ACAD_XDICTIONARY
360
A0
102
}
330
2A
100
AcDbVisualStyle
  2
Brighten
 70
    12
 71
     2
 72
     2
 73
     0
 90
        0
 40
-0.6
 41
-30.0
 62
     5
 63
     7
421
 16777215
 74
     1
 91
        4
 64
     7
 65
   257
 75
     1
175
     1
 42
1.0
 92
        8
 66
     7
 43
1.0
 76
     1
 77
     6
 78
     2
 67
     7
 79
     5
170
     0
171
     0
290
     0
174
     0
 93
        1
 44
50.0
173
     0
291
     1
 45
0.0
  0
VISUALSTYLE
  5
3A
102
{ACAD_REACTORS
330
2A
102
}
102
{ACAD_XDICTIONARY
360
A8
102
}
330
2A
100
AcDbVisualStyle
  2
ColorChange
 70
    16
 71
     2
 72
     2
 73
     3
 90
        0
 40
-0.6
 41
-30.0
 62
     5
 63
     8
421
  8421504
 74
     1
 91
        4
 64
     7
 65
   257
 75
     1
175
     1
 42
1.0
 92
        8
 66
     8
424
  8421504
 43
1.0
 76
     1
 77
     6
 78
     2
 67
     7
 79
     5
170
     0
171
     0
290
     0
174
     0
 93
        1
 44
0.0
173
     0
291
     1
 45
0.0
  0
VISUALSTYLE
  5
34
102
{ACAD_REACTORS
330
2A
102
}
102
{ACAD_XDICTIONARY
360
9C
102
}
330
2A
100
AcDbVisualStyle
  2
Conceptual
 70
     9
 71
     3
 72
     2
 73
     0
 90
        0
 40
-0.6
 41
-30.0
 62
     5
 63
     7
421
 16777215
 74
     2
 91
        2
 64
     7
 65
   257
 75
     1
175
     1
 42
40.0
 92
        8
 66
     7
 43
1.0
 76
     1
 77
     6
 78
     2
 67
     7
 79
     3
170
     0
171
     0
290
     0
174
     0
 93
        1
 44
0.0
173
     0
291
     0
 45
0.0
  0
VISUALSTYLE
  5
35
102
{ACAD_REACTORS
330
2A
102
}
102
{ACAD_XDICTIONARY
360
9E
102
}
330
2A
100
AcDbVisualStyle
  2
Dim
 70
    11
 71
     2
 72
     2
 73
     0
 90
        0
 40
-0.6
 41
-30.0
 62
     5
 63
     7
421
 16777215
 74
     1
 91
        4
 64
     7
 65
   257
 75
     1
175
     1
 42
1.0
 92
        8
 66
     7
 43
1.0
 76
     1
 77
     6
 78
     2
 67
     7
 79
     5
170
     0
171
     0
290
     0
174
     0
 93
        1
 44
-50.0
173
     0
291
     1
 45
0.0
  0
VISUALSTYLE
  5
39
102
{ACAD_REACTORS
330
2A
102
}
102
{ACAD_XDICTIONARY
360
A6
102
}
330
2A
100
AcDbVisualStyle
  2
Facepattern
 70
    15
 71
     2
 72
     2
 73
     0
 90
        0
 40
-0.6
 41
-30.0
 62
     5
 63
     7
421
 16777215
 74
     1
 91
        4
 64
     7
 65
   257
 75
     1
175
     1
 42
1.0
 92
        8
 66
     7
 43
1.0
 76
     1
 77
     6
 78
     2
 67
     7
 79
     5
170
     0
171
     0
290
     0
174
     0
 93
        1
 44
0.0
173
     0
291
     1
 45
0.0
  0
VISUALSTYLE
  5
2B
102
{ACAD_REACTORS
330
2A
102
}
102
{ACAD_XDICTIONARY
360
8A
102
}
330
2A
100
AcDbVisualStyle
  2
Flat
 70
     0
 71
     2
 72
     1
 73
     1
 90
        2
 40
-0.6
 41
30.0
 62
     5
 63
     7
421
 16777215
 74
     0
 91
        4
 64
     7
 65
   257
 75
     1
175
     1
 42
1.0
 92
        8
 66
     7
 43
1.0
 76
     1
 77
     6
 78
     2
 67
     7
 79
     5
170
     0
171
     0
290
     0
174
     0
 93
       13
 44
0.0
173
     0
291
     1
 45
0.0
  0
VISUALSTYLE
  5
2C
102
{ACAD_REACTORS
330
2A
102
}
102
{ACAD_XDICTIONARY
360
8C
102
}
330
2A
100
AcDbVisualStyle
  2
FlatWithEdges
 70
     1
 71
     2
 72
     1
 73
     1
 90
        2
 40
-0.6
 41
30.0
 62
     5
 63
     7
421
 16777215
 74
     1
 91
        4
 64
     7
 65
   257
 75
     1
175
     1
 42
1.0
 92
        0
 66
   257
 43
1.0
 76
     1
 77
     6
 78
     2
 67
     7
 79
     5
170
     0
171
     0
290
     0
174
     0
 93
       13
 44
0.0
173
     0
291
     1
 45
0.0
  0
VISUALSTYLE
  5
2D
102
{ACAD_REACTORS
330
2A
102
}
102
{ACAD_XDICTIONARY
360
8E
102
}
330
2A
100
AcDbVisualStyle
  2
Gouraud
 70
     2
 71
     2
 72
     2
 73
     1
 90
        2
 40
-0.6
 41
30.0
 62
     5
 63
     7
421
 16777215
 74
     0
 91
        4
 64
     7
 65
   257
 75
     1
175
     1
 42
1.0
 92
        0
 66
     7
 43
1.0
 76
     1
 77
     6
 78
     2
 67
     7
 79
     5
170
     0
171
     0
290
     0
174
     0
 93
       13
 44
0.0
173
     0
291
     1
 45
0.0
  0
VISUALSTYLE
  5
2E
102
{ACAD_REACTORS
330
2A
102
}
102
{ACAD_XDICTIONARY
360
90
102
}
330
2A
100
AcDbVisualStyle
  2
GouraudWithEdges
 70
     3
 71
     2
 72
     2
 73
     1
 90
        2
 40
-0.6
 41
30.0
 62
     5
 63
     7
421
 16777215
 74
     1
 91
        4
 64
     7
 65
   257
 75
     1
175
     1
 42
1.0
 92
        0
 66
   257
 43
1.0
 76
     1
 77
     6
 78
     2
 67
     7
 79
     5
170
     0
171
     0
290
     0
174
     0
 93
       13
 44
0.0
173
     0
291
     1
 45
0.0
  0
VISUALSTYLE
  5
38
102
{ACAD_REACTORS
330
2A
102
}
102
{ACAD_XDICTIONARY
360
A4
102
}
330
2A
100
AcDbVisualStyle
  2
Linepattern
 70
    14
 71
     2
 72
     2
 73
     0
 90
        0
 40
-0.6
 41
-30.0
 62
     5
 63
     7
421
 16777215
 74
     1
 91
        4
 64
     7
 65
   257
 75
     7
175
     7
 42
1.0
 92
        8
 66
     7
 43
1.0
 76
     1
 77
     6
 78
     2
 67
     7
 79
     5
170
     0
171
     0
290
     0
174
     0
 93
        1
 44
0.0
173
     0
291
     1
 45
0.0
  0
VISUALSTYLE
  5
33
102
{ACAD_REACTORS
330
2A
102
}
102
{ACAD_XDICTIONARY
360
9A
102
}
330
2A
100
AcDbVisualStyle
  2
Realistic
 70
     8
 71
     2
 72
     2
 73
     0
 90
        0
 40
-0.6
 41
-30.0
 62
     5
 63
     7
421
 16777215
 74
     1
 91
        0
 64
     7
 65
   257
 75
     1
175
     1
 42
1.0
 92
        8
 66
     8
424
  7895160
 43
1.0
 76
     1
 77
     6
 78
     2
 67
     7
 79
     5
170
     0
171
     0
290
     0
174
     0
 93
       13
 44
0.0
173
     0
291
     0
 45
0.0
  0
VISUALSTYLE
  5
37
102
{ACAD_REACTORS
330
2A
102
}
102
{ACAD_XDICTIONARY
360
A2
102
}
330
2A
100
AcDbVisualStyle
  2
Thicken
 70
    13
 71
     2
 72
     2
 73
     0
 90
        0
 40
-0.6
 41
-30.0
 62
     5
 63
     7
421
 16777215
 74
     1
 91
        4
 64
     7
 65
   257
 75
     1
175
     1
 42
1.0
 92
       12
 66
     7
 43
1.0
 76
     1
 77
     6
 78
     2
 67
     7
 79
     5
170
     0
171
     0
290
     0
174
     0
 93
        1
 44
0.0
173
     0
291
     1
 45
0.0
  0
DICTIONARY
  5
92
330
2F
100
AcDbDictionary
280
     1
281
     1
  3
ACAD_XREC_ROUNDTRIP
360
93
  0
DICTIONARY
  5
96
330
31
100
AcDbDictionary
280
     1
281
     1
  3
ACAD_XREC_ROUNDTRIP
360
97
  0
DICTIONARY
  5
94
330
30
100
AcDbDictionary
280
     1
281
     1
  3
ACAD_XREC_ROUNDTRIP
360
95
  0
DICTIONARY
  5
98
330
32
100
AcDbDictionary
280
     1
281
     1
  3
ACAD_XREC_ROUNDTRIP
360
99
  0
DICTIONARY
  5
A0
330
36
100
AcDbDictionary
280
     1
281
     1
  3
ACAD_XREC_ROUNDTRIP
360
A1
  0
DICTIONARY
  5
A8
330
3A
100
AcDbDictionary
280
     1
281
     1
  3
ACAD_XREC_ROUNDTRIP
360
A9
  0
DICTIONARY
  5
9C
330
34
100
AcDbDictionary
280
     1
281
     1
  3
ACAD_XREC_ROUNDTRIP
360
9D
  0
DICTIONARY
  5
9E
330
35
100
AcDbDictionary
280
     1
281
     1
  3
ACAD_XREC_ROUNDTRIP
360
9F
  0
DICTIONARY
  5
A6
330
39
100
AcDbDictionary
280
     1
281
     1
  3
ACAD_XREC_ROUNDTRIP
360
A7
  0
DICTIONARY
  5
8A
330
2B
100
AcDbDictionary
280
     1
281
     1
  3
ACAD_XREC_ROUNDTRIP
360
8B
  0
DICTIONARY
  5
8C
330
2C
100
AcDbDictionary
280
     1
281
     1
  3
ACAD_XREC_ROUNDTRIP
360
8D
  0
DICTIONARY
  5
8E
330
2D
100
AcDbDictionary
280
     1
281
     1
  3
ACAD_XREC_ROUNDTRIP
360
8F
  0
DICTIONARY
  5
90
330
2E
100
AcDbDictionary
280
     1
281
     1
  3
ACAD_XREC_ROUNDTRIP
360
91
  0
DICTIONARY
  5
A4
330
38
100
AcDbDictionary
280
     1
281
     1
  3
ACAD_XREC_ROUNDTRIP
360
A5
  0
DICTIONARY
  5
9A
330
33
100
AcDbDictionary
280
     1
281
     1
  3
ACAD_XREC_ROUNDTRIP
360
9B
  0
DICTIONARY
  5
A2
330
37
100
AcDbDictionary
280
     1
281
     1
  3
ACAD_XREC_ROUNDTRIP
360
A3
  0
XRECORD
  5
93
102
{ACAD_REACTORS
330
92
102
}
330
92
100
AcDbXrecord
280
     1
102
RTVSPropertyOp0
 70
     1
102
RTVSPropertyOp1
 70
     1
102
RTVSPropertyOp2
 70
     1
102
RTVSPropertyOp3
 70
     1
102
RTVSPropertyOp4
 70
     1
102
RTVSPropertyOp5
 70
     1
102
RTVSPropertyOp6
 70
     1
102
RTVSPropertyOp7
 70
     1
102
RTVSPropertyOp8
 70
     1
102
RTVSPropertyOp9
 70
     1
102
RTVSPropertyOp10
 70
     1
102
RTVSPropertyOp11
 70
     1
102
RTVSPropertyOp12
 70
     1
102
RTVSPropertyOp13
 70
     1
102
RTVSPropertyOp14
 70
     1
102
RTVSPropertyOp15
 70
     1
102
RTVSPropertyOp16
 70
     1
102
RTVSPropertyOp17
 70
     1
102
RTVSPropertyOp18
 70
     1
102
RTVSPropertyOp19
 70
     1
102
RTVSPropertyOp20
 70
     1
102
RTVSPropertyOp21
 70
     1
102
RTVSPropertyOp22
 70
     1
102
RTVSPropertyOp23
 70
     1
102
RTVSPropertyOp24
 70
     1
102
RTVSPropertyOp25
 70
     1
102
RTVSPropertyOp26
 70
     1
102
RTVSPropertyOp27
 70
     1
102
RTVSPropertyOp28
 70
     1
102
RTVSPropertyOp29
 70
     1
102
RTVSPropertyOp30
 70
     1
102
RTVSPropertyOp31
 70
     1
102
RTVSPropertyOp32
 70
     1
  0
XRECORD
  5
97
102
{ACAD_REACTORS
330
96
102
}
330
96
100
AcDbXrecord
280
     1
102
RTVSPropertyOp0
 70
     1
102
RTVSPropertyOp1
 70
     1
102
RTVSPropertyOp2
 70
     1
102
RTVSPropertyOp3
 70
     1
102
RTVSPropertyOp4
 70
     1
102
RTVSPropertyOp5
 70
     1
102
RTVSPropertyOp6
 70
     1
102
RTVSPropertyOp7
 70
     1
102
RTVSPropertyOp8
 70
     1
102
RTVSPropertyOp9
 70
     1
102
RTVSPropertyOp10
 70
     1
102
RTVSPropertyOp11
 70
     1
102
RTVSPropertyOp12
 70
     1
102
RTVSPropertyOp13
 70
     1
102
RTVSPropertyOp14
 70
     1
102
RTVSPropertyOp15
 70
     1
102
RTVSPropertyOp16
 70
     1
102
RTVSPropertyOp17
 70
     1
102
RTVSPropertyOp18
 70
     1
102
RTVSPropertyOp19
 70
     1
102
RTVSPropertyOp20
 70
     1
102
RTVSPropertyOp21
 70
     1
102
RTVSPropertyOp22
 70
     1
102
RTVSPropertyOp23
 70
     1
102
RTVSPropertyOp24
 70
     1
102
RTVSPropertyOp25
 70
     1
102
RTVSPropertyOp26
 70
     1
102
RTVSPropertyOp27
 70
     1
102
RTVSPropertyOp28
 70
     1
102
RTVSPropertyOp29
 70
     1
102
RTVSPropertyOp30
 70
     1
102
RTVSPropertyOp31
 70
     1
102
RTVSPropertyOp32
 70
     1
  0
XRECORD
  5
95
102
{ACAD_REACTORS
330
94
102
}
330
94
100
AcDbXrecord
280
     1
102
RTVSPropertyOp0
 70
     1
102
RTVSPropertyOp1
 70
     1
102
RTVSPropertyOp2
 70
     1
102
RTVSPropertyOp3
 70
     1
102
RTVSPropertyOp4
 70
     1
102
RTVSPropertyOp5
 70
     1
102
RTVSPropertyOp6
 70
     1
102
RTVSPropertyOp7
 70
     1
102
RTVSPropertyOp8
 70
     1
102
RTVSPropertyOp9
 70
     1
102
RTVSPropertyOp10
 70
     1
102
RTVSPropertyOp11
 70
     1
102
RTVSPropertyOp12
 70
     1
102
RTVSPropertyOp13
 70
     1
102
RTVSPropertyOp14
 70
     1
102
RTVSPropertyOp15
 70
     1
102
RTVSPropertyOp16
 70
     1
102
RTVSPropertyOp17
 70
     1
102
RTVSPropertyOp18
 70
     1
102
RTVSPropertyOp19
 70
     1
102
RTVSPropertyOp20
 70
     1
102
RTVSPropertyOp21
 70
     1
102
RTVSPropertyOp22
 70
     1
102
RTVSPropertyOp23
 70
     1
102
RTVSPropertyOp24
 70
     1
102
RTVSPropertyOp25
 70
     1
102
RTVSPropertyOp26
 70
     1
102
RTVSPropertyOp27
 70
     1
102
RTVSPropertyOp28
 70
     1
102
RTVSPropertyOp29
 70
     1
102
RTVSPropertyOp30
 70
     1
102
RTVSPropertyOp31
 70
     1
102
RTVSPropertyOp32
 70
     1
  0
XRECORD
  5
99
102
{ACAD_REACTORS
330
98
102
}
330
98
100
AcDbXrecord
280
     1
102
RTVSPropertyOp0
 70
     1
102
RTVSPropertyOp1
 70
     1
102
RTVSPropertyOp2
 70
     1
102
RTVSPropertyOp3
 70
     1
102
RTVSPropertyOp4
 70
     1
102
RTVSPropertyOp5
 70
     1
102
RTVSPropertyOp6
 70
     1
102
RTVSPropertyOp7
 70
     1
102
RTVSPropertyOp8
 70
     1
102
RTVSPropertyOp9
 70
     1
102
RTVSPropertyOp10
 70
     1
102
RTVSPropertyOp11
 70
     1
102
RTVSPropertyOp12
 70
     1
102
RTVSPropertyOp13
 70
     1
102
RTVSPropertyOp14
 70
     1
102
RTVSPropertyOp15
 70
     1
102
RTVSPropertyOp16
 70
     1
102
RTVSPropertyOp17
 70
     1
102
RTVSPropertyOp18
 70
     1
102
RTVSPropertyOp19
 70
     1
102
RTVSPropertyOp20
 70
     1
102
RTVSPropertyOp21
 70
     1
102
RTVSPropertyOp22
 70
     1
102
RTVSPropertyOp23
 70
     1
102
RTVSPropertyOp24
 70
     1
102
RTVSPropertyOp25
 70
     1
102
RTVSPropertyOp26
 70
     1
102
RTVSPropertyOp27
 70
     1
102
RTVSPropertyOp28
 70
     1
102
RTVSPropertyOp29
 70
     1
102
RTVSPropertyOp30
 70
     1
102
RTVSPropertyOp31
 70
     1
102
RTVSPropertyOp32
 70
     1
  0
XRECORD
  5
A1
102
{ACAD_REACTORS
330
A0
102
}
330
A0
100
AcDbXrecord
280
     1
102
RTVSPropertyOp0
 70
     1
102
RTVSPropertyOp1
 70
     1
102
RTVSPropertyOp2
 70
     1
102
RTVSPropertyOp3
 70
     1
102
RTVSPropertyOp4
 70
     1
102
RTVSPropertyOp5
 70
     1
102
RTVSPropertyOp6
 70
     1
102
RTVSPropertyOp7
 70
     1
102
RTVSPropertyOp8
 70
     1
102
RTVSPropertyOp9
 70
     1
102
RTVSPropertyOp10
 70
     1
102
RTVSPropertyOp11
 70
     1
102
RTVSPropertyOp12
 70
     1
102
RTVSPropertyOp13
 70
     1
102
RTVSPropertyOp14
 70
     1
102
RTVSPropertyOp15
 70
     1
102
RTVSPropertyOp16
 70
     1
102
RTVSPropertyOp17
 70
     1
102
RTVSPropertyOp18
 70
     1
102
RTVSPropertyOp19
 70
     1
102
RTVSPropertyOp20
 70
     1
102
RTVSPropertyOp21
 70
     1
102
RTVSPropertyOp22
 70
     1
102
RTVSPropertyOp23
 70
     1
102
RTVSPropertyOp24
 70
     1
102
RTVSPropertyOp25
 70
     1
102
RTVSPropertyOp26
 70
     1
102
RTVSPropertyOp27
 70
     1
102
RTVSPropertyOp28
 70
     1
102
RTVSPropertyOp29
 70
     1
102
RTVSPropertyOp30
 70
     1
102
RTVSPropertyOp31
 70
     1
102
RTVSPropertyOp32
 70
     1
  0
XRECORD
  5
A9
102
{ACAD_REACTORS
330
A8
102
}
330
A8
100
AcDbXrecord
280
     1
102
RTVSPropertyOp0
 70
     1
102
RTVSPropertyOp1
 70
     1
102
RTVSPropertyOp2
 70
     1
102
RTVSPropertyOp3
 70
     1
102
RTVSPropertyOp4
 70
     1
102
RTVSPropertyOp5
 70
     1
102
RTVSPropertyOp6
 70
     1
102
RTVSPropertyOp7
 70
     1
102
RTVSPropertyOp8
 70
     1
102
RTVSPropertyOp9
 70
     1
102
RTVSPropertyOp10
 70
     1
102
RTVSPropertyOp11
 70
     1
102
RTVSPropertyOp12
 70
     1
102
RTVSPropertyOp13
 70
     1
102
RTVSPropertyOp14
 70
     1
102
RTVSPropertyOp15
 70
     1
102
RTVSPropertyOp16
 70
     1
102
RTVSPropertyOp17
 70
     1
102
RTVSPropertyOp18
 70
     1
102
RTVSPropertyOp19
 70
     1
102
RTVSPropertyOp20
 70
     1
102
RTVSPropertyOp21
 70
     1
102
RTVSPropertyOp22
 70
     1
102
RTVSPropertyOp23
 70
     1
102
RTVSPropertyOp24
 70
     1
102
RTVSPropertyOp25
 70
     1
102
RTVSPropertyOp26
 70
     1
102
RTVSPropertyOp27
 70
     1
102
RTVSPropertyOp28
 70
     1
102
RTVSPropertyOp29
 70
     1
102
RTVSPropertyOp30
 70
     1
102
RTVSPropertyOp31
 70
     1
102
RTVSPropertyOp32
 70
     1
  0
XRECORD
  5
9D
102
{ACAD_REACTORS
330
9C
102
}
330
9C
100
AcDbXrecord
280
     1
102
RTVSPropertyOp0
 70
     1
102
RTVSPropertyOp1
 70
     1
102
RTVSPropertyOp2
 70
     1
102
RTVSPropertyOp3
 70
     1
102
RTVSPropertyOp4
 70
     1
102
RTVSPropertyOp5
 70
     1
102
RTVSPropertyOp6
 70
     1
102
RTVSPropertyOp7
 70
     1
102
RTVSPropertyOp8
 70
     1
102
RTVSPropertyOp9
 70
     1
102
RTVSPropertyOp10
 70
     1
102
RTVSPropertyOp11
 70
     1
102
RTVSPropertyOp12
 70
     1
102
RTVSPropertyOp13
 70
     1
102
RTVSPropertyOp14
 70
     1
102
RTVSPropertyOp15
 70
     1
102
RTVSPropertyOp16
 70
     1
102
RTVSPropertyOp17
 70
     1
102
RTVSPropertyOp18
 70
     1
102
RTVSPropertyOp19
 70
     1
102
RTVSPropertyOp20
 70
     1
102
RTVSPropertyOp21
 70
     1
102
RTVSPropertyOp22
 70
     1
102
RTVSPropertyOp23
 70
     1
102
RTVSPropertyOp24
 70
     1
102
RTVSPropertyOp25
 70
     1
102
RTVSPropertyOp26
 70
     1
102
RTVSPropertyOp27
 70
     1
102
RTVSPropertyOp28
 70
     1
102
RTVSPropertyOp29
 70
     1
102
RTVSPropertyOp30
 70
     1
102
RTVSPropertyOp31
 70
     1
102
RTVSPropertyOp32
 70
     1
  0
XRECORD
  5
9F
102
{ACAD_REACTORS
330
9E
102
}
330
9E
100
AcDbXrecord
280
     1
102
RTVSPropertyOp0
 70
     1
102
RTVSPropertyOp1
 70
     1
102
RTVSPropertyOp2
 70
     1
102
RTVSPropertyOp3
 70
     1
102
RTVSPropertyOp4
 70
     1
102
RTVSPropertyOp5
 70
     1
102
RTVSPropertyOp6
 70
     1
102
RTVSPropertyOp7
 70
     1
102
RTVSPropertyOp8
 70
     1
102
RTVSPropertyOp9
 70
     1
102
RTVSPropertyOp10
 70
     1
102
RTVSPropertyOp11
 70
     1
102
RTVSPropertyOp12
 70
     1
102
RTVSPropertyOp13
 70
     1
102
RTVSPropertyOp14
 70
     1
102
RTVSPropertyOp15
 70
     1
102
RTVSPropertyOp16
 70
     1
102
RTVSPropertyOp17
 70
     1
102
RTVSPropertyOp18
 70
     1
102
RTVSPropertyOp19
 70
     1
102
RTVSPropertyOp20
 70
     1
102
RTVSPropertyOp21
 70
     1
102
RTVSPropertyOp22
 70
     1
102
RTVSPropertyOp23
 70
     1
102
RTVSPropertyOp24
 70
     1
102
RTVSPropertyOp25
 70
     1
102
RTVSPropertyOp26
 70
     1
102
RTVSPropertyOp27
 70
     1
102
RTVSPropertyOp28
 70
     1
102
RTVSPropertyOp29
 70
     1
102
RTVSPropertyOp30
 70
     1
102
RTVSPropertyOp31
 70
     1
102
RTVSPropertyOp32
 70
     1
  0
XRECORD
  5
A7
102
{ACAD_REACTORS
330
A6
102
}
330
A6
100
AcDbXrecord
280
     1
102
RTVSPropertyOp0
 70
     1
102
RTVSPropertyOp1
 70
     1
102
RTVSPropertyOp2
 70
     1
102
RTVSPropertyOp3
 70
     1
102
RTVSPropertyOp4
 70
     1
102
RTVSPropertyOp5
 70
     1
102
RTVSPropertyOp6
 70
     1
102
RTVSPropertyOp7
 70
     1
102
RTVSPropertyOp8
 70
     1
102
RTVSPropertyOp9
 70
     1
102
RTVSPropertyOp10
 70
     1
102
RTVSPropertyOp11
 70
     1
102
RTVSPropertyOp12
 70
     1
102
RTVSPropertyOp13
 70
     1
102
RTVSPropertyOp14
 70
     1
102
RTVSPropertyOp15
 70
     1
102
RTVSPropertyOp16
 70
     1
102
RTVSPropertyOp17
 70
     1
102
RTVSPropertyOp18
 70
     1
102
RTVSPropertyOp19
 70
     1
102
RTVSPropertyOp20
 70
     1
102
RTVSPropertyOp21
 70
     1
102
RTVSPropertyOp22
 70
     1
102
RTVSPropertyOp23
 70
     1
102
RTVSPropertyOp24
 70
     1
102
RTVSPropertyOp25
 70
     1
102
RTVSPropertyOp26
 70
     1
102
RTVSPropertyOp27
 70
     1
102
RTVSPropertyOp28
 70
     1
102
RTVSPropertyOp29
 70
     1
102
RTVSPropertyOp30
 70
     1
102
RTVSPropertyOp31
 70
     1
102
RTVSPropertyOp32
 70
     1
  0
XRECORD
  5
8B
102
{ACAD_REACTORS
330
8A
102
}
330
8A
100
AcDbXrecord
280
     1
102
RTVSPropertyOp0
 70
     1
102
RTVSPropertyOp1
 70
     1
102
RTVSPropertyOp2
 70
     1
102
RTVSPropertyOp3
 70
     1
102
RTVSPropertyOp4
 70
     1
102
RTVSPropertyOp5
 70
     1
102
RTVSPropertyOp6
 70
     1
102
RTVSPropertyOp7
 70
     1
102
RTVSPropertyOp8
 70
     1
102
RTVSPropertyOp9
 70
     1
102
RTVSPropertyOp10
 70
     1
102
RTVSPropertyOp11
 70
     1
102
RTVSPropertyOp12
 70
     1
102
RTVSPropertyOp13
 70
     1
102
RTVSPropertyOp14
 70
     1
102
RTVSPropertyOp15
 70
     1
102
RTVSPropertyOp16
 70
     1
102
RTVSPropertyOp17
 70
     1
102
RTVSPropertyOp18
 70
     1
102
RTVSPropertyOp19
 70
     1
102
RTVSPropertyOp20
 70
     1
102
RTVSPropertyOp21
 70
     1
102
RTVSPropertyOp22
 70
     1
102
RTVSPropertyOp23
 70
     1
102
RTVSPropertyOp24
 70
     1
102
RTVSPropertyOp25
 70
     1
102
RTVSPropertyOp26
 70
     1
102
RTVSPropertyOp27
 70
     1
102
RTVSPropertyOp28
 70
     1
102
RTVSPropertyOp29
 70
     1
102
RTVSPropertyOp30
 70
     1
102
RTVSPropertyOp31
 70
     1
102
RTVSPropertyOp32
 70
     1
  0
XRECORD
  5
8D
102
{ACAD_REACTORS
330
8C
102
}
330
8C
100
AcDbXrecord
280
     1
102
RTVSPropertyOp0
 70
     1
102
RTVSPropertyOp1
 70
     1
102
RTVSPropertyOp2
 70
     1
102
RTVSPropertyOp3
 70
     1
102
RTVSPropertyOp4
 70
     1
102
RTVSPropertyOp5
 70
     1
102
RTVSPropertyOp6
 70
     1
102
RTVSPropertyOp7
 70
     1
102
RTVSPropertyOp8
 70
     1
102
RTVSPropertyOp9
 70
     1
102
RTVSPropertyOp10
 70
     1
102
RTVSPropertyOp11
 70
     1
102
RTVSPropertyOp12
 70
     1
102
RTVSPropertyOp13
 70
     1
102
RTVSPropertyOp14
 70
     1
102
RTVSPropertyOp15
 70
     1
102
RTVSPropertyOp16
 70
     1
102
RTVSPropertyOp17
 70
     1
102
RTVSPropertyOp18
 70
     1
102
RTVSPropertyOp19
 70
     1
102
RTVSPropertyOp20
 70
     1
102
RTVSPropertyOp21
 70
     1
102
RTVSPropertyOp22
 70
     1
102
RTVSPropertyOp23
 70
     1
102
RTVSPropertyOp24
 70
     1
102
RTVSPropertyOp25
 70
     1
102
RTVSPropertyOp26
 70
     1
102
RTVSPropertyOp27
 70
     1
102
RTVSPropertyOp28
 70
     1
102
RTVSPropertyOp29
 70
     1
102
RTVSPropertyOp30
 70
     1
102
RTVSPropertyOp31
 70
     1
102
RTVSPropertyOp32
 70
     1
  0
XRECORD
  5
8F
102
{ACAD_REACTORS
330
8E
102
}
330
8E
100
AcDbXrecord
280
     1
102
RTVSPropertyOp0
 70
     1
102
RTVSPropertyOp1
 70
     1
102
RTVSPropertyOp2
 70
     1
102
RTVSPropertyOp3
 70
     1
102
RTVSPropertyOp4
 70
     1
102
RTVSPropertyOp5
 70
     1
102
RTVSPropertyOp6
 70
     1
102
RTVSPropertyOp7
 70
     1
102
RTVSPropertyOp8
 70
     1
102
RTVSPropertyOp9
 70
     1
102
RTVSPropertyOp10
 70
     1
102
RTVSPropertyOp11
 70
     1
102
RTVSPropertyOp12
 70
     1
102
RTVSPropertyOp13
 70
     1
102
RTVSPropertyOp14
 70
     1
102
RTVSPropertyOp15
 70
     1
102
RTVSPropertyOp16
 70
     1
102
RTVSPropertyOp17
 70
     1
102
RTVSPropertyOp18
 70
     1
102
RTVSPropertyOp19
 70
     1
102
RTVSPropertyOp20
 70
     1
102
RTVSPropertyOp21
 70
     1
102
RTVSPropertyOp22
 70
     1
102
RTVSPropertyOp23
 70
     1
102
RTVSPropertyOp24
 70
     1
102
RTVSPropertyOp25
 70
     1
102
RTVSPropertyOp26
 70
     1
102
RTVSPropertyOp27
 70
     1
102
RTVSPropertyOp28
 70
     1
102
RTVSPropertyOp29
 70
     1
102
RTVSPropertyOp30
 70
     1
102
RTVSPropertyOp31
 70
     1
102
RTVSPropertyOp32
 70
     1
  0
XRECORD
  5
91
102
{ACAD_REACTORS
330
90
102
}
330
90
100
AcDbXrecord
280
     1
102
RTVSPropertyOp0
 70
     1
102
RTVSPropertyOp1
 70
     1
102
RTVSPropertyOp2
 70
     1
102
RTVSPropertyOp3
 70
     1
102
RTVSPropertyOp4
 70
     1
102
RTVSPropertyOp5
 70
     1
102
RTVSPropertyOp6
 70
     1
102
RTVSPropertyOp7
 70
     1
102
RTVSPropertyOp8
 70
     1
102
RTVSPropertyOp9
 70
     1
102
RTVSPropertyOp10
 70
     1
102
RTVSPropertyOp11
 70
     1
102
RTVSPropertyOp12
 70
     1
102
RTVSPropertyOp13
 70
     1
102
RTVSPropertyOp14
 70
     1
102
RTVSPropertyOp15
 70
     1
102
RTVSPropertyOp16
 70
     1
102
RTVSPropertyOp17
 70
     1
102
RTVSPropertyOp18
 70
     1
102
RTVSPropertyOp19
 70
     1
102
RTVSPropertyOp20
 70
     1
102
RTVSPropertyOp21
 70
     1
102
RTVSPropertyOp22
 70
     1
102
RTVSPropertyOp23
 70
     1
102
RTVSPropertyOp24
 70
     1
102
RTVSPropertyOp25
 70
     1
102
RTVSPropertyOp26
 70
     1
102
RTVSPropertyOp27
 70
     1
102
RTVSPropertyOp28
 70
     1
102
RTVSPropertyOp29
 70
     1
102
RTVSPropertyOp30
 70
     1
102
RTVSPropertyOp31
 70
     1
102
RTVSPropertyOp32
 70
     1
  0
XRECORD
  5
A5
102
{ACAD_REACTORS
330
A4
102
}
330
A4
100
AcDbXrecord
280
     1
102
RTVSPropertyOp0
 70
     1
102
RTVSPropertyOp1
 70
     1
102
RTVSPropertyOp2
 70
     1
102
RTVSPropertyOp3
 70
     1
102
RTVSPropertyOp4
 70
     1
102
RTVSPropertyOp5
 70
     1
102
RTVSPropertyOp6
 70
     1
102
RTVSPropertyOp7
 70
     1
102
RTVSPropertyOp8
 70
     1
102
RTVSPropertyOp9
 70
     1
102
RTVSPropertyOp10
 70
     1
102
RTVSPropertyOp11
 70
     1
102
RTVSPropertyOp12
 70
     1
102
RTVSPropertyOp13
 70
     1
102
RTVSPropertyOp14
 70
     1
102
RTVSPropertyOp15
 70
     1
102
RTVSPropertyOp16
 70
     1
102
RTVSPropertyOp17
 70
     1
102
RTVSPropertyOp18
 70
     1
102
RTVSPropertyOp19
 70
     1
102
RTVSPropertyOp20
 70
     1
102
RTVSPropertyOp21
 70
     1
102
RTVSPropertyOp22
 70
     1
102
RTVSPropertyOp23
 70
     1
102
RTVSPropertyOp24
 70
     1
102
RTVSPropertyOp25
 70
     1
102
RTVSPropertyOp26
 70
     1
102
RTVSPropertyOp27
 70
     1
102
RTVSPropertyOp28
 70
     1
102
RTVSPropertyOp29
 70
     1
102
RTVSPropertyOp30
 70
     1
102
RTVSPropertyOp31
 70
     1
102
RTVSPropertyOp32
 70
     1
  0
XRECORD
  5
9B
102
{ACAD_REACTORS
330
9A
102
}
330
9A
100
AcDbXrecord
280
     1
102
RTVSPropertyOp0
 70
     1
102
RTVSPropertyOp1
 70
     1
102
RTVSPropertyOp2
 70
     1
102
RTVSPropertyOp3
 70
     1
102
RTVSPropertyOp4
 70
     1
102
RTVSPropertyOp5
 70
     1
102
RTVSPropertyOp6
 70
     1
102
RTVSPropertyOp7
 70
     1
102
RTVSPropertyOp8
 70
     1
102
RTVSPropertyOp9
 70
     1
102
RTVSPropertyOp10
 70
     1
102
RTVSPropertyOp11
 70
     1
102
RTVSPropertyOp12
 70
     1
102
RTVSPropertyOp13
 70
     1
102
RTVSPropertyOp14
 70
     1
102
RTVSPropertyOp15
 70
     1
102
RTVSPropertyOp16
 70
     1
102
RTVSPropertyOp17
 70
     1
102
RTVSPropertyOp18
 70
     1
102
RTVSPropertyOp19
 70
     1
102
RTVSPropertyOp20
 70
     1
102
RTVSPropertyOp21
 70
     1
102
RTVSPropertyOp22
 70
     1
102
RTVSPropertyOp23
 70
     1
102
RTVSPropertyOp24
 70
     1
102
RTVSPropertyOp25
 70
     1
102
RTVSPropertyOp26
 70
     1
102
RTVSPropertyOp27
 70
     1
102
RTVSPropertyOp28
 70
     1
102
RTVSPropertyOp29
 70
     1
102
RTVSPropertyOp30
 70
     1
102
RTVSPropertyOp31
 70
     1
102
RTVSPropertyOp32
 70
     1
  0
XRECORD
  5
A3
102
{ACAD_REACTORS
330
A2
102
}
330
A2
100
AcDbXrecord
280
     1
102
RTVSPropertyOp0
 70
     1
102
RTVSPropertyOp1
 70
     1
102
RTVSPropertyOp2
 70
     1
102
RTVSPropertyOp3
 70
     1
102
RTVSPropertyOp4
 70
     1
102
RTVSPropertyOp5
 70
     1
102
RTVSPropertyOp6
 70
     1
102
RTVSPropertyOp7
 70
     1
102
RTVSPropertyOp8
 70
     1
102
RTVSPropertyOp9
 70
     1
102
RTVSPropertyOp10
 70
     1
102
RTVSPropertyOp11
 70
     1
102
RTVSPropertyOp12
 70
     1
102
RTVSPropertyOp13
 70
     1
102
RTVSPropertyOp14
 70
     1
102
RTVSPropertyOp15
 70
     1
102
RTVSPropertyOp16
 70
     1
102
RTVSPropertyOp17
 70
     1
102
RTVSPropertyOp18
 70
     1
102
RTVSPropertyOp19
 70
     1
102
RTVSPropertyOp20
 70
     1
102
RTVSPropertyOp21
 70
     1
102
RTVSPropertyOp22
 70
     1
102
RTVSPropertyOp23
 70
     1
102
RTVSPropertyOp24
 70
     1
102
RTVSPropertyOp25
 70
     1
102
RTVSPropertyOp26
 70
     1
102
RTVSPropertyOp27
 70
     1
102
RTVSPropertyOp28
 70
     1
102
RTVSPropertyOp29
 70
     1
102
RTVSPropertyOp30
 70
     1
102
RTVSPropertyOp31
 70
     1
102
RTVSPropertyOp32
 70
     1
  0
ENDSEC
  0
EOF
