  0
SECTION
  2
HEADER
  9
$ACADVER
  1
AC1024
  9
$ACADMAINTVER
 70
     6
  9
$DWGCODEPAGE
  3
UNDEFINED
  9
$INSBASE
 10
0.0
 20
0.0
 30
0.0
  9
$EXTMIN
 10
1.000000000000000E+20
 20
1.000000000000000E+20
 30
1.000000000000000E+20
  9
$EXTMAX
 10
-1.000000000000000E+20
 20
-1.000000000000000E+20
 30
-1.000000000000000E+20
  9
$LIMMIN
 10
0.0
 20
0.0
  9
$LIMMAX
 10
12.0
 20
9.0
  9
$ORTHOMODE
 70
     0
  9
$REGENMODE
 70
     1
  9
$FILLMODE
 70
     1
  9
$QTEXTMODE
 70
     0
  9
$MIRRTEXT
 70
     1
  9
$LTSCALE
 40
1.0
  9
$ATTMODE
 70
     1
  9
$TEXTSIZE
 40
0.2
  9
$TRACEWID
 40
0.05
  9
$TEXTSTYLE
  7
Standard
  9
$CLAYER
  8
0
  9
$CELTYPE
  6
ByLayer
  9
$CECOLOR
 62
   256
  9
$CELTSCALE
 40
1.0
  9
$DISPSILH
 70
     0
  9
$DIMSCALE
 40
1.0
  9
$DIMASZ
 40
0.18
  9
$DIMEXO
 40
0.0625
  9
$DIMDLI
 40
0.38
  9
$DIMRND
 40
0.0
  9
$DIMDLE
 40
0.0
  9
$DIMEXE
 40
0.18
  9
$DIMTP
 40
0.0
  9
$DIMTM
 40
0.0
  9
$DIMTXT
 40
0.18
  9
$DIMCEN
 40
0.09
  9
$DIMTSZ
 40
0.0
  9
$DIMTOL
 70
     0
  9
$DIMLIM
 70
     0
  9
$DIMTIH
 70
     1
  9
$DIMTOH
 70
     1
  9
$DIMSE1
 70
     0
  9
$DIMSE2
 70
     0
  9
$DIMTAD
 70
     0
  9
$DIMZIN
 70
     0
  9
$DIMBLK
  1

  9
$DIMASO
 70
     1
  9
$DIMSHO
 70
     1
  9
$DIMPOST
  1

  9
$DIMAPOST
  1

  9
$DIMALT
 70
     0
  9
$DIMALTD
 70
     2
  9
$DIMALTF
 40
25.4
  9
$DIMLFAC
 40
1.0
  9
$DIMTOFL
 70
     0
  9
$DIMTVP
 40
0.0
  9
$DIMTIX
 70
     0
  9
$DIMSOXD
 70
     0
  9
$DIMSAH
 70
     0
  9
$DIMBLK1
  1

  9
$DIMBLK2
  1

  9
$DIMSTYLE
  2
Standard
  9
$DIMCLRD
 70
     0
  9
$DIMCLRE
 70
     0
  9
$DIMCLRT
 70
     0
  9
$DIMTFAC
 40
1.0
  9
$DIMGAP
 40
0.09
  9
$DIMJUST
 70
     0
  9
$DIMSD1
 70
     0
  9
$DIMSD2
 70
     0
  9
$DIMTOLJ
 70
     1
  9
$DIMTZIN
 70
     0
  9
$DIMALTZ
 70
     0
  9
$DIMALTTZ
 70
     0
  9
$DIMUPT
 70
     0
  9
$DIMDEC
 70
     4
  9
$DIMTDEC
 70
     4
  9
$DIMALTU
 70
     2
  9
$DIMALTTD
 70
     2
  9
$DIMTXSTY
  7
Standard
  9
$DIMAUNIT
 70
     0
  9
$DIMADEC
 70
     0
  9
$DIMALTRND
 40
0.0
  9
$DIMAZIN
 70
     0
  9
$DIMDSEP
 70
    46
  9
$DIMATFIT
 70
     3
  9
$DIMFRAC
 70
     0
  9
$DIMLDRBLK
  1

  9
$DIMLUNIT
 70
     2
  9
$DIMLWD
 70
    -2
  9
$DIMLWE
 70
    -2
  9
$DIMTMOVE
 70
     0
  9
$DIMFXL
 40
1.0
  9
$DIMFXLON
 70
     0
  9
$DIMJOGANG
 40
0.7853981633974483
  9
$DIMTFILL
 70
     0
  9
$DIMTFILLCLR
 70
     0
  9
$DIMARCSYM
 70
     0
  9
$DIMLTYPE
  6

  9
$DIMLTEX1
  6

  9
$DIMLTEX2
  6

  9
$DIMTXTDIRECTION
 70
     0
  9
$LUNITS
 70
     2
  9
$LUPREC
 70
     4
  9
$SKETCHINC
 40
0.1
  9
$FILLETRAD
 40
0.5
  9
$AUNITS
 70
     0
  9
$AUPREC
 70
     0
  9
$MENU
  1
.
  9
$ELEVATION
 40
0.0
  9
$PELEVATION
 40
0.0
  9
$THICKNESS
 40
0.0
  9
$LIMCHECK
 70
     0
  9
$CHAMFERA
 40
0.5
  9
$CHAMFERB
 40
0.5
  9
$CHAMFERC
 40
1.0
  9
$CHAMFERD
 40
0.0
  9
$SKPOLY
 70
     0
  9
$TDCREATE
 40
2456792.43741897
  9
$TDUCREATE
 40
2456792.645752315
  9
$TDUPDATE
 40
2456792.43741897
  9
$TDUUPDATE
 40
2456792.645752315
  9
$TDINDWG
 40
0.0000000116
  9
$TDUSRTIMER
 40
0.0000000116
  9
$USRTIMER
 70
     1
  9
$ANGBASE
 50
0.0
  9
$ANGDIR
 70
     0
  9
$PDMODE
 70
     0
  9
$PDSIZE
 40
0.0
  9
$PLINEWID
 40
0.0
  9
$SPLFRAME
 70
     0
  9
$SPLINETYPE
 70
     6
  9
$SPLINESEGS
 70
     8
  9
$HANDSEED
  5
18E
  9
$SURFTAB1
 70
     6
  9
$SURFTAB2
 70
     6
  9
$SURFTYPE
 70
     6
  9
$SURFU
 70
     6
  9
$SURFV
 70
     6
  9
$UCSBASE
  2

  9
$UCSNAME
  2

  9
$UCSORG
 10
0.0
 20
0.0
 30
0.0
  9
$UCSXDIR
 10
1.0
 20
0.0
 30
0.0
  9
$UCSYDIR
 10
0.0
 20
1.0
 30
0.0
  9
$UCSORTHOREF
  2

  9
$UCSORTHOVIEW
 70
     0
  9
$UCSORGTOP
 10
0.0
 20
0.0
 30
0.0
  9
$UCSORGBOTTOM
 10
0.0
 20
0.0
 30
0.0
  9
$UCSORGLEFT
 10
0.0
 20
0.0
 30
0.0
  9
$UCSORGRIGHT
 10
0.0
 20
0.0
 30
0.0
  9
$UCSORGFRONT
 10
0.0
 20
0.0
 30
0.0
  9
$UCSORGBACK
 10
0.0
 20
0.0
 30
0.0
  9
$PUCSBASE
  2

  9
$PUCSNAME
  2

  9
$PUCSORG
 10
0.0
 20
0.0
 30
0.0
  9
$PUCSXDIR
 10
1.0
 20
0.0
 30
0.0
  9
$PUCSYDIR
 10
0.0
 20
1.0
 30
0.0
  9
$PUCSORTHOREF
  2

  9
$PUCSORTHOVIEW
 70
     0
  9
$PUCSORGTOP
 10
0.0
 20
0.0
 30
0.0
  9
$PUCSORGBOTTOM
 10
0.0
 20
0.0
 30
0.0
  9
$PUCSORGLEFT
 10
0.0
 20
0.0
 30
0.0
  9
$PUCSORGRIGHT
 10
0.0
 20
0.0
 30
0.0
  9
$PUCSORGFRONT
 10
0.0
 20
0.0
 30
0.0
  9
$PUCSORGBACK
 10
0.0
 20
0.0
 30
0.0
  9
$USERI1
 70
     0
  9
$USERI2
 70
     0
  9
$USERI3
 70
     0
  9
$USERI4
 70
     0
  9
$USERI5
 70
     0
  9
$USERR1
 40
0.0
  9
$USERR2
 40
0.0
  9
$USERR3
 40
0.0
  9
$USERR4
 40
0.0
  9
$USERR5
 40
0.0
  9
$WORLDVIEW
 70
     1
  9
$SHADEDGE
 70
     3
  9
$SHADEDIF
 70
    70
  9
$TILEMODE
 70
     1
  9
$MAXACTVP
 70
    64
  9
$PINSBASE
 10
0.0
 20
0.0
 30
0.0
  9
$PLIMCHECK
 70
     0
  9
$PEXTMIN
 10
1.000000000000000E+20
 20
1.000000000000000E+20
 30
1.000000000000000E+20
  9
$PEXTMAX
 10
-1.000000000000000E+20
 20
-1.000000000000000E+20
 30
-1.000000000000000E+20
  9
$PLIMMIN
 10
0.0
 20
0.0
  9
$PLIMMAX
 10
12.0
 20
9.0
  9
$UNITMODE
 70
     0
  9
$VISRETAIN
 70
     1
  9
$PLINEGEN
 70
     0
  9
$PSLTSCALE
 70
     1
  9
$TREEDEPTH
 70
  3020
  9
$CMLSTYLE
  2
Standard
  9
$CMLJUST
 70
     0
  9
$CMLSCALE
 40
1.0
  9
$PROXYGRAPHICS
 70
     1
  9
$MEASUREMENT
 70
     0
  9
$CELWEIGHT
370
    -1
  9
$ENDCAPS
280
     0
  9
$JOINSTYLE
280
     0
  9
$LWDISPLAY
290
     1
  9
$INSUNITS
 70
     1
  9
$HYPERLINKBASE
  1

  9
$STYLESHEET
  1

  9
$XEDIT
290
     1
  9
$CEPSNTYPE
380
     0
  9
$PSTYLEMODE
290
     1
  9
$FINGERPRINTGUID
  2
{614EC762-6A6F-AFDE-B002-A16F7A07CCF6}
  9
$VERSIONGUID
  2
{FAEB1C32-E019-11D5-929B-00C0DF256EC4}
  9
$EXTNAMES
290
     1
  9
$PSVPSCALE
 40
0.0
  9
$OLESTARTUP
290
     0
  9
$SORTENTS
280
   127
  9
$INDEXCTL
280
     0
  9
$HIDETEXT
280
     1
  9
$XCLIPFRAME
280
     2
  9
$HALOGAP
280
     0
  9
$OBSCOLOR
 70
   257
  9
$OBSLTYPE
280
     0
  9
$INTERSECTIONDISPLAY
280
     0
  9
$INTERSECTIONCOLOR
 70
   257
  9
$DIMASSOC
280
     2
  9
$PROJECTNAME
  1

  9
$CAMERADISPLAY
290
     0
  9
$LENSLENGTH
 40
50.0
  9
$CAMERAHEIGHT
 40
0.0
  9
$STEPSPERSEC
 40
2.0
  9
$STEPSIZE
 40
6.0
  9
$3DDWFPREC
 40
2.0
  9
$PSOLWIDTH
 40
0.25
  9
$PSOLHEIGHT
 40
4.0
  9
$LOFTANG1
 40
1.570796326794897
  9
$LOFTANG2
 40
1.570796326794897
  9
$LOFTMAG1
 40
0.0
  9
$LOFTMAG2
 40
0.0
  9
$LOFTPARAM
 70
     7
  9
$LOFTNORMALS
280
     1
  9
$LATITUDE
 40
37.795
  9
$LONGITUDE
 40
-122.394
  9
$NORTHDIRECTION
 40
0.0
  9
$TIMEZONE
 70
 -8000
  9
$LIGHTGLYPHDISPLAY
280
     1
  9
$TILEMODELIGHTSYNCH
280
     1
  9
$CMATERIAL
347
3C
  9
$SOLIDHIST
280
     1
  9
$SHOWHIST
280
     1
  9
$DWFFRAME
280
     2
  9
$DGNFRAME
280
     2
  9
$REALWORLDSCALE
290
     1
  9
$INTERFERECOLOR
 62
   256
  9
$CSHADOW
280
     0
  9
$SHADOWPLANELOCATION
 40
0.0
  0
ENDSEC
  0
SECTION
  2
CLASSES
  0
CLASS
  1
ACDBDICTIONARYWDFLT
  2
AcDbDictionaryWithDefault
  3
ObjectDBX Classes
 90
        0
 91
        4
280
     0
281
     0
  0
CLASS
  1
VISUALSTYLE
  2
AcDbVisualStyle
  3
ObjectDBX Classes
 90
     4095
 91
        4
280
     0
281
     0
  0
CLASS
  1
MATERIAL
  2
AcDbMaterial
  3
ObjectDBX Classes
 90
     1153
 91
        4
280
     0
281
     0
  0
CLASS
  1
SUN
  2
AcDbSun
  3
SCENEOE
 90
     1024
 91
        4
280
     0
281
     0
  0
ENDSEC
  0
SECTION
  2
TABLES
  0
TABLE
  2
VPORT
  5
8
330
0
100
AcDbSymbolTable
 70
     1
  0
VPORT
  5
29
330
8
100
AcDbSymbolTableRecord
100
AcDbViewportTableRecord
  2
*Active
 70
     0
 10
0.0
 20
0.0
 11
1.0
 21
1.0
 12
0.0
 22
0.0
 13
0.0
 23
0.0
 14
0.5
 24
0.5
 15
0.5
 25
0.5
 16
0.0
 26
0.0
 36
1.0
 17
4.133472018771701
 27
5.847222222222222
 37
0.0
 40
11.69444444444444
 41
0.7069120792198633
 42
50.0
 43
0.0
 44
0.0
 50
0.0
 51
0.0
 71
     0
 72
   100
 73
     1
 74
     3
 75
     0
 76
     0
 77
     0
 78
     0
281
     0
 65
     1
110
0.0
120
0.0
130
0.0
111
1.0
121
0.0
131
0.0
112
0.0
122
1.0
132
0.0
 79
     0
146
0.0
 60
     3
 61
     5
292
     1
282
     1
141
0.0
142
0.0
 63
   250
361
3F
  0
ENDTAB
  0
TABLE
  2
LTYPE
  5
5
330
0
100
AcDbSymbolTable
 70
     1
  0
LTYPE
  5
14
330
5
100
AcDbSymbolTableRecord
100
AcDbLinetypeTableRecord
  2
ByBlock
 70
     0
  3

 72
    65
 73
     0
 40
0.0
  0
LTYPE
  5
15
330
5
100
AcDbSymbolTableRecord
100
AcDbLinetypeTableRecord
  2
ByLayer
 70
     0
  3

 72
    65
 73
     0
 40
0.0
  0
LTYPE
  5
16
330
5
100
AcDbSymbolTableRecord
100
AcDbLinetypeTableRecord
  2
Continuous
 70
     0
  3
Solid line
 72
    65
 73
     0
 40
0.0
  0
ENDTAB
  0
TABLE
  2
LAYER
  5
2
330
0
100
AcDbSymbolTable
 70
     2
  0
LAYER
  5
10
330
2
100
AcDbSymbolTableRecord
100
AcDbLayerTableRecord
  2
0
 70
     0
 62
     7
  6
Continuous
370
    -3
390
F
347
3E
  0
LAYER
  5
40
330
2
100
AcDbSymbolTableRecord
100
AcDbLayerTableRecord
  2
Layer 1
 70
     0
 62
     7
  6
Continuous
370
    -3
390
F
347
3E
  0
ENDTAB
  0
TABLE
  2
STYLE
  5
3
330
0
100
AcDbSymbolTable
 70
     1
  0
STYLE
  5
11
330
3
100
AcDbSymbolTableRecord
100
AcDbTextStyleTableRecord
  2
Standard
 70
     0
 40
0.0
 41
1.0
 50
0.0
 71
     0
 42
0.2
  3
txt
  4

  0
ENDTAB
  0
TABLE
  2
VIEW
  5
6
330
0
100
AcDbSymbolTable
 70
     0
  0
ENDTAB
  0
TABLE
  2
UCS
  5
7
330
0
100
AcDbSymbolTable
 70
     0
  0
ENDTAB
  0
TABLE
  2
APPID
  5
9
330
0
100
AcDbSymbolTable
 70
     1
  0
APPID
  5
12
330
9
100
AcDbSymbolTableRecord
100
AcDbRegAppTableRecord
  2
ACAD
 70
     0
  0
ENDTAB
  0
TABLE
  2
DIMSTYLE
  5
A
330
0
100
AcDbSymbolTable
 70
     1
100
AcDbDimStyleTable
  0
DIMSTYLE
105
27
330
A
100
AcDbSymbolTableRecord
100
AcDbDimStyleTableRecord
  2
Standard
 70
     0
178
     0
340
11
  0
ENDTAB
  0
TABLE
  2
BLOCK_RECORD
  5
1
330
0
100
AcDbSymbolTable
 70
     2
  0
BLOCK_RECORD
  5
1F
330
1
100
AcDbSymbolTableRecord
100
AcDbBlockTableRecord
  2
*Model_Space
340
22
 70
     0
280
     1
281
     0
  0
BLOCK_RECORD
  5
1B
330
1
100
AcDbSymbolTableRecord
100
AcDbBlockTableRecord
  2
*Paper_Space
340
1E
 70
     0
280
     1
281
     0
  0
BLOCK_RECORD
  5
23
330
1
100
AcDbSymbolTableRecord
100
AcDbBlockTableRecord
  2
*Paper_Space0
340
26
 70
     0
280
     1
281
     0
  0
BLOCK_RECORD
  5
186
330
1
100
AcDbSymbolTableRecord
100
AcDbBlockTableRecord
  2
block 2
340
0
102
{BLKREFS
331
187
102
}
 70
     0
280
     1
281
     0
  0
ENDTAB
  0
ENDSEC
  0
SECTION
  2
BLOCKS
  0
BLOCK
  5
20
330
1F
100
AcDbEntity
  8
0
100
AcDbBlockBegin
  2
*Model_Space
 70
     0
 10
0.0
 20
0.0
 30
0.0
  3
*Model_Space
  1

  0
ENDBLK
  5
21
330
1F
100
AcDbEntity
  8
0
100
AcDbBlockEnd
  0
BLOCK
  5
1C
330
1B
100
AcDbEntity
 67
     1
  8
0
100
AcDbBlockBegin
  2
*Paper_Space
 70
     0
 10
0.0
 20
0.0
 30
0.0
  3
*Paper_Space
  1

  0
ENDBLK
  5
1D
330
1B
100
AcDbEntity
 67
     1
  8
0
100
AcDbBlockEnd
  0
BLOCK
  5
24
330
23
100
AcDbEntity
  8
0
100
AcDbBlockBegin
  2
*Paper_Space0
 70
     0
 10
0.0
 20
0.0
 30
0.0
  3
*Paper_Space0
  1

  0
ENDBLK
  5
25
330
23
100
AcDbEntity
  8
0
100
AcDbBlockEnd
  0
BLOCK
  5
188
330
186
100
AcDbEntity
  8
0
100
AcDbBlockBegin
  2
block 2
 70
     0
 10
0.0
 20
0.0
 30
0.0
  3
block 2
  1

  0
MTEXT
  5
18A
330
186
100
AcDbEntity
  8
Layer 1
 62
     7
420
 16777215
100
AcDbMText
 10
3.299289491441515
 20
6.004833645290798
 30
0.0
 40
0.1718178666432698
 41
0.0
 46
0.0
 71
     7
 72
     1
  1
\fMyriad Pro|b0|i0|c0|p34;\W1;Model: 203330
 73
     1
 44
1.0
  0
ENDBLK
  5
189
330
186
100
AcDbEntity
  8
0
100
AcDbBlockEnd
  0
ENDSEC
  0
SECTION
  2
ENTITIES
  0
POLYLINE
  5
41
330
1F
100
AcDbEntity
  8
Layer 1
 62
     7
420
 16777215
370
     9
100
AcDb2dPolyline
 66
     1
 10
0.0
 20
0.0
 30
0.0
  0
VERTEX
  5
42
330
41
100
AcDbEntity
  8
Layer 1
 62
     7
420
 16777215
370
     9
100
AcDbVertex
100
AcDb2dVertex
 10
5.921666887071397
 20
9.52861107720269
 30
0.0
  0
VERTEX
  5
43
330
41
100
AcDbEntity
  8
Layer 1
 62
     7
420
 16777215
370
     9
100
AcDbVertex
100
AcDb2dVertex
 10
2.101666768391927
 20
9.52861107720269
 30
0.0
  0
VERTEX
  5
44
330
41
100
AcDbEntity
  8
Layer 1
 62
     7
420
 16777215
370
     9
100
AcDbVertex
100
AcDb2dVertex
 10
2.101666768391927
 20
2.36611090766059
 30
0.0
  0
VERTEX
  5
45
330
41
100
AcDbEntity
  8
Layer 1
 62
     7
420
 16777215
370
     9
100
AcDbVertex
100
AcDb2dVertex
 10
5.921666887071397
 20
2.36611090766059
 30
0.0
  0
VERTEX
  5
46
330
41
100
AcDbEntity
  8
Layer 1
 62
     7
420
 16777215
370
     9
100
AcDbVertex
100
AcDb2dVertex
 10
5.921666887071397
 20
9.52861107720269
 30
0.0
  0
SEQEND
  5
47
330
41
100
AcDbEntity
  8
Layer 1
 62
     7
420
 16777215
370
     9
  0
POLYLINE
  5
48
330
1F
100
AcDbEntity
  8
Layer 1
 62
     7
420
 16777215
370
     9
100
AcDb2dPolyline
 66
     1
 10
0.0
 20
0.0
 30
0.0
  0
VERTEX
  5
49
330
48
100
AcDbEntity
  8
Layer 1
 62
     7
420
 16777215
370
     9
100
AcDbVertex
100
AcDb2dVertex
 10
2.101666768391927
 20
9.52861107720269
 30
0.0
  0
VERTEX
  5
18B
330
48
100
AcDbEntity
  8
0
100
AcDbVertex
100
AcDb2dVertex
 10
2.101666768391927
 20
9.52861107720269
 30
0.0
  0
SEQEND
  5
4A
330
48
100
AcDbEntity
  8
Layer 1
 62
     7
420
 16777215
370
     9
  0
POLYLINE
  5
4B
330
1F
100
AcDbEntity
  8
Layer 1
 62
     1
420
 16711680
370
     9
100
AcDb2dPolyline
 66
     1
 10
0.0
 20
0.0
 30
0.0
  0
VERTEX
  5
4C
330
4B
100
AcDbEntity
  8
Layer 1
 62
     1
420
 16711680
370
     9
100
AcDbVertex
100
AcDb2dVertex
 10
6.230833265516493
 20
9.52861107720269
 30
0.0
  0
VERTEX
  5
4D
330
4B
100
AcDbEntity
  8
Layer 1
 62
     1
420
 16711680
370
     9
100
AcDbVertex
100
AcDb2dVertex
 10
6.532499525282118
 20
9.52861107720269
 30
0.0
  0
SEQEND
  5
4E
330
4B
100
AcDbEntity
  8
Layer 1
 62
     1
420
 16711680
370
     9
  0
POLYLINE
  5
4F
330
1F
100
AcDbEntity
  8
Layer 1
 62
     1
420
 16711680
370
     9
100
AcDb2dPolyline
 66
     1
 10
0.0
 20
0.0
 30
0.0
  0
VERTEX
  5
50
330
4F
100
AcDbEntity
  8
Layer 1
 62
     1
420
 16711680
370
     9
100
AcDbVertex
100
AcDb2dVertex
 10
6.22750006781684
 20
2.36611090766059
 30
0.0
  0
VERTEX
  5
51
330
4F
100
AcDbEntity
  8
Layer 1
 62
     1
420
 16711680
370
     9
100
AcDbVertex
100
AcDb2dVertex
 10
6.532499949137369
 20
2.36611090766059
 30
0.0
  0
SEQEND
  5
52
330
4F
100
AcDbEntity
  8
Layer 1
 62
     1
420
 16711680
370
     9
  0
POLYLINE
  5
53
330
1F
100
AcDbEntity
  8
Layer 1
 62
     1
420
 16711680
370
     9
100
AcDb2dPolyline
 66
     1
 10
0.0
 20
0.0
 30
0.0
  0
VERTEX
  5
54
330
53
100
AcDbEntity
  8
Layer 1
 62
     1
420
 16711680
370
     9
100
AcDbVertex
100
AcDb2dVertex
 10
6.391666836208767
 20
9.359444512261284
 30
0.0
  0
VERTEX
  5
55
330
53
100
AcDbEntity
  8
Layer 1
 62
     1
420
 16711680
370
     9
100
AcDbVertex
100
AcDb2dVertex
 10
6.391666836208767
 20
2.535277896457248
 30
0.0
  0
SEQEND
  5
56
330
53
100
AcDbEntity
  8
Layer 1
 62
     1
420
 16711680
370
     9
  0
POLYLINE
  5
57
330
1F
100
AcDbEntity
  8
Layer 1
370
     0
100
AcDb2dPolyline
 66
     1
 10
0.0
 20
0.0
 30
0.0
  0
VERTEX
  5
58
330
57
100
AcDbEntity
  8
Layer 1
370
     0
100
AcDbVertex
100
AcDb2dVertex
 10
6.419999864366319
 20
9.359444512261284
 30
0.0
  0
VERTEX
  5
59
330
57
100
AcDbEntity
  8
Layer 1
370
     0
100
AcDbVertex
100
AcDb2dVertex
 10
6.363332960340712
 20
9.359444512261284
 30
0.0
  0
VERTEX
  5
5A
330
57
100
AcDbEntity
  8
Layer 1
370
     0
100
AcDbVertex
100
AcDb2dVertex
 10
6.391666412353516
 20
9.52861107720269
 30
0.0
  0
SEQEND
  5
5C
330
57
100
AcDbEntity
  8
Layer 1
370
     0
  0
HATCH
  5
5B
330
1F
100
AcDbEntity
  8
Layer 1
 62
     1
420
 16711680
100
AcDbHatch
 10
0.0
 20
0.0
 30
0.0
210
0.0
220
0.0
230
1.0
  2
SOLID
 70
     1
 71
     0
 91
        1
 92
        1
 93
        3
 72
     1
 10
6.419999864366319
 20
9.359444512261284
 11
6.363332960340711
 21
9.359444512261284
 72
     1
 10
6.363332960340712
 20
9.359444512261284
 11
6.391666412353516
 21
9.52861107720269
 72
     1
 10
6.391666412353516
 20
9.52861107720269
 11
6.41999986436632
 21
9.359444512261284
 97
        0
 75
     0
 76
     1
 98
        0
  0
POLYLINE
  5
5D
330
1F
100
AcDbEntity
  8
Layer 1
370
     0
100
AcDb2dPolyline
 66
     1
 10
0.0
 20
0.0
 30
0.0
  0
VERTEX
  5
5E
330
5D
100
AcDbEntity
  8
Layer 1
370
     0
100
AcDbVertex
100
AcDb2dVertex
 10
6.419999864366319
 20
2.535277684529622
 30
0.0
  0
VERTEX
  5
5F
330
5D
100
AcDbEntity
  8
Layer 1
370
     0
100
AcDbVertex
100
AcDb2dVertex
 10
6.363332960340712
 20
2.535277684529622
 30
0.0
  0
VERTEX
  5
60
330
5D
100
AcDbEntity
  8
Layer 1
370
     0
100
AcDbVertex
100
AcDb2dVertex
 10
6.391666412353516
 20
2.36611090766059
 30
0.0
  0
SEQEND
  5
62
330
5D
100
AcDbEntity
  8
Layer 1
370
     0
  0
HATCH
  5
61
330
1F
100
AcDbEntity
  8
Layer 1
 62
     1
420
 16711680
100
AcDbHatch
 10
0.0
 20
0.0
 30
0.0
210
0.0
220
0.0
230
1.0
  2
SOLID
 70
     1
 71
     0
 91
        1
 92
        1
 93
        3
 72
     1
 10
6.419999864366319
 20
2.535277684529622
 11
6.363332960340711
 21
2.535277684529622
 72
     1
 10
6.363332960340712
 20
2.535277684529622
 11
6.391666412353516
 21
2.36611090766059
 72
     1
 10
6.391666412353516
 20
2.36611090766059
 11
6.41999986436632
 21
2.535277684529622
 97
        0
 75
     0
 76
     1
 98
        0
  0
SPLINE
  5
63
330
1F
100
AcDbEntity
  8
Layer 1
370
     0
100
AcDbSpline
210
0.0
220
0.0
230
1.0
 70
     8
 71
     3
 72
    59
 73
    55
 74
     0
 42
0.0000000001
 43
0.0000000001
 12
1.0
 22
0.0
 32
0.0
 13
1.0
 23
0.0
 33
0.0
 40
0.0
 40
0.0
 40
0.0
 40
0.0
 40
1.0
 40
1.0
 40
1.0
 40
2.0
 40
2.0
 40
2.0
 40
3.0
 40
3.0
 40
3.0
 40
4.0
 40
4.0
 40
4.0
 40
5.0
 40
5.0
 40
5.0
 40
6.0
 40
6.0
 40
6.0
 40
7.0
 40
7.0
 40
7.0
 40
8.0
 40
8.0
 40
8.0
 40
9.0
 40
9.0
 40
9.0
 40
10.0
 40
10.0
 40
10.0
 40
11.0
 40
11.0
 40
11.0
 40
12.0
 40
12.0
 40
12.0
 40
13.0
 40
13.0
 40
13.0
 40
14.0
 40
14.0
 40
14.0
 40
15.0
 40
15.0
 40
15.0
 40
16.0
 40
16.0
 40
16.0
 40
17.0
 40
17.0
 40
17.0
 40
18.0
 40
18.0
 40
18.0
 40
18.0
 10
6.7250001695421
 20
6.501944647894965
 30
0.0
 10
6.7250001695421
 20
6.501944647894965
 30
0.0
 10
6.721666547987196
 20
6.517777760823567
 30
0.0
 10
6.721666547987196
 20
6.517777760823567
 30
0.0
 10
6.721666547987196
 20
6.517777760823567
 30
0.0
 10
6.712499830457899
 20
6.522777981228298
 30
0.0
 10
6.712499830457899
 20
6.522777981228298
 30
0.0
 10
6.682083129882812
 20
6.542013804117838
 30
0.0
 10
6.524347093370225
 20
6.623083326551649
 30
0.0
 10
6.494166480170356
 20
6.586111280653212
 30
0.0
 10
6.494166480170356
 20
6.586111280653212
 30
0.0
 10
6.492499881320529
 20
6.579444461398654
 30
0.0
 10
6.492499881320529
 20
6.579444461398654
 30
0.0
 10
6.492499881320529
 20
6.579444461398654
 30
0.0
 10
6.494166480170356
 20
6.571944342719184
 30
0.0
 10
6.494166480170356
 20
6.571944342719184
 30
0.0
 10
6.494166480170356
 20
6.571944342719184
 30
0.0
 10
6.49750010172526
 20
6.566944546169704
 30
0.0
 10
6.49750010172526
 20
6.566944546169704
 30
0.0
 10
6.49750010172526
 20
6.566944546169704
 30
0.0
 10
6.498333401150173
 20
6.566111246744791
 30
0.0
 10
6.498333401150173
 20
6.566111246744791
 30
0.0
 10
6.507736206054688
 20
6.562249925401475
 30
0.0
 10
6.522263844807942
 20
6.564041561550564
 30
0.0
 10
6.532499949137369
 20
6.5636109246148
 30
0.0
 10
6.532499949137369
 20
6.5636109246148
 30
0.0
 10
6.539166768391927
 20
6.5636109246148
 30
0.0
 10
6.539166768391927
 20
6.5636109246148
 30
0.0
 10
6.539166768391927
 20
6.5636109246148
 30
0.0
 10
6.540833367241753
 20
6.564444647894965
 30
0.0
 10
6.540833367241753
 20
6.564444647894965
 30
0.0
 10
6.552986145019531
 20
6.565916697184244
 30
0.0
 10
6.565430535210503
 20
6.565736134847005
 30
0.0
 10
6.577499813503689
 20
6.5636109246148
 30
0.0
 10
6.577499813503689
 20
6.5636109246148
 30
0.0
 10
6.584166632758246
 20
6.561944325764974
 30
0.0
 10
6.584166632758246
 20
6.561944325764974
 30
0.0
 10
6.584166632758246
 20
6.561944325764974
 30
0.0
 10
6.591666751437717
 20
6.56111102634006
 30
0.0
 10
6.591666751437717
 20
6.56111102634006
 30
0.0
 10
6.591666751437717
 20
6.56111102634006
 30
0.0
 10
6.598333146837022
 20
6.559444427490234
 30
0.0
 10
6.598333146837022
 20
6.559444427490234
 30
0.0
 10
6.634624905056423
 20
6.549875047471788
 30
0.0
 10
6.665944417317708
 20
6.533902910020616
 30
0.0
 10
6.699166615804036
 20
6.516944461398654
 30
0.0
 10
6.699166615804036
 20
6.516944461398654
 30
0.0
 10
6.70500013563368
 20
6.513611263699001
 30
0.0
 10
6.70500013563368
 20
6.513611263699001
 30
0.0
 10
6.70500013563368
 20
6.513611263699001
 30
0.0
 10
6.711666531032986
 20
6.509444342719184
 30
0.0
 10
6.711666531032986
 20
6.509444342719184
 30
0.0
 10
6.711666531032986
 20
6.509444342719184
 30
0.0
 10
6.718333350287543
 20
6.506111145019531
 30
0.0
 10
6.718333350287543
 20
6.506111145019531
 30
0.0
  0
HATCH
  5
64
330
1F
100
AcDbEntity
  8
Layer 1
 62
     1
420
 16711680
100
AcDbHatch
 10
0.0
 20
0.0
 30
0.0
210
0.0
220
0.0
230
1.0
  2
SOLID
 70
     1
 71
     0
 91
        1
 92
        1
 93
        2
 72
     4
 94
        3
 73
     0
 74
     0
 95
       59
 96
       55
 40
0.0
 40
0.0
 40
0.0
 40
0.0
 40
0.0138888888888889
 40
0.0138888888888889
 40
0.0138888888888889
 40
0.0277777777777778
 40
0.0277777777777778
 40
0.0277777777777778
 40
0.0416666666666667
 40
0.0416666666666667
 40
0.0416666666666667
 40
0.0555555555555556
 40
0.0555555555555556
 40
0.0555555555555556
 40
0.0694444444444444
 40
0.0694444444444444
 40
0.0694444444444444
 40
0.0833333333333333
 40
0.0833333333333333
 40
0.0833333333333333
 40
0.0972222222222222
 40
0.0972222222222222
 40
0.0972222222222222
 40
0.1111111111111111
 40
0.1111111111111111
 40
0.1111111111111111
 40
0.125
 40
0.125
 40
0.125
 40
0.1388888888888889
 40
0.1388888888888889
 40
0.1388888888888889
 40
0.1527777777777778
 40
0.1527777777777778
 40
0.1527777777777778
 40
0.1666666666666667
 40
0.1666666666666667
 40
0.1666666666666667
 40
0.1805555555555556
 40
0.1805555555555556
 40
0.1805555555555556
 40
0.1944444444444444
 40
0.1944444444444444
 40
0.1944444444444444
 40
0.2083333333333333
 40
0.2083333333333333
 40
0.2083333333333333
 40
0.2222222222222222
 40
0.2222222222222222
 40
0.2222222222222222
 40
0.2361111111111111
 40
0.2361111111111111
 40
0.2361111111111111
 40
0.25
 40
0.25
 40
0.25
 40
0.25
 10
6.7250001695421
 20
6.501944647894965
 10
6.7250001695421
 20
6.501944647894965
 10
6.721666547987196
 20
6.517777760823567
 10
6.721666547987196
 20
6.517777760823567
 10
6.721666547987196
 20
6.517777760823567
 10
6.712499830457899
 20
6.522777981228298
 10
6.712499830457899
 20
6.522777981228298
 10
6.682083129882812
 20
6.542013804117838
 10
6.524347093370225
 20
6.623083326551649
 10
6.494166480170356
 20
6.586111280653212
 10
6.494166480170356
 20
6.586111280653212
 10
6.492499881320529
 20
6.579444461398654
 10
6.492499881320529
 20
6.579444461398654
 10
6.492499881320529
 20
6.579444461398654
 10
6.494166480170356
 20
6.571944342719184
 10
6.494166480170356
 20
6.571944342719184
 10
6.494166480170356
 20
6.571944342719184
 10
6.49750010172526
 20
6.566944546169704
 10
6.49750010172526
 20
6.566944546169704
 10
6.49750010172526
 20
6.566944546169704
 10
6.498333401150173
 20
6.566111246744791
 10
6.498333401150173
 20
6.566111246744791
 10
6.507736206054688
 20
6.562249925401475
 10
6.522263844807942
 20
6.564041561550564
 10
6.532499949137369
 20
6.5636109246148
 10
6.532499949137369
 20
6.5636109246148
 10
6.539166768391927
 20
6.5636109246148
 10
6.539166768391927
 20
6.5636109246148
 10
6.539166768391927
 20
6.5636109246148
 10
6.540833367241753
 20
6.564444647894965
 10
6.540833367241753
 20
6.564444647894965
 10
6.552986145019531
 20
6.565916697184244
 10
6.565430535210503
 20
6.565736134847005
 10
6.577499813503689
 20
6.5636109246148
 10
6.577499813503689
 20
6.5636109246148
 10
6.584166632758246
 20
6.561944325764974
 10
6.584166632758246
 20
6.561944325764974
 10
6.584166632758246
 20
6.561944325764974
 10
6.591666751437717
 20
6.56111102634006
 10
6.591666751437717
 20
6.56111102634006
 10
6.591666751437717
 20
6.56111102634006
 10
6.598333146837022
 20
6.559444427490234
 10
6.598333146837022
 20
6.559444427490234
 10
6.634624905056423
 20
6.549875047471788
 10
6.665944417317708
 20
6.533902910020616
 10
6.699166615804036
 20
6.516944461398654
 10
6.699166615804036
 20
6.516944461398654
 10
6.70500013563368
 20
6.513611263699001
 10
6.70500013563368
 20
6.513611263699001
 10
6.70500013563368
 20
6.513611263699001
 10
6.711666531032986
 20
6.509444342719184
 10
6.711666531032986
 20
6.509444342719184
 10
6.711666531032986
 20
6.509444342719184
 10
6.718333350287543
 20
6.506111145019531
 10
6.718333350287543
 20
6.506111145019531
 97
        0
 72
     1
 10
6.718333350287543
 20
6.506111145019531
 11
6.7250001695421
 21
6.501944647894965
 97
        0
 75
     0
 76
     1
 98
        0
  0
SPLINE
  5
65
330
1F
100
AcDbEntity
  8
Layer 1
370
     0
100
AcDbSpline
210
0.0
220
0.0
230
1.0
 70
     8
 71
     3
 72
    23
 73
    19
 74
     0
 42
0.0000000001
 43
0.0000000001
 12
1.0
 22
0.0
 32
0.0
 13
1.0
 23
0.0
 33
0.0
 40
0.0
 40
0.0
 40
0.0
 40
0.0
 40
1.0
 40
1.0
 40
1.0
 40
2.0
 40
2.0
 40
2.0
 40
3.0
 40
3.0
 40
3.0
 40
4.0
 40
4.0
 40
4.0
 40
5.0
 40
5.0
 40
5.0
 40
6.0
 40
6.0
 40
6.0
 40
6.0
 10
6.741666581895616
 20
6.497777726915147
 30
0.0
 10
6.741666581895616
 20
6.497777726915147
 30
0.0
 10
6.741666581895616
 20
6.626944224039713
 30
0.0
 10
6.741666581895616
 20
6.626944224039713
 30
0.0
 10
6.741666581895616
 20
6.626944224039713
 30
0.0
 10
6.682499779595268
 20
6.636944240993923
 30
0.0
 10
6.682499779595268
 20
6.636944240993923
 30
0.0
 10
6.682499779595268
 20
6.636944240993923
 30
0.0
 10
6.681666480170356
 20
6.62861082288954
 30
0.0
 10
6.681666480170356
 20
6.62861082288954
 30
0.0
 10
6.681666480170356
 20
6.62861082288954
 30
0.0
 10
6.687499576144748
 20
6.626944224039713
 30
0.0
 10
6.687499576144748
 20
6.626944224039713
 30
0.0
 10
6.748180389404297
 20
6.61369408501519
 30
0.0
 10
6.709291246202256
 20
6.544166564941406
 30
0.0
 10
6.724999745686849
 20
6.501944224039713
 30
0.0
 10
6.724999745686849
 20
6.501944224039713
 30
0.0
 10
6.731666564941406
 20
6.497777726915147
 30
0.0
 10
6.731666564941406
 20
6.497777726915147
 30
0.0
  0
HATCH
  5
66
330
1F
100
AcDbEntity
  8
Layer 1
 62
     1
420
 16711680
100
AcDbHatch
 10
0.0
 20
0.0
 30
0.0
210
0.0
220
0.0
230
1.0
  2
SOLID
 70
     1
 71
     0
 91
        1
 92
        1
 93
        2
 72
     4
 94
        3
 73
     0
 74
     0
 95
       23
 96
       19
 40
0.0
 40
0.0
 40
0.0
 40
0.0
 40
0.0138888888888889
 40
0.0138888888888889
 40
0.0138888888888889
 40
0.0277777777777778
 40
0.0277777777777778
 40
0.0277777777777778
 40
0.0416666666666667
 40
0.0416666666666667
 40
0.0416666666666667
 40
0.0555555555555556
 40
0.0555555555555556
 40
0.0555555555555556
 40
0.0694444444444444
 40
0.0694444444444444
 40
0.0694444444444444
 40
0.0833333333333333
 40
0.0833333333333333
 40
0.0833333333333333
 40
0.0833333333333333
 10
6.741666581895616
 20
6.497777726915147
 10
6.741666581895616
 20
6.497777726915147
 10
6.741666581895616
 20
6.626944224039713
 10
6.741666581895616
 20
6.626944224039713
 10
6.741666581895616
 20
6.626944224039713
 10
6.682499779595268
 20
6.636944240993923
 10
6.682499779595268
 20
6.636944240993923
 10
6.682499779595268
 20
6.636944240993923
 10
6.681666480170356
 20
6.62861082288954
 10
6.681666480170356
 20
6.62861082288954
 10
6.681666480170356
 20
6.62861082288954
 10
6.687499576144748
 20
6.626944224039713
 10
6.687499576144748
 20
6.626944224039713
 10
6.748180389404297
 20
6.61369408501519
 10
6.709291246202256
 20
6.544166564941406
 10
6.724999745686849
 20
6.501944224039713
 10
6.724999745686849
 20
6.501944224039713
 10
6.731666564941406
 20
6.497777726915147
 10
6.731666564941406
 20
6.497777726915147
 97
        0
 72
     1
 10
6.731666564941406
 20
6.497777726915147
 11
6.741666581895616
 21
6.497777726915147
 97
        0
 75
     0
 76
     1
 98
        0
  0
POLYLINE
  5
67
330
1F
100
AcDbEntity
  8
Layer 1
370
     0
100
AcDb2dPolyline
 66
     1
 10
0.0
 20
0.0
 30
0.0
  0
VERTEX
  5
68
330
67
100
AcDbEntity
  8
Layer 1
370
     0
100
AcDbVertex
100
AcDb2dVertex
 10
6.638333214653862
 20
6.416110992431641
 30
0.0
  0
VERTEX
  5
69
330
67
100
AcDbEntity
  8
Layer 1
370
     0
100
AcDbVertex
100
AcDb2dVertex
 10
6.633332994249131
 20
6.421110788981119
 30
0.0
  0
VERTEX
  5
6A
330
67
100
AcDbEntity
  8
Layer 1
370
     0
100
AcDbVertex
100
AcDb2dVertex
 10
6.628333197699653
 20
6.425277286105685
 30
0.0
  0
VERTEX
  5
6B
330
67
100
AcDbEntity
  8
Layer 1
370
     0
100
AcDbVertex
100
AcDb2dVertex
 10
6.621666378445095
 20
6.429444207085503
 30
0.0
  0
VERTEX
  5
6C
330
67
100
AcDbEntity
  8
Layer 1
370
     0
100
AcDbVertex
100
AcDb2dVertex
 10
6.614999559190538
 20
6.432777404785156
 30
0.0
  0
VERTEX
  5
6D
330
67
100
AcDbEntity
  8
Layer 1
370
     0
100
AcDbVertex
100
AcDb2dVertex
 10
6.609999762641059
 20
6.424443986680772
 30
0.0
  0
VERTEX
  5
6E
330
67
100
AcDbEntity
  8
Layer 1
370
     0
100
AcDbVertex
100
AcDb2dVertex
 10
6.621666378445095
 20
6.416110992431641
 30
0.0
  0
VERTEX
  5
6F
330
67
100
AcDbEntity
  8
Layer 1
370
     0
100
AcDbVertex
100
AcDb2dVertex
 10
6.625832875569661
 20
6.411944071451822
 30
0.0
  0
VERTEX
  5
70
330
67
100
AcDbEntity
  8
Layer 1
370
     0
100
AcDbVertex
100
AcDb2dVertex
 10
6.630833095974392
 20
6.404443952772352
 30
0.0
  0
VERTEX
  5
71
330
67
100
AcDbEntity
  8
Layer 1
370
     0
100
AcDbVertex
100
AcDb2dVertex
 10
6.634166293674045
 20
6.397777557373047
 30
0.0
  0
VERTEX
  5
72
330
67
100
AcDbEntity
  8
Layer 1
370
     0
100
AcDbVertex
100
AcDb2dVertex
 10
6.636666191948784
 20
6.391110738118489
 30
0.0
  0
VERTEX
  5
73
330
67
100
AcDbEntity
  8
Layer 1
370
     0
100
AcDbVertex
100
AcDb2dVertex
 10
6.637499491373697
 20
6.384443918863932
 30
0.0
  0
VERTEX
  5
74
330
67
100
AcDbEntity
  8
Layer 1
370
     0
100
AcDbVertex
100
AcDb2dVertex
 10
6.638333214653862
 20
6.376944224039713
 30
0.0
  0
SEQEND
  5
76
330
67
100
AcDbEntity
  8
Layer 1
370
     0
  0
HATCH
  5
75
330
1F
100
AcDbEntity
  8
Layer 1
 62
     1
420
 16711680
100
AcDbHatch
 10
0.0
 20
0.0
 30
0.0
210
0.0
220
0.0
230
1.0
  2
SOLID
 70
     1
 71
     0
 91
        1
 92
        1
 93
       13
 72
     1
 10
6.638333214653862
 20
6.416110992431641
 11
6.633332994249131
 21
6.42111078898112
 72
     1
 10
6.633332994249131
 20
6.421110788981119
 11
6.628333197699652
 21
6.425277286105685
 72
     1
 10
6.628333197699653
 20
6.425277286105685
 11
6.621666378445095
 21
6.429444207085503
 72
     1
 10
6.621666378445095
 20
6.429444207085503
 11
6.614999559190538
 21
6.432777404785155
 72
     1
 10
6.614999559190538
 20
6.432777404785156
 11
6.609999762641058
 21
6.424443986680773
 72
     1
 10
6.609999762641059
 20
6.424443986680772
 11
6.621666378445095
 21
6.41611099243164
 72
     1
 10
6.621666378445095
 20
6.416110992431641
 11
6.625832875569661
 21
6.411944071451823
 72
     1
 10
6.625832875569661
 20
6.411944071451822
 11
6.630833095974392
 21
6.404443952772352
 72
     1
 10
6.630833095974392
 20
6.404443952772352
 11
6.634166293674045
 21
6.397777557373047
 72
     1
 10
6.634166293674045
 20
6.397777557373047
 11
6.636666191948784
 21
6.391110738118489
 72
     1
 10
6.636666191948784
 20
6.391110738118489
 11
6.637499491373697
 21
6.384443918863932
 72
     1
 10
6.637499491373697
 20
6.384443918863932
 11
6.638333214653862
 21
6.376944224039713
 72
     1
 10
6.638333214653862
 20
6.376944224039713
 11
6.638333214653862
 21
6.41611099243164
 97
        0
 75
     0
 76
     1
 98
        0
  0
SPLINE
  5
77
330
1F
100
AcDbEntity
  8
Layer 1
370
     0
100
AcDbSpline
210
0.0
220
0.0
230
1.0
 70
     8
 71
     3
 72
    71
 73
    67
 74
     0
 42
0.0000000001
 43
0.0000000001
 12
1.0
 22
0.0
 32
0.0
 13
1.0
 23
0.0
 33
0.0
 40
0.0
 40
0.0
 40
0.0
 40
0.0
 40
1.0
 40
1.0
 40
1.0
 40
2.0
 40
2.0
 40
2.0
 40
3.0
 40
3.0
 40
3.0
 40
4.0
 40
4.0
 40
4.0
 40
5.0
 40
5.0
 40
5.0
 40
6.0
 40
6.0
 40
6.0
 40
7.0
 40
7.0
 40
7.0
 40
8.0
 40
8.0
 40
8.0
 40
9.0
 40
9.0
 40
9.0
 40
10.0
 40
10.0
 40
10.0
 40
11.0
 40
11.0
 40
11.0
 40
12.0
 40
12.0
 40
12.0
 40
13.0
 40
13.0
 40
13.0
 40
14.0
 40
14.0
 40
14.0
 40
15.0
 40
15.0
 40
15.0
 40
16.0
 40
16.0
 40
16.0
 40
17.0
 40
17.0
 40
17.0
 40
18.0
 40
18.0
 40
18.0
 40
19.0
 40
19.0
 40
19.0
 40
20.0
 40
20.0
 40
20.0
 40
21.0
 40
21.0
 40
21.0
 40
22.0
 40
22.0
 40
22.0
 40
22.0
 10
6.652500152587891
 20
6.376944647894965
 30
0.0
 10
6.652500152587891
 20
6.376944647894965
 30
0.0
 10
6.652500152587891
 20
6.381111145019531
 30
0.0
 10
6.652500152587891
 20
6.381111145019531
 30
0.0
 10
6.652500152587891
 20
6.381111145019531
 30
0.0
 10
6.651666429307725
 20
6.388611263699001
 30
0.0
 10
6.651666429307725
 20
6.388611263699001
 30
0.0
 10
6.651666429307725
 20
6.388611263699001
 30
0.0
 10
6.649999830457899
 20
6.395277659098307
 30
0.0
 10
6.649999830457899
 20
6.395277659098307
 30
0.0
 10
6.649999830457899
 20
6.395277659098307
 30
0.0
 10
6.647499932183159
 20
6.401944478352864
 30
0.0
 10
6.647499932183159
 20
6.401944478352864
 30
0.0
 10
6.647499932183159
 20
6.401944478352864
 30
0.0
 10
6.644166734483506
 20
6.408611297607422
 30
0.0
 10
6.644166734483506
 20
6.408611297607422
 30
0.0
 10
6.644166734483506
 20
6.408611297607422
 30
0.0
 10
6.64250013563368
 20
6.410277896457248
 30
0.0
 10
6.64250013563368
 20
6.410277896457248
 30
0.0
 10
6.64250013563368
 20
6.410277896457248
 30
0.0
 10
6.638333214653862
 20
6.416110992431641
 30
0.0
 10
6.638333214653862
 20
6.416110992431641
 30
0.0
 10
6.638333214653862
 20
6.416110992431641
 30
0.0
 10
6.638333214653862
 20
6.376944647894965
 30
0.0
 10
6.638333214653862
 20
6.376944647894965
 30
0.0
 10
6.638333214653862
 20
6.376944647894965
 30
0.0
 10
6.63749991522895
 20
6.371111128065321
 30
0.0
 10
6.63749991522895
 20
6.371111128065321
 30
0.0
 10
6.633639017740885
 20
6.345874786376953
 30
0.0
 10
6.600180308024088
 20
6.333249833848741
 30
0.0
 10
6.577499813503689
 20
6.335277981228298
 30
0.0
 10
6.577499813503689
 20
6.335277981228298
 30
0.0
 10
6.561666700575087
 20
6.335277981228298
 30
0.0
 10
6.561666700575087
 20
6.335277981228298
 30
0.0
 10
6.538361019558376
 20
6.337222205268012
 30
0.0
 10
6.512777540418837
 20
6.340388827853732
 30
0.0
 10
6.503333197699653
 20
6.365277608235677
 30
0.0
 10
6.503333197699653
 20
6.365277608235677
 30
0.0
 10
6.501666598849826
 20
6.371944427490234
 30
0.0
 10
6.501666598849826
 20
6.371944427490234
 30
0.0
 10
6.501666598849826
 20
6.371944427490234
 30
0.0
 10
6.501666598849826
 20
6.379444546169704
 30
0.0
 10
6.501666598849826
 20
6.379444546169704
 30
0.0
 10
6.501666598849826
 20
6.379444546169704
 30
0.0
 10
6.500833299424913
 20
6.349444495307075
 30
0.0
 10
6.500833299424913
 20
6.349444495307075
 30
0.0
 10
6.500833299424913
 20
6.349444495307075
 30
0.0
 10
6.504999796549479
 20
6.34361097547743
 30
0.0
 10
6.504999796549479
 20
6.34361097547743
 30
0.0
 10
6.519374847412109
 20
6.318638695610893
 30
0.0
 10
6.550958421495225
 20
6.312027825249565
 30
0.0
 10
6.577499813503689
 20
6.311944325764974
 30
0.0
 10
6.577499813503689
 20
6.311944325764974
 30
0.0
 10
6.58250003390842
 20
6.311944325764974
 30
0.0
 10
6.58250003390842
 20
6.311944325764974
 30
0.0
 10
6.58250003390842
 20
6.311944325764974
 30
0.0
 10
6.589166429307725
 20
6.312777625189887
 30
0.0
 10
6.589166429307725
 20
6.312777625189887
 30
0.0
 10
6.612013922797309
 20
6.314319610595703
 30
0.0
 10
6.645152621799045
 20
6.328819274902344
 30
0.0
 10
6.649166531032986
 20
6.354444291856553
 30
0.0
 10
6.649166531032986
 20
6.354444291856553
 30
0.0
 10
6.650833129882812
 20
6.361111111111111
 30
0.0
 10
6.650833129882812
 20
6.361111111111111
 30
0.0
 10
6.650833129882812
 20
6.361111111111111
 30
0.0
 10
6.652500152587891
 20
6.368611229790581
 30
0.0
 10
6.652500152587891
 20
6.368611229790581
 30
0.0
  0
HATCH
  5
78
330
1F
100
AcDbEntity
  8
Layer 1
 62
     1
420
 16711680
100
AcDbHatch
 10
0.0
 20
0.0
 30
0.0
210
0.0
220
0.0
230
1.0
  2
SOLID
 70
     1
 71
     0
 91
        1
 92
        1
 93
        2
 72
     4
 94
        3
 73
     0
 74
     0
 95
       71
 96
       67
 40
0.0
 40
0.0
 40
0.0
 40
0.0
 40
0.0138888888888889
 40
0.0138888888888889
 40
0.0138888888888889
 40
0.0277777777777778
 40
0.0277777777777778
 40
0.0277777777777778
 40
0.0416666666666667
 40
0.0416666666666667
 40
0.0416666666666667
 40
0.0555555555555556
 40
0.0555555555555556
 40
0.0555555555555556
 40
0.0694444444444444
 40
0.0694444444444444
 40
0.0694444444444444
 40
0.0833333333333333
 40
0.0833333333333333
 40
0.0833333333333333
 40
0.0972222222222222
 40
0.0972222222222222
 40
0.0972222222222222
 40
0.1111111111111111
 40
0.1111111111111111
 40
0.1111111111111111
 40
0.125
 40
0.125
 40
0.125
 40
0.1388888888888889
 40
0.1388888888888889
 40
0.1388888888888889
 40
0.1527777777777778
 40
0.1527777777777778
 40
0.1527777777777778
 40
0.1666666666666667
 40
0.1666666666666667
 40
0.1666666666666667
 40
0.1805555555555556
 40
0.1805555555555556
 40
0.1805555555555556
 40
0.1944444444444444
 40
0.1944444444444444
 40
0.1944444444444444
 40
0.2083333333333333
 40
0.2083333333333333
 40
0.2083333333333333
 40
0.2222222222222222
 40
0.2222222222222222
 40
0.2222222222222222
 40
0.2361111111111111
 40
0.2361111111111111
 40
0.2361111111111111
 40
0.25
 40
0.25
 40
0.25
 40
0.2638888888888889
 40
0.2638888888888889
 40
0.2638888888888889
 40
0.2777777777777778
 40
0.2777777777777778
 40
0.2777777777777778
 40
0.2916666666666666
 40
0.2916666666666666
 40
0.2916666666666666
 40
0.3055555555555555
 40
0.3055555555555555
 40
0.3055555555555555
 40
0.3055555555555555
 10
6.652500152587891
 20
6.376944647894965
 10
6.652500152587891
 20
6.376944647894965
 10
6.652500152587891
 20
6.381111145019531
 10
6.652500152587891
 20
6.381111145019531
 10
6.652500152587891
 20
6.381111145019531
 10
6.651666429307725
 20
6.388611263699001
 10
6.651666429307725
 20
6.388611263699001
 10
6.651666429307725
 20
6.388611263699001
 10
6.649999830457899
 20
6.395277659098307
 10
6.649999830457899
 20
6.395277659098307
 10
6.649999830457899
 20
6.395277659098307
 10
6.647499932183159
 20
6.401944478352864
 10
6.647499932183159
 20
6.401944478352864
 10
6.647499932183159
 20
6.401944478352864
 10
6.644166734483506
 20
6.408611297607422
 10
6.644166734483506
 20
6.408611297607422
 10
6.644166734483506
 20
6.408611297607422
 10
6.64250013563368
 20
6.410277896457248
 10
6.64250013563368
 20
6.410277896457248
 10
6.64250013563368
 20
6.410277896457248
 10
6.638333214653862
 20
6.416110992431641
 10
6.638333214653862
 20
6.416110992431641
 10
6.638333214653862
 20
6.416110992431641
 10
6.638333214653862
 20
6.376944647894965
 10
6.638333214653862
 20
6.376944647894965
 10
6.638333214653862
 20
6.376944647894965
 10
6.63749991522895
 20
6.371111128065321
 10
6.63749991522895
 20
6.371111128065321
 10
6.633639017740885
 20
6.345874786376953
 10
6.600180308024088
 20
6.333249833848741
 10
6.577499813503689
 20
6.335277981228298
 10
6.577499813503689
 20
6.335277981228298
 10
6.561666700575087
 20
6.335277981228298
 10
6.561666700575087
 20
6.335277981228298
 10
6.538361019558376
 20
6.337222205268012
 10
6.512777540418837
 20
6.340388827853732
 10
6.503333197699653
 20
6.365277608235677
 10
6.503333197699653
 20
6.365277608235677
 10
6.501666598849826
 20
6.371944427490234
 10
6.501666598849826
 20
6.371944427490234
 10
6.501666598849826
 20
6.371944427490234
 10
6.501666598849826
 20
6.379444546169704
 10
6.501666598849826
 20
6.379444546169704
 10
6.501666598849826
 20
6.379444546169704
 10
6.500833299424913
 20
6.349444495307075
 10
6.500833299424913
 20
6.349444495307075
 10
6.500833299424913
 20
6.349444495307075
 10
6.504999796549479
 20
6.34361097547743
 10
6.504999796549479
 20
6.34361097547743
 10
6.519374847412109
 20
6.318638695610893
 10
6.550958421495225
 20
6.312027825249565
 10
6.577499813503689
 20
6.311944325764974
 10
6.577499813503689
 20
6.311944325764974
 10
6.58250003390842
 20
6.311944325764974
 10
6.58250003390842
 20
6.311944325764974
 10
6.58250003390842
 20
6.311944325764974
 10
6.589166429307725
 20
6.312777625189887
 10
6.589166429307725
 20
6.312777625189887
 10
6.612013922797309
 20
6.314319610595703
 10
6.645152621799045
 20
6.328819274902344
 10
6.649166531032986
 20
6.354444291856553
 10
6.649166531032986
 20
6.354444291856553
 10
6.650833129882812
 20
6.361111111111111
 10
6.650833129882812
 20
6.361111111111111
 10
6.650833129882812
 20
6.361111111111111
 10
6.652500152587891
 20
6.368611229790581
 10
6.652500152587891
 20
6.368611229790581
 97
        0
 72
     1
 10
6.652500152587891
 20
6.368611229790581
 11
6.652500152587891
 21
6.376944647894965
 97
        0
 75
     0
 76
     1
 98
        0
  0
POLYLINE
  5
79
330
1F
100
AcDbEntity
  8
Layer 1
370
     0
100
AcDb2dPolyline
 66
     1
 10
0.0
 20
0.0
 30
0.0
  0
VERTEX
  5
7A
330
79
100
AcDbEntity
  8
Layer 1
370
     0
100
AcDbVertex
100
AcDb2dVertex
 10
6.73750008477105
 20
6.341944376627604
 30
0.0
  0
VERTEX
  5
7B
330
79
100
AcDbEntity
  8
Layer 1
370
     0
100
AcDbVertex
100
AcDb2dVertex
 10
6.735833062065971
 20
6.372777303059896
 30
0.0
  0
VERTEX
  5
7C
330
79
100
AcDbEntity
  8
Layer 1
370
     0
100
AcDbVertex
100
AcDb2dVertex
 10
6.735833062065971
 20
6.369444105360243
 30
0.0
  0
VERTEX
  5
7D
330
79
100
AcDbEntity
  8
Layer 1
370
     0
100
AcDbVertex
100
AcDb2dVertex
 10
6.734999762641059
 20
6.361943986680772
 30
0.0
  0
VERTEX
  5
7E
330
79
100
AcDbEntity
  8
Layer 1
370
     0
100
AcDbVertex
100
AcDb2dVertex
 10
6.729999966091579
 20
6.354444291856553
 30
0.0
  0
VERTEX
  5
7F
330
79
100
AcDbEntity
  8
Layer 1
370
     0
100
AcDbVertex
100
AcDb2dVertex
 10
6.723333146837022
 20
6.352777693006727
 30
0.0
  0
VERTEX
  5
80
330
79
100
AcDbEntity
  8
Layer 1
370
     0
100
AcDbVertex
100
AcDb2dVertex
 10
6.71750005086263
 20
6.352777693006727
 30
0.0
  0
VERTEX
  5
81
330
79
100
AcDbEntity
  8
Layer 1
370
     0
100
AcDbVertex
100
AcDb2dVertex
 10
6.709999932183159
 20
6.353610992431641
 30
0.0
  0
VERTEX
  5
82
330
79
100
AcDbEntity
  8
Layer 1
370
     0
100
AcDbVertex
100
AcDb2dVertex
 10
6.705833011203342
 20
6.353610992431641
 30
0.0
  0
VERTEX
  5
83
330
79
100
AcDbEntity
  8
Layer 1
370
     0
100
AcDbVertex
100
AcDb2dVertex
 10
6.69999991522895
 20
6.351110670301649
 30
0.0
  0
VERTEX
  5
84
330
79
100
AcDbEntity
  8
Layer 1
370
     0
100
AcDbVertex
100
AcDb2dVertex
 10
6.697500016954209
 20
6.346944173177083
 30
0.0
  0
VERTEX
  5
85
330
79
100
AcDbEntity
  8
Layer 1
370
     0
100
AcDbVertex
100
AcDb2dVertex
 10
6.695833418104383
 20
6.339444054497612
 30
0.0
  0
VERTEX
  5
86
330
79
100
AcDbEntity
  8
Layer 1
370
     0
100
AcDbVertex
100
AcDb2dVertex
 10
6.696666717529297
 20
6.33361095852322
 30
0.0
  0
VERTEX
  5
87
330
79
100
AcDbEntity
  8
Layer 1
370
     0
100
AcDbVertex
100
AcDb2dVertex
 10
6.69999991522895
 20
6.327777438693576
 30
0.0
  0
VERTEX
  5
88
330
79
100
AcDbEntity
  8
Layer 1
370
     0
100
AcDbVertex
100
AcDb2dVertex
 10
6.704999711778428
 20
6.32611083984375
 30
0.0
  0
VERTEX
  5
89
330
79
100
AcDbEntity
  8
Layer 1
370
     0
100
AcDbVertex
100
AcDb2dVertex
 10
6.713333129882812
 20
6.325277540418837
 30
0.0
  0
VERTEX
  5
8A
330
79
100
AcDbEntity
  8
Layer 1
370
     0
100
AcDbVertex
100
AcDb2dVertex
 10
6.714999728732638
 20
6.325277540418837
 30
0.0
  0
VERTEX
  5
8B
330
79
100
AcDbEntity
  8
Layer 1
370
     0
100
AcDbVertex
100
AcDb2dVertex
 10
6.719999949137369
 20
6.326944139268663
 30
0.0
  0
VERTEX
  5
8C
330
79
100
AcDbEntity
  8
Layer 1
370
     0
100
AcDbVertex
100
AcDb2dVertex
 10
6.726666344536675
 20
6.330277336968315
 30
0.0
  0
VERTEX
  5
8D
330
79
100
AcDbEntity
  8
Layer 1
370
     0
100
AcDbVertex
100
AcDb2dVertex
 10
6.733333163791232
 20
6.336944156222873
 30
0.0
  0
SEQEND
  5
8F
330
79
100
AcDbEntity
  8
Layer 1
370
     0
  0
HATCH
  5
8E
330
1F
100
AcDbEntity
  8
Layer 1
 62
     1
420
 16711680
100
AcDbHatch
 10
0.0
 20
0.0
 30
0.0
210
0.0
220
0.0
230
1.0
  2
SOLID
 70
     1
 71
     0
 91
        1
 92
        1
 93
       20
 72
     1
 10
6.73750008477105
 20
6.341944376627604
 11
6.735833062065971
 21
6.372777303059896
 72
     1
 10
6.735833062065971
 20
6.372777303059896
 11
6.735833062065971
 21
6.369444105360243
 72
     1
 10
6.735833062065971
 20
6.369444105360243
 11
6.734999762641058
 21
6.361943986680773
 72
     1
 10
6.734999762641059
 20
6.361943986680772
 11
6.729999966091579
 21
6.354444291856553
 72
     1
 10
6.729999966091579
 20
6.354444291856553
 11
6.723333146837022
 21
6.352777693006726
 72
     1
 10
6.723333146837022
 20
6.352777693006727
 11
6.71750005086263
 21
6.352777693006727
 72
     1
 10
6.71750005086263
 20
6.352777693006727
 11
6.70999993218316
 21
6.353610992431641
 72
     1
 10
6.709999932183159
 20
6.353610992431641
 11
6.705833011203342
 21
6.353610992431641
 72
     1
 10
6.705833011203342
 20
6.353610992431641
 11
6.69999991522895
 21
6.351110670301649
 72
     1
 10
6.69999991522895
 20
6.351110670301649
 11
6.69750001695421
 21
6.346944173177083
 72
     1
 10
6.697500016954209
 20
6.346944173177083
 11
6.695833418104383
 21
6.339444054497613
 72
     1
 10
6.695833418104383
 20
6.339444054497612
 11
6.696666717529297
 21
6.33361095852322
 72
     1
 10
6.696666717529297
 20
6.33361095852322
 11
6.69999991522895
 21
6.327777438693576
 72
     1
 10
6.69999991522895
 20
6.327777438693576
 11
6.704999711778429
 21
6.326110839843749
 72
     1
 10
6.704999711778428
 20
6.32611083984375
 11
6.713333129882812
 21
6.325277540418837
 72
     1
 10
6.713333129882812
 20
6.325277540418837
 11
6.714999728732639
 21
6.325277540418837
 72
     1
 10
6.714999728732638
 20
6.325277540418837
 11
6.719999949137369
 21
6.326944139268663
 72
     1
 10
6.719999949137369
 20
6.326944139268663
 11
6.726666344536675
 21
6.330277336968315
 72
     1
 10
6.726666344536675
 20
6.330277336968315
 11
6.733333163791232
 21
6.336944156222873
 72
     1
 10
6.733333163791232
 20
6.336944156222873
 11
6.73750008477105
 21
6.341944376627604
 97
        0
 75
     0
 76
     1
 98
        0
  0
SPLINE
  5
90
330
1F
100
AcDbEntity
  8
Layer 1
370
     0
100
AcDbSpline
210
0.0
220
0.0
230
1.0
 70
     8
 71
     3
 72
    44
 73
    40
 74
     0
 42
0.0000000001
 43
0.0000000001
 12
1.0
 22
0.0
 32
0.0
 13
1.0
 23
0.0
 33
0.0
 40
0.0
 40
0.0
 40
0.0
 40
0.0
 40
1.0
 40
1.0
 40
1.0
 40
2.0
 40
2.0
 40
2.0
 40
3.0
 40
3.0
 40
3.0
 40
4.0
 40
4.0
 40
4.0
 40
5.0
 40
5.0
 40
5.0
 40
6.0
 40
6.0
 40
6.0
 40
7.0
 40
7.0
 40
7.0
 40
8.0
 40
8.0
 40
8.0
 40
9.0
 40
9.0
 40
9.0
 40
10.0
 40
10.0
 40
10.0
 40
11.0
 40
11.0
 40
11.0
 40
12.0
 40
12.0
 40
12.0
 40
13.0
 40
13.0
 40
13.0
 40
13.0
 10
6.745000203450521
 20
6.369444529215494
 30
0.0
 10
6.745000203450521
 20
6.369444529215494
 30
0.0
 10
6.744166480170356
 20
6.3761109246148
 30
0.0
 10
6.744166480170356
 20
6.3761109246148
 30
0.0
 10
6.745722028944227
 20
6.489374796549479
 30
0.0
 10
6.448138766818576
 20
6.492374844021267
 30
0.0
 10
6.498333401150173
 20
6.35611089070638
 30
0.0
 10
6.498333401150173
 20
6.35611089070638
 30
0.0
 10
6.500833299424913
 20
6.349444495307075
 30
0.0
 10
6.500833299424913
 20
6.349444495307075
 30
0.0
 10
6.500833299424913
 20
6.349444495307075
 30
0.0
 10
6.501666598849826
 20
6.379444122314453
 30
0.0
 10
6.501666598849826
 20
6.379444122314453
 30
0.0
 10
6.498513963487413
 20
6.421624925401475
 30
0.0
 10
6.577972412109375
 20
6.441944122314453
 30
0.0
 10
6.603333367241753
 20
6.42861090766059
 30
0.0
 10
6.603333367241753
 20
6.42861090766059
 30
0.0
 10
6.61000018649631
 20
6.424444410536024
 30
0.0
 10
6.61000018649631
 20
6.424444410536024
 30
0.0
 10
6.61000018649631
 20
6.424444410536024
 30
0.0
 10
6.61499998304579
 20
6.432777828640408
 30
0.0
 10
6.61499998304579
 20
6.432777828640408
 30
0.0
 10
6.61499998304579
 20
6.432777828640408
 30
0.0
 10
6.615833282470703
 20
6.432777828640408
 30
0.0
 10
6.615833282470703
 20
6.432777828640408
 30
0.0
 10
6.659541659884982
 20
6.432194179958767
 30
0.0
 10
6.733930375840928
 20
6.433847215440538
 30
0.0
 10
6.735833485921224
 20
6.372777726915147
 30
0.0
 10
6.735833485921224
 20
6.372777726915147
 30
0.0
 10
6.73750008477105
 20
6.341944376627604
 30
0.0
 10
6.73750008477105
 20
6.341944376627604
 30
0.0
 10
6.73750008477105
 20
6.341944376627604
 30
0.0
 10
6.740833282470703
 20
6.347777472601996
 30
0.0
 10
6.740833282470703
 20
6.347777472601996
 30
0.0
 10
6.740833282470703
 20
6.347777472601996
 30
0.0
 10
6.742499881320529
 20
6.354444291856553
 30
0.0
 10
6.742499881320529
 20
6.354444291856553
 30
0.0
 10
6.742499881320529
 20
6.354444291856553
 30
0.0
 10
6.744166480170356
 20
6.361944410536024
 30
0.0
 10
6.744166480170356
 20
6.361944410536024
 30
0.0
  0
HATCH
  5
91
330
1F
100
AcDbEntity
  8
Layer 1
 62
     1
420
 16711680
100
AcDbHatch
 10
0.0
 20
0.0
 30
0.0
210
0.0
220
0.0
230
1.0
  2
SOLID
 70
     1
 71
     0
 91
        1
 92
        1
 93
        2
 72
     4
 94
        3
 73
     0
 74
     0
 95
       44
 96
       40
 40
0.0
 40
0.0
 40
0.0
 40
0.0
 40
0.0138888888888889
 40
0.0138888888888889
 40
0.0138888888888889
 40
0.0277777777777778
 40
0.0277777777777778
 40
0.0277777777777778
 40
0.0416666666666667
 40
0.0416666666666667
 40
0.0416666666666667
 40
0.0555555555555556
 40
0.0555555555555556
 40
0.0555555555555556
 40
0.0694444444444444
 40
0.0694444444444444
 40
0.0694444444444444
 40
0.0833333333333333
 40
0.0833333333333333
 40
0.0833333333333333
 40
0.0972222222222222
 40
0.0972222222222222
 40
0.0972222222222222
 40
0.1111111111111111
 40
0.1111111111111111
 40
0.1111111111111111
 40
0.125
 40
0.125
 40
0.125
 40
0.1388888888888889
 40
0.1388888888888889
 40
0.1388888888888889
 40
0.1527777777777778
 40
0.1527777777777778
 40
0.1527777777777778
 40
0.1666666666666667
 40
0.1666666666666667
 40
0.1666666666666667
 40
0.1805555555555556
 40
0.1805555555555556
 40
0.1805555555555556
 40
0.1805555555555556
 10
6.745000203450521
 20
6.369444529215494
 10
6.745000203450521
 20
6.369444529215494
 10
6.744166480170356
 20
6.3761109246148
 10
6.744166480170356
 20
6.3761109246148
 10
6.745722028944227
 20
6.489374796549479
 10
6.448138766818576
 20
6.492374844021267
 10
6.498333401150173
 20
6.35611089070638
 10
6.498333401150173
 20
6.35611089070638
 10
6.500833299424913
 20
6.349444495307075
 10
6.500833299424913
 20
6.349444495307075
 10
6.500833299424913
 20
6.349444495307075
 10
6.501666598849826
 20
6.379444122314453
 10
6.501666598849826
 20
6.379444122314453
 10
6.498513963487413
 20
6.421624925401475
 10
6.577972412109375
 20
6.441944122314453
 10
6.603333367241753
 20
6.42861090766059
 10
6.603333367241753
 20
6.42861090766059
 10
6.61000018649631
 20
6.424444410536024
 10
6.61000018649631
 20
6.424444410536024
 10
6.61000018649631
 20
6.424444410536024
 10
6.61499998304579
 20
6.432777828640408
 10
6.61499998304579
 20
6.432777828640408
 10
6.61499998304579
 20
6.432777828640408
 10
6.615833282470703
 20
6.432777828640408
 10
6.615833282470703
 20
6.432777828640408
 10
6.659541659884982
 20
6.432194179958767
 10
6.733930375840928
 20
6.433847215440538
 10
6.735833485921224
 20
6.372777726915147
 10
6.735833485921224
 20
6.372777726915147
 10
6.73750008477105
 20
6.341944376627604
 10
6.73750008477105
 20
6.341944376627604
 10
6.73750008477105
 20
6.341944376627604
 10
6.740833282470703
 20
6.347777472601996
 10
6.740833282470703
 20
6.347777472601996
 10
6.740833282470703
 20
6.347777472601996
 10
6.742499881320529
 20
6.354444291856553
 10
6.742499881320529
 20
6.354444291856553
 10
6.742499881320529
 20
6.354444291856553
 10
6.744166480170356
 20
6.361944410536024
 10
6.744166480170356
 20
6.361944410536024
 97
        0
 72
     1
 10
6.744166480170356
 20
6.361944410536024
 11
6.745000203450521
 21
6.369444529215494
 97
        0
 75
     0
 76
     1
 98
        0
  0
POLYLINE
  5
92
330
1F
100
AcDbEntity
  8
Layer 1
370
     0
100
AcDb2dPolyline
 66
     1
 10
0.0
 20
0.0
 30
0.0
  0
VERTEX
  5
93
330
92
100
AcDbEntity
  8
Layer 1
370
     0
100
AcDbVertex
100
AcDb2dVertex
 10
6.557500203450521
 20
6.131111145019531
 30
0.0
  0
VERTEX
  5
94
330
92
100
AcDbEntity
  8
Layer 1
370
     0
100
AcDbVertex
100
AcDb2dVertex
 10
6.557500203450521
 20
6.139444139268663
 30
0.0
  0
VERTEX
  5
95
330
92
100
AcDbEntity
  8
Layer 1
370
     0
100
AcDbVertex
100
AcDb2dVertex
 10
6.55249998304579
 20
6.140277438693576
 30
0.0
  0
VERTEX
  5
96
330
92
100
AcDbEntity
  8
Layer 1
370
     0
100
AcDbVertex
100
AcDb2dVertex
 10
6.544999864366319
 20
6.141944461398654
 30
0.0
  0
VERTEX
  5
97
330
92
100
AcDbEntity
  8
Layer 1
370
     0
100
AcDbVertex
100
AcDb2dVertex
 10
6.538333468967013
 20
6.144444359673394
 30
0.0
  0
VERTEX
  5
98
330
92
100
AcDbEntity
  8
Layer 1
370
     0
100
AcDbVertex
100
AcDb2dVertex
 10
6.532499949137369
 20
6.147777557373047
 30
0.0
  0
VERTEX
  5
99
330
92
100
AcDbEntity
  8
Layer 1
370
     0
100
AcDbVertex
100
AcDb2dVertex
 10
6.527500152587891
 20
6.1511107550727
 30
0.0
  0
VERTEX
  5
9A
330
92
100
AcDbEntity
  8
Layer 1
370
     0
100
AcDbVertex
100
AcDb2dVertex
 10
6.524999830457899
 20
6.153611077202691
 30
0.0
  0
VERTEX
  5
9B
330
92
100
AcDbEntity
  8
Layer 1
370
     0
100
AcDbVertex
100
AcDb2dVertex
 10
6.520833333333333
 20
6.159444173177083
 30
0.0
  0
VERTEX
  5
9C
330
92
100
AcDbEntity
  8
Layer 1
370
     0
100
AcDbVertex
100
AcDb2dVertex
 10
6.518333435058594
 20
6.165277693006727
 30
0.0
  0
VERTEX
  5
9D
330
92
100
AcDbEntity
  8
Layer 1
370
     0
100
AcDbVertex
100
AcDb2dVertex
 10
6.51750013563368
 20
6.172777811686197
 30
0.0
  0
VERTEX
  5
9E
330
92
100
AcDbEntity
  8
Layer 1
370
     0
100
AcDbVertex
100
AcDb2dVertex
 10
6.51750013563368
 20
6.257777743869357
 30
0.0
  0
VERTEX
  5
9F
330
92
100
AcDbEntity
  8
Layer 1
370
     0
100
AcDbVertex
100
AcDb2dVertex
 10
6.514166514078775
 20
6.273610856797959
 30
0.0
  0
VERTEX
  5
A0
330
92
100
AcDbEntity
  8
Layer 1
370
     0
100
AcDbVertex
100
AcDb2dVertex
 10
6.495833502875434
 20
6.273610856797959
 30
0.0
  0
VERTEX
  5
A1
330
92
100
AcDbEntity
  8
Layer 1
370
     0
100
AcDbVertex
100
AcDb2dVertex
 10
6.495833502875434
 20
6.139444139268663
 30
0.0
  0
SEQEND
  5
A3
330
92
100
AcDbEntity
  8
Layer 1
370
     0
  0
HATCH
  5
A2
330
1F
100
AcDbEntity
  8
Layer 1
 62
     1
420
 16711680
100
AcDbHatch
 10
0.0
 20
0.0
 30
0.0
210
0.0
220
0.0
230
1.0
  2
SOLID
 70
     1
 71
     0
 91
        1
 92
        1
 93
       15
 72
     1
 10
6.557500203450521
 20
6.131111145019531
 11
6.557500203450521
 21
6.139444139268663
 72
     1
 10
6.557500203450521
 20
6.139444139268663
 11
6.55249998304579
 21
6.140277438693576
 72
     1
 10
6.55249998304579
 20
6.140277438693576
 11
6.54499986436632
 21
6.141944461398654
 72
     1
 10
6.544999864366319
 20
6.141944461398654
 11
6.538333468967013
 21
6.144444359673393
 72
     1
 10
6.538333468967013
 20
6.144444359673394
 11
6.532499949137369
 21
6.147777557373047
 72
     1
 10
6.532499949137369
 20
6.147777557373047
 11
6.52750015258789
 21
6.1511107550727
 72
     1
 10
6.527500152587891
 20
6.1511107550727
 11
6.524999830457899
 21
6.153611077202691
 72
     1
 10
6.524999830457899
 20
6.153611077202691
 11
6.520833333333333
 21
6.159444173177083
 72
     1
 10
6.520833333333333
 20
6.159444173177083
 11
6.518333435058594
 21
6.165277693006727
 72
     1
 10
6.518333435058594
 20
6.165277693006727
 11
6.51750013563368
 21
6.172777811686197
 72
     1
 10
6.51750013563368
 20
6.172777811686197
 11
6.51750013563368
 21
6.257777743869357
 72
     1
 10
6.51750013563368
 20
6.257777743869357
 11
6.514166514078775
 21
6.273610856797959
 72
     1
 10
6.514166514078775
 20
6.273610856797959
 11
6.495833502875433
 21
6.273610856797959
 72
     1
 10
6.495833502875434
 20
6.273610856797959
 11
6.495833502875434
 21
6.139444139268663
 72
     1
 10
6.495833502875434
 20
6.139444139268663
 11
6.557500203450521
 21
6.13111114501953
 97
        0
 75
     0
 76
     1
 98
        0
  0
SPLINE
  5
A4
330
1F
100
AcDbEntity
  8
Layer 1
370
     0
100
AcDbSpline
210
0.0
220
0.0
230
1.0
 70
     8
 71
     3
 72
    77
 73
    73
 74
     0
 42
0.0000000001
 43
0.0000000001
 12
1.0
 22
0.0
 32
0.0
 13
1.0
 23
0.0
 33
0.0
 40
0.0
 40
0.0
 40
0.0
 40
0.0
 40
1.0
 40
1.0
 40
1.0
 40
2.0
 40
2.0
 40
2.0
 40
3.0
 40
3.0
 40
3.0
 40
4.0
 40
4.0
 40
4.0
 40
5.0
 40
5.0
 40
5.0
 40
6.0
 40
6.0
 40
6.0
 40
7.0
 40
7.0
 40
7.0
 40
8.0
 40
8.0
 40
8.0
 40
9.0
 40
9.0
 40
9.0
 40
10.0
 40
10.0
 40
10.0
 40
11.0
 40
11.0
 40
11.0
 40
12.0
 40
12.0
 40
12.0
 40
13.0
 40
13.0
 40
13.0
 40
14.0
 40
14.0
 40
14.0
 40
15.0
 40
15.0
 40
15.0
 40
16.0
 40
16.0
 40
16.0
 40
17.0
 40
17.0
 40
17.0
 40
18.0
 40
18.0
 40
18.0
 40
19.0
 40
19.0
 40
19.0
 40
20.0
 40
20.0
 40
20.0
 40
21.0
 40
21.0
 40
21.0
 40
22.0
 40
22.0
 40
22.0
 40
23.0
 40
23.0
 40
23.0
 40
24.0
 40
24.0
 40
24.0
 40
24.0
 10
6.736666785346137
 20
6.234444512261284
 30
0.0
 10
6.736666785346137
 20
6.234444512261284
 30
0.0
 10
6.733333163791232
 20
6.24111090766059
 30
0.0
 10
6.733333163791232
 20
6.24111090766059
 30
0.0
 10
6.733333163791232
 20
6.24111090766059
 30
0.0
 10
6.729166666666666
 20
6.246944427490234
 30
0.0
 10
6.729166666666666
 20
6.246944427490234
 30
0.0
 10
6.729166666666666
 20
6.246944427490234
 30
0.0
 10
6.726666768391927
 20
6.250277625189887
 30
0.0
 10
6.726666768391927
 20
6.250277625189887
 30
0.0
 10
6.726666768391927
 20
6.250277625189887
 30
0.0
 10
6.721666547987196
 20
6.255277845594618
 30
0.0
 10
6.721666547987196
 20
6.255277845594618
 30
0.0
 10
6.721666547987196
 20
6.255277845594618
 30
0.0
 10
6.716666751437717
 20
6.259444342719184
 30
0.0
 10
6.716666751437717
 20
6.259444342719184
 30
0.0
 10
6.716666751437717
 20
6.259444342719184
 30
0.0
 10
6.710833231608072
 20
6.262777540418837
 30
0.0
 10
6.710833231608072
 20
6.262777540418837
 30
0.0
 10
6.710833231608072
 20
6.262777540418837
 30
0.0
 10
6.697500016954209
 20
6.267777760823567
 30
0.0
 10
6.697500016954209
 20
6.267777760823567
 30
0.0
 10
6.697500016954209
 20
6.267777760823567
 30
0.0
 10
6.690833197699653
 20
6.268611060248481
 30
0.0
 10
6.690833197699653
 20
6.268611060248481
 30
0.0
 10
6.678360833062065
 20
6.26762474907769
 30
0.0
 10
6.669819302029079
 20
6.272499932183159
 30
0.0
 10
6.662499745686849
 20
6.258611043294271
 30
0.0
 10
6.662499745686849
 20
6.258611043294271
 30
0.0
 10
6.660833146837022
 20
6.251944224039713
 30
0.0
 10
6.660833146837022
 20
6.251944224039713
 30
0.0
 10
6.660833146837022
 20
6.251944224039713
 30
0.0
 10
6.661666446261935
 20
6.246111128065321
 30
0.0
 10
6.661666446261935
 20
6.246111128065321
 30
0.0
 10
6.661666446261935
 20
6.246111128065321
 30
0.0
 10
6.665833367241753
 20
6.240277608235677
 30
0.0
 10
6.665833367241753
 20
6.240277608235677
 30
0.0
 10
6.665833367241753
 20
6.240277608235677
 30
0.0
 10
6.668333265516493
 20
6.23861100938585
 30
0.0
 10
6.668333265516493
 20
6.23861100938585
 30
0.0
 10
6.684027777777778
 20
6.232930501302083
 30
0.0
 10
6.684333377414279
 20
6.243305206298828
 30
0.0
 10
6.69500011867947
 20
6.246111128065321
 30
0.0
 10
6.69500011867947
 20
6.246111128065321
 30
0.0
 10
6.703333112928602
 20
6.246944427490234
 30
0.0
 10
6.703333112928602
 20
6.246944427490234
 30
0.0
 10
6.703333112928602
 20
6.246944427490234
 30
0.0
 10
6.709166632758246
 20
6.246944427490234
 30
0.0
 10
6.709166632758246
 20
6.246944427490234
 30
0.0
 10
6.709166632758246
 20
6.246944427490234
 30
0.0
 10
6.715833452012803
 20
6.244444105360243
 30
0.0
 10
6.715833452012803
 20
6.244444105360243
 30
0.0
 10
6.715833452012803
 20
6.244444105360243
 30
0.0
 10
6.720833248562283
 20
6.240277608235677
 30
0.0
 10
6.720833248562283
 20
6.240277608235677
 30
0.0
 10
6.720833248562283
 20
6.240277608235677
 30
0.0
 10
6.725833045111762
 20
6.234444512261284
 30
0.0
 10
6.725833045111762
 20
6.234444512261284
 30
0.0
 10
6.725833045111762
 20
6.234444512261284
 30
0.0
 10
6.72750006781684
 20
6.232777489556206
 30
0.0
 10
6.72750006781684
 20
6.232777489556206
 30
0.0
 10
6.72750006781684
 20
6.232777489556206
 30
0.0
 10
6.731666564941406
 20
6.226944393581814
 30
0.0
 10
6.731666564941406
 20
6.226944393581814
 30
0.0
 10
6.731666564941406
 20
6.226944393581814
 30
0.0
 10
6.734166463216146
 20
6.220277574327256
 30
0.0
 10
6.734166463216146
 20
6.220277574327256
 30
0.0
 10
6.734166463216146
 20
6.220277574327256
 30
0.0
 10
6.735833062065971
 20
6.213611178927951
 30
0.0
 10
6.735833062065971
 20
6.213611178927951
 30
0.0
 10
6.735833062065971
 20
6.213611178927951
 30
0.0
 10
6.735833062065971
 20
6.205277760823567
 30
0.0
 10
6.735833062065971
 20
6.205277760823567
 30
0.0
  0
HATCH
  5
A5
330
1F
100
AcDbEntity
  8
Layer 1
 62
     1
420
 16711680
100
AcDbHatch
 10
0.0
 20
0.0
 30
0.0
210
0.0
220
0.0
230
1.0
  2
SOLID
 70
     1
 71
     0
 91
        1
 92
        1
 93
        2
 72
     4
 94
        3
 73
     0
 74
     0
 95
       77
 96
       73
 40
0.0
 40
0.0
 40
0.0
 40
0.0
 40
0.0138888888888889
 40
0.0138888888888889
 40
0.0138888888888889
 40
0.0277777777777778
 40
0.0277777777777778
 40
0.0277777777777778
 40
0.0416666666666667
 40
0.0416666666666667
 40
0.0416666666666667
 40
0.0555555555555556
 40
0.0555555555555556
 40
0.0555555555555556
 40
0.0694444444444444
 40
0.0694444444444444
 40
0.0694444444444444
 40
0.0833333333333333
 40
0.0833333333333333
 40
0.0833333333333333
 40
0.0972222222222222
 40
0.0972222222222222
 40
0.0972222222222222
 40
0.1111111111111111
 40
0.1111111111111111
 40
0.1111111111111111
 40
0.125
 40
0.125
 40
0.125
 40
0.1388888888888889
 40
0.1388888888888889
 40
0.1388888888888889
 40
0.1527777777777778
 40
0.1527777777777778
 40
0.1527777777777778
 40
0.1666666666666667
 40
0.1666666666666667
 40
0.1666666666666667
 40
0.1805555555555556
 40
0.1805555555555556
 40
0.1805555555555556
 40
0.1944444444444444
 40
0.1944444444444444
 40
0.1944444444444444
 40
0.2083333333333333
 40
0.2083333333333333
 40
0.2083333333333333
 40
0.2222222222222222
 40
0.2222222222222222
 40
0.2222222222222222
 40
0.2361111111111111
 40
0.2361111111111111
 40
0.2361111111111111
 40
0.25
 40
0.25
 40
0.25
 40
0.2638888888888889
 40
0.2638888888888889
 40
0.2638888888888889
 40
0.2777777777777778
 40
0.2777777777777778
 40
0.2777777777777778
 40
0.2916666666666666
 40
0.2916666666666666
 40
0.2916666666666666
 40
0.3055555555555555
 40
0.3055555555555555
 40
0.3055555555555555
 40
0.3194444444444444
 40
0.3194444444444444
 40
0.3194444444444444
 40
0.3333333333333333
 40
0.3333333333333333
 40
0.3333333333333333
 40
0.3333333333333333
 10
6.736666785346137
 20
6.234444512261284
 10
6.736666785346137
 20
6.234444512261284
 10
6.733333163791232
 20
6.24111090766059
 10
6.733333163791232
 20
6.24111090766059
 10
6.733333163791232
 20
6.24111090766059
 10
6.729166666666666
 20
6.246944427490234
 10
6.729166666666666
 20
6.246944427490234
 10
6.729166666666666
 20
6.246944427490234
 10
6.726666768391927
 20
6.250277625189887
 10
6.726666768391927
 20
6.250277625189887
 10
6.726666768391927
 20
6.250277625189887
 10
6.721666547987196
 20
6.255277845594618
 10
6.721666547987196
 20
6.255277845594618
 10
6.721666547987196
 20
6.255277845594618
 10
6.716666751437717
 20
6.259444342719184
 10
6.716666751437717
 20
6.259444342719184
 10
6.716666751437717
 20
6.259444342719184
 10
6.710833231608072
 20
6.262777540418837
 10
6.710833231608072
 20
6.262777540418837
 10
6.710833231608072
 20
6.262777540418837
 10
6.697500016954209
 20
6.267777760823567
 10
6.697500016954209
 20
6.267777760823567
 10
6.697500016954209
 20
6.267777760823567
 10
6.690833197699653
 20
6.268611060248481
 10
6.690833197699653
 20
6.268611060248481
 10
6.678360833062065
 20
6.26762474907769
 10
6.669819302029079
 20
6.272499932183159
 10
6.662499745686849
 20
6.258611043294271
 10
6.662499745686849
 20
6.258611043294271
 10
6.660833146837022
 20
6.251944224039713
 10
6.660833146837022
 20
6.251944224039713
 10
6.660833146837022
 20
6.251944224039713
 10
6.661666446261935
 20
6.246111128065321
 10
6.661666446261935
 20
6.246111128065321
 10
6.661666446261935
 20
6.246111128065321
 10
6.665833367241753
 20
6.240277608235677
 10
6.665833367241753
 20
6.240277608235677
 10
6.665833367241753
 20
6.240277608235677
 10
6.668333265516493
 20
6.23861100938585
 10
6.668333265516493
 20
6.23861100938585
 10
6.684027777777778
 20
6.232930501302083
 10
6.684333377414279
 20
6.243305206298828
 10
6.69500011867947
 20
6.246111128065321
 10
6.69500011867947
 20
6.246111128065321
 10
6.703333112928602
 20
6.246944427490234
 10
6.703333112928602
 20
6.246944427490234
 10
6.703333112928602
 20
6.246944427490234
 10
6.709166632758246
 20
6.246944427490234
 10
6.709166632758246
 20
6.246944427490234
 10
6.709166632758246
 20
6.246944427490234
 10
6.715833452012803
 20
6.244444105360243
 10
6.715833452012803
 20
6.244444105360243
 10
6.715833452012803
 20
6.244444105360243
 10
6.720833248562283
 20
6.240277608235677
 10
6.720833248562283
 20
6.240277608235677
 10
6.720833248562283
 20
6.240277608235677
 10
6.725833045111762
 20
6.234444512261284
 10
6.725833045111762
 20
6.234444512261284
 10
6.725833045111762
 20
6.234444512261284
 10
6.72750006781684
 20
6.232777489556206
 10
6.72750006781684
 20
6.232777489556206
 10
6.72750006781684
 20
6.232777489556206
 10
6.731666564941406
 20
6.226944393581814
 10
6.731666564941406
 20
6.226944393581814
 10
6.731666564941406
 20
6.226944393581814
 10
6.734166463216146
 20
6.220277574327256
 10
6.734166463216146
 20
6.220277574327256
 10
6.734166463216146
 20
6.220277574327256
 10
6.735833062065971
 20
6.213611178927951
 10
6.735833062065971
 20
6.213611178927951
 10
6.735833062065971
 20
6.213611178927951
 10
6.735833062065971
 20
6.205277760823567
 10
6.735833062065971
 20
6.205277760823567
 97
        0
 72
     1
 10
6.735833062065971
 20
6.205277760823567
 11
6.736666785346137
 21
6.234444512261284
 97
        0
 75
     0
 76
     1
 98
        0
  0
SPLINE
  5
A6
330
1F
100
AcDbEntity
  8
Layer 1
370
     0
100
AcDbSpline
210
0.0
220
0.0
230
1.0
 70
     8
 71
     3
 72
    71
 73
    67
 74
     0
 42
0.0000000001
 43
0.0000000001
 12
1.0
 22
0.0
 32
0.0
 13
1.0
 23
0.0
 33
0.0
 40
0.0
 40
0.0
 40
0.0
 40
0.0
 40
1.0
 40
1.0
 40
1.0
 40
2.0
 40
2.0
 40
2.0
 40
3.0
 40
3.0
 40
3.0
 40
4.0
 40
4.0
 40
4.0
 40
5.0
 40
5.0
 40
5.0
 40
6.0
 40
6.0
 40
6.0
 40
7.0
 40
7.0
 40
7.0
 40
8.0
 40
8.0
 40
8.0
 40
9.0
 40
9.0
 40
9.0
 40
10.0
 40
10.0
 40
10.0
 40
11.0
 40
11.0
 40
11.0
 40
12.0
 40
12.0
 40
12.0
 40
13.0
 40
13.0
 40
13.0
 40
14.0
 40
14.0
 40
14.0
 40
15.0
 40
15.0
 40
15.0
 40
16.0
 40
16.0
 40
16.0
 40
17.0
 40
17.0
 40
17.0
 40
18.0
 40
18.0
 40
18.0
 40
19.0
 40
19.0
 40
19.0
 40
20.0
 40
20.0
 40
20.0
 40
21.0
 40
21.0
 40
21.0
 40
22.0
 40
22.0
 40
22.0
 40
22.0
 10
6.745000203450521
 20
6.201111263699001
 30
0.0
 10
6.745000203450521
 20
6.201111263699001
 30
0.0
 10
6.744166480170356
 20
6.207777659098307
 30
0.0
 10
6.744166480170356
 20
6.207777659098307
 30
0.0
 10
6.744166480170356
 20
6.207777659098307
 30
0.0
 10
6.743333180745442
 20
6.214444478352864
 30
0.0
 10
6.743333180745442
 20
6.214444478352864
 30
0.0
 10
6.743333180745442
 20
6.214444478352864
 30
0.0
 10
6.741666581895616
 20
6.22111087375217
 30
0.0
 10
6.741666581895616
 20
6.22111087375217
 30
0.0
 10
6.741666581895616
 20
6.22111087375217
 30
0.0
 10
6.73999998304579
 20
6.227777693006727
 30
0.0
 10
6.73999998304579
 20
6.227777693006727
 30
0.0
 10
6.73999998304579
 20
6.227777693006727
 30
0.0
 10
6.736666785346137
 20
6.234444512261284
 30
0.0
 10
6.736666785346137
 20
6.234444512261284
 30
0.0
 10
6.736666785346137
 20
6.234444512261284
 30
0.0
 10
6.735833485921224
 20
6.205277760823567
 30
0.0
 10
6.735833485921224
 20
6.205277760823567
 30
0.0
 10
6.735833485921224
 20
6.205277760823567
 30
0.0
 10
6.735833485921224
 20
6.201111263699001
 30
0.0
 10
6.735833485921224
 20
6.201111263699001
 30
0.0
 10
6.733277638753255
 20
6.150916629367404
 30
0.0
 10
6.668638865152994
 20
6.1527222527398
 30
0.0
 10
6.635833316379123
 20
6.173611111111111
 30
0.0
 10
6.635833316379123
 20
6.173611111111111
 30
0.0
 10
6.629999796549479
 20
6.177777608235677
 30
0.0
 10
6.629999796549479
 20
6.177777608235677
 30
0.0
 10
6.629999796549479
 20
6.177777608235677
 30
0.0
 10
6.625
 20
6.181111229790582
 30
0.0
 10
6.625
 20
6.181111229790582
 30
0.0
 10
6.588625166151258
 20
6.207374996609158
 30
0.0
 10
6.562569512261284
 20
6.240916781955295
 30
0.0
 10
6.524166531032986
 20
6.266944461398654
 30
0.0
 10
6.524166531032986
 20
6.266944461398654
 30
0.0
 10
6.514166514078775
 20
6.273610856797959
 30
0.0
 10
6.514166514078775
 20
6.273610856797959
 30
0.0
 10
6.514166514078775
 20
6.273610856797959
 30
0.0
 10
6.51750013563368
 20
6.257777743869357
 30
0.0
 10
6.51750013563368
 20
6.257777743869357
 30
0.0
 10
6.51750013563368
 20
6.257777743869357
 30
0.0
 10
6.51750013563368
 20
6.256944444444444
 30
0.0
 10
6.51750013563368
 20
6.256944444444444
 30
0.0
 10
6.51750013563368
 20
6.256944444444444
 30
0.0
 10
6.520833333333333
 20
6.255277845594618
 30
0.0
 10
6.520833333333333
 20
6.255277845594618
 30
0.0
 10
6.520833333333333
 20
6.255277845594618
 30
0.0
 10
6.524999830457899
 20
6.251944224039713
 30
0.0
 10
6.524999830457899
 20
6.251944224039713
 30
0.0
 10
6.560597313774956
 20
6.2261110941569
 30
0.0
 10
6.595208485921224
 20
6.187666575113932
 30
0.0
 10
6.626666598849826
 20
6.156944274902344
 30
0.0
 10
6.626666598849826
 20
6.156944274902344
 30
0.0
 10
6.63250011867947
 20
6.151944478352864
 30
0.0
 10
6.63250011867947
 20
6.151944478352864
 30
0.0
 10
6.63250011867947
 20
6.151944478352864
 30
0.0
 10
6.638333214653862
 20
6.147777557373047
 30
0.0
 10
6.638333214653862
 20
6.147777557373047
 30
0.0
 10
6.674708472357856
 20
6.123069339328342
 30
0.0
 10
6.731041802300346
 20
6.128860897488064
 30
0.0
 10
6.742499881320529
 20
6.177777608235677
 30
0.0
 10
6.742499881320529
 20
6.177777608235677
 30
0.0
 10
6.743333180745442
 20
6.185277726915147
 30
0.0
 10
6.743333180745442
 20
6.185277726915147
 30
0.0
 10
6.743333180745442
 20
6.185277726915147
 30
0.0
 10
6.744166480170356
 20
6.192777845594618
 30
0.0
 10
6.744166480170356
 20
6.192777845594618
 30
0.0
  0
HATCH
  5
A7
330
1F
100
AcDbEntity
  8
Layer 1
 62
     1
420
 16711680
100
AcDbHatch
 10
0.0
 20
0.0
 30
0.0
210
0.0
220
0.0
230
1.0
  2
SOLID
 70
     1
 71
     0
 91
        1
 92
        1
 93
        2
 72
     4
 94
        3
 73
     0
 74
     0
 95
       71
 96
       67
 40
0.0
 40
0.0
 40
0.0
 40
0.0
 40
0.0138888888888889
 40
0.0138888888888889
 40
0.0138888888888889
 40
0.0277777777777778
 40
0.0277777777777778
 40
0.0277777777777778
 40
0.0416666666666667
 40
0.0416666666666667
 40
0.0416666666666667
 40
0.0555555555555556
 40
0.0555555555555556
 40
0.0555555555555556
 40
0.0694444444444444
 40
0.0694444444444444
 40
0.0694444444444444
 40
0.0833333333333333
 40
0.0833333333333333
 40
0.0833333333333333
 40
0.0972222222222222
 40
0.0972222222222222
 40
0.0972222222222222
 40
0.1111111111111111
 40
0.1111111111111111
 40
0.1111111111111111
 40
0.125
 40
0.125
 40
0.125
 40
0.1388888888888889
 40
0.1388888888888889
 40
0.1388888888888889
 40
0.1527777777777778
 40
0.1527777777777778
 40
0.1527777777777778
 40
0.1666666666666667
 40
0.1666666666666667
 40
0.1666666666666667
 40
0.1805555555555556
 40
0.1805555555555556
 40
0.1805555555555556
 40
0.1944444444444444
 40
0.1944444444444444
 40
0.1944444444444444
 40
0.2083333333333333
 40
0.2083333333333333
 40
0.2083333333333333
 40
0.2222222222222222
 40
0.2222222222222222
 40
0.2222222222222222
 40
0.2361111111111111
 40
0.2361111111111111
 40
0.2361111111111111
 40
0.25
 40
0.25
 40
0.25
 40
0.2638888888888889
 40
0.2638888888888889
 40
0.2638888888888889
 40
0.2777777777777778
 40
0.2777777777777778
 40
0.2777777777777778
 40
0.2916666666666666
 40
0.2916666666666666
 40
0.2916666666666666
 40
0.3055555555555555
 40
0.3055555555555555
 40
0.3055555555555555
 40
0.3055555555555555
 10
6.745000203450521
 20
6.201111263699001
 10
6.745000203450521
 20
6.201111263699001
 10
6.744166480170356
 20
6.207777659098307
 10
6.744166480170356
 20
6.207777659098307
 10
6.744166480170356
 20
6.207777659098307
 10
6.743333180745442
 20
6.214444478352864
 10
6.743333180745442
 20
6.214444478352864
 10
6.743333180745442
 20
6.214444478352864
 10
6.741666581895616
 20
6.22111087375217
 10
6.741666581895616
 20
6.22111087375217
 10
6.741666581895616
 20
6.22111087375217
 10
6.73999998304579
 20
6.227777693006727
 10
6.73999998304579
 20
6.227777693006727
 10
6.73999998304579
 20
6.227777693006727
 10
6.736666785346137
 20
6.234444512261284
 10
6.736666785346137
 20
6.234444512261284
 10
6.736666785346137
 20
6.234444512261284
 10
6.735833485921224
 20
6.205277760823567
 10
6.735833485921224
 20
6.205277760823567
 10
6.735833485921224
 20
6.205277760823567
 10
6.735833485921224
 20
6.201111263699001
 10
6.735833485921224
 20
6.201111263699001
 10
6.733277638753255
 20
6.150916629367404
 10
6.668638865152994
 20
6.1527222527398
 10
6.635833316379123
 20
6.173611111111111
 10
6.635833316379123
 20
6.173611111111111
 10
6.629999796549479
 20
6.177777608235677
 10
6.629999796549479
 20
6.177777608235677
 10
6.629999796549479
 20
6.177777608235677
 10
6.625
 20
6.181111229790582
 10
6.625
 20
6.181111229790582
 10
6.588625166151258
 20
6.207374996609158
 10
6.562569512261284
 20
6.240916781955295
 10
6.524166531032986
 20
6.266944461398654
 10
6.524166531032986
 20
6.266944461398654
 10
6.514166514078775
 20
6.273610856797959
 10
6.514166514078775
 20
6.273610856797959
 10
6.514166514078775
 20
6.273610856797959
 10
6.51750013563368
 20
6.257777743869357
 10
6.51750013563368
 20
6.257777743869357
 10
6.51750013563368
 20
6.257777743869357
 10
6.51750013563368
 20
6.256944444444444
 10
6.51750013563368
 20
6.256944444444444
 10
6.51750013563368
 20
6.256944444444444
 10
6.520833333333333
 20
6.255277845594618
 10
6.520833333333333
 20
6.255277845594618
 10
6.520833333333333
 20
6.255277845594618
 10
6.524999830457899
 20
6.251944224039713
 10
6.524999830457899
 20
6.251944224039713
 10
6.560597313774956
 20
6.2261110941569
 10
6.595208485921224
 20
6.187666575113932
 10
6.626666598849826
 20
6.156944274902344
 10
6.626666598849826
 20
6.156944274902344
 10
6.63250011867947
 20
6.151944478352864
 10
6.63250011867947
 20
6.151944478352864
 10
6.63250011867947
 20
6.151944478352864
 10
6.638333214653862
 20
6.147777557373047
 10
6.638333214653862
 20
6.147777557373047
 10
6.674708472357856
 20
6.123069339328342
 10
6.731041802300346
 20
6.128860897488064
 10
6.742499881320529
 20
6.177777608235677
 10
6.742499881320529
 20
6.177777608235677
 10
6.743333180745442
 20
6.185277726915147
 10
6.743333180745442
 20
6.185277726915147
 10
6.743333180745442
 20
6.185277726915147
 10
6.744166480170356
 20
6.192777845594618
 10
6.744166480170356
 20
6.192777845594618
 97
        0
 72
     1
 10
6.744166480170356
 20
6.192777845594618
 11
6.745000203450521
 21
6.201111263699001
 97
        0
 75
     0
 76
     1
 98
        0
  0
POLYLINE
  5
A8
330
1F
100
AcDbEntity
  8
Layer 1
370
     0
100
AcDb2dPolyline
 66
     1
 10
0.0
 20
0.0
 30
0.0
  0
VERTEX
  5
A9
330
A8
100
AcDbEntity
  8
Layer 1
370
     0
100
AcDbVertex
100
AcDb2dVertex
 10
6.781666649712456
 20
5.765277862548828
 30
0.0
  0
VERTEX
  5
AA
330
A8
100
AcDbEntity
  8
Layer 1
370
     0
100
AcDbVertex
100
AcDb2dVertex
 10
6.781666649712456
 20
5.851944393581814
 30
0.0
  0
VERTEX
  5
AB
330
A8
100
AcDbEntity
  8
Layer 1
370
     0
100
AcDbVertex
100
AcDb2dVertex
 10
6.462499830457899
 20
5.851944393581814
 30
0.0
  0
VERTEX
  5
AC
330
A8
100
AcDbEntity
  8
Layer 1
370
     0
100
AcDbVertex
100
AcDb2dVertex
 10
6.462499830457899
 20
5.765277862548828
 30
0.0
  0
VERTEX
  5
AD
330
A8
100
AcDbEntity
  8
Layer 1
370
     0
100
AcDbVertex
100
AcDb2dVertex
 10
6.474166446261935
 20
5.765277862548828
 30
0.0
  0
VERTEX
  5
AE
330
A8
100
AcDbEntity
  8
Layer 1
370
     0
100
AcDbVertex
100
AcDb2dVertex
 10
6.474166446261935
 20
5.836944156222873
 30
0.0
  0
VERTEX
  5
AF
330
A8
100
AcDbEntity
  8
Layer 1
370
     0
100
AcDbVertex
100
AcDb2dVertex
 10
6.770832909478081
 20
5.836944156222873
 30
0.0
  0
VERTEX
  5
B0
330
A8
100
AcDbEntity
  8
Layer 1
370
     0
100
AcDbVertex
100
AcDb2dVertex
 10
6.770832909478081
 20
5.765277862548828
 30
0.0
  0
SEQEND
  5
B2
330
A8
100
AcDbEntity
  8
Layer 1
370
     0
  0
HATCH
  5
B1
330
1F
100
AcDbEntity
  8
Layer 1
 62
     1
420
 16711680
100
AcDbHatch
 10
0.0
 20
0.0
 30
0.0
210
0.0
220
0.0
230
1.0
  2
SOLID
 70
     1
 71
     0
 91
        1
 92
        1
 93
        8
 72
     1
 10
6.781666649712456
 20
5.765277862548828
 11
6.781666649712456
 21
5.851944393581814
 72
     1
 10
6.781666649712456
 20
5.851944393581814
 11
6.462499830457898
 21
5.851944393581814
 72
     1
 10
6.462499830457899
 20
5.851944393581814
 11
6.462499830457899
 21
5.765277862548828
 72
     1
 10
6.462499830457899
 20
5.765277862548828
 11
6.474166446261935
 21
5.765277862548828
 72
     1
 10
6.474166446261935
 20
5.765277862548828
 11
6.474166446261935
 21
5.836944156222874
 72
     1
 10
6.474166446261935
 20
5.836944156222873
 11
6.770832909478081
 21
5.836944156222873
 72
     1
 10
6.770832909478081
 20
5.836944156222873
 11
6.770832909478081
 21
5.765277862548827
 72
     1
 10
6.770832909478081
 20
5.765277862548828
 11
6.781666649712456
 21
5.765277862548828
 97
        0
 75
     0
 76
     1
 98
        0
  0
SPLINE
  5
B3
330
1F
100
AcDbEntity
  8
Layer 1
370
     0
100
AcDbSpline
210
0.0
220
0.0
230
1.0
 70
     8
 71
     3
 72
    50
 73
    46
 74
     0
 42
0.0000000001
 43
0.0000000001
 12
1.0
 22
0.0
 32
0.0
 13
1.0
 23
0.0
 33
0.0
 40
0.0
 40
0.0
 40
0.0
 40
0.0
 40
1.0
 40
1.0
 40
1.0
 40
2.0
 40
2.0
 40
2.0
 40
3.0
 40
3.0
 40
3.0
 40
4.0
 40
4.0
 40
4.0
 40
5.0
 40
5.0
 40
5.0
 40
6.0
 40
6.0
 40
6.0
 40
7.0
 40
7.0
 40
7.0
 40
8.0
 40
8.0
 40
8.0
 40
9.0
 40
9.0
 40
9.0
 40
10.0
 40
10.0
 40
10.0
 40
11.0
 40
11.0
 40
11.0
 40
12.0
 40
12.0
 40
12.0
 40
13.0
 40
13.0
 40
13.0
 40
14.0
 40
14.0
 40
14.0
 40
15.0
 40
15.0
 40
15.0
 40
15.0
 10
6.561666700575087
 20
5.701944563123915
 30
0.0
 10
6.561666700575087
 20
5.701944563123915
 30
0.0
 10
6.560832977294922
 20
5.706111060248481
 30
0.0
 10
6.560832977294922
 20
5.706111060248481
 30
0.0
 10
6.560832977294922
 20
5.706111060248481
 30
0.0
 10
6.555833180745442
 20
5.711944156222873
 30
0.0
 10
6.555833180745442
 20
5.711944156222873
 30
0.0
 10
6.540485805935329
 20
5.725458357069227
 30
0.0
 10
6.517597198486328
 20
5.713611178927951
 30
0.0
 10
6.507499694824219
 20
5.699444240993923
 30
0.0
 10
6.507499694824219
 20
5.699444240993923
 30
0.0
 10
6.504166497124565
 20
5.695277743869357
 30
0.0
 10
6.504166497124565
 20
5.695277743869357
 30
0.0
 10
6.504166497124565
 20
5.695277743869357
 30
0.0
 10
6.500833299424913
 20
5.689444224039713
 30
0.0
 10
6.500833299424913
 20
5.689444224039713
 30
0.0
 10
6.491541544596354
 20
5.669847276475694
 30
0.0
 10
6.490569220648871
 20
5.647555457221137
 30
0.0
 10
6.496666378445095
 20
5.626944224039713
 30
0.0
 10
6.496666378445095
 20
5.626944224039713
 30
0.0
 10
6.498332977294922
 20
5.620277828640408
 30
0.0
 10
6.498332977294922
 20
5.620277828640408
 30
0.0
 10
6.498332977294922
 20
5.620277828640408
 30
0.0
 10
6.501666598849826
 20
5.614444308810763
 30
0.0
 10
6.501666598849826
 20
5.614444308810763
 30
0.0
 10
6.501666598849826
 20
5.614444308810763
 30
0.0
 10
6.501666598849826
 20
5.660277896457248
 30
0.0
 10
6.501666598849826
 20
5.660277896457248
 30
0.0
 10
6.5022218492296
 20
5.671416388617621
 30
0.0
 10
6.506430308024088
 20
5.683638678656684
 30
0.0
 10
6.515833112928602
 20
5.690277523464626
 30
0.0
 10
6.515833112928602
 20
5.690277523464626
 30
0.0
 10
6.521666632758246
 20
5.691944546169704
 30
0.0
 10
6.521666632758246
 20
5.691944546169704
 30
0.0
 10
6.521666632758246
 20
5.691944546169704
 30
0.0
 10
6.524166531032986
 20
5.691944546169704
 30
0.0
 10
6.524166531032986
 20
5.691944546169704
 30
0.0
 10
6.535360972086588
 20
5.688902537027994
 30
0.0
 10
6.54316669040256
 20
5.681583404541016
 30
0.0
 10
6.554999881320529
 20
5.689444224039713
 30
0.0
 10
6.554999881320529
 20
5.689444224039713
 30
0.0
 10
6.555833180745442
 20
5.690277523464626
 30
0.0
 10
6.555833180745442
 20
5.690277523464626
 30
0.0
 10
6.555833180745442
 20
5.690277523464626
 30
0.0
 10
6.560832977294922
 20
5.695277743869357
 30
0.0
 10
6.560832977294922
 20
5.695277743869357
 30
0.0
  0
HATCH
  5
B4
330
1F
100
AcDbEntity
  8
Layer 1
 62
     1
420
 16711680
100
AcDbHatch
 10
0.0
 20
0.0
 30
0.0
210
0.0
220
0.0
230
1.0
  2
SOLID
 70
     1
 71
     0
 91
        1
 92
        1
 93
        2
 72
     4
 94
        3
 73
     0
 74
     0
 95
       50
 96
       46
 40
0.0
 40
0.0
 40
0.0
 40
0.0
 40
0.0138888888888889
 40
0.0138888888888889
 40
0.0138888888888889
 40
0.0277777777777778
 40
0.0277777777777778
 40
0.0277777777777778
 40
0.0416666666666667
 40
0.0416666666666667
 40
0.0416666666666667
 40
0.0555555555555556
 40
0.0555555555555556
 40
0.0555555555555556
 40
0.0694444444444444
 40
0.0694444444444444
 40
0.0694444444444444
 40
0.0833333333333333
 40
0.0833333333333333
 40
0.0833333333333333
 40
0.0972222222222222
 40
0.0972222222222222
 40
0.0972222222222222
 40
0.1111111111111111
 40
0.1111111111111111
 40
0.1111111111111111
 40
0.125
 40
0.125
 40
0.125
 40
0.1388888888888889
 40
0.1388888888888889
 40
0.1388888888888889
 40
0.1527777777777778
 40
0.1527777777777778
 40
0.1527777777777778
 40
0.1666666666666667
 40
0.1666666666666667
 40
0.1666666666666667
 40
0.1805555555555556
 40
0.1805555555555556
 40
0.1805555555555556
 40
0.1944444444444444
 40
0.1944444444444444
 40
0.1944444444444444
 40
0.2083333333333333
 40
0.2083333333333333
 40
0.2083333333333333
 40
0.2083333333333333
 10
6.561666700575087
 20
5.701944563123915
 10
6.561666700575087
 20
5.701944563123915
 10
6.560832977294922
 20
5.706111060248481
 10
6.560832977294922
 20
5.706111060248481
 10
6.560832977294922
 20
5.706111060248481
 10
6.555833180745442
 20
5.711944156222873
 10
6.555833180745442
 20
5.711944156222873
 10
6.540485805935329
 20
5.725458357069227
 10
6.517597198486328
 20
5.713611178927951
 10
6.507499694824219
 20
5.699444240993923
 10
6.507499694824219
 20
5.699444240993923
 10
6.504166497124565
 20
5.695277743869357
 10
6.504166497124565
 20
5.695277743869357
 10
6.504166497124565
 20
5.695277743869357
 10
6.500833299424913
 20
5.689444224039713
 10
6.500833299424913
 20
5.689444224039713
 10
6.491541544596354
 20
5.669847276475694
 10
6.490569220648871
 20
5.647555457221137
 10
6.496666378445095
 20
5.626944224039713
 10
6.496666378445095
 20
5.626944224039713
 10
6.498332977294922
 20
5.620277828640408
 10
6.498332977294922
 20
5.620277828640408
 10
6.498332977294922
 20
5.620277828640408
 10
6.501666598849826
 20
5.614444308810763
 10
6.501666598849826
 20
5.614444308810763
 10
6.501666598849826
 20
5.614444308810763
 10
6.501666598849826
 20
5.660277896457248
 10
6.501666598849826
 20
5.660277896457248
 10
6.5022218492296
 20
5.671416388617621
 10
6.506430308024088
 20
5.683638678656684
 10
6.515833112928602
 20
5.690277523464626
 10
6.515833112928602
 20
5.690277523464626
 10
6.521666632758246
 20
5.691944546169704
 10
6.521666632758246
 20
5.691944546169704
 10
6.521666632758246
 20
5.691944546169704
 10
6.524166531032986
 20
5.691944546169704
 10
6.524166531032986
 20
5.691944546169704
 10
6.535360972086588
 20
5.688902537027994
 10
6.54316669040256
 20
5.681583404541016
 10
6.554999881320529
 20
5.689444224039713
 10
6.554999881320529
 20
5.689444224039713
 10
6.555833180745442
 20
5.690277523464626
 10
6.555833180745442
 20
5.690277523464626
 10
6.555833180745442
 20
5.690277523464626
 10
6.560832977294922
 20
5.695277743869357
 10
6.560832977294922
 20
5.695277743869357
 97
        0
 72
     1
 10
6.560832977294922
 20
5.695277743869357
 11
6.561666700575087
 21
5.701944563123915
 97
        0
 75
     0
 76
     1
 98
        0
  0
POLYLINE
  5
B5
330
1F
100
AcDbEntity
  8
Layer 1
370
     0
100
AcDb2dPolyline
 66
     1
 10
0.0
 20
0.0
 30
0.0
  0
VERTEX
  5
B6
330
B5
100
AcDbEntity
  8
Layer 1
370
     0
100
AcDbVertex
100
AcDb2dVertex
 10
6.738333384195963
 20
5.682777828640408
 30
0.0
  0
VERTEX
  5
B7
330
B5
100
AcDbEntity
  8
Layer 1
370
     0
100
AcDbVertex
100
AcDb2dVertex
 10
6.735833062065971
 20
5.6886109246148
 30
0.0
  0
VERTEX
  5
B8
330
B5
100
AcDbEntity
  8
Layer 1
370
     0
100
AcDbVertex
100
AcDb2dVertex
 10
6.731666564941406
 20
5.694444444444444
 30
0.0
  0
VERTEX
  5
B9
330
B5
100
AcDbEntity
  8
Layer 1
370
     0
100
AcDbVertex
100
AcDb2dVertex
 10
6.726666344536675
 20
5.700277540418837
 30
0.0
  0
VERTEX
  5
BA
330
B5
100
AcDbEntity
  8
Layer 1
370
     0
100
AcDbVertex
100
AcDb2dVertex
 10
6.721666547987196
 20
5.705277760823567
 30
0.0
  0
VERTEX
  5
BB
330
B5
100
AcDbEntity
  8
Layer 1
370
     0
100
AcDbVertex
100
AcDb2dVertex
 10
6.715833028157552
 20
5.70861095852322
 30
0.0
  0
VERTEX
  5
BC
330
B5
100
AcDbEntity
  8
Layer 1
370
     0
100
AcDbVertex
100
AcDb2dVertex
 10
6.709166632758246
 20
5.711110856797959
 30
0.0
  0
VERTEX
  5
BD
330
B5
100
AcDbEntity
  8
Layer 1
370
     0
100
AcDbVertex
100
AcDb2dVertex
 10
6.702499813503689
 20
5.712777455647786
 30
0.0
  0
VERTEX
  5
BE
330
B5
100
AcDbEntity
  8
Layer 1
370
     0
100
AcDbVertex
100
AcDb2dVertex
 10
6.695832994249131
 20
5.7136107550727
 30
0.0
  0
VERTEX
  5
BF
330
B5
100
AcDbEntity
  8
Layer 1
370
     0
100
AcDbVertex
100
AcDb2dVertex
 10
6.691666497124565
 20
5.7136107550727
 30
0.0
  0
VERTEX
  5
C0
330
B5
100
AcDbEntity
  8
Layer 1
370
     0
100
AcDbVertex
100
AcDb2dVertex
 10
6.684166378445095
 20
5.711110856797959
 30
0.0
  0
VERTEX
  5
C1
330
B5
100
AcDbEntity
  8
Layer 1
370
     0
100
AcDbVertex
100
AcDb2dVertex
 10
6.679999881320529
 20
5.707777659098307
 30
0.0
  0
VERTEX
  5
C2
330
B5
100
AcDbEntity
  8
Layer 1
370
     0
100
AcDbVertex
100
AcDb2dVertex
 10
6.67749998304579
 20
5.704444461398654
 30
0.0
  0
VERTEX
  5
C3
330
B5
100
AcDbEntity
  8
Layer 1
370
     0
100
AcDbVertex
100
AcDb2dVertex
 10
6.675833384195963
 20
5.697777642144097
 30
0.0
  0
VERTEX
  5
C4
330
B5
100
AcDbEntity
  8
Layer 1
370
     0
100
AcDbVertex
100
AcDb2dVertex
 10
6.676666683620876
 20
5.692777421739366
 30
0.0
  0
VERTEX
  5
C5
330
B5
100
AcDbEntity
  8
Layer 1
370
     0
100
AcDbVertex
100
AcDb2dVertex
 10
6.679999881320529
 20
5.687777625189887
 30
0.0
  0
VERTEX
  5
C6
330
B5
100
AcDbEntity
  8
Layer 1
370
     0
100
AcDbVertex
100
AcDb2dVertex
 10
6.684166378445095
 20
5.68611102634006
 30
0.0
  0
VERTEX
  5
C7
330
B5
100
AcDbEntity
  8
Layer 1
370
     0
100
AcDbVertex
100
AcDb2dVertex
 10
6.691666497124565
 20
5.684444427490234
 30
0.0
  0
VERTEX
  5
C8
330
B5
100
AcDbEntity
  8
Layer 1
370
     0
100
AcDbVertex
100
AcDb2dVertex
 10
6.692499796549479
 20
5.684444427490234
 30
0.0
  0
VERTEX
  5
C9
330
B5
100
AcDbEntity
  8
Layer 1
370
     0
100
AcDbVertex
100
AcDb2dVertex
 10
6.698333316379123
 20
5.687777625189887
 30
0.0
  0
VERTEX
  5
CA
330
B5
100
AcDbEntity
  8
Layer 1
370
     0
100
AcDbVertex
100
AcDb2dVertex
 10
6.699166615804036
 20
5.6886109246148
 30
0.0
  0
VERTEX
  5
CB
330
B5
100
AcDbEntity
  8
Layer 1
370
     0
100
AcDbVertex
100
AcDb2dVertex
 10
6.704999711778428
 20
5.690277523464626
 30
0.0
  0
VERTEX
  5
CC
330
B5
100
AcDbEntity
  8
Layer 1
370
     0
100
AcDbVertex
100
AcDb2dVertex
 10
6.714999728732638
 20
5.690277523464626
 30
0.0
  0
VERTEX
  5
CD
330
B5
100
AcDbEntity
  8
Layer 1
370
     0
100
AcDbVertex
100
AcDb2dVertex
 10
6.721666547987196
 20
5.689444224039713
 30
0.0
  0
VERTEX
  5
CE
330
B5
100
AcDbEntity
  8
Layer 1
370
     0
100
AcDbVertex
100
AcDb2dVertex
 10
6.726666344536675
 20
5.685277726915147
 30
0.0
  0
VERTEX
  5
CF
330
B5
100
AcDbEntity
  8
Layer 1
370
     0
100
AcDbVertex
100
AcDb2dVertex
 10
6.729999966091579
 20
5.67861090766059
 30
0.0
  0
VERTEX
  5
D0
330
B5
100
AcDbEntity
  8
Layer 1
370
     0
100
AcDbVertex
100
AcDb2dVertex
 10
6.730833265516493
 20
5.677777608235677
 30
0.0
  0
VERTEX
  5
D1
330
B5
100
AcDbEntity
  8
Layer 1
370
     0
100
AcDbVertex
100
AcDb2dVertex
 10
6.735833062065971
 20
5.664444393581814
 30
0.0
  0
VERTEX
  5
D2
330
B5
100
AcDbEntity
  8
Layer 1
370
     0
100
AcDbVertex
100
AcDb2dVertex
 10
6.735833062065971
 20
5.657777574327256
 30
0.0
  0
SEQEND
  5
D4
330
B5
100
AcDbEntity
  8
Layer 1
370
     0
  0
HATCH
  5
D3
330
1F
100
AcDbEntity
  8
Layer 1
 62
     1
420
 16711680
100
AcDbHatch
 10
0.0
 20
0.0
 30
0.0
210
0.0
220
0.0
230
1.0
  2
SOLID
 70
     1
 71
     0
 91
        1
 92
        1
 93
       29
 72
     1
 10
6.738333384195963
 20
5.682777828640408
 11
6.735833062065971
 21
5.6886109246148
 72
     1
 10
6.735833062065971
 20
5.6886109246148
 11
6.731666564941405
 21
5.694444444444445
 72
     1
 10
6.731666564941406
 20
5.694444444444444
 11
6.726666344536675
 21
5.700277540418836
 72
     1
 10
6.726666344536675
 20
5.700277540418837
 11
6.721666547987195
 21
5.705277760823567
 72
     1
 10
6.721666547987196
 20
5.705277760823567
 11
6.715833028157552
 21
5.70861095852322
 72
     1
 10
6.715833028157552
 20
5.70861095852322
 11
6.709166632758246
 21
5.711110856797959
 72
     1
 10
6.709166632758246
 20
5.711110856797959
 11
6.702499813503689
 21
5.712777455647786
 72
     1
 10
6.702499813503689
 20
5.712777455647786
 11
6.695832994249131
 21
5.7136107550727
 72
     1
 10
6.695832994249131
 20
5.7136107550727
 11
6.691666497124565
 21
5.7136107550727
 72
     1
 10
6.691666497124565
 20
5.7136107550727
 11
6.684166378445095
 21
5.71111085679796
 72
     1
 10
6.684166378445095
 20
5.711110856797959
 11
6.679999881320529
 21
5.707777659098307
 72
     1
 10
6.679999881320529
 20
5.707777659098307
 11
6.67749998304579
 21
5.704444461398654
 72
     1
 10
6.67749998304579
 20
5.704444461398654
 11
6.675833384195963
 21
5.697777642144096
 72
     1
 10
6.675833384195963
 20
5.697777642144097
 11
6.676666683620876
 21
5.692777421739367
 72
     1
 10
6.676666683620876
 20
5.692777421739366
 11
6.679999881320529
 21
5.687777625189886
 72
     1
 10
6.679999881320529
 20
5.687777625189887
 11
6.684166378445095
 21
5.68611102634006
 72
     1
 10
6.684166378445095
 20
5.68611102634006
 11
6.691666497124565
 21
5.684444427490233
 72
     1
 10
6.691666497124565
 20
5.684444427490234
 11
6.692499796549479
 21
5.684444427490234
 72
     1
 10
6.692499796549479
 20
5.684444427490234
 11
6.698333316379123
 21
5.687777625189887
 72
     1
 10
6.698333316379123
 20
5.687777625189887
 11
6.699166615804036
 21
5.6886109246148
 72
     1
 10
6.699166615804036
 20
5.6886109246148
 11
6.704999711778428
 21
5.690277523464627
 72
     1
 10
6.704999711778428
 20
5.690277523464626
 11
6.714999728732638
 21
5.690277523464626
 72
     1
 10
6.714999728732638
 20
5.690277523464626
 11
6.721666547987196
 21
5.689444224039713
 72
     1
 10
6.721666547987196
 20
5.689444224039713
 11
6.726666344536675
 21
5.685277726915147
 72
     1
 10
6.726666344536675
 20
5.685277726915147
 11
6.729999966091579
 21
5.678610907660589
 72
     1
 10
6.729999966091579
 20
5.67861090766059
 11
6.730833265516493
 21
5.677777608235677
 72
     1
 10
6.730833265516493
 20
5.677777608235677
 11
6.735833062065972
 21
5.664444393581814
 72
     1
 10
6.735833062065971
 20
5.664444393581814
 11
6.735833062065971
 21
5.657777574327256
 72
     1
 10
6.735833062065971
 20
5.657777574327256
 11
6.738333384195963
 21
5.682777828640408
 97
        0
 75
     0
 76
     1
 98
        0
  0
SPLINE
  5
D5
330
1F
100
AcDbEntity
  8
Layer 1
370
     0
100
AcDbSpline
210
0.0
220
0.0
230
1.0
 70
     8
 71
     3
 72
    83
 73
    79
 74
     0
 42
0.0000000001
 43
0.0000000001
 12
1.0
 22
0.0
 32
0.0
 13
1.0
 23
0.0
 33
0.0
 40
0.0
 40
0.0
 40
0.0
 40
0.0
 40
1.0
 40
1.0
 40
1.0
 40
2.0
 40
2.0
 40
2.0
 40
3.0
 40
3.0
 40
3.0
 40
4.0
 40
4.0
 40
4.0
 40
5.0
 40
5.0
 40
5.0
 40
6.0
 40
6.0
 40
6.0
 40
7.0
 40
7.0
 40
7.0
 40
8.0
 40
8.0
 40
8.0
 40
9.0
 40
9.0
 40
9.0
 40
10.0
 40
10.0
 40
10.0
 40
11.0
 40
11.0
 40
11.0
 40
12.0
 40
12.0
 40
12.0
 40
13.0
 40
13.0
 40
13.0
 40
14.0
 40
14.0
 40
14.0
 40
15.0
 40
15.0
 40
15.0
 40
16.0
 40
16.0
 40
16.0
 40
17.0
 40
17.0
 40
17.0
 40
18.0
 40
18.0
 40
18.0
 40
19.0
 40
19.0
 40
19.0
 40
20.0
 40
20.0
 40
20.0
 40
21.0
 40
21.0
 40
21.0
 40
22.0
 40
22.0
 40
22.0
 40
23.0
 40
23.0
 40
23.0
 40
24.0
 40
24.0
 40
24.0
 40
25.0
 40
25.0
 40
25.0
 40
26.0
 40
26.0
 40
26.0
 40
26.0
 10
6.745000203450521
 20
5.651944478352864
 30
0.0
 10
6.745000203450521
 20
5.651944478352864
 30
0.0
 10
6.745000203450521
 20
5.654444376627604
 30
0.0
 10
6.745000203450521
 20
5.654444376627604
 30
0.0
 10
6.745000203450521
 20
5.654444376627604
 30
0.0
 10
6.744166480170356
 20
5.661944071451822
 30
0.0
 10
6.744166480170356
 20
5.661944071451822
 30
0.0
 10
6.744166480170356
 20
5.661944071451822
 30
0.0
 10
6.742499881320529
 20
5.669444190131293
 30
0.0
 10
6.742499881320529
 20
5.669444190131293
 30
0.0
 10
6.742499881320529
 20
5.669444190131293
 30
0.0
 10
6.740833282470703
 20
5.67611100938585
 30
0.0
 10
6.740833282470703
 20
5.67611100938585
 30
0.0
 10
6.740833282470703
 20
5.67611100938585
 30
0.0
 10
6.738333384195963
 20
5.682777404785156
 30
0.0
 10
6.738333384195963
 20
5.682777404785156
 30
0.0
 10
6.738333384195963
 20
5.682777404785156
 30
0.0
 10
6.735833485921224
 20
5.657777574327256
 30
0.0
 10
6.735833485921224
 20
5.657777574327256
 30
0.0
 10
6.735833485921224
 20
5.657777574327256
 30
0.0
 10
6.735833485921224
 20
5.653611077202691
 30
0.0
 10
6.735833485921224
 20
5.653611077202691
 30
0.0
 10
6.73312505086263
 20
5.626249949137369
 30
0.0
 10
6.715847015380859
 20
5.61927753024631
 30
0.0
 10
6.691666497124565
 20
5.614444308810763
 30
0.0
 10
6.691666497124565
 20
5.614444308810763
 30
0.0
 10
6.67749998304579
 20
5.614444308810763
 30
0.0
 10
6.67749998304579
 20
5.614444308810763
 30
0.0
 10
6.651277754041883
 20
5.618513743082682
 30
0.0
 10
6.638513776991102
 20
5.62629148695204
 30
0.0
 10
6.63250011867947
 20
5.652777777777778
 30
0.0
 10
6.63250011867947
 20
5.652777777777778
 30
0.0
 10
6.631666819254557
 20
5.66111077202691
 30
0.0
 10
6.631666819254557
 20
5.66111077202691
 30
0.0
 10
6.631666819254557
 20
5.66111077202691
 30
0.0
 10
6.630833519829643
 20
5.66861089070638
 30
0.0
 10
6.630833519829643
 20
5.66861089070638
 30
0.0
 10
6.630833519829643
 20
5.66861089070638
 30
0.0
 10
6.62250010172526
 20
5.66861089070638
 30
0.0
 10
6.62250010172526
 20
5.66861089070638
 30
0.0
 10
6.62250010172526
 20
5.66861089070638
 30
0.0
 10
6.62250010172526
 20
5.66111077202691
 30
0.0
 10
6.62250010172526
 20
5.66111077202691
 30
0.0
 10
6.62250010172526
 20
5.66111077202691
 30
0.0
 10
6.621666802300346
 20
5.652777777777778
 30
0.0
 10
6.621666802300346
 20
5.652777777777778
 30
0.0
 10
6.618500179714626
 20
5.622874789767795
 30
0.0
 10
6.602916717529297
 20
5.606569078233506
 30
0.0
 10
6.572500016954209
 20
5.604444291856553
 30
0.0
 10
6.572500016954209
 20
5.604444291856553
 30
0.0
 10
6.564166598849826
 20
5.604444291856553
 30
0.0
 10
6.564166598849826
 20
5.604444291856553
 30
0.0
 10
6.539152781168619
 20
5.603013780381944
 30
0.0
 10
6.506944444444444
 20
5.613152398003472
 30
0.0
 10
6.503333197699653
 20
5.641944461398654
 30
0.0
 10
6.503333197699653
 20
5.641944461398654
 30
0.0
 10
6.501666598849826
 20
5.649444156222873
 30
0.0
 10
6.501666598849826
 20
5.649444156222873
 30
0.0
 10
6.501666598849826
 20
5.649444156222873
 30
0.0
 10
6.501666598849826
 20
5.657777574327256
 30
0.0
 10
6.501666598849826
 20
5.657777574327256
 30
0.0
 10
6.501666598849826
 20
5.657777574327256
 30
0.0
 10
6.501666598849826
 20
5.614444308810763
 30
0.0
 10
6.501666598849826
 20
5.614444308810763
 30
0.0
 10
6.530860900878906
 20
5.562027401394314
 30
0.0
 10
6.603777567545572
 20
5.567374759250217
 30
0.0
 10
6.625
 20
5.625277625189887
 30
0.0
 10
6.625
 20
5.625277625189887
 30
0.0
 10
6.628333197699653
 20
5.632777743869357
 30
0.0
 10
6.628333197699653
 20
5.632777743869357
 30
0.0
 10
6.628333197699653
 20
5.632777743869357
 30
0.0
 10
6.630833519829643
 20
5.6261109246148
 30
0.0
 10
6.630833519829643
 20
5.6261109246148
 30
0.0
 10
6.651749928792317
 20
5.57030529446072
 30
0.0
 10
6.730194515652126
 20
5.57798597547743
 30
0.0
 10
6.743333180745442
 20
5.636944240993923
 30
0.0
 10
6.743333180745442
 20
5.636944240993923
 30
0.0
 10
6.744166480170356
 20
5.643611060248481
 30
0.0
 10
6.744166480170356
 20
5.643611060248481
 30
0.0
  0
HATCH
  5
D6
330
1F
100
AcDbEntity
  8
Layer 1
 62
     1
420
 16711680
100
AcDbHatch
 10
0.0
 20
0.0
 30
0.0
210
0.0
220
0.0
230
1.0
  2
SOLID
 70
     1
 71
     0
 91
        1
 92
        1
 93
        2
 72
     4
 94
        3
 73
     0
 74
     0
 95
       83
 96
       79
 40
0.0
 40
0.0
 40
0.0
 40
0.0
 40
0.0138888888888889
 40
0.0138888888888889
 40
0.0138888888888889
 40
0.0277777777777778
 40
0.0277777777777778
 40
0.0277777777777778
 40
0.0416666666666667
 40
0.0416666666666667
 40
0.0416666666666667
 40
0.0555555555555556
 40
0.0555555555555556
 40
0.0555555555555556
 40
0.0694444444444444
 40
0.0694444444444444
 40
0.0694444444444444
 40
0.0833333333333333
 40
0.0833333333333333
 40
0.0833333333333333
 40
0.0972222222222222
 40
0.0972222222222222
 40
0.0972222222222222
 40
0.1111111111111111
 40
0.1111111111111111
 40
0.1111111111111111
 40
0.125
 40
0.125
 40
0.125
 40
0.1388888888888889
 40
0.1388888888888889
 40
0.1388888888888889
 40
0.1527777777777778
 40
0.1527777777777778
 40
0.1527777777777778
 40
0.1666666666666667
 40
0.1666666666666667
 40
0.1666666666666667
 40
0.1805555555555556
 40
0.1805555555555556
 40
0.1805555555555556
 40
0.1944444444444444
 40
0.1944444444444444
 40
0.1944444444444444
 40
0.2083333333333333
 40
0.2083333333333333
 40
0.2083333333333333
 40
0.2222222222222222
 40
0.2222222222222222
 40
0.2222222222222222
 40
0.2361111111111111
 40
0.2361111111111111
 40
0.2361111111111111
 40
0.25
 40
0.25
 40
0.25
 40
0.2638888888888889
 40
0.2638888888888889
 40
0.2638888888888889
 40
0.2777777777777778
 40
0.2777777777777778
 40
0.2777777777777778
 40
0.2916666666666666
 40
0.2916666666666666
 40
0.2916666666666666
 40
0.3055555555555555
 40
0.3055555555555555
 40
0.3055555555555555
 40
0.3194444444444444
 40
0.3194444444444444
 40
0.3194444444444444
 40
0.3333333333333333
 40
0.3333333333333333
 40
0.3333333333333333
 40
0.3472222222222222
 40
0.3472222222222222
 40
0.3472222222222222
 40
0.3611111111111111
 40
0.3611111111111111
 40
0.3611111111111111
 40
0.3611111111111111
 10
6.745000203450521
 20
5.651944478352864
 10
6.745000203450521
 20
5.651944478352864
 10
6.745000203450521
 20
5.654444376627604
 10
6.745000203450521
 20
5.654444376627604
 10
6.745000203450521
 20
5.654444376627604
 10
6.744166480170356
 20
5.661944071451822
 10
6.744166480170356
 20
5.661944071451822
 10
6.744166480170356
 20
5.661944071451822
 10
6.742499881320529
 20
5.669444190131293
 10
6.742499881320529
 20
5.669444190131293
 10
6.742499881320529
 20
5.669444190131293
 10
6.740833282470703
 20
5.67611100938585
 10
6.740833282470703
 20
5.67611100938585
 10
6.740833282470703
 20
5.67611100938585
 10
6.738333384195963
 20
5.682777404785156
 10
6.738333384195963
 20
5.682777404785156
 10
6.738333384195963
 20
5.682777404785156
 10
6.735833485921224
 20
5.657777574327256
 10
6.735833485921224
 20
5.657777574327256
 10
6.735833485921224
 20
5.657777574327256
 10
6.735833485921224
 20
5.653611077202691
 10
6.735833485921224
 20
5.653611077202691
 10
6.73312505086263
 20
5.626249949137369
 10
6.715847015380859
 20
5.61927753024631
 10
6.691666497124565
 20
5.614444308810763
 10
6.691666497124565
 20
5.614444308810763
 10
6.67749998304579
 20
5.614444308810763
 10
6.67749998304579
 20
5.614444308810763
 10
6.651277754041883
 20
5.618513743082682
 10
6.638513776991102
 20
5.62629148695204
 10
6.63250011867947
 20
5.652777777777778
 10
6.63250011867947
 20
5.652777777777778
 10
6.631666819254557
 20
5.66111077202691
 10
6.631666819254557
 20
5.66111077202691
 10
6.631666819254557
 20
5.66111077202691
 10
6.630833519829643
 20
5.66861089070638
 10
6.630833519829643
 20
5.66861089070638
 10
6.630833519829643
 20
5.66861089070638
 10
6.62250010172526
 20
5.66861089070638
 10
6.62250010172526
 20
5.66861089070638
 10
6.62250010172526
 20
5.66861089070638
 10
6.62250010172526
 20
5.66111077202691
 10
6.62250010172526
 20
5.66111077202691
 10
6.62250010172526
 20
5.66111077202691
 10
6.621666802300346
 20
5.652777777777778
 10
6.621666802300346
 20
5.652777777777778
 10
6.618500179714626
 20
5.622874789767795
 10
6.602916717529297
 20
5.606569078233506
 10
6.572500016954209
 20
5.604444291856553
 10
6.572500016954209
 20
5.604444291856553
 10
6.564166598849826
 20
5.604444291856553
 10
6.564166598849826
 20
5.604444291856553
 10
6.539152781168619
 20
5.603013780381944
 10
6.506944444444444
 20
5.613152398003472
 10
6.503333197699653
 20
5.641944461398654
 10
6.503333197699653
 20
5.641944461398654
 10
6.501666598849826
 20
5.649444156222873
 10
6.501666598849826
 20
5.649444156222873
 10
6.501666598849826
 20
5.649444156222873
 10
6.501666598849826
 20
5.657777574327256
 10
6.501666598849826
 20
5.657777574327256
 10
6.501666598849826
 20
5.657777574327256
 10
6.501666598849826
 20
5.614444308810763
 10
6.501666598849826
 20
5.614444308810763
 10
6.530860900878906
 20
5.562027401394314
 10
6.603777567545572
 20
5.567374759250217
 10
6.625
 20
5.625277625189887
 10
6.625
 20
5.625277625189887
 10
6.628333197699653
 20
5.632777743869357
 10
6.628333197699653
 20
5.632777743869357
 10
6.628333197699653
 20
5.632777743869357
 10
6.630833519829643
 20
5.6261109246148
 10
6.630833519829643
 20
5.6261109246148
 10
6.651749928792317
 20
5.57030529446072
 10
6.730194515652126
 20
5.57798597547743
 10
6.743333180745442
 20
5.636944240993923
 10
6.743333180745442
 20
5.636944240993923
 10
6.744166480170356
 20
5.643611060248481
 10
6.744166480170356
 20
5.643611060248481
 97
        0
 72
     1
 10
6.744166480170356
 20
5.643611060248481
 11
6.745000203450521
 21
5.651944478352864
 97
        0
 75
     0
 76
     1
 98
        0
  0
SPLINE
  5
D7
330
1F
100
AcDbEntity
  8
Layer 1
370
     0
100
AcDbSpline
210
0.0
220
0.0
230
1.0
 70
     8
 71
     3
 72
    38
 73
    34
 74
     0
 42
0.0000000001
 43
0.0000000001
 12
1.0
 22
0.0
 32
0.0
 13
1.0
 23
0.0
 33
0.0
 40
0.0
 40
0.0
 40
0.0
 40
0.0
 40
1.0
 40
1.0
 40
1.0
 40
2.0
 40
2.0
 40
2.0
 40
3.0
 40
3.0
 40
3.0
 40
4.0
 40
4.0
 40
4.0
 40
5.0
 40
5.0
 40
5.0
 40
6.0
 40
6.0
 40
6.0
 40
7.0
 40
7.0
 40
7.0
 40
8.0
 40
8.0
 40
8.0
 40
9.0
 40
9.0
 40
9.0
 40
10.0
 40
10.0
 40
10.0
 40
11.0
 40
11.0
 40
11.0
 40
11.0
 10
6.73500018649631
 20
5.431944529215494
 30
0.0
 10
6.73500018649631
 20
5.431944529215494
 30
0.0
 10
6.733333163791232
 20
5.463611178927951
 30
0.0
 10
6.733333163791232
 20
5.463611178927951
 30
0.0
 10
6.733333163791232
 20
5.463611178927951
 30
0.0
 10
6.733333163791232
 20
5.461110856797959
 30
0.0
 10
6.733333163791232
 20
5.461110856797959
 30
0.0
 10
6.733333163791232
 20
5.461110856797959
 30
0.0
 10
6.732499864366319
 20
5.454444461398654
 30
0.0
 10
6.732499864366319
 20
5.454444461398654
 30
0.0
 10
6.723277621799045
 20
5.420221964518229
 30
0.0
 10
6.656763712565104
 20
5.416013929578993
 30
0.0
 10
6.628333197699653
 20
5.416110992431641
 30
0.0
 10
6.628333197699653
 20
5.416110992431641
 30
0.0
 10
6.610833485921224
 20
5.416110992431641
 30
0.0
 10
6.610833485921224
 20
5.416110992431641
 30
0.0
 10
6.582527584499783
 20
5.414847056070963
 30
0.0
 10
6.513361189100477
 20
5.422499762641059
 30
0.0
 10
6.504999796549479
 20
5.456944359673394
 30
0.0
 10
6.504999796549479
 20
5.456944359673394
 30
0.0
 10
6.504166497124565
 20
5.463611178927951
 30
0.0
 10
6.504166497124565
 20
5.463611178927951
 30
0.0
 10
6.504166497124565
 20
5.463611178927951
 30
0.0
 10
6.502499898274739
 20
5.494444529215494
 30
0.0
 10
6.502499898274739
 20
5.494444529215494
 30
0.0
 10
6.502499898274739
 20
5.494444529215494
 30
0.0
 10
6.499166700575087
 20
5.48861100938585
 30
0.0
 10
6.499166700575087
 20
5.48861100938585
 30
0.0
 10
6.454722086588541
 20
5.378485785590278
 30
0.0
 10
6.676583184136284
 20
5.366194407145182
 30
0.0
 10
6.726666768391927
 20
5.421944512261285
 30
0.0
 10
6.726666768391927
 20
5.421944512261285
 30
0.0
 10
6.730833265516493
 20
5.426944308810763
 30
0.0
 10
6.730833265516493
 20
5.426944308810763
 30
0.0
  0
HATCH
  5
D8
330
1F
100
AcDbEntity
  8
Layer 1
 62
     1
420
 16711680
100
AcDbHatch
 10
0.0
 20
0.0
 30
0.0
210
0.0
220
0.0
230
1.0
  2
SOLID
 70
     1
 71
     0
 91
        1
 92
        1
 93
        2
 72
     4
 94
        3
 73
     0
 74
     0
 95
       38
 96
       34
 40
0.0
 40
0.0
 40
0.0
 40
0.0
 40
0.0138888888888889
 40
0.0138888888888889
 40
0.0138888888888889
 40
0.0277777777777778
 40
0.0277777777777778
 40
0.0277777777777778
 40
0.0416666666666667
 40
0.0416666666666667
 40
0.0416666666666667
 40
0.0555555555555556
 40
0.0555555555555556
 40
0.0555555555555556
 40
0.0694444444444444
 40
0.0694444444444444
 40
0.0694444444444444
 40
0.0833333333333333
 40
0.0833333333333333
 40
0.0833333333333333
 40
0.0972222222222222
 40
0.0972222222222222
 40
0.0972222222222222
 40
0.1111111111111111
 40
0.1111111111111111
 40
0.1111111111111111
 40
0.125
 40
0.125
 40
0.125
 40
0.1388888888888889
 40
0.1388888888888889
 40
0.1388888888888889
 40
0.1527777777777778
 40
0.1527777777777778
 40
0.1527777777777778
 40
0.1527777777777778
 10
6.73500018649631
 20
5.431944529215494
 10
6.73500018649631
 20
5.431944529215494
 10
6.733333163791232
 20
5.463611178927951
 10
6.733333163791232
 20
5.463611178927951
 10
6.733333163791232
 20
5.463611178927951
 10
6.733333163791232
 20
5.461110856797959
 10
6.733333163791232
 20
5.461110856797959
 10
6.733333163791232
 20
5.461110856797959
 10
6.732499864366319
 20
5.454444461398654
 10
6.732499864366319
 20
5.454444461398654
 10
6.723277621799045
 20
5.420221964518229
 10
6.656763712565104
 20
5.416013929578993
 10
6.628333197699653
 20
5.416110992431641
 10
6.628333197699653
 20
5.416110992431641
 10
6.610833485921224
 20
5.416110992431641
 10
6.610833485921224
 20
5.416110992431641
 10
6.582527584499783
 20
5.414847056070963
 10
6.513361189100477
 20
5.422499762641059
 10
6.504999796549479
 20
5.456944359673394
 10
6.504999796549479
 20
5.456944359673394
 10
6.504166497124565
 20
5.463611178927951
 10
6.504166497124565
 20
5.463611178927951
 10
6.504166497124565
 20
5.463611178927951
 10
6.502499898274739
 20
5.494444529215494
 10
6.502499898274739
 20
5.494444529215494
 10
6.502499898274739
 20
5.494444529215494
 10
6.499166700575087
 20
5.48861100938585
 10
6.499166700575087
 20
5.48861100938585
 10
6.454722086588541
 20
5.378485785590278
 10
6.676583184136284
 20
5.366194407145182
 10
6.726666768391927
 20
5.421944512261285
 10
6.726666768391927
 20
5.421944512261285
 10
6.730833265516493
 20
5.426944308810763
 10
6.730833265516493
 20
5.426944308810763
 97
        0
 72
     1
 10
6.730833265516493
 20
5.426944308810763
 11
6.73500018649631
 21
5.431944529215494
 97
        0
 75
     0
 76
     1
 98
        0
  0
SPLINE
  5
D9
330
1F
100
AcDbEntity
  8
Layer 1
370
     0
100
AcDbSpline
210
0.0
220
0.0
230
1.0
 70
     8
 71
     3
 72
    32
 73
    28
 74
     0
 42
0.0000000001
 43
0.0000000001
 12
1.0
 22
0.0
 32
0.0
 13
1.0
 23
0.0
 33
0.0
 40
0.0
 40
0.0
 40
0.0
 40
0.0
 40
1.0
 40
1.0
 40
1.0
 40
2.0
 40
2.0
 40
2.0
 40
3.0
 40
3.0
 40
3.0
 40
4.0
 40
4.0
 40
4.0
 40
5.0
 40
5.0
 40
5.0
 40
6.0
 40
6.0
 40
6.0
 40
7.0
 40
7.0
 40
7.0
 40
8.0
 40
8.0
 40
8.0
 40
9.0
 40
9.0
 40
9.0
 40
9.0
 10
6.745000203450521
 20
5.463611178927951
 30
0.0
 10
6.745000203450521
 20
5.463611178927951
 30
0.0
 10
6.744166480170356
 20
5.466944376627604
 30
0.0
 10
6.744166480170356
 20
5.466944376627604
 30
0.0
 10
6.737722184922959
 20
5.555305480957031
 30
0.0
 10
6.541514078776041
 20
5.558180491129557
 30
0.0
 10
6.502499898274739
 20
5.494444105360243
 30
0.0
 10
6.502499898274739
 20
5.494444105360243
 30
0.0
 10
6.504166497124565
 20
5.463611178927951
 30
0.0
 10
6.504166497124565
 20
5.463611178927951
 30
0.0
 10
6.504166497124565
 20
5.463611178927951
 30
0.0
 10
6.504999796549479
 20
5.46861097547743
 30
0.0
 10
6.504999796549479
 20
5.46861097547743
 30
0.0
 10
6.51625018649631
 20
5.527874840630425
 30
0.0
 10
6.730361090766059
 20
5.527610778808594
 30
0.0
 10
6.733333163791232
 20
5.463611178927951
 30
0.0
 10
6.733333163791232
 20
5.463611178927951
 30
0.0
 10
6.73500018649631
 20
5.431944105360243
 30
0.0
 10
6.73500018649631
 20
5.431944105360243
 30
0.0
 10
6.73500018649631
 20
5.431944105360243
 30
0.0
 10
6.741666581895616
 20
5.443611145019531
 30
0.0
 10
6.741666581895616
 20
5.443611145019531
 30
0.0
 10
6.741666581895616
 20
5.443611145019531
 30
0.0
 10
6.743333180745442
 20
5.450277540418837
 30
0.0
 10
6.743333180745442
 20
5.450277540418837
 30
0.0
 10
6.743333180745442
 20
5.450277540418837
 30
0.0
 10
6.744166480170356
 20
5.456944359673394
 30
0.0
 10
6.744166480170356
 20
5.456944359673394
 30
0.0
  0
HATCH
  5
DA
330
1F
100
AcDbEntity
  8
Layer 1
 62
     1
420
 16711680
100
AcDbHatch
 10
0.0
 20
0.0
 30
0.0
210
0.0
220
0.0
230
1.0
  2
SOLID
 70
     1
 71
     0
 91
        1
 92
        1
 93
        2
 72
     4
 94
        3
 73
     0
 74
     0
 95
       32
 96
       28
 40
0.0
 40
0.0
 40
0.0
 40
0.0
 40
0.0138888888888889
 40
0.0138888888888889
 40
0.0138888888888889
 40
0.0277777777777778
 40
0.0277777777777778
 40
0.0277777777777778
 40
0.0416666666666667
 40
0.0416666666666667
 40
0.0416666666666667
 40
0.0555555555555556
 40
0.0555555555555556
 40
0.0555555555555556
 40
0.0694444444444444
 40
0.0694444444444444
 40
0.0694444444444444
 40
0.0833333333333333
 40
0.0833333333333333
 40
0.0833333333333333
 40
0.0972222222222222
 40
0.0972222222222222
 40
0.0972222222222222
 40
0.1111111111111111
 40
0.1111111111111111
 40
0.1111111111111111
 40
0.125
 40
0.125
 40
0.125
 40
0.125
 10
6.745000203450521
 20
5.463611178927951
 10
6.745000203450521
 20
5.463611178927951
 10
6.744166480170356
 20
5.466944376627604
 10
6.744166480170356
 20
5.466944376627604
 10
6.737722184922959
 20
5.555305480957031
 10
6.541514078776041
 20
5.558180491129557
 10
6.502499898274739
 20
5.494444105360243
 10
6.502499898274739
 20
5.494444105360243
 10
6.504166497124565
 20
5.463611178927951
 10
6.504166497124565
 20
5.463611178927951
 10
6.504166497124565
 20
5.463611178927951
 10
6.504999796549479
 20
5.46861097547743
 10
6.504999796549479
 20
5.46861097547743
 10
6.51625018649631
 20
5.527874840630425
 10
6.730361090766059
 20
5.527610778808594
 10
6.733333163791232
 20
5.463611178927951
 10
6.733333163791232
 20
5.463611178927951
 10
6.73500018649631
 20
5.431944105360243
 10
6.73500018649631
 20
5.431944105360243
 10
6.73500018649631
 20
5.431944105360243
 10
6.741666581895616
 20
5.443611145019531
 10
6.741666581895616
 20
5.443611145019531
 10
6.741666581895616
 20
5.443611145019531
 10
6.743333180745442
 20
5.450277540418837
 10
6.743333180745442
 20
5.450277540418837
 10
6.743333180745442
 20
5.450277540418837
 10
6.744166480170356
 20
5.456944359673394
 10
6.744166480170356
 20
5.456944359673394
 97
        0
 72
     1
 10
6.744166480170356
 20
5.456944359673394
 11
6.745000203450521
 21
5.463611178927951
 97
        0
 75
     0
 76
     1
 98
        0
  0
POLYLINE
  5
DB
330
1F
100
AcDbEntity
  8
Layer 1
370
     0
100
AcDb2dPolyline
 66
     1
 10
0.0
 20
0.0
 30
0.0
  0
VERTEX
  5
DC
330
DB
100
AcDbEntity
  8
Layer 1
370
     0
100
AcDbVertex
100
AcDb2dVertex
 10
6.781666649712456
 20
5.260277642144097
 30
0.0
  0
VERTEX
  5
DD
330
DB
100
AcDbEntity
  8
Layer 1
370
     0
100
AcDbVertex
100
AcDb2dVertex
 10
6.781666649712456
 20
5.346944173177083
 30
0.0
  0
VERTEX
  5
DE
330
DB
100
AcDbEntity
  8
Layer 1
370
     0
100
AcDbVertex
100
AcDb2dVertex
 10
6.770832909478081
 20
5.346944173177083
 30
0.0
  0
VERTEX
  5
DF
330
DB
100
AcDbEntity
  8
Layer 1
370
     0
100
AcDbVertex
100
AcDb2dVertex
 10
6.770832909478081
 20
5.274444156222873
 30
0.0
  0
VERTEX
  5
E0
330
DB
100
AcDbEntity
  8
Layer 1
370
     0
100
AcDbVertex
100
AcDb2dVertex
 10
6.474166446261935
 20
5.274444156222873
 30
0.0
  0
VERTEX
  5
E1
330
DB
100
AcDbEntity
  8
Layer 1
370
     0
100
AcDbVertex
100
AcDb2dVertex
 10
6.474166446261935
 20
5.346944173177083
 30
0.0
  0
VERTEX
  5
E2
330
DB
100
AcDbEntity
  8
Layer 1
370
     0
100
AcDbVertex
100
AcDb2dVertex
 10
6.462499830457899
 20
5.346944173177083
 30
0.0
  0
VERTEX
  5
E3
330
DB
100
AcDbEntity
  8
Layer 1
370
     0
100
AcDbVertex
100
AcDb2dVertex
 10
6.462499830457899
 20
5.260277642144097
 30
0.0
  0
SEQEND
  5
E5
330
DB
100
AcDbEntity
  8
Layer 1
370
     0
  0
HATCH
  5
E4
330
1F
100
AcDbEntity
  8
Layer 1
 62
     1
420
 16711680
100
AcDbHatch
 10
0.0
 20
0.0
 30
0.0
210
0.0
220
0.0
230
1.0
  2
SOLID
 70
     1
 71
     0
 91
        1
 92
        1
 93
        8
 72
     1
 10
6.781666649712456
 20
5.260277642144097
 11
6.781666649712456
 21
5.346944173177083
 72
     1
 10
6.781666649712456
 20
5.346944173177083
 11
6.770832909478081
 21
5.346944173177083
 72
     1
 10
6.770832909478081
 20
5.346944173177083
 11
6.770832909478081
 21
5.274444156222873
 72
     1
 10
6.770832909478081
 20
5.274444156222873
 11
6.474166446261935
 21
5.274444156222873
 72
     1
 10
6.474166446261935
 20
5.274444156222873
 11
6.474166446261935
 21
5.346944173177083
 72
     1
 10
6.474166446261935
 20
5.346944173177083
 11
6.462499830457899
 21
5.346944173177083
 72
     1
 10
6.462499830457899
 20
5.346944173177083
 11
6.462499830457899
 21
5.260277642144097
 72
     1
 10
6.462499830457899
 20
5.260277642144097
 11
6.781666649712457
 21
5.260277642144097
 97
        0
 75
     0
 76
     1
 98
        0
  0
POLYLINE
  5
E6
330
1F
100
AcDbEntity
  8
Layer 1
 62
     1
420
 16711680
370
     9
100
AcDb2dPolyline
 66
     1
 10
0.0
 20
0.0
 30
0.0
  0
VERTEX
  5
E7
330
E6
100
AcDbEntity
  8
Layer 1
 62
     1
420
 16711680
370
     9
100
AcDbVertex
100
AcDb2dVertex
 10
5.921666463216146
 20
9.837777879503038
 30
0.0
  0
VERTEX
  5
E8
330
E6
100
AcDbEntity
  8
Layer 1
 62
     1
420
 16711680
370
     9
100
AcDbVertex
100
AcDb2dVertex
 10
5.921666463216146
 20
10.15361107720269
 30
0.0
  0
SEQEND
  5
E9
330
E6
100
AcDbEntity
  8
Layer 1
 62
     1
420
 16711680
370
     9
  0
POLYLINE
  5
EA
330
1F
100
AcDbEntity
  8
Layer 1
 62
     1
420
 16711680
370
     9
100
AcDb2dPolyline
 66
     1
 10
0.0
 20
0.0
 30
0.0
  0
VERTEX
  5
EB
330
EA
100
AcDbEntity
  8
Layer 1
 62
     1
420
 16711680
370
     9
100
AcDbVertex
100
AcDb2dVertex
 10
2.101666344536675
 20
9.837777879503038
 30
0.0
  0
VERTEX
  5
EC
330
EA
100
AcDbEntity
  8
Layer 1
 62
     1
420
 16711680
370
     9
100
AcDbVertex
100
AcDb2dVertex
 10
2.101666344536675
 20
10.15361107720269
 30
0.0
  0
SEQEND
  5
ED
330
EA
100
AcDbEntity
  8
Layer 1
 62
     1
420
 16711680
370
     9
  0
POLYLINE
  5
EE
330
1F
100
AcDbEntity
  8
Layer 1
 62
     1
420
 16711680
370
     9
100
AcDb2dPolyline
 66
     1
 10
0.0
 20
0.0
 30
0.0
  0
VERTEX
  5
EF
330
EE
100
AcDbEntity
  8
Layer 1
 62
     1
420
 16711680
370
     9
100
AcDbVertex
100
AcDb2dVertex
 10
5.752499474419488
 20
10.01277754041884
 30
0.0
  0
VERTEX
  5
F0
330
EE
100
AcDbEntity
  8
Layer 1
 62
     1
420
 16711680
370
     9
100
AcDbVertex
100
AcDb2dVertex
 10
2.270832909478081
 20
10.01277754041884
 30
0.0
  0
SEQEND
  5
F1
330
EE
100
AcDbEntity
  8
Layer 1
 62
     1
420
 16711680
370
     9
  0
POLYLINE
  5
F2
330
1F
100
AcDbEntity
  8
Layer 1
370
     0
100
AcDb2dPolyline
 66
     1
 10
0.0
 20
0.0
 30
0.0
  0
VERTEX
  5
F3
330
F2
100
AcDbEntity
  8
Layer 1
370
     0
100
AcDbVertex
100
AcDb2dVertex
 10
5.752499898274739
 20
10.04111141628689
 30
0.0
  0
VERTEX
  5
F4
330
F2
100
AcDbEntity
  8
Layer 1
370
     0
100
AcDbVertex
100
AcDb2dVertex
 10
5.752499898274739
 20
9.984444512261284
 30
0.0
  0
VERTEX
  5
F5
330
F2
100
AcDbEntity
  8
Layer 1
370
     0
100
AcDbVertex
100
AcDb2dVertex
 10
5.921666463216146
 20
10.01277754041884
 30
0.0
  0
SEQEND
  5
F7
330
F2
100
AcDbEntity
  8
Layer 1
370
     0
  0
HATCH
  5
F6
330
1F
100
AcDbEntity
  8
Layer 1
 62
     1
420
 16711680
100
AcDbHatch
 10
0.0
 20
0.0
 30
0.0
210
0.0
220
0.0
230
1.0
  2
SOLID
 70
     1
 71
     0
 91
        1
 92
        1
 93
        3
 72
     1
 10
5.752499898274739
 20
10.04111141628689
 11
5.752499898274739
 21
9.984444512261284
 72
     1
 10
5.752499898274739
 20
9.984444512261284
 11
5.921666463216146
 21
10.01277754041884
 72
     1
 10
5.921666463216146
 20
10.01277754041884
 11
5.752499898274739
 21
10.04111141628689
 97
        0
 75
     0
 76
     1
 98
        0
  0
POLYLINE
  5
F8
330
1F
100
AcDbEntity
  8
Layer 1
370
     0
100
AcDb2dPolyline
 66
     1
 10
0.0
 20
0.0
 30
0.0
  0
VERTEX
  5
F9
330
F8
100
AcDbEntity
  8
Layer 1
370
     0
100
AcDbVertex
100
AcDb2dVertex
 10
2.270833333333333
 20
10.04111141628689
 30
0.0
  0
VERTEX
  5
FA
330
F8
100
AcDbEntity
  8
Layer 1
370
     0
100
AcDbVertex
100
AcDb2dVertex
 10
2.270833333333333
 20
9.984444512261284
 30
0.0
  0
VERTEX
  5
FB
330
F8
100
AcDbEntity
  8
Layer 1
370
     0
100
AcDbVertex
100
AcDb2dVertex
 10
2.101666556464301
 20
10.01277754041884
 30
0.0
  0
SEQEND
  5
FD
330
F8
100
AcDbEntity
  8
Layer 1
370
     0
  0
HATCH
  5
FC
330
1F
100
AcDbEntity
  8
Layer 1
 62
     1
420
 16711680
100
AcDbHatch
 10
0.0
 20
0.0
 30
0.0
210
0.0
220
0.0
230
1.0
  2
SOLID
 70
     1
 71
     0
 91
        1
 92
        1
 93
        3
 72
     1
 10
2.270833333333333
 20
10.04111141628689
 11
2.270833333333333
 21
9.984444512261284
 72
     1
 10
2.270833333333333
 20
9.984444512261284
 11
2.101666556464301
 21
10.01277754041884
 72
     1
 10
2.101666556464301
 20
10.01277754041884
 11
2.270833333333333
 21
10.04111141628689
 97
        0
 75
     0
 76
     1
 98
        0
  0
SPLINE
  5
FE
330
1F
100
AcDbEntity
  8
Layer 1
370
     0
100
AcDbSpline
210
0.0
220
0.0
230
1.0
 70
     8
 71
     3
 72
    71
 73
    67
 74
     0
 42
0.0000000001
 43
0.0000000001
 12
1.0
 22
0.0
 32
0.0
 13
1.0
 23
0.0
 33
0.0
 40
0.0
 40
0.0
 40
0.0
 40
0.0
 40
1.0
 40
1.0
 40
1.0
 40
2.0
 40
2.0
 40
2.0
 40
3.0
 40
3.0
 40
3.0
 40
4.0
 40
4.0
 40
4.0
 40
5.0
 40
5.0
 40
5.0
 40
6.0
 40
6.0
 40
6.0
 40
7.0
 40
7.0
 40
7.0
 40
8.0
 40
8.0
 40
8.0
 40
9.0
 40
9.0
 40
9.0
 40
10.0
 40
10.0
 40
10.0
 40
11.0
 40
11.0
 40
11.0
 40
12.0
 40
12.0
 40
12.0
 40
13.0
 40
13.0
 40
13.0
 40
14.0
 40
14.0
 40
14.0
 40
15.0
 40
15.0
 40
15.0
 40
16.0
 40
16.0
 40
16.0
 40
17.0
 40
17.0
 40
17.0
 40
18.0
 40
18.0
 40
18.0
 40
19.0
 40
19.0
 40
19.0
 40
20.0
 40
20.0
 40
20.0
 40
21.0
 40
21.0
 40
21.0
 40
22.0
 40
22.0
 40
22.0
 40
22.0
 10
3.251666598849826
 20
10.36611090766059
 30
0.0
 10
3.251666598849826
 20
10.36611090766059
 30
0.0
 10
3.237499872843424
 20
10.36611090766059
 30
0.0
 10
3.237499872843424
 20
10.36611090766059
 30
0.0
 10
3.237499872843424
 20
10.36611090766059
 30
0.0
 10
3.132499906751844
 20
10.19861009385851
 30
0.0
 10
3.132499906751844
 20
10.19861009385851
 30
0.0
 10
3.132499906751844
 20
10.19861009385851
 30
0.0
 10
3.132499906751844
 20
10.1919436984592
 30
0.0
 10
3.132499906751844
 20
10.1919436984592
 30
0.0
 10
3.132499906751844
 20
10.1919436984592
 30
0.0
 10
3.228333155314127
 20
10.1919436984592
 30
0.0
 10
3.228333155314127
 20
10.1919436984592
 30
0.0
 10
3.228333155314127
 20
10.1919436984592
 30
0.0
 10
3.228333155314127
 20
10.14444393581814
 30
0.0
 10
3.228333155314127
 20
10.14444393581814
 30
0.0
 10
3.229402542114258
 20
10.1279296875
 30
0.0
 10
3.220569186740451
 20
10.12637413872613
 30
0.0
 10
3.206666522555881
 20
10.12527720133463
 30
0.0
 10
3.206666522555881
 20
10.12527720133463
 30
0.0
 10
3.190833197699653
 20
10.12527720133463
 30
0.0
 10
3.190833197699653
 20
10.12527720133463
 30
0.0
 10
3.190833197699653
 20
10.12527720133463
 30
0.0
 10
3.190833197699653
 20
10.1169442070855
 30
0.0
 10
3.190833197699653
 20
10.1169442070855
 30
0.0
 10
3.190833197699653
 20
10.1169442070855
 30
0.0
 10
3.285833146837022
 20
10.1169442070855
 30
0.0
 10
3.285833146837022
 20
10.1169442070855
 30
0.0
 10
3.285833146837022
 20
10.1169442070855
 30
0.0
 10
3.285833146837022
 20
10.12527720133463
 30
0.0
 10
3.285833146837022
 20
10.12527720133463
 30
0.0
 10
3.285833146837022
 20
10.12527720133463
 30
0.0
 10
3.269999821980794
 20
10.12527720133463
 30
0.0
 10
3.269999821980794
 20
10.12527720133463
 30
0.0
 10
3.269999821980794
 20
10.12527720133463
 30
0.0
 10
3.263333214653863
 20
10.12694380018446
 30
0.0
 10
3.263333214653863
 20
10.12694380018446
 30
0.0
 10
3.263333214653863
 20
10.12694380018446
 30
0.0
 10
3.257499906751844
 20
10.1294436984592
 30
0.0
 10
3.257499906751844
 20
10.1294436984592
 30
0.0
 10
3.257499906751844
 20
10.1294436984592
 30
0.0
 10
3.255833095974392
 20
10.13111029730903
 30
0.0
 10
3.255833095974392
 20
10.13111029730903
 30
0.0
 10
3.255833095974392
 20
10.13111029730903
 30
0.0
 10
3.252499898274739
 20
10.13611009385851
 30
0.0
 10
3.252499898274739
 20
10.13611009385851
 30
0.0
 10
3.252499898274739
 20
10.13611009385851
 30
0.0
 10
3.251666598849826
 20
10.14444393581814
 30
0.0
 10
3.251666598849826
 20
10.14444393581814
 30
0.0
 10
3.251666598849826
 20
10.14444393581814
 30
0.0
 10
3.251666598849826
 20
10.1919436984592
 30
0.0
 10
3.251666598849826
 20
10.1919436984592
 30
0.0
 10
3.251666598849826
 20
10.1919436984592
 30
0.0
 10
3.289999855889214
 20
10.1919436984592
 30
0.0
 10
3.289999855889214
 20
10.1919436984592
 30
0.0
 10
3.289999855889214
 20
10.1919436984592
 30
0.0
 10
3.289999855889214
 20
10.20027754041884
 30
0.0
 10
3.289999855889214
 20
10.20027754041884
 30
0.0
 10
3.289999855889214
 20
10.20027754041884
 30
0.0
 10
3.144999821980794
 20
10.20027754041884
 30
0.0
 10
3.144999821980794
 20
10.20027754041884
 30
0.0
 10
3.144999821980794
 20
10.20027754041884
 30
0.0
 10
3.226666556464301
 20
10.3294440375434
 30
0.0
 10
3.226666556464301
 20
10.3294440375434
 30
0.0
 10
3.226666556464301
 20
10.3294440375434
 30
0.0
 10
3.228333155314127
 20
10.3294440375434
 30
0.0
 10
3.228333155314127
 20
10.3294440375434
 30
0.0
  0
HATCH
  5
FF
330
1F
100
AcDbEntity
  8
Layer 1
 62
     1
420
 16711680
100
AcDbHatch
 10
0.0
 20
0.0
 30
0.0
210
0.0
220
0.0
230
1.0
  2
SOLID
 70
     1
 71
     0
 91
        1
 92
        1
 93
        2
 72
     4
 94
        3
 73
     0
 74
     0
 95
       71
 96
       67
 40
0.0
 40
0.0
 40
0.0
 40
0.0
 40
0.0138888888888889
 40
0.0138888888888889
 40
0.0138888888888889
 40
0.0277777777777778
 40
0.0277777777777778
 40
0.0277777777777778
 40
0.0416666666666667
 40
0.0416666666666667
 40
0.0416666666666667
 40
0.0555555555555556
 40
0.0555555555555556
 40
0.0555555555555556
 40
0.0694444444444444
 40
0.0694444444444444
 40
0.0694444444444444
 40
0.0833333333333333
 40
0.0833333333333333
 40
0.0833333333333333
 40
0.0972222222222222
 40
0.0972222222222222
 40
0.0972222222222222
 40
0.1111111111111111
 40
0.1111111111111111
 40
0.1111111111111111
 40
0.125
 40
0.125
 40
0.125
 40
0.1388888888888889
 40
0.1388888888888889
 40
0.1388888888888889
 40
0.1527777777777778
 40
0.1527777777777778
 40
0.1527777777777778
 40
0.1666666666666667
 40
0.1666666666666667
 40
0.1666666666666667
 40
0.1805555555555556
 40
0.1805555555555556
 40
0.1805555555555556
 40
0.1944444444444444
 40
0.1944444444444444
 40
0.1944444444444444
 40
0.2083333333333333
 40
0.2083333333333333
 40
0.2083333333333333
 40
0.2222222222222222
 40
0.2222222222222222
 40
0.2222222222222222
 40
0.2361111111111111
 40
0.2361111111111111
 40
0.2361111111111111
 40
0.25
 40
0.25
 40
0.25
 40
0.2638888888888889
 40
0.2638888888888889
 40
0.2638888888888889
 40
0.2777777777777778
 40
0.2777777777777778
 40
0.2777777777777778
 40
0.2916666666666666
 40
0.2916666666666666
 40
0.2916666666666666
 40
0.3055555555555555
 40
0.3055555555555555
 40
0.3055555555555555
 40
0.3055555555555555
 10
3.251666598849826
 20
10.36611090766059
 10
3.251666598849826
 20
10.36611090766059
 10
3.237499872843424
 20
10.36611090766059
 10
3.237499872843424
 20
10.36611090766059
 10
3.237499872843424
 20
10.36611090766059
 10
3.132499906751844
 20
10.19861009385851
 10
3.132499906751844
 20
10.19861009385851
 10
3.132499906751844
 20
10.19861009385851
 10
3.132499906751844
 20
10.1919436984592
 10
3.132499906751844
 20
10.1919436984592
 10
3.132499906751844
 20
10.1919436984592
 10
3.228333155314127
 20
10.1919436984592
 10
3.228333155314127
 20
10.1919436984592
 10
3.228333155314127
 20
10.1919436984592
 10
3.228333155314127
 20
10.14444393581814
 10
3.228333155314127
 20
10.14444393581814
 10
3.229402542114258
 20
10.1279296875
 10
3.220569186740451
 20
10.12637413872613
 10
3.206666522555881
 20
10.12527720133463
 10
3.206666522555881
 20
10.12527720133463
 10
3.190833197699653
 20
10.12527720133463
 10
3.190833197699653
 20
10.12527720133463
 10
3.190833197699653
 20
10.12527720133463
 10
3.190833197699653
 20
10.1169442070855
 10
3.190833197699653
 20
10.1169442070855
 10
3.190833197699653
 20
10.1169442070855
 10
3.285833146837022
 20
10.1169442070855
 10
3.285833146837022
 20
10.1169442070855
 10
3.285833146837022
 20
10.1169442070855
 10
3.285833146837022
 20
10.12527720133463
 10
3.285833146837022
 20
10.12527720133463
 10
3.285833146837022
 20
10.12527720133463
 10
3.269999821980794
 20
10.12527720133463
 10
3.269999821980794
 20
10.12527720133463
 10
3.269999821980794
 20
10.12527720133463
 10
3.263333214653863
 20
10.12694380018446
 10
3.263333214653863
 20
10.12694380018446
 10
3.263333214653863
 20
10.12694380018446
 10
3.257499906751844
 20
10.1294436984592
 10
3.257499906751844
 20
10.1294436984592
 10
3.257499906751844
 20
10.1294436984592
 10
3.255833095974392
 20
10.13111029730903
 10
3.255833095974392
 20
10.13111029730903
 10
3.255833095974392
 20
10.13111029730903
 10
3.252499898274739
 20
10.13611009385851
 10
3.252499898274739
 20
10.13611009385851
 10
3.252499898274739
 20
10.13611009385851
 10
3.251666598849826
 20
10.14444393581814
 10
3.251666598849826
 20
10.14444393581814
 10
3.251666598849826
 20
10.14444393581814
 10
3.251666598849826
 20
10.1919436984592
 10
3.251666598849826
 20
10.1919436984592
 10
3.251666598849826
 20
10.1919436984592
 10
3.289999855889214
 20
10.1919436984592
 10
3.289999855889214
 20
10.1919436984592
 10
3.289999855889214
 20
10.1919436984592
 10
3.289999855889214
 20
10.20027754041884
 10
3.289999855889214
 20
10.20027754041884
 10
3.289999855889214
 20
10.20027754041884
 10
3.144999821980794
 20
10.20027754041884
 10
3.144999821980794
 20
10.20027754041884
 10
3.144999821980794
 20
10.20027754041884
 10
3.226666556464301
 20
10.3294440375434
 10
3.226666556464301
 20
10.3294440375434
 10
3.226666556464301
 20
10.3294440375434
 10
3.228333155314127
 20
10.3294440375434
 10
3.228333155314127
 20
10.3294440375434
 97
        0
 72
     1
 10
3.228333155314127
 20
10.3294440375434
 11
3.251666598849826
 21
10.36611090766059
 97
        0
 75
     0
 76
     1
 98
        0
  0
POLYLINE
  5
100
330
1F
100
AcDbEntity
  8
Layer 1
370
     0
100
AcDb2dPolyline
 66
     1
 10
0.0
 20
0.0
 30
0.0
  0
VERTEX
  5
101
330
100
100
AcDbEntity
  8
Layer 1
370
     0
100
AcDbVertex
100
AcDb2dVertex
 10
3.251666598849826
 20
10.36611090766059
 30
0.0
  0
VERTEX
  5
102
330
100
100
AcDbEntity
  8
Layer 1
370
     0
100
AcDbVertex
100
AcDb2dVertex
 10
3.228333155314127
 20
10.3294440375434
 30
0.0
  0
VERTEX
  5
103
330
100
100
AcDbEntity
  8
Layer 1
370
     0
100
AcDbVertex
100
AcDb2dVertex
 10
3.228333155314127
 20
10.20027754041884
 30
0.0
  0
VERTEX
  5
104
330
100
100
AcDbEntity
  8
Layer 1
370
     0
100
AcDbVertex
100
AcDb2dVertex
 10
3.144999821980794
 20
10.20027754041884
 30
0.0
  0
VERTEX
  5
105
330
100
100
AcDbEntity
  8
Layer 1
370
     0
100
AcDbVertex
100
AcDb2dVertex
 10
3.251666598849826
 20
10.20027754041884
 30
0.0
  0
SEQEND
  5
107
330
100
100
AcDbEntity
  8
Layer 1
370
     0
  0
HATCH
  5
106
330
1F
100
AcDbEntity
  8
Layer 1
 62
     1
420
 16711680
100
AcDbHatch
 10
0.0
 20
0.0
 30
0.0
210
0.0
220
0.0
230
1.0
  2
SOLID
 70
     1
 71
     0
 91
        1
 92
        1
 93
        5
 72
     1
 10
3.251666598849826
 20
10.36611090766059
 11
3.228333155314127
 21
10.3294440375434
 72
     1
 10
3.228333155314127
 20
10.3294440375434
 11
3.228333155314127
 21
10.20027754041884
 72
     1
 10
3.228333155314127
 20
10.20027754041884
 11
3.144999821980794
 21
10.20027754041884
 72
     1
 10
3.144999821980794
 20
10.20027754041884
 11
3.251666598849826
 21
10.20027754041884
 72
     1
 10
3.251666598849826
 20
10.20027754041884
 11
3.251666598849826
 21
10.36611090766059
 97
        0
 75
     0
 76
     1
 98
        0
  0
SPLINE
  5
108
330
1F
100
AcDbEntity
  8
Layer 1
370
     0
100
AcDbSpline
210
0.0
220
0.0
230
1.0
 70
     8
 71
     3
 72
    38
 73
    34
 74
     0
 42
0.0000000001
 43
0.0000000001
 12
1.0
 22
0.0
 32
0.0
 13
1.0
 23
0.0
 33
0.0
 40
0.0
 40
0.0
 40
0.0
 40
0.0
 40
1.0
 40
1.0
 40
1.0
 40
2.0
 40
2.0
 40
2.0
 40
3.0
 40
3.0
 40
3.0
 40
4.0
 40
4.0
 40
4.0
 40
5.0
 40
5.0
 40
5.0
 40
6.0
 40
6.0
 40
6.0
 40
7.0
 40
7.0
 40
7.0
 40
8.0
 40
8.0
 40
8.0
 40
9.0
 40
9.0
 40
9.0
 40
10.0
 40
10.0
 40
10.0
 40
11.0
 40
11.0
 40
11.0
 40
11.0
 10
3.426666683620876
 20
10.35611131456163
 30
0.0
 10
3.426666683620876
 20
10.35611131456163
 30
0.0
 10
3.395833333333333
 20
10.3544438680013
 30
0.0
 10
3.395833333333333
 20
10.3544438680013
 30
0.0
 10
3.395833333333333
 20
10.3544438680013
 30
0.0
 10
3.397499932183159
 20
10.3544438680013
 30
0.0
 10
3.397499932183159
 20
10.3544438680013
 30
0.0
 10
3.397499932183159
 20
10.3544438680013
 30
0.0
 10
3.404166539510091
 20
10.35361056857639
 30
0.0
 10
3.404166539510091
 20
10.35361056857639
 30
0.0
 10
3.438388824462891
 20
10.34437476264106
 30
0.0
 10
3.442597071329752
 20
10.27787441677517
 30
0.0
 10
3.442500008477105
 20
10.24944390190972
 30
0.0
 10
3.442500008477105
 20
10.24944390190972
 30
0.0
 10
3.442500008477105
 20
10.23194461398654
 30
0.0
 10
3.442500008477105
 20
10.23194461398654
 30
0.0
 10
3.443763732910156
 20
10.2036387125651
 30
0.0
 10
3.436111026340061
 20
10.1344723171658
 30
0.0
 10
3.401666641235352
 20
10.12611050075955
 30
0.0
 10
3.401666641235352
 20
10.12611050075955
 30
0.0
 10
3.395833333333333
 20
10.12527720133463
 30
0.0
 10
3.395833333333333
 20
10.12527720133463
 30
0.0
 10
3.395833333333333
 20
10.12527720133463
 30
0.0
 10
3.364166683620876
 20
10.12361060248481
 30
0.0
 10
3.364166683620876
 20
10.12361060248481
 30
0.0
 10
3.364166683620876
 20
10.12361060248481
 30
0.0
 10
3.369999991522895
 20
10.12027740478516
 30
0.0
 10
3.369999991522895
 20
10.12027740478516
 30
0.0
 10
3.480125003390842
 20
10.07583279079861
 30
0.0
 10
3.492416593763563
 20
10.29769388834635
 30
0.0
 10
3.436666488647461
 20
10.347777472602
 30
0.0
 10
3.436666488647461
 20
10.347777472602
 30
0.0
 10
3.431666480170356
 20
10.35194396972656
 30
0.0
 10
3.431666480170356
 20
10.35194396972656
 30
0.0
  0
HATCH
  5
109
330
1F
100
AcDbEntity
  8
Layer 1
 62
     1
420
 16711680
100
AcDbHatch
 10
0.0
 20
0.0
 30
0.0
210
0.0
220
0.0
230
1.0
  2
SOLID
 70
     1
 71
     0
 91
        1
 92
        1
 93
        2
 72
     4
 94
        3
 73
     0
 74
     0
 95
       38
 96
       34
 40
0.0
 40
0.0
 40
0.0
 40
0.0
 40
0.0138888888888889
 40
0.0138888888888889
 40
0.0138888888888889
 40
0.0277777777777778
 40
0.0277777777777778
 40
0.0277777777777778
 40
0.0416666666666667
 40
0.0416666666666667
 40
0.0416666666666667
 40
0.0555555555555556
 40
0.0555555555555556
 40
0.0555555555555556
 40
0.0694444444444444
 40
0.0694444444444444
 40
0.0694444444444444
 40
0.0833333333333333
 40
0.0833333333333333
 40
0.0833333333333333
 40
0.0972222222222222
 40
0.0972222222222222
 40
0.0972222222222222
 40
0.1111111111111111
 40
0.1111111111111111
 40
0.1111111111111111
 40
0.125
 40
0.125
 40
0.125
 40
0.1388888888888889
 40
0.1388888888888889
 40
0.1388888888888889
 40
0.1527777777777778
 40
0.1527777777777778
 40
0.1527777777777778
 40
0.1527777777777778
 10
3.426666683620876
 20
10.35611131456163
 10
3.426666683620876
 20
10.35611131456163
 10
3.395833333333333
 20
10.3544438680013
 10
3.395833333333333
 20
10.3544438680013
 10
3.395833333333333
 20
10.3544438680013
 10
3.397499932183159
 20
10.3544438680013
 10
3.397499932183159
 20
10.3544438680013
 10
3.397499932183159
 20
10.3544438680013
 10
3.404166539510091
 20
10.35361056857639
 10
3.404166539510091
 20
10.35361056857639
 10
3.438388824462891
 20
10.34437476264106
 10
3.442597071329752
 20
10.27787441677517
 10
3.442500008477105
 20
10.24944390190972
 10
3.442500008477105
 20
10.24944390190972
 10
3.442500008477105
 20
10.23194461398654
 10
3.442500008477105
 20
10.23194461398654
 10
3.443763732910156
 20
10.2036387125651
 10
3.436111026340061
 20
10.1344723171658
 10
3.401666641235352
 20
10.12611050075955
 10
3.401666641235352
 20
10.12611050075955
 10
3.395833333333333
 20
10.12527720133463
 10
3.395833333333333
 20
10.12527720133463
 10
3.395833333333333
 20
10.12527720133463
 10
3.364166683620876
 20
10.12361060248481
 10
3.364166683620876
 20
10.12361060248481
 10
3.364166683620876
 20
10.12361060248481
 10
3.369999991522895
 20
10.12027740478516
 10
3.369999991522895
 20
10.12027740478516
 10
3.480125003390842
 20
10.07583279079861
 10
3.492416593763563
 20
10.29769388834635
 10
3.436666488647461
 20
10.347777472602
 10
3.436666488647461
 20
10.347777472602
 10
3.431666480170356
 20
10.35194396972656
 10
3.431666480170356
 20
10.35194396972656
 97
        0
 72
     1
 10
3.431666480170356
 20
10.35194396972656
 11
3.426666683620876
 21
10.35611131456163
 97
        0
 75
     0
 76
     1
 98
        0
  0
SPLINE
  5
10A
330
1F
100
AcDbEntity
  8
Layer 1
370
     0
100
AcDbSpline
210
0.0
220
0.0
230
1.0
 70
     8
 71
     3
 72
    32
 73
    28
 74
     0
 42
0.0000000001
 43
0.0000000001
 12
1.0
 22
0.0
 32
0.0
 13
1.0
 23
0.0
 33
0.0
 40
0.0
 40
0.0
 40
0.0
 40
0.0
 40
1.0
 40
1.0
 40
1.0
 40
2.0
 40
2.0
 40
2.0
 40
3.0
 40
3.0
 40
3.0
 40
4.0
 40
4.0
 40
4.0
 40
5.0
 40
5.0
 40
5.0
 40
6.0
 40
6.0
 40
6.0
 40
7.0
 40
7.0
 40
7.0
 40
8.0
 40
8.0
 40
8.0
 40
9.0
 40
9.0
 40
9.0
 40
9.0
 10
3.395833333333333
 20
10.36611090766059
 30
0.0
 10
3.395833333333333
 20
10.36611090766059
 30
0.0
 10
3.391666624281141
 20
10.36527676052517
 30
0.0
 10
3.391666624281141
 20
10.36527676052517
 30
0.0
 10
3.303305519951714
 20
10.35883246527778
 30
0.0
 10
3.300430509779188
 20
10.16262478298611
 30
0.0
 10
3.364166471693251
 20
10.12361060248481
 30
0.0
 10
3.364166471693251
 20
10.12361060248481
 30
0.0
 10
3.395833333333333
 20
10.12527720133463
 30
0.0
 10
3.395833333333333
 20
10.12527720133463
 30
0.0
 10
3.395833333333333
 20
10.12527720133463
 30
0.0
 10
3.394999821980794
 20
10.12527720133463
 30
0.0
 10
3.394999821980794
 20
10.12527720133463
 30
0.0
 10
3.329611036512587
 20
10.12742953830295
 30
0.0
 10
3.330069435967339
 20
10.35390218098958
 30
0.0
 10
3.395833333333333
 20
10.3544438680013
 30
0.0
 10
3.395833333333333
 20
10.3544438680013
 30
0.0
 10
3.426666471693251
 20
10.35611046685113
 30
0.0
 10
3.426666471693251
 20
10.35611046685113
 30
0.0
 10
3.426666471693251
 20
10.35611046685113
 30
0.0
 10
3.414999855889214
 20
10.36277686225043
 30
0.0
 10
3.414999855889214
 20
10.36277686225043
 30
0.0
 10
3.414999855889214
 20
10.36277686225043
 30
0.0
 10
3.408333248562283
 20
10.36444346110026
 30
0.0
 10
3.408333248562283
 20
10.36444346110026
 30
0.0
 10
3.408333248562283
 20
10.36444346110026
 30
0.0
 10
3.401666641235352
 20
10.36527676052517
 30
0.0
 10
3.401666641235352
 20
10.36527676052517
 30
0.0
  0
HATCH
  5
10B
330
1F
100
AcDbEntity
  8
Layer 1
 62
     1
420
 16711680
100
AcDbHatch
 10
0.0
 20
0.0
 30
0.0
210
0.0
220
0.0
230
1.0
  2
SOLID
 70
     1
 71
     0
 91
        1
 92
        1
 93
        2
 72
     4
 94
        3
 73
     0
 74
     0
 95
       32
 96
       28
 40
0.0
 40
0.0
 40
0.0
 40
0.0
 40
0.0138888888888889
 40
0.0138888888888889
 40
0.0138888888888889
 40
0.0277777777777778
 40
0.0277777777777778
 40
0.0277777777777778
 40
0.0416666666666667
 40
0.0416666666666667
 40
0.0416666666666667
 40
0.0555555555555556
 40
0.0555555555555556
 40
0.0555555555555556
 40
0.0694444444444444
 40
0.0694444444444444
 40
0.0694444444444444
 40
0.0833333333333333
 40
0.0833333333333333
 40
0.0833333333333333
 40
0.0972222222222222
 40
0.0972222222222222
 40
0.0972222222222222
 40
0.1111111111111111
 40
0.1111111111111111
 40
0.1111111111111111
 40
0.125
 40
0.125
 40
0.125
 40
0.125
 10
3.395833333333333
 20
10.36611090766059
 10
3.395833333333333
 20
10.36611090766059
 10
3.391666624281141
 20
10.36527676052517
 10
3.391666624281141
 20
10.36527676052517
 10
3.303305519951714
 20
10.35883246527778
 10
3.300430509779188
 20
10.16262478298611
 10
3.364166471693251
 20
10.12361060248481
 10
3.364166471693251
 20
10.12361060248481
 10
3.395833333333333
 20
10.12527720133463
 10
3.395833333333333
 20
10.12527720133463
 10
3.395833333333333
 20
10.12527720133463
 10
3.394999821980794
 20
10.12527720133463
 10
3.394999821980794
 20
10.12527720133463
 10
3.329611036512587
 20
10.12742953830295
 10
3.330069435967339
 20
10.35390218098958
 10
3.395833333333333
 20
10.3544438680013
 10
3.395833333333333
 20
10.3544438680013
 10
3.426666471693251
 20
10.35611046685113
 10
3.426666471693251
 20
10.35611046685113
 10
3.426666471693251
 20
10.35611046685113
 10
3.414999855889214
 20
10.36277686225043
 10
3.414999855889214
 20
10.36277686225043
 10
3.414999855889214
 20
10.36277686225043
 10
3.408333248562283
 20
10.36444346110026
 10
3.408333248562283
 20
10.36444346110026
 10
3.408333248562283
 20
10.36444346110026
 10
3.401666641235352
 20
10.36527676052517
 10
3.401666641235352
 20
10.36527676052517
 97
        0
 72
     1
 10
3.401666641235352
 20
10.36527676052517
 11
3.395833333333333
 21
10.36611090766059
 97
        0
 75
     0
 76
     1
 98
        0
  0
POLYLINE
  5
10C
330
1F
100
AcDbEntity
  8
Layer 1
370
     0
100
AcDb2dPolyline
 66
     1
 10
0.0
 20
0.0
 30
0.0
  0
VERTEX
  5
10D
330
10C
100
AcDbEntity
  8
Layer 1
370
     0
100
AcDbVertex
100
AcDb2dVertex
 10
3.547499974568685
 20
10.25944434271918
 30
0.0
  0
VERTEX
  5
10E
330
10C
100
AcDbEntity
  8
Layer 1
370
     0
100
AcDbVertex
100
AcDb2dVertex
 10
3.542499966091579
 20
10.2544436984592
 30
0.0
  0
VERTEX
  5
10F
330
10C
100
AcDbEntity
  8
Layer 1
370
     0
100
AcDbVertex
100
AcDb2dVertex
 10
3.538333257039388
 20
10.24944390190972
 30
0.0
  0
VERTEX
  5
110
330
10C
100
AcDbEntity
  8
Layer 1
370
     0
100
AcDbVertex
100
AcDb2dVertex
 10
3.534166547987196
 20
10.24277750651042
 30
0.0
  0
VERTEX
  5
111
330
10C
100
AcDbEntity
  8
Layer 1
370
     0
100
AcDbVertex
100
AcDb2dVertex
 10
3.530833138359917
 20
10.23611026340061
 30
0.0
  0
VERTEX
  5
112
330
10C
100
AcDbEntity
  8
Layer 1
370
     0
100
AcDbVertex
100
AcDb2dVertex
 10
3.539166556464301
 20
10.23111046685113
 30
0.0
  0
VERTEX
  5
113
330
10C
100
AcDbEntity
  8
Layer 1
370
     0
100
AcDbVertex
100
AcDb2dVertex
 10
3.547499974568685
 20
10.24277750651042
 30
0.0
  0
VERTEX
  5
114
330
10C
100
AcDbEntity
  8
Layer 1
370
     0
100
AcDbVertex
100
AcDb2dVertex
 10
3.551666471693251
 20
10.24694400363498
 30
0.0
  0
VERTEX
  5
115
330
10C
100
AcDbEntity
  8
Layer 1
370
     0
100
AcDbVertex
100
AcDb2dVertex
 10
3.559166378445095
 20
10.25194380018446
 30
0.0
  0
VERTEX
  5
116
330
10C
100
AcDbEntity
  8
Layer 1
370
     0
100
AcDbVertex
100
AcDb2dVertex
 10
3.565833197699653
 20
10.25527699788411
 30
0.0
  0
VERTEX
  5
117
330
10C
100
AcDbEntity
  8
Layer 1
370
     0
100
AcDbVertex
100
AcDb2dVertex
 10
3.572499593098958
 20
10.25777689615885
 30
0.0
  0
VERTEX
  5
118
330
10C
100
AcDbEntity
  8
Layer 1
370
     0
100
AcDbVertex
100
AcDb2dVertex
 10
3.579166412353516
 20
10.25861019558377
 30
0.0
  0
VERTEX
  5
119
330
10C
100
AcDbEntity
  8
Layer 1
370
     0
100
AcDbVertex
100
AcDb2dVertex
 10
3.586666531032986
 20
10.25944434271918
 30
0.0
  0
SEQEND
  5
11B
330
10C
100
AcDbEntity
  8
Layer 1
370
     0
  0
HATCH
  5
11A
330
1F
100
AcDbEntity
  8
Layer 1
 62
     1
420
 16711680
100
AcDbHatch
 10
0.0
 20
0.0
 30
0.0
210
0.0
220
0.0
230
1.0
  2
SOLID
 70
     1
 71
     0
 91
        1
 92
        1
 93
       13
 72
     1
 10
3.547499974568685
 20
10.25944434271918
 11
3.542499966091579
 21
10.2544436984592
 72
     1
 10
3.542499966091579
 20
10.2544436984592
 11
3.538333257039388
 21
10.24944390190972
 72
     1
 10
3.538333257039388
 20
10.24944390190972
 11
3.534166547987196
 21
10.24277750651042
 72
     1
 10
3.534166547987196
 20
10.24277750651042
 11
3.530833138359917
 21
10.23611026340061
 72
     1
 10
3.530833138359917
 20
10.23611026340061
 11
3.539166556464301
 21
10.23111046685113
 72
     1
 10
3.539166556464301
 20
10.23111046685113
 11
3.547499974568685
 21
10.24277750651042
 72
     1
 10
3.547499974568685
 20
10.24277750651042
 11
3.551666471693251
 21
10.24694400363498
 72
     1
 10
3.551666471693251
 20
10.24694400363498
 11
3.559166378445095
 21
10.25194380018446
 72
     1
 10
3.559166378445095
 20
10.25194380018446
 11
3.565833197699652
 21
10.25527699788412
 72
     1
 10
3.565833197699653
 20
10.25527699788411
 11
3.572499593098958
 21
10.25777689615885
 72
     1
 10
3.572499593098958
 20
10.25777689615885
 11
3.579166412353515
 21
10.25861019558377
 72
     1
 10
3.579166412353516
 20
10.25861019558377
 11
3.586666531032986
 21
10.25944434271918
 72
     1
 10
3.586666531032986
 20
10.25944434271918
 11
3.547499974568685
 21
10.25944434271918
 97
        0
 75
     0
 76
     1
 98
        0
  0
SPLINE
  5
11C
330
1F
100
AcDbEntity
  8
Layer 1
370
     0
100
AcDbSpline
210
0.0
220
0.0
230
1.0
 70
     8
 71
     3
 72
    71
 73
    67
 74
     0
 42
0.0000000001
 43
0.0000000001
 12
1.0
 22
0.0
 32
0.0
 13
1.0
 23
0.0
 33
0.0
 40
0.0
 40
0.0
 40
0.0
 40
0.0
 40
1.0
 40
1.0
 40
1.0
 40
2.0
 40
2.0
 40
2.0
 40
3.0
 40
3.0
 40
3.0
 40
4.0
 40
4.0
 40
4.0
 40
5.0
 40
5.0
 40
5.0
 40
6.0
 40
6.0
 40
6.0
 40
7.0
 40
7.0
 40
7.0
 40
8.0
 40
8.0
 40
8.0
 40
9.0
 40
9.0
 40
9.0
 40
10.0
 40
10.0
 40
10.0
 40
11.0
 40
11.0
 40
11.0
 40
12.0
 40
12.0
 40
12.0
 40
13.0
 40
13.0
 40
13.0
 40
14.0
 40
14.0
 40
14.0
 40
15.0
 40
15.0
 40
15.0
 40
16.0
 40
16.0
 40
16.0
 40
17.0
 40
17.0
 40
17.0
 40
18.0
 40
18.0
 40
18.0
 40
19.0
 40
19.0
 40
19.0
 40
20.0
 40
20.0
 40
20.0
 40
21.0
 40
21.0
 40
21.0
 40
22.0
 40
22.0
 40
22.0
 40
22.0
 10
3.586666531032986
 20
10.27361128065321
 30
0.0
 10
3.586666531032986
 20
10.27361128065321
 30
0.0
 10
3.582499610053168
 20
10.27361128065321
 30
0.0
 10
3.582499610053168
 20
10.27361128065321
 30
0.0
 10
3.582499610053168
 20
10.27361128065321
 30
0.0
 10
3.574999491373698
 20
10.27277713351779
 30
0.0
 10
3.574999491373698
 20
10.27277713351779
 30
0.0
 10
3.574999491373698
 20
10.27277713351779
 30
0.0
 10
3.568333095974392
 20
10.27111053466797
 30
0.0
 10
3.568333095974392
 20
10.27111053466797
 30
0.0
 10
3.568333095974392
 20
10.27111053466797
 30
0.0
 10
3.561666276719835
 20
10.26861063639323
 30
0.0
 10
3.561666276719835
 20
10.26861063639323
 30
0.0
 10
3.561666276719835
 20
10.26861063639323
 30
0.0
 10
3.554999669392903
 20
10.26527743869358
 30
0.0
 10
3.554999669392903
 20
10.26527743869358
 30
0.0
 10
3.554999669392903
 20
10.26527743869358
 30
0.0
 10
3.553333070543077
 20
10.26361083984375
 30
0.0
 10
3.553333070543077
 20
10.26361083984375
 30
0.0
 10
3.553333070543077
 20
10.26361083984375
 30
0.0
 10
3.547499762641059
 20
10.25944434271918
 30
0.0
 10
3.547499762641059
 20
10.25944434271918
 30
0.0
 10
3.547499762641059
 20
10.25944434271918
 30
0.0
 10
3.586666531032986
 20
10.25944434271918
 30
0.0
 10
3.586666531032986
 20
10.25944434271918
 30
0.0
 10
3.586666531032986
 20
10.25944434271918
 30
0.0
 10
3.592499627007378
 20
10.25861104329427
 30
0.0
 10
3.592499627007378
 20
10.25861104329427
 30
0.0
 10
3.617735968695746
 20
10.25474972195095
 30
0.0
 10
3.630360921223958
 20
10.22129143608941
 30
0.0
 10
3.628333197699653
 20
10.19861094156901
 30
0.0
 10
3.628333197699653
 20
10.19861094156901
 30
0.0
 10
3.628333197699653
 20
10.18277740478516
 30
0.0
 10
3.628333197699653
 20
10.18277740478516
 30
0.0
 10
3.626388549804688
 20
10.15945773654514
 30
0.0
 10
3.623221927218967
 20
10.13388824462891
 30
0.0
 10
3.598333146837022
 20
10.12444390190972
 30
0.0
 10
3.598333146837022
 20
10.12444390190972
 30
0.0
 10
3.591666327582465
 20
10.12277730305989
 30
0.0
 10
3.591666327582465
 20
10.12277730305989
 30
0.0
 10
3.591666327582465
 20
10.12277730305989
 30
0.0
 10
3.584166208902995
 20
10.12277730305989
 30
0.0
 10
3.584166208902995
 20
10.12277730305989
 30
0.0
 10
3.584166208902995
 20
10.12277730305989
 30
0.0
 10
3.614166259765625
 20
10.12194400363498
 30
0.0
 10
3.614166259765625
 20
10.12194400363498
 30
0.0
 10
3.614166259765625
 20
10.12194400363498
 30
0.0
 10
3.619999779595269
 20
10.12611050075955
 30
0.0
 10
3.619999779595269
 20
10.12611050075955
 30
0.0
 10
3.644972059461805
 20
10.14048597547743
 30
0.0
 10
3.651582929823133
 20
10.17206912570529
 30
0.0
 10
3.651666429307725
 20
10.19861094156901
 30
0.0
 10
3.651666429307725
 20
10.19861094156901
 30
0.0
 10
3.651666429307725
 20
10.20361073811849
 30
0.0
 10
3.651666429307725
 20
10.20361073811849
 30
0.0
 10
3.651666429307725
 20
10.20361073811849
 30
0.0
 10
3.650833129882812
 20
10.21027713351779
 30
0.0
 10
3.650833129882812
 20
10.21027713351779
 30
0.0
 10
3.649291144476996
 20
10.23312462700738
 30
0.0
 10
3.634791480170356
 20
10.26626332600911
 30
0.0
 10
3.609166463216146
 20
10.27027723524306
 30
0.0
 10
3.609166463216146
 20
10.27027723524306
 30
0.0
 10
3.602499643961588
 20
10.27194383409288
 30
0.0
 10
3.602499643961588
 20
10.27194383409288
 30
0.0
 10
3.602499643961588
 20
10.27194383409288
 30
0.0
 10
3.594999525282118
 20
10.27361128065321
 30
0.0
 10
3.594999525282118
 20
10.27361128065321
 30
0.0
  0
HATCH
  5
11D
330
1F
100
AcDbEntity
  8
Layer 1
 62
     1
420
 16711680
100
AcDbHatch
 10
0.0
 20
0.0
 30
0.0
210
0.0
220
0.0
230
1.0
  2
SOLID
 70
     1
 71
     0
 91
        1
 92
        1
 93
        2
 72
     4
 94
        3
 73
     0
 74
     0
 95
       71
 96
       67
 40
0.0
 40
0.0
 40
0.0
 40
0.0
 40
0.0138888888888889
 40
0.0138888888888889
 40
0.0138888888888889
 40
0.0277777777777778
 40
0.0277777777777778
 40
0.0277777777777778
 40
0.0416666666666667
 40
0.0416666666666667
 40
0.0416666666666667
 40
0.0555555555555556
 40
0.0555555555555556
 40
0.0555555555555556
 40
0.0694444444444444
 40
0.0694444444444444
 40
0.0694444444444444
 40
0.0833333333333333
 40
0.0833333333333333
 40
0.0833333333333333
 40
0.0972222222222222
 40
0.0972222222222222
 40
0.0972222222222222
 40
0.1111111111111111
 40
0.1111111111111111
 40
0.1111111111111111
 40
0.125
 40
0.125
 40
0.125
 40
0.1388888888888889
 40
0.1388888888888889
 40
0.1388888888888889
 40
0.1527777777777778
 40
0.1527777777777778
 40
0.1527777777777778
 40
0.1666666666666667
 40
0.1666666666666667
 40
0.1666666666666667
 40
0.1805555555555556
 40
0.1805555555555556
 40
0.1805555555555556
 40
0.1944444444444444
 40
0.1944444444444444
 40
0.1944444444444444
 40
0.2083333333333333
 40
0.2083333333333333
 40
0.2083333333333333
 40
0.2222222222222222
 40
0.2222222222222222
 40
0.2222222222222222
 40
0.2361111111111111
 40
0.2361111111111111
 40
0.2361111111111111
 40
0.25
 40
0.25
 40
0.25
 40
0.2638888888888889
 40
0.2638888888888889
 40
0.2638888888888889
 40
0.2777777777777778
 40
0.2777777777777778
 40
0.2777777777777778
 40
0.2916666666666666
 40
0.2916666666666666
 40
0.2916666666666666
 40
0.3055555555555555
 40
0.3055555555555555
 40
0.3055555555555555
 40
0.3055555555555555
 10
3.586666531032986
 20
10.27361128065321
 10
3.586666531032986
 20
10.27361128065321
 10
3.582499610053168
 20
10.27361128065321
 10
3.582499610053168
 20
10.27361128065321
 10
3.582499610053168
 20
10.27361128065321
 10
3.574999491373698
 20
10.27277713351779
 10
3.574999491373698
 20
10.27277713351779
 10
3.574999491373698
 20
10.27277713351779
 10
3.568333095974392
 20
10.27111053466797
 10
3.568333095974392
 20
10.27111053466797
 10
3.568333095974392
 20
10.27111053466797
 10
3.561666276719835
 20
10.26861063639323
 10
3.561666276719835
 20
10.26861063639323
 10
3.561666276719835
 20
10.26861063639323
 10
3.554999669392903
 20
10.26527743869358
 10
3.554999669392903
 20
10.26527743869358
 10
3.554999669392903
 20
10.26527743869358
 10
3.553333070543077
 20
10.26361083984375
 10
3.553333070543077
 20
10.26361083984375
 10
3.553333070543077
 20
10.26361083984375
 10
3.547499762641059
 20
10.25944434271918
 10
3.547499762641059
 20
10.25944434271918
 10
3.547499762641059
 20
10.25944434271918
 10
3.586666531032986
 20
10.25944434271918
 10
3.586666531032986
 20
10.25944434271918
 10
3.586666531032986
 20
10.25944434271918
 10
3.592499627007378
 20
10.25861104329427
 10
3.592499627007378
 20
10.25861104329427
 10
3.617735968695746
 20
10.25474972195095
 10
3.630360921223958
 20
10.22129143608941
 10
3.628333197699653
 20
10.19861094156901
 10
3.628333197699653
 20
10.19861094156901
 10
3.628333197699653
 20
10.18277740478516
 10
3.628333197699653
 20
10.18277740478516
 10
3.626388549804688
 20
10.15945773654514
 10
3.623221927218967
 20
10.13388824462891
 10
3.598333146837022
 20
10.12444390190972
 10
3.598333146837022
 20
10.12444390190972
 10
3.591666327582465
 20
10.12277730305989
 10
3.591666327582465
 20
10.12277730305989
 10
3.591666327582465
 20
10.12277730305989
 10
3.584166208902995
 20
10.12277730305989
 10
3.584166208902995
 20
10.12277730305989
 10
3.584166208902995
 20
10.12277730305989
 10
3.614166259765625
 20
10.12194400363498
 10
3.614166259765625
 20
10.12194400363498
 10
3.614166259765625
 20
10.12194400363498
 10
3.619999779595269
 20
10.12611050075955
 10
3.619999779595269
 20
10.12611050075955
 10
3.644972059461805
 20
10.14048597547743
 10
3.651582929823133
 20
10.17206912570529
 10
3.651666429307725
 20
10.19861094156901
 10
3.651666429307725
 20
10.19861094156901
 10
3.651666429307725
 20
10.20361073811849
 10
3.651666429307725
 20
10.20361073811849
 10
3.651666429307725
 20
10.20361073811849
 10
3.650833129882812
 20
10.21027713351779
 10
3.650833129882812
 20
10.21027713351779
 10
3.649291144476996
 20
10.23312462700738
 10
3.634791480170356
 20
10.26626332600911
 10
3.609166463216146
 20
10.27027723524306
 10
3.609166463216146
 20
10.27027723524306
 10
3.602499643961588
 20
10.27194383409288
 10
3.602499643961588
 20
10.27194383409288
 10
3.602499643961588
 20
10.27194383409288
 10
3.594999525282118
 20
10.27361128065321
 10
3.594999525282118
 20
10.27361128065321
 97
        0
 72
     1
 10
3.594999525282118
 20
10.27361128065321
 11
3.586666531032986
 21
10.27361128065321
 97
        0
 75
     0
 76
     1
 98
        0
  0
POLYLINE
  5
11E
330
1F
100
AcDbEntity
  8
Layer 1
370
     0
100
AcDb2dPolyline
 66
     1
 10
0.0
 20
0.0
 30
0.0
  0
VERTEX
  5
11F
330
11E
100
AcDbEntity
  8
Layer 1
370
     0
100
AcDbVertex
100
AcDb2dVertex
 10
3.621666802300347
 20
10.35861121283637
 30
0.0
  0
VERTEX
  5
120
330
11E
100
AcDbEntity
  8
Layer 1
370
     0
100
AcDbVertex
100
AcDb2dVertex
 10
3.590833452012804
 20
10.35694376627604
 30
0.0
  0
VERTEX
  5
121
330
11E
100
AcDbEntity
  8
Layer 1
370
     0
100
AcDbVertex
100
AcDb2dVertex
 10
3.594166649712456
 20
10.35694376627604
 30
0.0
  0
VERTEX
  5
122
330
11E
100
AcDbEntity
  8
Layer 1
370
     0
100
AcDbVertex
100
AcDb2dVertex
 10
3.601666768391927
 20
10.35611046685113
 30
0.0
  0
VERTEX
  5
123
330
11E
100
AcDbEntity
  8
Layer 1
370
     0
100
AcDbVertex
100
AcDb2dVertex
 10
3.609166463216146
 20
10.35111067030165
 30
0.0
  0
VERTEX
  5
124
330
11E
100
AcDbEntity
  8
Layer 1
370
     0
100
AcDbVertex
100
AcDb2dVertex
 10
3.610833062065972
 20
10.34444427490234
 30
0.0
  0
VERTEX
  5
125
330
11E
100
AcDbEntity
  8
Layer 1
370
     0
100
AcDbVertex
100
AcDb2dVertex
 10
3.610833062065972
 20
10.33861117892795
 30
0.0
  0
VERTEX
  5
126
330
11E
100
AcDbEntity
  8
Layer 1
370
     0
100
AcDbVertex
100
AcDb2dVertex
 10
3.609999762641059
 20
10.33111063639323
 30
0.0
  0
VERTEX
  5
127
330
11E
100
AcDbEntity
  8
Layer 1
370
     0
100
AcDbVertex
100
AcDb2dVertex
 10
3.609999762641059
 20
10.32694413926866
 30
0.0
  0
VERTEX
  5
128
330
11E
100
AcDbEntity
  8
Layer 1
370
     0
100
AcDbVertex
100
AcDb2dVertex
 10
3.61250008477105
 20
10.32111104329427
 30
0.0
  0
VERTEX
  5
129
330
11E
100
AcDbEntity
  8
Layer 1
370
     0
100
AcDbVertex
100
AcDb2dVertex
 10
3.616666581895616
 20
10.31861114501953
 30
0.0
  0
VERTEX
  5
12A
330
11E
100
AcDbEntity
  8
Layer 1
370
     0
100
AcDbVertex
100
AcDb2dVertex
 10
3.624166700575087
 20
10.3169445461697
 30
0.0
  0
VERTEX
  5
12B
330
11E
100
AcDbEntity
  8
Layer 1
370
     0
100
AcDbVertex
100
AcDb2dVertex
 10
3.629999796549479
 20
10.31777784559462
 30
0.0
  0
VERTEX
  5
12C
330
11E
100
AcDbEntity
  8
Layer 1
370
     0
100
AcDbVertex
100
AcDb2dVertex
 10
3.635833316379123
 20
10.32111104329427
 30
0.0
  0
VERTEX
  5
12D
330
11E
100
AcDbEntity
  8
Layer 1
370
     0
100
AcDbVertex
100
AcDb2dVertex
 10
3.63749991522895
 20
10.32611083984375
 30
0.0
  0
VERTEX
  5
12E
330
11E
100
AcDbEntity
  8
Layer 1
370
     0
100
AcDbVertex
100
AcDb2dVertex
 10
3.638333214653863
 20
10.33444383409288
 30
0.0
  0
VERTEX
  5
12F
330
11E
100
AcDbEntity
  8
Layer 1
370
     0
100
AcDbVertex
100
AcDb2dVertex
 10
3.638333214653863
 20
10.33611043294271
 30
0.0
  0
VERTEX
  5
130
330
11E
100
AcDbEntity
  8
Layer 1
370
     0
100
AcDbVertex
100
AcDb2dVertex
 10
3.636666615804036
 20
10.34111107720269
 30
0.0
  0
VERTEX
  5
131
330
11E
100
AcDbEntity
  8
Layer 1
370
     0
100
AcDbVertex
100
AcDb2dVertex
 10
3.633333418104383
 20
10.347777472602
 30
0.0
  0
VERTEX
  5
132
330
11E
100
AcDbEntity
  8
Layer 1
370
     0
100
AcDbVertex
100
AcDb2dVertex
 10
3.626666598849826
 20
10.3544438680013
 30
0.0
  0
SEQEND
  5
134
330
11E
100
AcDbEntity
  8
Layer 1
370
     0
  0
HATCH
  5
133
330
1F
100
AcDbEntity
  8
Layer 1
 62
     1
420
 16711680
100
AcDbHatch
 10
0.0
 20
0.0
 30
0.0
210
0.0
220
0.0
230
1.0
  2
SOLID
 70
     1
 71
     0
 91
        1
 92
        1
 93
       20
 72
     1
 10
3.621666802300347
 20
10.35861121283637
 11
3.590833452012804
 21
10.35694376627604
 72
     1
 10
3.590833452012804
 20
10.35694376627604
 11
3.594166649712456
 21
10.35694376627604
 72
     1
 10
3.594166649712456
 20
10.35694376627604
 11
3.601666768391927
 21
10.35611046685113
 72
     1
 10
3.601666768391927
 20
10.35611046685113
 11
3.609166463216146
 21
10.35111067030165
 72
     1
 10
3.609166463216146
 20
10.35111067030165
 11
3.610833062065972
 21
10.34444427490234
 72
     1
 10
3.610833062065972
 20
10.34444427490234
 11
3.610833062065972
 21
10.33861117892795
 72
     1
 10
3.610833062065972
 20
10.33861117892795
 11
3.609999762641058
 21
10.33111063639323
 72
     1
 10
3.609999762641059
 20
10.33111063639323
 11
3.609999762641059
 21
10.32694413926866
 72
     1
 10
3.609999762641059
 20
10.32694413926866
 11
3.61250008477105
 21
10.32111104329427
 72
     1
 10
3.61250008477105
 20
10.32111104329427
 11
3.616666581895616
 21
10.31861114501953
 72
     1
 10
3.616666581895616
 20
10.31861114501953
 11
3.624166700575087
 21
10.3169445461697
 72
     1
 10
3.624166700575087
 20
10.3169445461697
 11
3.629999796549479
 21
10.31777784559462
 72
     1
 10
3.629999796549479
 20
10.31777784559462
 11
3.635833316379123
 21
10.32111104329427
 72
     1
 10
3.635833316379123
 20
10.32111104329427
 11
3.63749991522895
 21
10.32611083984375
 72
     1
 10
3.63749991522895
 20
10.32611083984375
 11
3.638333214653863
 21
10.33444383409288
 72
     1
 10
3.638333214653863
 20
10.33444383409288
 11
3.638333214653863
 21
10.33611043294271
 72
     1
 10
3.638333214653863
 20
10.33611043294271
 11
3.636666615804036
 21
10.34111107720269
 72
     1
 10
3.636666615804036
 20
10.34111107720269
 11
3.633333418104383
 21
10.347777472602
 72
     1
 10
3.633333418104383
 20
10.347777472602
 11
3.626666598849826
 21
10.3544438680013
 72
     1
 10
3.626666598849826
 20
10.3544438680013
 11
3.621666802300347
 21
10.35861121283637
 97
        0
 75
     0
 76
     1
 98
        0
  0
SPLINE
  5
135
330
1F
100
AcDbEntity
  8
Layer 1
370
     0
100
AcDbSpline
210
0.0
220
0.0
230
1.0
 70
     8
 71
     3
 72
    44
 73
    40
 74
     0
 42
0.0000000001
 43
0.0000000001
 12
1.0
 22
0.0
 32
0.0
 13
1.0
 23
0.0
 33
0.0
 40
0.0
 40
0.0
 40
0.0
 40
0.0
 40
1.0
 40
1.0
 40
1.0
 40
2.0
 40
2.0
 40
2.0
 40
3.0
 40
3.0
 40
3.0
 40
4.0
 40
4.0
 40
4.0
 40
5.0
 40
5.0
 40
5.0
 40
6.0
 40
6.0
 40
6.0
 40
7.0
 40
7.0
 40
7.0
 40
8.0
 40
8.0
 40
8.0
 40
9.0
 40
9.0
 40
9.0
 40
10.0
 40
10.0
 40
10.0
 40
11.0
 40
11.0
 40
11.0
 40
12.0
 40
12.0
 40
12.0
 40
13.0
 40
13.0
 40
13.0
 40
13.0
 10
3.594166649712456
 20
10.36611090766059
 30
0.0
 10
3.594166649712456
 20
10.36611090766059
 30
0.0
 10
3.587499830457899
 20
10.36527676052517
 30
0.0
 10
3.587499830457899
 20
10.36527676052517
 30
0.0
 10
3.47423595852322
 20
10.36683230929904
 30
0.0
 10
3.471235911051432
 20
10.06924947102864
 30
0.0
 10
3.607499864366319
 20
10.11944410536024
 30
0.0
 10
3.607499864366319
 20
10.11944410536024
 30
0.0
 10
3.614166259765625
 20
10.12194400363498
 30
0.0
 10
3.614166259765625
 20
10.12194400363498
 30
0.0
 10
3.614166259765625
 20
10.12194400363498
 30
0.0
 10
3.584166632758246
 20
10.12277730305989
 30
0.0
 10
3.584166632758246
 20
10.12277730305989
 30
0.0
 10
3.54198604159885
 20
10.11962466769748
 30
0.0
 10
3.521666632758246
 20
10.19908311631944
 30
0.0
 10
3.534999847412109
 20
10.22444407145182
 30
0.0
 10
3.534999847412109
 20
10.22444407145182
 30
0.0
 10
3.539166556464301
 20
10.23111046685113
 30
0.0
 10
3.539166556464301
 20
10.23111046685113
 30
0.0
 10
3.539166556464301
 20
10.23111046685113
 30
0.0
 10
3.530833138359917
 20
10.23611026340061
 30
0.0
 10
3.530833138359917
 20
10.23611026340061
 30
0.0
 10
3.530833138359917
 20
10.23611026340061
 30
0.0
 10
3.530833138359917
 20
10.23694356282552
 30
0.0
 10
3.530833138359917
 20
10.23694356282552
 30
0.0
 10
3.531416575113932
 20
10.28065236409505
 30
0.0
 10
3.529763751559787
 20
10.35504065619575
 30
0.0
 10
3.590833028157552
 20
10.35694376627604
 30
0.0
 10
3.590833028157552
 20
10.35694376627604
 30
0.0
 10
3.621666378445095
 20
10.35861036512587
 30
0.0
 10
3.621666378445095
 20
10.35861036512587
 30
0.0
 10
3.621666378445095
 20
10.35861036512587
 30
0.0
 10
3.615833282470703
 20
10.36194356282552
 30
0.0
 10
3.615833282470703
 20
10.36194356282552
 30
0.0
 10
3.615833282470703
 20
10.36194356282552
 30
0.0
 10
3.609166463216146
 20
10.36361016167535
 30
0.0
 10
3.609166463216146
 20
10.36361016167535
 30
0.0
 10
3.609166463216146
 20
10.36361016167535
 30
0.0
 10
3.601666344536675
 20
10.36527676052517
 30
0.0
 10
3.601666344536675
 20
10.36527676052517
 30
0.0
  0
HATCH
  5
136
330
1F
100
AcDbEntity
  8
Layer 1
 62
     1
420
 16711680
100
AcDbHatch
 10
0.0
 20
0.0
 30
0.0
210
0.0
220
0.0
230
1.0
  2
SOLID
 70
     1
 71
     0
 91
        1
 92
        1
 93
        2
 72
     4
 94
        3
 73
     0
 74
     0
 95
       44
 96
       40
 40
0.0
 40
0.0
 40
0.0
 40
0.0
 40
0.0138888888888889
 40
0.0138888888888889
 40
0.0138888888888889
 40
0.0277777777777778
 40
0.0277777777777778
 40
0.0277777777777778
 40
0.0416666666666667
 40
0.0416666666666667
 40
0.0416666666666667
 40
0.0555555555555556
 40
0.0555555555555556
 40
0.0555555555555556
 40
0.0694444444444444
 40
0.0694444444444444
 40
0.0694444444444444
 40
0.0833333333333333
 40
0.0833333333333333
 40
0.0833333333333333
 40
0.0972222222222222
 40
0.0972222222222222
 40
0.0972222222222222
 40
0.1111111111111111
 40
0.1111111111111111
 40
0.1111111111111111
 40
0.125
 40
0.125
 40
0.125
 40
0.1388888888888889
 40
0.1388888888888889
 40
0.1388888888888889
 40
0.1527777777777778
 40
0.1527777777777778
 40
0.1527777777777778
 40
0.1666666666666667
 40
0.1666666666666667
 40
0.1666666666666667
 40
0.1805555555555556
 40
0.1805555555555556
 40
0.1805555555555556
 40
0.1805555555555556
 10
3.594166649712456
 20
10.36611090766059
 10
3.594166649712456
 20
10.36611090766059
 10
3.587499830457899
 20
10.36527676052517
 10
3.587499830457899
 20
10.36527676052517
 10
3.47423595852322
 20
10.36683230929904
 10
3.471235911051432
 20
10.06924947102864
 10
3.607499864366319
 20
10.11944410536024
 10
3.607499864366319
 20
10.11944410536024
 10
3.614166259765625
 20
10.12194400363498
 10
3.614166259765625
 20
10.12194400363498
 10
3.614166259765625
 20
10.12194400363498
 10
3.584166632758246
 20
10.12277730305989
 10
3.584166632758246
 20
10.12277730305989
 10
3.54198604159885
 20
10.11962466769748
 10
3.521666632758246
 20
10.19908311631944
 10
3.534999847412109
 20
10.22444407145182
 10
3.534999847412109
 20
10.22444407145182
 10
3.539166556464301
 20
10.23111046685113
 10
3.539166556464301
 20
10.23111046685113
 10
3.539166556464301
 20
10.23111046685113
 10
3.530833138359917
 20
10.23611026340061
 10
3.530833138359917
 20
10.23611026340061
 10
3.530833138359917
 20
10.23611026340061
 10
3.530833138359917
 20
10.23694356282552
 10
3.530833138359917
 20
10.23694356282552
 10
3.531416575113932
 20
10.28065236409505
 10
3.529763751559787
 20
10.35504065619575
 10
3.590833028157552
 20
10.35694376627604
 10
3.590833028157552
 20
10.35694376627604
 10
3.621666378445095
 20
10.35861036512587
 10
3.621666378445095
 20
10.35861036512587
 10
3.621666378445095
 20
10.35861036512587
 10
3.615833282470703
 20
10.36194356282552
 10
3.615833282470703
 20
10.36194356282552
 10
3.615833282470703
 20
10.36194356282552
 10
3.609166463216146
 20
10.36361016167535
 10
3.609166463216146
 20
10.36361016167535
 10
3.609166463216146
 20
10.36361016167535
 10
3.601666344536675
 20
10.36527676052517
 10
3.601666344536675
 20
10.36527676052517
 97
        0
 72
     1
 10
3.601666344536675
 20
10.36527676052517
 11
3.594166649712456
 21
10.36611090766059
 97
        0
 75
     0
 76
     1
 98
        0
  0
SPLINE
  5
137
330
1F
100
AcDbEntity
  8
Layer 1
370
     0
100
AcDbSpline
210
0.0
220
0.0
230
1.0
 70
    11
 71
     3
 72
    50
 73
    46
 74
     0
 42
0.0000000001
 43
0.0000000001
 12
1.0
 22
0.0
 32
0.0
 13
1.0
 23
0.0
 33
0.0
 40
0.0
 40
0.0
 40
0.0
 40
0.0
 40
1.0
 40
1.0
 40
1.0
 40
2.0
 40
2.0
 40
2.0
 40
3.0
 40
3.0
 40
3.0
 40
4.0
 40
4.0
 40
4.0
 40
5.0
 40
5.0
 40
5.0
 40
6.0
 40
6.0
 40
6.0
 40
7.0
 40
7.0
 40
7.0
 40
8.0
 40
8.0
 40
8.0
 40
9.0
 40
9.0
 40
9.0
 40
10.0
 40
10.0
 40
10.0
 40
11.0
 40
11.0
 40
11.0
 40
12.0
 40
12.0
 40
12.0
 40
13.0
 40
13.0
 40
13.0
 40
14.0
 40
14.0
 40
14.0
 40
15.0
 40
15.0
 40
15.0
 40
15.0
 10
3.71750005086263
 20
10.11361100938585
 30
0.0
 10
3.71750005086263
 20
10.11361100938585
 30
0.0
 10
3.710833231608073
 20
10.11527760823568
 30
0.0
 10
3.710833231608073
 20
10.11527760823568
 30
0.0
 10
3.710833231608073
 20
10.11527760823568
 30
0.0
 10
3.704999711778429
 20
10.11861080593533
 30
0.0
 10
3.704999711778429
 20
10.11861080593533
 30
0.0
 10
3.688555399576823
 20
10.13029140896267
 30
0.0
 10
3.696638743082682
 20
10.15477752685547
 30
0.0
 10
3.715833028157552
 20
10.15694427490234
 30
0.0
 10
3.715833028157552
 20
10.15694427490234
 30
0.0
 10
3.71750005086263
 20
10.15694427490234
 30
0.0
 10
3.71750005086263
 20
10.15694427490234
 30
0.0
 10
3.71750005086263
 20
10.15694427490234
 30
0.0
 10
3.724999745686849
 20
10.15611097547743
 30
0.0
 10
3.724999745686849
 20
10.15611097547743
 30
0.0
 10
3.724999745686849
 20
10.15611097547743
 30
0.0
 10
3.730833265516493
 20
10.15277693006727
 30
0.0
 10
3.730833265516493
 20
10.15277693006727
 30
0.0
 10
3.730833265516493
 20
10.15277693006727
 30
0.0
 10
3.733333163791233
 20
10.15111033121745
 30
0.0
 10
3.733333163791233
 20
10.15111033121745
 30
0.0
 10
3.733333163791233
 20
10.15111033121745
 30
0.0
 10
3.737499660915798
 20
10.14527723524306
 30
0.0
 10
3.737499660915798
 20
10.14527723524306
 30
0.0
 10
3.737499660915798
 20
10.14527723524306
 30
0.0
 10
3.739166683620876
 20
10.13861083984375
 30
0.0
 10
3.739166683620876
 20
10.13861083984375
 30
0.0
 10
3.739166683620876
 20
10.13861083984375
 30
0.0
 10
3.739166683620876
 20
10.1352776421441
 30
0.0
 10
3.739166683620876
 20
10.1352776421441
 30
0.0
 10
3.739166683620876
 20
10.1352776421441
 30
0.0
 10
3.738333384195963
 20
10.12777709960938
 30
0.0
 10
3.738333384195963
 20
10.12777709960938
 30
0.0
 10
3.738333384195963
 20
10.12777709960938
 30
0.0
 10
3.735833062065972
 20
10.12194400363498
 30
0.0
 10
3.735833062065972
 20
10.12194400363498
 30
0.0
 10
3.735833062065972
 20
10.12194400363498
 30
0.0
 10
3.733333163791233
 20
10.11944410536024
 30
0.0
 10
3.733333163791233
 20
10.11944410536024
 30
0.0
 10
3.733333163791233
 20
10.11944410536024
 30
0.0
 10
3.727499643961588
 20
10.11611090766059
 30
0.0
 10
3.727499643961588
 20
10.11611090766059
 30
0.0
 10
3.727499643961588
 20
10.11611090766059
 30
0.0
 10
3.71750005086263
 20
10.11361100938585
 30
0.0
 10
3.71750005086263
 20
10.11361100938585
 30
0.0
  0
HATCH
  5
138
330
1F
100
AcDbEntity
  8
Layer 1
 62
     1
420
 16711680
100
AcDbHatch
 10
0.0
 20
0.0
 30
0.0
210
0.0
220
0.0
230
1.0
  2
SOLID
 70
     1
 71
     0
 91
        1
 92
        1
 93
        2
 72
     4
 94
        3
 73
     0
 74
     0
 95
       50
 96
       46
 40
0.0
 40
0.0
 40
0.0
 40
0.0
 40
0.0138888888888889
 40
0.0138888888888889
 40
0.0138888888888889
 40
0.0277777777777778
 40
0.0277777777777778
 40
0.0277777777777778
 40
0.0416666666666667
 40
0.0416666666666667
 40
0.0416666666666667
 40
0.0555555555555556
 40
0.0555555555555556
 40
0.0555555555555556
 40
0.0694444444444444
 40
0.0694444444444444
 40
0.0694444444444444
 40
0.0833333333333333
 40
0.0833333333333333
 40
0.0833333333333333
 40
0.0972222222222222
 40
0.0972222222222222
 40
0.0972222222222222
 40
0.1111111111111111
 40
0.1111111111111111
 40
0.1111111111111111
 40
0.125
 40
0.125
 40
0.125
 40
0.1388888888888889
 40
0.1388888888888889
 40
0.1388888888888889
 40
0.1527777777777778
 40
0.1527777777777778
 40
0.1527777777777778
 40
0.1666666666666667
 40
0.1666666666666667
 40
0.1666666666666667
 40
0.1805555555555556
 40
0.1805555555555556
 40
0.1805555555555556
 40
0.1944444444444444
 40
0.1944444444444444
 40
0.1944444444444444
 40
0.2083333333333333
 40
0.2083333333333333
 40
0.2083333333333333
 40
0.2083333333333333
 10
3.71750005086263
 20
10.11361100938585
 10
3.71750005086263
 20
10.11361100938585
 10
3.710833231608073
 20
10.11527760823568
 10
3.710833231608073
 20
10.11527760823568
 10
3.710833231608073
 20
10.11527760823568
 10
3.704999711778429
 20
10.11861080593533
 10
3.704999711778429
 20
10.11861080593533
 10
3.688555399576823
 20
10.13029140896267
 10
3.696638743082682
 20
10.15477752685547
 10
3.715833028157552
 20
10.15694427490234
 10
3.715833028157552
 20
10.15694427490234
 10
3.71750005086263
 20
10.15694427490234
 10
3.71750005086263
 20
10.15694427490234
 10
3.71750005086263
 20
10.15694427490234
 10
3.724999745686849
 20
10.15611097547743
 10
3.724999745686849
 20
10.15611097547743
 10
3.724999745686849
 20
10.15611097547743
 10
3.730833265516493
 20
10.15277693006727
 10
3.730833265516493
 20
10.15277693006727
 10
3.730833265516493
 20
10.15277693006727
 10
3.733333163791233
 20
10.15111033121745
 10
3.733333163791233
 20
10.15111033121745
 10
3.733333163791233
 20
10.15111033121745
 10
3.737499660915798
 20
10.14527723524306
 10
3.737499660915798
 20
10.14527723524306
 10
3.737499660915798
 20
10.14527723524306
 10
3.739166683620876
 20
10.13861083984375
 10
3.739166683620876
 20
10.13861083984375
 10
3.739166683620876
 20
10.13861083984375
 10
3.739166683620876
 20
10.1352776421441
 10
3.739166683620876
 20
10.1352776421441
 10
3.739166683620876
 20
10.1352776421441
 10
3.738333384195963
 20
10.12777709960938
 10
3.738333384195963
 20
10.12777709960938
 10
3.738333384195963
 20
10.12777709960938
 10
3.735833062065972
 20
10.12194400363498
 10
3.735833062065972
 20
10.12194400363498
 10
3.735833062065972
 20
10.12194400363498
 10
3.733333163791233
 20
10.11944410536024
 10
3.733333163791233
 20
10.11944410536024
 10
3.733333163791233
 20
10.11944410536024
 10
3.727499643961588
 20
10.11611090766059
 10
3.727499643961588
 20
10.11611090766059
 10
3.727499643961588
 20
10.11611090766059
 10
3.71750005086263
 20
10.11361100938585
 10
3.71750005086263
 20
10.11361100938585
 97
        0
 72
     1
 10
3.71750005086263
 20
10.11361100938585
 11
3.71750005086263
 21
10.11361100938585
 97
        0
 75
     0
 76
     1
 98
        0
  0
SPLINE
  5
139
330
1F
100
AcDbEntity
  8
Layer 1
370
     0
100
AcDbSpline
210
0.0
220
0.0
230
1.0
 70
     8
 71
     3
 72
    71
 73
    67
 74
     0
 42
0.0000000001
 43
0.0000000001
 12
1.0
 22
0.0
 32
0.0
 13
1.0
 23
0.0
 33
0.0
 40
0.0
 40
0.0
 40
0.0
 40
0.0
 40
1.0
 40
1.0
 40
1.0
 40
2.0
 40
2.0
 40
2.0
 40
3.0
 40
3.0
 40
3.0
 40
4.0
 40
4.0
 40
4.0
 40
5.0
 40
5.0
 40
5.0
 40
6.0
 40
6.0
 40
6.0
 40
7.0
 40
7.0
 40
7.0
 40
8.0
 40
8.0
 40
8.0
 40
9.0
 40
9.0
 40
9.0
 40
10.0
 40
10.0
 40
10.0
 40
11.0
 40
11.0
 40
11.0
 40
12.0
 40
12.0
 40
12.0
 40
13.0
 40
13.0
 40
13.0
 40
14.0
 40
14.0
 40
14.0
 40
15.0
 40
15.0
 40
15.0
 40
16.0
 40
16.0
 40
16.0
 40
17.0
 40
17.0
 40
17.0
 40
18.0
 40
18.0
 40
18.0
 40
19.0
 40
19.0
 40
19.0
 40
20.0
 40
20.0
 40
20.0
 40
21.0
 40
21.0
 40
21.0
 40
22.0
 40
22.0
 40
22.0
 40
22.0
 10
3.988333384195963
 20
10.36611090766059
 30
0.0
 10
3.988333384195963
 20
10.36611090766059
 30
0.0
 10
3.974166446261936
 20
10.36611090766059
 30
0.0
 10
3.974166446261936
 20
10.36611090766059
 30
0.0
 10
3.974166446261936
 20
10.36611090766059
 30
0.0
 10
3.869166480170356
 20
10.19861009385851
 30
0.0
 10
3.869166480170356
 20
10.19861009385851
 30
0.0
 10
3.869166480170356
 20
10.19861009385851
 30
0.0
 10
3.869166480170356
 20
10.1919436984592
 30
0.0
 10
3.869166480170356
 20
10.1919436984592
 30
0.0
 10
3.869166480170356
 20
10.1919436984592
 30
0.0
 10
3.964999728732639
 20
10.1919436984592
 30
0.0
 10
3.964999728732639
 20
10.1919436984592
 30
0.0
 10
3.964999728732639
 20
10.1919436984592
 30
0.0
 10
3.964999728732639
 20
10.14444393581814
 30
0.0
 10
3.964999728732639
 20
10.14444393581814
 30
0.0
 10
3.966069115532769
 20
10.1279296875
 30
0.0
 10
3.957235972086588
 20
10.12637413872613
 30
0.0
 10
3.943333095974392
 20
10.12527720133463
 30
0.0
 10
3.943333095974392
 20
10.12527720133463
 30
0.0
 10
3.92749998304579
 20
10.12527720133463
 30
0.0
 10
3.92749998304579
 20
10.12527720133463
 30
0.0
 10
3.92749998304579
 20
10.12527720133463
 30
0.0
 10
3.92749998304579
 20
10.1169442070855
 30
0.0
 10
3.92749998304579
 20
10.1169442070855
 30
0.0
 10
3.92749998304579
 20
10.1169442070855
 30
0.0
 10
4.02249993218316
 20
10.1169442070855
 30
0.0
 10
4.02249993218316
 20
10.1169442070855
 30
0.0
 10
4.02249993218316
 20
10.1169442070855
 30
0.0
 10
4.02249993218316
 20
10.12527720133463
 30
0.0
 10
4.02249993218316
 20
10.12527720133463
 30
0.0
 10
4.02249993218316
 20
10.12527720133463
 30
0.0
 10
4.006666395399305
 20
10.12527720133463
 30
0.0
 10
4.006666395399305
 20
10.12527720133463
 30
0.0
 10
4.006666395399305
 20
10.12527720133463
 30
0.0
 10
4.0
 20
10.12694380018446
 30
0.0
 10
4.0
 20
10.12694380018446
 30
0.0
 10
4.0
 20
10.12694380018446
 30
0.0
 10
3.994166480170356
 20
10.1294436984592
 30
0.0
 10
3.994166480170356
 20
10.1294436984592
 30
0.0
 10
3.994166480170356
 20
10.1294436984592
 30
0.0
 10
3.992499881320529
 20
10.13111029730903
 30
0.0
 10
3.992499881320529
 20
10.13111029730903
 30
0.0
 10
3.992499881320529
 20
10.13111029730903
 30
0.0
 10
3.989166683620876
 20
10.13611009385851
 30
0.0
 10
3.989166683620876
 20
10.13611009385851
 30
0.0
 10
3.989166683620876
 20
10.13611009385851
 30
0.0
 10
3.988333384195963
 20
10.14444393581814
 30
0.0
 10
3.988333384195963
 20
10.14444393581814
 30
0.0
 10
3.988333384195963
 20
10.14444393581814
 30
0.0
 10
3.988333384195963
 20
10.1919436984592
 30
0.0
 10
3.988333384195963
 20
10.1919436984592
 30
0.0
 10
3.988333384195963
 20
10.1919436984592
 30
0.0
 10
4.026666429307726
 20
10.1919436984592
 30
0.0
 10
4.026666429307726
 20
10.1919436984592
 30
0.0
 10
4.026666429307726
 20
10.1919436984592
 30
0.0
 10
4.026666429307726
 20
10.20027754041884
 30
0.0
 10
4.026666429307726
 20
10.20027754041884
 30
0.0
 10
4.026666429307726
 20
10.20027754041884
 30
0.0
 10
3.881666395399305
 20
10.20027754041884
 30
0.0
 10
3.881666395399305
 20
10.20027754041884
 30
0.0
 10
3.881666395399305
 20
10.20027754041884
 30
0.0
 10
3.963333129882812
 20
10.3294440375434
 30
0.0
 10
3.963333129882812
 20
10.3294440375434
 30
0.0
 10
3.963333129882812
 20
10.3294440375434
 30
0.0
 10
3.964999728732639
 20
10.3294440375434
 30
0.0
 10
3.964999728732639
 20
10.3294440375434
 30
0.0
  0
HATCH
  5
13A
330
1F
100
AcDbEntity
  8
Layer 1
 62
     1
420
 16711680
100
AcDbHatch
 10
0.0
 20
0.0
 30
0.0
210
0.0
220
0.0
230
1.0
  2
SOLID
 70
     1
 71
     0
 91
        1
 92
        1
 93
        2
 72
     4
 94
        3
 73
     0
 74
     0
 95
       71
 96
       67
 40
0.0
 40
0.0
 40
0.0
 40
0.0
 40
0.0138888888888889
 40
0.0138888888888889
 40
0.0138888888888889
 40
0.0277777777777778
 40
0.0277777777777778
 40
0.0277777777777778
 40
0.0416666666666667
 40
0.0416666666666667
 40
0.0416666666666667
 40
0.0555555555555556
 40
0.0555555555555556
 40
0.0555555555555556
 40
0.0694444444444444
 40
0.0694444444444444
 40
0.0694444444444444
 40
0.0833333333333333
 40
0.0833333333333333
 40
0.0833333333333333
 40
0.0972222222222222
 40
0.0972222222222222
 40
0.0972222222222222
 40
0.1111111111111111
 40
0.1111111111111111
 40
0.1111111111111111
 40
0.125
 40
0.125
 40
0.125
 40
0.1388888888888889
 40
0.1388888888888889
 40
0.1388888888888889
 40
0.1527777777777778
 40
0.1527777777777778
 40
0.1527777777777778
 40
0.1666666666666667
 40
0.1666666666666667
 40
0.1666666666666667
 40
0.1805555555555556
 40
0.1805555555555556
 40
0.1805555555555556
 40
0.1944444444444444
 40
0.1944444444444444
 40
0.1944444444444444
 40
0.2083333333333333
 40
0.2083333333333333
 40
0.2083333333333333
 40
0.2222222222222222
 40
0.2222222222222222
 40
0.2222222222222222
 40
0.2361111111111111
 40
0.2361111111111111
 40
0.2361111111111111
 40
0.25
 40
0.25
 40
0.25
 40
0.2638888888888889
 40
0.2638888888888889
 40
0.2638888888888889
 40
0.2777777777777778
 40
0.2777777777777778
 40
0.2777777777777778
 40
0.2916666666666666
 40
0.2916666666666666
 40
0.2916666666666666
 40
0.3055555555555555
 40
0.3055555555555555
 40
0.3055555555555555
 40
0.3055555555555555
 10
3.988333384195963
 20
10.36611090766059
 10
3.988333384195963
 20
10.36611090766059
 10
3.974166446261936
 20
10.36611090766059
 10
3.974166446261936
 20
10.36611090766059
 10
3.974166446261936
 20
10.36611090766059
 10
3.869166480170356
 20
10.19861009385851
 10
3.869166480170356
 20
10.19861009385851
 10
3.869166480170356
 20
10.19861009385851
 10
3.869166480170356
 20
10.1919436984592
 10
3.869166480170356
 20
10.1919436984592
 10
3.869166480170356
 20
10.1919436984592
 10
3.964999728732639
 20
10.1919436984592
 10
3.964999728732639
 20
10.1919436984592
 10
3.964999728732639
 20
10.1919436984592
 10
3.964999728732639
 20
10.14444393581814
 10
3.964999728732639
 20
10.14444393581814
 10
3.966069115532769
 20
10.1279296875
 10
3.957235972086588
 20
10.12637413872613
 10
3.943333095974392
 20
10.12527720133463
 10
3.943333095974392
 20
10.12527720133463
 10
3.92749998304579
 20
10.12527720133463
 10
3.92749998304579
 20
10.12527720133463
 10
3.92749998304579
 20
10.12527720133463
 10
3.92749998304579
 20
10.1169442070855
 10
3.92749998304579
 20
10.1169442070855
 10
3.92749998304579
 20
10.1169442070855
 10
4.02249993218316
 20
10.1169442070855
 10
4.02249993218316
 20
10.1169442070855
 10
4.02249993218316
 20
10.1169442070855
 10
4.02249993218316
 20
10.12527720133463
 10
4.02249993218316
 20
10.12527720133463
 10
4.02249993218316
 20
10.12527720133463
 10
4.006666395399305
 20
10.12527720133463
 10
4.006666395399305
 20
10.12527720133463
 10
4.006666395399305
 20
10.12527720133463
 10
4.0
 20
10.12694380018446
 10
4.0
 20
10.12694380018446
 10
4.0
 20
10.12694380018446
 10
3.994166480170356
 20
10.1294436984592
 10
3.994166480170356
 20
10.1294436984592
 10
3.994166480170356
 20
10.1294436984592
 10
3.992499881320529
 20
10.13111029730903
 10
3.992499881320529
 20
10.13111029730903
 10
3.992499881320529
 20
10.13111029730903
 10
3.989166683620876
 20
10.13611009385851
 10
3.989166683620876
 20
10.13611009385851
 10
3.989166683620876
 20
10.13611009385851
 10
3.988333384195963
 20
10.14444393581814
 10
3.988333384195963
 20
10.14444393581814
 10
3.988333384195963
 20
10.14444393581814
 10
3.988333384195963
 20
10.1919436984592
 10
3.988333384195963
 20
10.1919436984592
 10
3.988333384195963
 20
10.1919436984592
 10
4.026666429307726
 20
10.1919436984592
 10
4.026666429307726
 20
10.1919436984592
 10
4.026666429307726
 20
10.1919436984592
 10
4.026666429307726
 20
10.20027754041884
 10
4.026666429307726
 20
10.20027754041884
 10
4.026666429307726
 20
10.20027754041884
 10
3.881666395399305
 20
10.20027754041884
 10
3.881666395399305
 20
10.20027754041884
 10
3.881666395399305
 20
10.20027754041884
 10
3.963333129882812
 20
10.3294440375434
 10
3.963333129882812
 20
10.3294440375434
 10
3.963333129882812
 20
10.3294440375434
 10
3.964999728732639
 20
10.3294440375434
 10
3.964999728732639
 20
10.3294440375434
 97
        0
 72
     1
 10
3.964999728732639
 20
10.3294440375434
 11
3.988333384195963
 21
10.36611090766059
 97
        0
 75
     0
 76
     1
 98
        0
  0
POLYLINE
  5
13B
330
1F
100
AcDbEntity
  8
Layer 1
370
     0
100
AcDb2dPolyline
 66
     1
 10
0.0
 20
0.0
 30
0.0
  0
VERTEX
  5
13C
330
13B
100
AcDbEntity
  8
Layer 1
370
     0
100
AcDbVertex
100
AcDb2dVertex
 10
3.988333384195963
 20
10.36611090766059
 30
0.0
  0
VERTEX
  5
13D
330
13B
100
AcDbEntity
  8
Layer 1
370
     0
100
AcDbVertex
100
AcDb2dVertex
 10
3.964999728732639
 20
10.3294440375434
 30
0.0
  0
VERTEX
  5
13E
330
13B
100
AcDbEntity
  8
Layer 1
370
     0
100
AcDbVertex
100
AcDb2dVertex
 10
3.964999728732639
 20
10.20027754041884
 30
0.0
  0
VERTEX
  5
13F
330
13B
100
AcDbEntity
  8
Layer 1
370
     0
100
AcDbVertex
100
AcDb2dVertex
 10
3.881666395399305
 20
10.20027754041884
 30
0.0
  0
VERTEX
  5
140
330
13B
100
AcDbEntity
  8
Layer 1
370
     0
100
AcDbVertex
100
AcDb2dVertex
 10
3.988333384195963
 20
10.20027754041884
 30
0.0
  0
SEQEND
  5
142
330
13B
100
AcDbEntity
  8
Layer 1
370
     0
  0
HATCH
  5
141
330
1F
100
AcDbEntity
  8
Layer 1
 62
     1
420
 16711680
100
AcDbHatch
 10
0.0
 20
0.0
 30
0.0
210
0.0
220
0.0
230
1.0
  2
SOLID
 70
     1
 71
     0
 91
        1
 92
        1
 93
        5
 72
     1
 10
3.988333384195963
 20
10.36611090766059
 11
3.964999728732639
 21
10.3294440375434
 72
     1
 10
3.964999728732639
 20
10.3294440375434
 11
3.964999728732639
 21
10.20027754041884
 72
     1
 10
3.964999728732639
 20
10.20027754041884
 11
3.881666395399305
 21
10.20027754041884
 72
     1
 10
3.881666395399305
 20
10.20027754041884
 11
3.988333384195963
 21
10.20027754041884
 72
     1
 10
3.988333384195963
 20
10.20027754041884
 11
3.988333384195963
 21
10.36611090766059
 97
        0
 75
     0
 76
     1
 98
        0
  0
POLYLINE
  5
143
330
1F
100
AcDbEntity
  8
Layer 1
370
     0
100
AcDb2dPolyline
 66
     1
 10
0.0
 20
0.0
 30
0.0
  0
VERTEX
  5
144
330
143
100
AcDbEntity
  8
Layer 1
370
     0
100
AcDbVertex
100
AcDb2dVertex
 10
4.38250011867947
 20
10.40277777777778
 30
0.0
  0
VERTEX
  5
145
330
143
100
AcDbEntity
  8
Layer 1
370
     0
100
AcDbVertex
100
AcDb2dVertex
 10
4.295833163791232
 20
10.40277777777778
 30
0.0
  0
VERTEX
  5
146
330
143
100
AcDbEntity
  8
Layer 1
370
     0
100
AcDbVertex
100
AcDb2dVertex
 10
4.295833163791232
 20
10.08361053466797
 30
0.0
  0
VERTEX
  5
147
330
143
100
AcDbEntity
  8
Layer 1
370
     0
100
AcDbVertex
100
AcDb2dVertex
 10
4.38250011867947
 20
10.08361053466797
 30
0.0
  0
VERTEX
  5
148
330
143
100
AcDbEntity
  8
Layer 1
370
     0
100
AcDbVertex
100
AcDb2dVertex
 10
4.38250011867947
 20
10.09527757432726
 30
0.0
  0
VERTEX
  5
149
330
143
100
AcDbEntity
  8
Layer 1
370
     0
100
AcDbVertex
100
AcDb2dVertex
 10
4.310833401150173
 20
10.09527757432726
 30
0.0
  0
VERTEX
  5
14A
330
143
100
AcDbEntity
  8
Layer 1
370
     0
100
AcDbVertex
100
AcDb2dVertex
 10
4.310833401150173
 20
10.3919440375434
 30
0.0
  0
VERTEX
  5
14B
330
143
100
AcDbEntity
  8
Layer 1
370
     0
100
AcDbVertex
100
AcDb2dVertex
 10
4.38250011867947
 20
10.3919440375434
 30
0.0
  0
SEQEND
  5
14D
330
143
100
AcDbEntity
  8
Layer 1
370
     0
  0
HATCH
  5
14C
330
1F
100
AcDbEntity
  8
Layer 1
 62
     1
420
 16711680
100
AcDbHatch
 10
0.0
 20
0.0
 30
0.0
210
0.0
220
0.0
230
1.0
  2
SOLID
 70
     1
 71
     0
 91
        1
 92
        1
 93
        8
 72
     1
 10
4.38250011867947
 20
10.40277777777778
 11
4.295833163791232
 21
10.40277777777778
 72
     1
 10
4.295833163791232
 20
10.40277777777778
 11
4.295833163791232
 21
10.08361053466797
 72
     1
 10
4.295833163791232
 20
10.08361053466797
 11
4.38250011867947
 21
10.08361053466797
 72
     1
 10
4.38250011867947
 20
10.08361053466797
 11
4.38250011867947
 21
10.09527757432726
 72
     1
 10
4.38250011867947
 20
10.09527757432726
 11
4.310833401150173
 21
10.09527757432726
 72
     1
 10
4.310833401150173
 20
10.09527757432726
 11
4.310833401150173
 21
10.3919440375434
 72
     1
 10
4.310833401150173
 20
10.3919440375434
 11
4.38250011867947
 21
10.3919440375434
 72
     1
 10
4.38250011867947
 20
10.3919440375434
 11
4.38250011867947
 21
10.40277777777778
 97
        0
 75
     0
 76
     1
 98
        0
  0
SPLINE
  5
14E
330
1F
100
AcDbEntity
  8
Layer 1
370
     0
100
AcDbSpline
210
0.0
220
0.0
230
1.0
 70
     8
 71
     3
 72
    74
 73
    70
 74
     0
 42
0.0000000001
 43
0.0000000001
 12
1.0
 22
0.0
 32
0.0
 13
1.0
 23
0.0
 33
0.0
 40
0.0
 40
0.0
 40
0.0
 40
0.0
 40
1.0
 40
1.0
 40
1.0
 40
2.0
 40
2.0
 40
2.0
 40
3.0
 40
3.0
 40
3.0
 40
4.0
 40
4.0
 40
4.0
 40
5.0
 40
5.0
 40
5.0
 40
6.0
 40
6.0
 40
6.0
 40
7.0
 40
7.0
 40
7.0
 40
8.0
 40
8.0
 40
8.0
 40
9.0
 40
9.0
 40
9.0
 40
10.0
 40
10.0
 40
10.0
 40
11.0
 40
11.0
 40
11.0
 40
12.0
 40
12.0
 40
12.0
 40
13.0
 40
13.0
 40
13.0
 40
14.0
 40
14.0
 40
14.0
 40
15.0
 40
15.0
 40
15.0
 40
16.0
 40
16.0
 40
16.0
 40
17.0
 40
17.0
 40
17.0
 40
18.0
 40
18.0
 40
18.0
 40
19.0
 40
19.0
 40
19.0
 40
20.0
 40
20.0
 40
20.0
 40
21.0
 40
21.0
 40
21.0
 40
22.0
 40
22.0
 40
22.0
 40
23.0
 40
23.0
 40
23.0
 40
23.0
 10
4.513333214653863
 20
10.36611090766059
 30
0.0
 10
4.513333214653863
 20
10.36611090766059
 30
0.0
 10
4.507499694824219
 20
10.36611090766059
 30
0.0
 10
4.507499694824219
 20
10.36611090766059
 30
0.0
 10
4.507499694824219
 20
10.36611090766059
 30
0.0
 10
4.506666395399305
 20
10.36361016167535
 30
0.0
 10
4.506666395399305
 20
10.36361016167535
 30
0.0
 10
4.497902340359158
 20
10.34783257378472
 30
0.0
 10
4.480249616834852
 20
10.34259626600477
 30
0.0
 10
4.463333129882812
 20
10.34277682834201
 30
0.0
 10
4.463333129882812
 20
10.34277682834201
 30
0.0
 10
4.449999491373697
 20
10.34277682834201
 30
0.0
 10
4.449999491373697
 20
10.34277682834201
 30
0.0
 10
4.449999491373697
 20
10.34277682834201
 30
0.0
 10
4.449999491373697
 20
10.33444383409288
 30
0.0
 10
4.449999491373697
 20
10.33444383409288
 30
0.0
 10
4.449999491373697
 20
10.33444383409288
 30
0.0
 10
4.475833045111762
 20
10.33444383409288
 30
0.0
 10
4.475833045111762
 20
10.33444383409288
 30
0.0
 10
4.475833045111762
 20
10.33444383409288
 30
0.0
 10
4.481666141086154
 20
10.33361053466797
 30
0.0
 10
4.481666141086154
 20
10.33361053466797
 30
0.0
 10
4.481666141086154
 20
10.33361053466797
 30
0.0
 10
4.487499660915798
 20
10.33111063639323
 30
0.0
 10
4.487499660915798
 20
10.33111063639323
 30
0.0
 10
4.487499660915798
 20
10.33111063639323
 30
0.0
 10
4.489166259765625
 20
10.32861073811849
 30
0.0
 10
4.489166259765625
 20
10.32861073811849
 30
0.0
 10
4.489166259765625
 20
10.32861073811849
 30
0.0
 10
4.489999559190538
 20
10.32111019558377
 30
0.0
 10
4.489999559190538
 20
10.32111019558377
 30
0.0
 10
4.489999559190538
 20
10.32111019558377
 30
0.0
 10
4.489999559190538
 20
10.14361063639323
 30
0.0
 10
4.489999559190538
 20
10.14361063639323
 30
0.0
 10
4.489999559190538
 20
10.14361063639323
 30
0.0
 10
4.488332960340712
 20
10.13611009385851
 30
0.0
 10
4.488332960340712
 20
10.13611009385851
 30
0.0
 10
4.488332960340712
 20
10.13611009385851
 30
0.0
 10
4.484999762641059
 20
10.13111029730903
 30
0.0
 10
4.484999762641059
 20
10.13111029730903
 30
0.0
 10
4.484999762641059
 20
10.13111029730903
 30
0.0
 10
4.478332943386501
 20
10.12777709960938
 30
0.0
 10
4.478332943386501
 20
10.12777709960938
 30
0.0
 10
4.478332943386501
 20
10.12777709960938
 30
0.0
 10
4.471666547987196
 20
10.12611050075955
 30
0.0
 10
4.471666547987196
 20
10.12611050075955
 30
0.0
 10
4.471666547987196
 20
10.12611050075955
 30
0.0
 10
4.463333129882812
 20
10.12527720133463
 30
0.0
 10
4.463333129882812
 20
10.12527720133463
 30
0.0
 10
4.463333129882812
 20
10.12527720133463
 30
0.0
 10
4.449999491373697
 20
10.12527720133463
 30
0.0
 10
4.449999491373697
 20
10.12527720133463
 30
0.0
 10
4.449999491373697
 20
10.12527720133463
 30
0.0
 10
4.449999491373697
 20
10.1169442070855
 30
0.0
 10
4.449999491373697
 20
10.1169442070855
 30
0.0
 10
4.449999491373697
 20
10.1169442070855
 30
0.0
 10
4.554999881320529
 20
10.1169442070855
 30
0.0
 10
4.554999881320529
 20
10.1169442070855
 30
0.0
 10
4.554999881320529
 20
10.1169442070855
 30
0.0
 10
4.554999881320529
 20
10.12527720133463
 30
0.0
 10
4.554999881320529
 20
10.12527720133463
 30
0.0
 10
4.554999881320529
 20
10.12527720133463
 30
0.0
 10
4.540832943386501
 20
10.12527720133463
 30
0.0
 10
4.540832943386501
 20
10.12527720133463
 30
0.0
 10
4.528221978081597
 20
10.12572140163845
 30
0.0
 10
4.518749660915798
 20
10.12826368543837
 30
0.0
 10
4.514166514078775
 20
10.14111073811849
 30
0.0
 10
4.514166514078775
 20
10.14111073811849
 30
0.0
 10
4.513333214653863
 20
10.14861043294271
 30
0.0
 10
4.513333214653863
 20
10.14861043294271
 30
0.0
  0
HATCH
  5
14F
330
1F
100
AcDbEntity
  8
Layer 1
 62
     1
420
 16711680
100
AcDbHatch
 10
0.0
 20
0.0
 30
0.0
210
0.0
220
0.0
230
1.0
  2
SOLID
 70
     1
 71
     0
 91
        1
 92
        1
 93
        2
 72
     4
 94
        3
 73
     0
 74
     0
 95
       74
 96
       70
 40
0.0
 40
0.0
 40
0.0
 40
0.0
 40
0.0138888888888889
 40
0.0138888888888889
 40
0.0138888888888889
 40
0.0277777777777778
 40
0.0277777777777778
 40
0.0277777777777778
 40
0.0416666666666667
 40
0.0416666666666667
 40
0.0416666666666667
 40
0.0555555555555556
 40
0.0555555555555556
 40
0.0555555555555556
 40
0.0694444444444444
 40
0.0694444444444444
 40
0.0694444444444444
 40
0.0833333333333333
 40
0.0833333333333333
 40
0.0833333333333333
 40
0.0972222222222222
 40
0.0972222222222222
 40
0.0972222222222222
 40
0.1111111111111111
 40
0.1111111111111111
 40
0.1111111111111111
 40
0.125
 40
0.125
 40
0.125
 40
0.1388888888888889
 40
0.1388888888888889
 40
0.1388888888888889
 40
0.1527777777777778
 40
0.1527777777777778
 40
0.1527777777777778
 40
0.1666666666666667
 40
0.1666666666666667
 40
0.1666666666666667
 40
0.1805555555555556
 40
0.1805555555555556
 40
0.1805555555555556
 40
0.1944444444444444
 40
0.1944444444444444
 40
0.1944444444444444
 40
0.2083333333333333
 40
0.2083333333333333
 40
0.2083333333333333
 40
0.2222222222222222
 40
0.2222222222222222
 40
0.2222222222222222
 40
0.2361111111111111
 40
0.2361111111111111
 40
0.2361111111111111
 40
0.25
 40
0.25
 40
0.25
 40
0.2638888888888889
 40
0.2638888888888889
 40
0.2638888888888889
 40
0.2777777777777778
 40
0.2777777777777778
 40
0.2777777777777778
 40
0.2916666666666666
 40
0.2916666666666666
 40
0.2916666666666666
 40
0.3055555555555555
 40
0.3055555555555555
 40
0.3055555555555555
 40
0.3194444444444444
 40
0.3194444444444444
 40
0.3194444444444444
 40
0.3194444444444444
 10
4.513333214653863
 20
10.36611090766059
 10
4.513333214653863
 20
10.36611090766059
 10
4.507499694824219
 20
10.36611090766059
 10
4.507499694824219
 20
10.36611090766059
 10
4.507499694824219
 20
10.36611090766059
 10
4.506666395399305
 20
10.36361016167535
 10
4.506666395399305
 20
10.36361016167535
 10
4.497902340359158
 20
10.34783257378472
 10
4.480249616834852
 20
10.34259626600477
 10
4.463333129882812
 20
10.34277682834201
 10
4.463333129882812
 20
10.34277682834201
 10
4.449999491373697
 20
10.34277682834201
 10
4.449999491373697
 20
10.34277682834201
 10
4.449999491373697
 20
10.34277682834201
 10
4.449999491373697
 20
10.33444383409288
 10
4.449999491373697
 20
10.33444383409288
 10
4.449999491373697
 20
10.33444383409288
 10
4.475833045111762
 20
10.33444383409288
 10
4.475833045111762
 20
10.33444383409288
 10
4.475833045111762
 20
10.33444383409288
 10
4.481666141086154
 20
10.33361053466797
 10
4.481666141086154
 20
10.33361053466797
 10
4.481666141086154
 20
10.33361053466797
 10
4.487499660915798
 20
10.33111063639323
 10
4.487499660915798
 20
10.33111063639323
 10
4.487499660915798
 20
10.33111063639323
 10
4.489166259765625
 20
10.32861073811849
 10
4.489166259765625
 20
10.32861073811849
 10
4.489166259765625
 20
10.32861073811849
 10
4.489999559190538
 20
10.32111019558377
 10
4.489999559190538
 20
10.32111019558377
 10
4.489999559190538
 20
10.32111019558377
 10
4.489999559190538
 20
10.14361063639323
 10
4.489999559190538
 20
10.14361063639323
 10
4.489999559190538
 20
10.14361063639323
 10
4.488332960340712
 20
10.13611009385851
 10
4.488332960340712
 20
10.13611009385851
 10
4.488332960340712
 20
10.13611009385851
 10
4.484999762641059
 20
10.13111029730903
 10
4.484999762641059
 20
10.13111029730903
 10
4.484999762641059
 20
10.13111029730903
 10
4.478332943386501
 20
10.12777709960938
 10
4.478332943386501
 20
10.12777709960938
 10
4.478332943386501
 20
10.12777709960938
 10
4.471666547987196
 20
10.12611050075955
 10
4.471666547987196
 20
10.12611050075955
 10
4.471666547987196
 20
10.12611050075955
 10
4.463333129882812
 20
10.12527720133463
 10
4.463333129882812
 20
10.12527720133463
 10
4.463333129882812
 20
10.12527720133463
 10
4.449999491373697
 20
10.12527720133463
 10
4.449999491373697
 20
10.12527720133463
 10
4.449999491373697
 20
10.12527720133463
 10
4.449999491373697
 20
10.1169442070855
 10
4.449999491373697
 20
10.1169442070855
 10
4.449999491373697
 20
10.1169442070855
 10
4.554999881320529
 20
10.1169442070855
 10
4.554999881320529
 20
10.1169442070855
 10
4.554999881320529
 20
10.1169442070855
 10
4.554999881320529
 20
10.12527720133463
 10
4.554999881320529
 20
10.12527720133463
 10
4.554999881320529
 20
10.12527720133463
 10
4.540832943386501
 20
10.12527720133463
 10
4.540832943386501
 20
10.12527720133463
 10
4.528221978081597
 20
10.12572140163845
 10
4.518749660915798
 20
10.12826368543837
 10
4.514166514078775
 20
10.14111073811849
 10
4.514166514078775
 20
10.14111073811849
 10
4.513333214653863
 20
10.14861043294271
 10
4.513333214653863
 20
10.14861043294271
 97
        0
 72
     1
 10
4.513333214653863
 20
10.14861043294271
 11
4.513333214653863
 21
10.36611090766059
 97
        0
 75
     0
 76
     1
 98
        0
  0
POLYLINE
  5
150
330
1F
100
AcDbEntity
  8
Layer 1
370
     0
100
AcDb2dPolyline
 66
     1
 10
0.0
 20
0.0
 30
0.0
  0
VERTEX
  5
151
330
150
100
AcDbEntity
  8
Layer 1
370
     0
100
AcDbVertex
100
AcDb2dVertex
 10
4.652500152587891
 20
10.25944434271918
 30
0.0
  0
VERTEX
  5
152
330
150
100
AcDbEntity
  8
Layer 1
370
     0
100
AcDbVertex
100
AcDb2dVertex
 10
4.64749993218316
 20
10.2544436984592
 30
0.0
  0
VERTEX
  5
153
330
150
100
AcDbEntity
  8
Layer 1
370
     0
100
AcDbVertex
100
AcDb2dVertex
 10
4.643333435058594
 20
10.24944390190972
 30
0.0
  0
VERTEX
  5
154
330
150
100
AcDbEntity
  8
Layer 1
370
     0
100
AcDbVertex
100
AcDb2dVertex
 10
4.639166514078775
 20
10.24277750651042
 30
0.0
  0
VERTEX
  5
155
330
150
100
AcDbEntity
  8
Layer 1
370
     0
100
AcDbVertex
100
AcDb2dVertex
 10
4.635833316379123
 20
10.23611026340061
 30
0.0
  0
VERTEX
  5
156
330
150
100
AcDbEntity
  8
Layer 1
370
     0
100
AcDbVertex
100
AcDb2dVertex
 10
4.644166734483506
 20
10.23111046685113
 30
0.0
  0
VERTEX
  5
157
330
150
100
AcDbEntity
  8
Layer 1
370
     0
100
AcDbVertex
100
AcDb2dVertex
 10
4.652500152587891
 20
10.24277750651042
 30
0.0
  0
VERTEX
  5
158
330
150
100
AcDbEntity
  8
Layer 1
370
     0
100
AcDbVertex
100
AcDb2dVertex
 10
4.656666649712457
 20
10.24694400363498
 30
0.0
  0
VERTEX
  5
159
330
150
100
AcDbEntity
  8
Layer 1
370
     0
100
AcDbVertex
100
AcDb2dVertex
 10
4.664166768391927
 20
10.25194380018446
 30
0.0
  0
VERTEX
  5
15A
330
150
100
AcDbEntity
  8
Layer 1
370
     0
100
AcDbVertex
100
AcDb2dVertex
 10
4.670833163791232
 20
10.25527699788411
 30
0.0
  0
VERTEX
  5
15B
330
150
100
AcDbEntity
  8
Layer 1
370
     0
100
AcDbVertex
100
AcDb2dVertex
 10
4.67749998304579
 20
10.25777689615885
 30
0.0
  0
VERTEX
  5
15C
330
150
100
AcDbEntity
  8
Layer 1
370
     0
100
AcDbVertex
100
AcDb2dVertex
 10
4.684166802300347
 20
10.25861019558377
 30
0.0
  0
VERTEX
  5
15D
330
150
100
AcDbEntity
  8
Layer 1
370
     0
100
AcDbVertex
100
AcDb2dVertex
 10
4.691666497124566
 20
10.25944434271918
 30
0.0
  0
SEQEND
  5
15F
330
150
100
AcDbEntity
  8
Layer 1
370
     0
  0
HATCH
  5
15E
330
1F
100
AcDbEntity
  8
Layer 1
 62
     1
420
 16711680
100
AcDbHatch
 10
0.0
 20
0.0
 30
0.0
210
0.0
220
0.0
230
1.0
  2
SOLID
 70
     1
 71
     0
 91
        1
 92
        1
 93
       13
 72
     1
 10
4.652500152587891
 20
10.25944434271918
 11
4.64749993218316
 21
10.2544436984592
 72
     1
 10
4.64749993218316
 20
10.2544436984592
 11
4.643333435058594
 21
10.24944390190972
 72
     1
 10
4.643333435058594
 20
10.24944390190972
 11
4.639166514078776
 21
10.24277750651042
 72
     1
 10
4.639166514078775
 20
10.24277750651042
 11
4.635833316379123
 21
10.23611026340061
 72
     1
 10
4.635833316379123
 20
10.23611026340061
 11
4.644166734483506
 21
10.23111046685113
 72
     1
 10
4.644166734483506
 20
10.23111046685113
 11
4.65250015258789
 21
10.24277750651042
 72
     1
 10
4.652500152587891
 20
10.24277750651042
 11
4.656666649712457
 21
10.24694400363498
 72
     1
 10
4.656666649712457
 20
10.24694400363498
 11
4.664166768391927
 21
10.25194380018446
 72
     1
 10
4.664166768391927
 20
10.25194380018446
 11
4.670833163791232
 21
10.25527699788412
 72
     1
 10
4.670833163791232
 20
10.25527699788411
 11
4.67749998304579
 21
10.25777689615885
 72
     1
 10
4.67749998304579
 20
10.25777689615885
 11
4.684166802300347
 21
10.25861019558377
 72
     1
 10
4.684166802300347
 20
10.25861019558377
 11
4.691666497124566
 21
10.25944434271918
 72
     1
 10
4.691666497124566
 20
10.25944434271918
 11
4.652500152587891
 21
10.25944434271918
 97
        0
 75
     0
 76
     1
 98
        0
  0
SPLINE
  5
160
330
1F
100
AcDbEntity
  8
Layer 1
370
     0
100
AcDbSpline
210
0.0
220
0.0
230
1.0
 70
     8
 71
     3
 72
    71
 73
    67
 74
     0
 42
0.0000000001
 43
0.0000000001
 12
1.0
 22
0.0
 32
0.0
 13
1.0
 23
0.0
 33
0.0
 40
0.0
 40
0.0
 40
0.0
 40
0.0
 40
1.0
 40
1.0
 40
1.0
 40
2.0
 40
2.0
 40
2.0
 40
3.0
 40
3.0
 40
3.0
 40
4.0
 40
4.0
 40
4.0
 40
5.0
 40
5.0
 40
5.0
 40
6.0
 40
6.0
 40
6.0
 40
7.0
 40
7.0
 40
7.0
 40
8.0
 40
8.0
 40
8.0
 40
9.0
 40
9.0
 40
9.0
 40
10.0
 40
10.0
 40
10.0
 40
11.0
 40
11.0
 40
11.0
 40
12.0
 40
12.0
 40
12.0
 40
13.0
 40
13.0
 40
13.0
 40
14.0
 40
14.0
 40
14.0
 40
15.0
 40
15.0
 40
15.0
 40
16.0
 40
16.0
 40
16.0
 40
17.0
 40
17.0
 40
17.0
 40
18.0
 40
18.0
 40
18.0
 40
19.0
 40
19.0
 40
19.0
 40
20.0
 40
20.0
 40
20.0
 40
21.0
 40
21.0
 40
21.0
 40
22.0
 40
22.0
 40
22.0
 40
22.0
 10
4.691666497124566
 20
10.27361128065321
 30
0.0
 10
4.691666497124566
 20
10.27361128065321
 30
0.0
 10
4.687499576144748
 20
10.27361128065321
 30
0.0
 10
4.687499576144748
 20
10.27361128065321
 30
0.0
 10
4.687499576144748
 20
10.27361128065321
 30
0.0
 10
4.679999457465278
 20
10.27277713351779
 30
0.0
 10
4.679999457465278
 20
10.27277713351779
 30
0.0
 10
4.679999457465278
 20
10.27277713351779
 30
0.0
 10
4.673333062065972
 20
10.27111053466797
 30
0.0
 10
4.673333062065972
 20
10.27111053466797
 30
0.0
 10
4.673333062065972
 20
10.27111053466797
 30
0.0
 10
4.666666242811415
 20
10.26861063639323
 30
0.0
 10
4.666666242811415
 20
10.26861063639323
 30
0.0
 10
4.666666242811415
 20
10.26861063639323
 30
0.0
 10
4.659999423556857
 20
10.26527743869358
 30
0.0
 10
4.659999423556857
 20
10.26527743869358
 30
0.0
 10
4.659999423556857
 20
10.26527743869358
 30
0.0
 10
4.658332824707031
 20
10.26361083984375
 30
0.0
 10
4.658332824707031
 20
10.26361083984375
 30
0.0
 10
4.658332824707031
 20
10.26361083984375
 30
0.0
 10
4.652499728732638
 20
10.25944434271918
 30
0.0
 10
4.652499728732638
 20
10.25944434271918
 30
0.0
 10
4.652499728732638
 20
10.25944434271918
 30
0.0
 10
4.691666497124566
 20
10.25944434271918
 30
0.0
 10
4.691666497124566
 20
10.25944434271918
 30
0.0
 10
4.691666497124566
 20
10.25944434271918
 30
0.0
 10
4.697499593098958
 20
10.25861104329427
 30
0.0
 10
4.697499593098958
 20
10.25861104329427
 30
0.0
 10
4.722735934787326
 20
10.25474972195095
 30
0.0
 10
4.735360887315538
 20
10.22129143608941
 30
0.0
 10
4.733333163791232
 20
10.19861094156901
 30
0.0
 10
4.733333163791232
 20
10.19861094156901
 30
0.0
 10
4.733333163791232
 20
10.18277740478516
 30
0.0
 10
4.733333163791232
 20
10.18277740478516
 30
0.0
 10
4.731388515896267
 20
10.15945773654514
 30
0.0
 10
4.728221893310547
 20
10.13388824462891
 30
0.0
 10
4.703333112928602
 20
10.12444390190972
 30
0.0
 10
4.703333112928602
 20
10.12444390190972
 30
0.0
 10
4.696666293674045
 20
10.12277730305989
 30
0.0
 10
4.696666293674045
 20
10.12277730305989
 30
0.0
 10
4.696666293674045
 20
10.12277730305989
 30
0.0
 10
4.689166174994575
 20
10.12277730305989
 30
0.0
 10
4.689166174994575
 20
10.12277730305989
 30
0.0
 10
4.689166174994575
 20
10.12277730305989
 30
0.0
 10
4.719166225857204
 20
10.12194400363498
 30
0.0
 10
4.719166225857204
 20
10.12194400363498
 30
0.0
 10
4.719166225857204
 20
10.12194400363498
 30
0.0
 10
4.724999745686849
 20
10.12611050075955
 30
0.0
 10
4.724999745686849
 20
10.12611050075955
 30
0.0
 10
4.749972025553385
 20
10.14048597547743
 30
0.0
 10
4.756582895914713
 20
10.17206912570529
 30
0.0
 10
4.756666395399305
 20
10.19861094156901
 30
0.0
 10
4.756666395399305
 20
10.19861094156901
 30
0.0
 10
4.756666395399305
 20
10.20361073811849
 30
0.0
 10
4.756666395399305
 20
10.20361073811849
 30
0.0
 10
4.756666395399305
 20
10.20361073811849
 30
0.0
 10
4.755833095974392
 20
10.21027713351779
 30
0.0
 10
4.755833095974392
 20
10.21027713351779
 30
0.0
 10
4.754291110568576
 20
10.23312462700738
 30
0.0
 10
4.739791446261935
 20
10.26626332600911
 30
0.0
 10
4.714166429307725
 20
10.27027723524306
 30
0.0
 10
4.714166429307725
 20
10.27027723524306
 30
0.0
 10
4.707499610053168
 20
10.27194383409288
 30
0.0
 10
4.707499610053168
 20
10.27194383409288
 30
0.0
 10
4.707499610053168
 20
10.27194383409288
 30
0.0
 10
4.699999491373697
 20
10.27361128065321
 30
0.0
 10
4.699999491373697
 20
10.27361128065321
 30
0.0
  0
HATCH
  5
161
330
1F
100
AcDbEntity
  8
Layer 1
 62
     1
420
 16711680
100
AcDbHatch
 10
0.0
 20
0.0
 30
0.0
210
0.0
220
0.0
230
1.0
  2
SOLID
 70
     1
 71
     0
 91
        1
 92
        1
 93
        2
 72
     4
 94
        3
 73
     0
 74
     0
 95
       71
 96
       67
 40
0.0
 40
0.0
 40
0.0
 40
0.0
 40
0.0138888888888889
 40
0.0138888888888889
 40
0.0138888888888889
 40
0.0277777777777778
 40
0.0277777777777778
 40
0.0277777777777778
 40
0.0416666666666667
 40
0.0416666666666667
 40
0.0416666666666667
 40
0.0555555555555556
 40
0.0555555555555556
 40
0.0555555555555556
 40
0.0694444444444444
 40
0.0694444444444444
 40
0.0694444444444444
 40
0.0833333333333333
 40
0.0833333333333333
 40
0.0833333333333333
 40
0.0972222222222222
 40
0.0972222222222222
 40
0.0972222222222222
 40
0.1111111111111111
 40
0.1111111111111111
 40
0.1111111111111111
 40
0.125
 40
0.125
 40
0.125
 40
0.1388888888888889
 40
0.1388888888888889
 40
0.1388888888888889
 40
0.1527777777777778
 40
0.1527777777777778
 40
0.1527777777777778
 40
0.1666666666666667
 40
0.1666666666666667
 40
0.1666666666666667
 40
0.1805555555555556
 40
0.1805555555555556
 40
0.1805555555555556
 40
0.1944444444444444
 40
0.1944444444444444
 40
0.1944444444444444
 40
0.2083333333333333
 40
0.2083333333333333
 40
0.2083333333333333
 40
0.2222222222222222
 40
0.2222222222222222
 40
0.2222222222222222
 40
0.2361111111111111
 40
0.2361111111111111
 40
0.2361111111111111
 40
0.25
 40
0.25
 40
0.25
 40
0.2638888888888889
 40
0.2638888888888889
 40
0.2638888888888889
 40
0.2777777777777778
 40
0.2777777777777778
 40
0.2777777777777778
 40
0.2916666666666666
 40
0.2916666666666666
 40
0.2916666666666666
 40
0.3055555555555555
 40
0.3055555555555555
 40
0.3055555555555555
 40
0.3055555555555555
 10
4.691666497124566
 20
10.27361128065321
 10
4.691666497124566
 20
10.27361128065321
 10
4.687499576144748
 20
10.27361128065321
 10
4.687499576144748
 20
10.27361128065321
 10
4.687499576144748
 20
10.27361128065321
 10
4.679999457465278
 20
10.27277713351779
 10
4.679999457465278
 20
10.27277713351779
 10
4.679999457465278
 20
10.27277713351779
 10
4.673333062065972
 20
10.27111053466797
 10
4.673333062065972
 20
10.27111053466797
 10
4.673333062065972
 20
10.27111053466797
 10
4.666666242811415
 20
10.26861063639323
 10
4.666666242811415
 20
10.26861063639323
 10
4.666666242811415
 20
10.26861063639323
 10
4.659999423556857
 20
10.26527743869358
 10
4.659999423556857
 20
10.26527743869358
 10
4.659999423556857
 20
10.26527743869358
 10
4.658332824707031
 20
10.26361083984375
 10
4.658332824707031
 20
10.26361083984375
 10
4.658332824707031
 20
10.26361083984375
 10
4.652499728732638
 20
10.25944434271918
 10
4.652499728732638
 20
10.25944434271918
 10
4.652499728732638
 20
10.25944434271918
 10
4.691666497124566
 20
10.25944434271918
 10
4.691666497124566
 20
10.25944434271918
 10
4.691666497124566
 20
10.25944434271918
 10
4.697499593098958
 20
10.25861104329427
 10
4.697499593098958
 20
10.25861104329427
 10
4.722735934787326
 20
10.25474972195095
 10
4.735360887315538
 20
10.22129143608941
 10
4.733333163791232
 20
10.19861094156901
 10
4.733333163791232
 20
10.19861094156901
 10
4.733333163791232
 20
10.18277740478516
 10
4.733333163791232
 20
10.18277740478516
 10
4.731388515896267
 20
10.15945773654514
 10
4.728221893310547
 20
10.13388824462891
 10
4.703333112928602
 20
10.12444390190972
 10
4.703333112928602
 20
10.12444390190972
 10
4.696666293674045
 20
10.12277730305989
 10
4.696666293674045
 20
10.12277730305989
 10
4.696666293674045
 20
10.12277730305989
 10
4.689166174994575
 20
10.12277730305989
 10
4.689166174994575
 20
10.12277730305989
 10
4.689166174994575
 20
10.12277730305989
 10
4.719166225857204
 20
10.12194400363498
 10
4.719166225857204
 20
10.12194400363498
 10
4.719166225857204
 20
10.12194400363498
 10
4.724999745686849
 20
10.12611050075955
 10
4.724999745686849
 20
10.12611050075955
 10
4.749972025553385
 20
10.14048597547743
 10
4.756582895914713
 20
10.17206912570529
 10
4.756666395399305
 20
10.19861094156901
 10
4.756666395399305
 20
10.19861094156901
 10
4.756666395399305
 20
10.20361073811849
 10
4.756666395399305
 20
10.20361073811849
 10
4.756666395399305
 20
10.20361073811849
 10
4.755833095974392
 20
10.21027713351779
 10
4.755833095974392
 20
10.21027713351779
 10
4.754291110568576
 20
10.23312462700738
 10
4.739791446261935
 20
10.26626332600911
 10
4.714166429307725
 20
10.27027723524306
 10
4.714166429307725
 20
10.27027723524306
 10
4.707499610053168
 20
10.27194383409288
 10
4.707499610053168
 20
10.27194383409288
 10
4.707499610053168
 20
10.27194383409288
 10
4.699999491373697
 20
10.27361128065321
 10
4.699999491373697
 20
10.27361128065321
 97
        0
 72
     1
 10
4.699999491373697
 20
10.27361128065321
 11
4.691666497124566
 21
10.27361128065321
 97
        0
 75
     0
 76
     1
 98
        0
  0
POLYLINE
  5
162
330
1F
100
AcDbEntity
  8
Layer 1
370
     0
100
AcDb2dPolyline
 66
     1
 10
0.0
 20
0.0
 30
0.0
  0
VERTEX
  5
163
330
162
100
AcDbEntity
  8
Layer 1
370
     0
100
AcDbVertex
100
AcDb2dVertex
 10
4.726666768391927
 20
10.35861121283637
 30
0.0
  0
VERTEX
  5
164
330
162
100
AcDbEntity
  8
Layer 1
370
     0
100
AcDbVertex
100
AcDb2dVertex
 10
4.695833418104383
 20
10.35694376627604
 30
0.0
  0
VERTEX
  5
165
330
162
100
AcDbEntity
  8
Layer 1
370
     0
100
AcDbVertex
100
AcDb2dVertex
 10
4.699166615804036
 20
10.35694376627604
 30
0.0
  0
VERTEX
  5
166
330
162
100
AcDbEntity
  8
Layer 1
370
     0
100
AcDbVertex
100
AcDb2dVertex
 10
4.706666734483506
 20
10.35611046685113
 30
0.0
  0
VERTEX
  5
167
330
162
100
AcDbEntity
  8
Layer 1
370
     0
100
AcDbVertex
100
AcDb2dVertex
 10
4.714166429307725
 20
10.35111067030165
 30
0.0
  0
VERTEX
  5
168
330
162
100
AcDbEntity
  8
Layer 1
370
     0
100
AcDbVertex
100
AcDb2dVertex
 10
4.715833028157552
 20
10.34444427490234
 30
0.0
  0
VERTEX
  5
169
330
162
100
AcDbEntity
  8
Layer 1
370
     0
100
AcDbVertex
100
AcDb2dVertex
 10
4.715833028157552
 20
10.33861117892795
 30
0.0
  0
VERTEX
  5
16A
330
162
100
AcDbEntity
  8
Layer 1
370
     0
100
AcDbVertex
100
AcDb2dVertex
 10
4.714999728732638
 20
10.33111063639323
 30
0.0
  0
VERTEX
  5
16B
330
162
100
AcDbEntity
  8
Layer 1
370
     0
100
AcDbVertex
100
AcDb2dVertex
 10
4.714999728732638
 20
10.32694413926866
 30
0.0
  0
VERTEX
  5
16C
330
162
100
AcDbEntity
  8
Layer 1
370
     0
100
AcDbVertex
100
AcDb2dVertex
 10
4.71750005086263
 20
10.32111104329427
 30
0.0
  0
VERTEX
  5
16D
330
162
100
AcDbEntity
  8
Layer 1
370
     0
100
AcDbVertex
100
AcDb2dVertex
 10
4.721666547987196
 20
10.31861114501953
 30
0.0
  0
VERTEX
  5
16E
330
162
100
AcDbEntity
  8
Layer 1
370
     0
100
AcDbVertex
100
AcDb2dVertex
 10
4.729166666666666
 20
10.3169445461697
 30
0.0
  0
VERTEX
  5
16F
330
162
100
AcDbEntity
  8
Layer 1
370
     0
100
AcDbVertex
100
AcDb2dVertex
 10
4.734999762641059
 20
10.31777784559462
 30
0.0
  0
VERTEX
  5
170
330
162
100
AcDbEntity
  8
Layer 1
370
     0
100
AcDbVertex
100
AcDb2dVertex
 10
4.740833282470703
 20
10.32111104329427
 30
0.0
  0
VERTEX
  5
171
330
162
100
AcDbEntity
  8
Layer 1
370
     0
100
AcDbVertex
100
AcDb2dVertex
 10
4.742499881320529
 20
10.32611083984375
 30
0.0
  0
VERTEX
  5
172
330
162
100
AcDbEntity
  8
Layer 1
370
     0
100
AcDbVertex
100
AcDb2dVertex
 10
4.743333180745442
 20
10.33444383409288
 30
0.0
  0
VERTEX
  5
173
330
162
100
AcDbEntity
  8
Layer 1
370
     0
100
AcDbVertex
100
AcDb2dVertex
 10
4.743333180745442
 20
10.33611043294271
 30
0.0
  0
VERTEX
  5
174
330
162
100
AcDbEntity
  8
Layer 1
370
     0
100
AcDbVertex
100
AcDb2dVertex
 10
4.741666581895616
 20
10.34111107720269
 30
0.0
  0
VERTEX
  5
175
330
162
100
AcDbEntity
  8
Layer 1
370
     0
100
AcDbVertex
100
AcDb2dVertex
 10
4.738333384195963
 20
10.347777472602
 30
0.0
  0
VERTEX
  5
176
330
162
100
AcDbEntity
  8
Layer 1
370
     0
100
AcDbVertex
100
AcDb2dVertex
 10
4.731666564941406
 20
10.3544438680013
 30
0.0
  0
SEQEND
  5
178
330
162
100
AcDbEntity
  8
Layer 1
370
     0
  0
HATCH
  5
177
330
1F
100
AcDbEntity
  8
Layer 1
 62
     1
420
 16711680
100
AcDbHatch
 10
0.0
 20
0.0
 30
0.0
210
0.0
220
0.0
230
1.0
  2
SOLID
 70
     1
 71
     0
 91
        1
 92
        1
 93
       20
 72
     1
 10
4.726666768391927
 20
10.35861121283637
 11
4.695833418104383
 21
10.35694376627604
 72
     1
 10
4.695833418104383
 20
10.35694376627604
 11
4.699166615804036
 21
10.35694376627604
 72
     1
 10
4.699166615804036
 20
10.35694376627604
 11
4.706666734483506
 21
10.35611046685113
 72
     1
 10
4.706666734483506
 20
10.35611046685113
 11
4.714166429307725
 21
10.35111067030165
 72
     1
 10
4.714166429307725
 20
10.35111067030165
 11
4.715833028157552
 21
10.34444427490234
 72
     1
 10
4.715833028157552
 20
10.34444427490234
 11
4.715833028157552
 21
10.33861117892795
 72
     1
 10
4.715833028157552
 20
10.33861117892795
 11
4.714999728732638
 21
10.33111063639323
 72
     1
 10
4.714999728732638
 20
10.33111063639323
 11
4.714999728732638
 21
10.32694413926866
 72
     1
 10
4.714999728732638
 20
10.32694413926866
 11
4.71750005086263
 21
10.32111104329427
 72
     1
 10
4.71750005086263
 20
10.32111104329427
 11
4.721666547987196
 21
10.31861114501953
 72
     1
 10
4.721666547987196
 20
10.31861114501953
 11
4.729166666666666
 21
10.3169445461697
 72
     1
 10
4.729166666666666
 20
10.3169445461697
 11
4.734999762641058
 21
10.31777784559462
 72
     1
 10
4.734999762641059
 20
10.31777784559462
 11
4.740833282470703
 21
10.32111104329427
 72
     1
 10
4.740833282470703
 20
10.32111104329427
 11
4.74249988132053
 21
10.32611083984375
 72
     1
 10
4.742499881320529
 20
10.32611083984375
 11
4.743333180745442
 21
10.33444383409288
 72
     1
 10
4.743333180745442
 20
10.33444383409288
 11
4.743333180745442
 21
10.33611043294271
 72
     1
 10
4.743333180745442
 20
10.33611043294271
 11
4.741666581895616
 21
10.34111107720269
 72
     1
 10
4.741666581895616
 20
10.34111107720269
 11
4.738333384195963
 21
10.347777472602
 72
     1
 10
4.738333384195963
 20
10.347777472602
 11
4.731666564941405
 21
10.3544438680013
 72
     1
 10
4.731666564941406
 20
10.3544438680013
 11
4.726666768391927
 21
10.35861121283637
 97
        0
 75
     0
 76
     1
 98
        0
  0
SPLINE
  5
179
330
1F
100
AcDbEntity
  8
Layer 1
370
     0
100
AcDbSpline
210
0.0
220
0.0
230
1.0
 70
     8
 71
     3
 72
    44
 73
    40
 74
     0
 42
0.0000000001
 43
0.0000000001
 12
1.0
 22
0.0
 32
0.0
 13
1.0
 23
0.0
 33
0.0
 40
0.0
 40
0.0
 40
0.0
 40
0.0
 40
1.0
 40
1.0
 40
1.0
 40
2.0
 40
2.0
 40
2.0
 40
3.0
 40
3.0
 40
3.0
 40
4.0
 40
4.0
 40
4.0
 40
5.0
 40
5.0
 40
5.0
 40
6.0
 40
6.0
 40
6.0
 40
7.0
 40
7.0
 40
7.0
 40
8.0
 40
8.0
 40
8.0
 40
9.0
 40
9.0
 40
9.0
 40
10.0
 40
10.0
 40
10.0
 40
11.0
 40
11.0
 40
11.0
 40
12.0
 40
12.0
 40
12.0
 40
13.0
 40
13.0
 40
13.0
 40
13.0
 10
4.699166615804036
 20
10.36611090766059
 30
0.0
 10
4.699166615804036
 20
10.36611090766059
 30
0.0
 10
4.692499796549479
 20
10.36527676052517
 30
0.0
 10
4.692499796549479
 20
10.36527676052517
 30
0.0
 10
4.5792359246148
 20
10.36683230929904
 30
0.0
 10
4.576235877143012
 20
10.06924947102864
 30
0.0
 10
4.712499830457899
 20
10.11944410536024
 30
0.0
 10
4.712499830457899
 20
10.11944410536024
 30
0.0
 10
4.719166225857204
 20
10.12194400363498
 30
0.0
 10
4.719166225857204
 20
10.12194400363498
 30
0.0
 10
4.719166225857204
 20
10.12194400363498
 30
0.0
 10
4.689166598849826
 20
10.12277730305989
 30
0.0
 10
4.689166598849826
 20
10.12277730305989
 30
0.0
 10
4.646985795762803
 20
10.11962466769748
 30
0.0
 10
4.626666598849826
 20
10.19908311631944
 30
0.0
 10
4.639999813503689
 20
10.22444407145182
 30
0.0
 10
4.639999813503689
 20
10.22444407145182
 30
0.0
 10
4.644166310628255
 20
10.23111046685113
 30
0.0
 10
4.644166310628255
 20
10.23111046685113
 30
0.0
 10
4.644166310628255
 20
10.23111046685113
 30
0.0
 10
4.635832892523871
 20
10.23611026340061
 30
0.0
 10
4.635832892523871
 20
10.23611026340061
 30
0.0
 10
4.635832892523871
 20
10.23611026340061
 30
0.0
 10
4.635832892523871
 20
10.23694356282552
 30
0.0
 10
4.635832892523871
 20
10.23694356282552
 30
0.0
 10
4.636416541205512
 20
10.28065236409505
 30
0.0
 10
4.634763505723741
 20
10.35504065619575
 30
0.0
 10
4.695832994249131
 20
10.35694376627604
 30
0.0
 10
4.695832994249131
 20
10.35694376627604
 30
0.0
 10
4.726666344536675
 20
10.35861036512587
 30
0.0
 10
4.726666344536675
 20
10.35861036512587
 30
0.0
 10
4.726666344536675
 20
10.35861036512587
 30
0.0
 10
4.720833248562283
 20
10.36194356282552
 30
0.0
 10
4.720833248562283
 20
10.36194356282552
 30
0.0
 10
4.720833248562283
 20
10.36194356282552
 30
0.0
 10
4.714166429307725
 20
10.36361016167535
 30
0.0
 10
4.714166429307725
 20
10.36361016167535
 30
0.0
 10
4.714166429307725
 20
10.36361016167535
 30
0.0
 10
4.706666310628255
 20
10.36527676052517
 30
0.0
 10
4.706666310628255
 20
10.36527676052517
 30
0.0
  0
HATCH
  5
17A
330
1F
100
AcDbEntity
  8
Layer 1
 62
     1
420
 16711680
100
AcDbHatch
 10
0.0
 20
0.0
 30
0.0
210
0.0
220
0.0
230
1.0
  2
SOLID
 70
     1
 71
     0
 91
        1
 92
        1
 93
        2
 72
     4
 94
        3
 73
     0
 74
     0
 95
       44
 96
       40
 40
0.0
 40
0.0
 40
0.0
 40
0.0
 40
0.0138888888888889
 40
0.0138888888888889
 40
0.0138888888888889
 40
0.0277777777777778
 40
0.0277777777777778
 40
0.0277777777777778
 40
0.0416666666666667
 40
0.0416666666666667
 40
0.0416666666666667
 40
0.0555555555555556
 40
0.0555555555555556
 40
0.0555555555555556
 40
0.0694444444444444
 40
0.0694444444444444
 40
0.0694444444444444
 40
0.0833333333333333
 40
0.0833333333333333
 40
0.0833333333333333
 40
0.0972222222222222
 40
0.0972222222222222
 40
0.0972222222222222
 40
0.1111111111111111
 40
0.1111111111111111
 40
0.1111111111111111
 40
0.125
 40
0.125
 40
0.125
 40
0.1388888888888889
 40
0.1388888888888889
 40
0.1388888888888889
 40
0.1527777777777778
 40
0.1527777777777778
 40
0.1527777777777778
 40
0.1666666666666667
 40
0.1666666666666667
 40
0.1666666666666667
 40
0.1805555555555556
 40
0.1805555555555556
 40
0.1805555555555556
 40
0.1805555555555556
 10
4.699166615804036
 20
10.36611090766059
 10
4.699166615804036
 20
10.36611090766059
 10
4.692499796549479
 20
10.36527676052517
 10
4.692499796549479
 20
10.36527676052517
 10
4.5792359246148
 20
10.36683230929904
 10
4.576235877143012
 20
10.06924947102864
 10
4.712499830457899
 20
10.11944410536024
 10
4.712499830457899
 20
10.11944410536024
 10
4.719166225857204
 20
10.12194400363498
 10
4.719166225857204
 20
10.12194400363498
 10
4.719166225857204
 20
10.12194400363498
 10
4.689166598849826
 20
10.12277730305989
 10
4.689166598849826
 20
10.12277730305989
 10
4.646985795762803
 20
10.11962466769748
 10
4.626666598849826
 20
10.19908311631944
 10
4.639999813503689
 20
10.22444407145182
 10
4.639999813503689
 20
10.22444407145182
 10
4.644166310628255
 20
10.23111046685113
 10
4.644166310628255
 20
10.23111046685113
 10
4.644166310628255
 20
10.23111046685113
 10
4.635832892523871
 20
10.23611026340061
 10
4.635832892523871
 20
10.23611026340061
 10
4.635832892523871
 20
10.23611026340061
 10
4.635832892523871
 20
10.23694356282552
 10
4.635832892523871
 20
10.23694356282552
 10
4.636416541205512
 20
10.28065236409505
 10
4.634763505723741
 20
10.35504065619575
 10
4.695832994249131
 20
10.35694376627604
 10
4.695832994249131
 20
10.35694376627604
 10
4.726666344536675
 20
10.35861036512587
 10
4.726666344536675
 20
10.35861036512587
 10
4.726666344536675
 20
10.35861036512587
 10
4.720833248562283
 20
10.36194356282552
 10
4.720833248562283
 20
10.36194356282552
 10
4.720833248562283
 20
10.36194356282552
 10
4.714166429307725
 20
10.36361016167535
 10
4.714166429307725
 20
10.36361016167535
 10
4.714166429307725
 20
10.36361016167535
 10
4.706666310628255
 20
10.36527676052517
 10
4.706666310628255
 20
10.36527676052517
 97
        0
 72
     1
 10
4.706666310628255
 20
10.36527676052517
 11
4.699166615804036
 21
10.36611090766059
 97
        0
 75
     0
 76
     1
 98
        0
  0
POLYLINE
  5
17B
330
1F
100
AcDbEntity
  8
Layer 1
370
     0
100
AcDb2dPolyline
 66
     1
 10
0.0
 20
0.0
 30
0.0
  0
VERTEX
  5
17C
330
17B
100
AcDbEntity
  8
Layer 1
370
     0
100
AcDbVertex
100
AcDb2dVertex
 10
4.88749991522895
 20
10.40277777777778
 30
0.0
  0
VERTEX
  5
17D
330
17B
100
AcDbEntity
  8
Layer 1
370
     0
100
AcDbVertex
100
AcDb2dVertex
 10
4.800832960340712
 20
10.40277777777778
 30
0.0
  0
VERTEX
  5
17E
330
17B
100
AcDbEntity
  8
Layer 1
370
     0
100
AcDbVertex
100
AcDb2dVertex
 10
4.800832960340712
 20
10.3919440375434
 30
0.0
  0
VERTEX
  5
17F
330
17B
100
AcDbEntity
  8
Layer 1
370
     0
100
AcDbVertex
100
AcDb2dVertex
 10
4.873332977294922
 20
10.3919440375434
 30
0.0
  0
VERTEX
  5
180
330
17B
100
AcDbEntity
  8
Layer 1
370
     0
100
AcDbVertex
100
AcDb2dVertex
 10
4.873332977294922
 20
10.09527757432726
 30
0.0
  0
VERTEX
  5
181
330
17B
100
AcDbEntity
  8
Layer 1
370
     0
100
AcDbVertex
100
AcDb2dVertex
 10
4.800832960340712
 20
10.09527757432726
 30
0.0
  0
VERTEX
  5
182
330
17B
100
AcDbEntity
  8
Layer 1
370
     0
100
AcDbVertex
100
AcDb2dVertex
 10
4.800832960340712
 20
10.08361053466797
 30
0.0
  0
VERTEX
  5
183
330
17B
100
AcDbEntity
  8
Layer 1
370
     0
100
AcDbVertex
100
AcDb2dVertex
 10
4.88749991522895
 20
10.08361053466797
 30
0.0
  0
SEQEND
  5
185
330
17B
100
AcDbEntity
  8
Layer 1
370
     0
  0
HATCH
  5
184
330
1F
100
AcDbEntity
  8
Layer 1
 62
     1
420
 16711680
100
AcDbHatch
 10
0.0
 20
0.0
 30
0.0
210
0.0
220
0.0
230
1.0
  2
SOLID
 70
     1
 71
     0
 91
        1
 92
        1
 93
        8
 72
     1
 10
4.88749991522895
 20
10.40277777777778
 11
4.800832960340712
 21
10.40277777777778
 72
     1
 10
4.800832960340712
 20
10.40277777777778
 11
4.800832960340712
 21
10.3919440375434
 72
     1
 10
4.800832960340712
 20
10.3919440375434
 11
4.873332977294922
 21
10.3919440375434
 72
     1
 10
4.873332977294922
 20
10.3919440375434
 11
4.873332977294922
 21
10.09527757432726
 72
     1
 10
4.873332977294922
 20
10.09527757432726
 11
4.800832960340712
 21
10.09527757432726
 72
     1
 10
4.800832960340712
 20
10.09527757432726
 11
4.800832960340712
 21
10.08361053466797
 72
     1
 10
4.800832960340712
 20
10.08361053466797
 11
4.88749991522895
 21
10.08361053466797
 72
     1
 10
4.88749991522895
 20
10.08361053466797
 11
4.88749991522895
 21
10.40277777777778
 97
        0
 75
     0
 76
     1
 98
        0
  0
INSERT
  5
187
330
1F
100
AcDbEntity
  8
Layer 1
100
AcDbBlockReference
  2
block 2
 10
0.0
 20
0.0
 30
0.0
  0
ENDSEC
  0
SECTION
  2
OBJECTS
  0
DICTIONARY
  5
C
330
0
100
AcDbDictionary
281
     1
  3
ACAD_GROUP
350
D
  3
ACAD_LAYOUT
350
1A
  3
ACAD_MATERIAL
350
3B
  3
ACAD_MLEADERSTYLE
350
18D
  3
ACAD_MLINESTYLE
350
17
  3
ACAD_PLOTSETTINGS
350
19
  3
ACAD_PLOTSTYLENAME
350
E
  3
ACAD_TABLESTYLE
350
18C
  3
ACAD_VISUALSTYLE
350
2A
  0
SUN
  5
3F
330
29
100
AcDbSun
 90
        1
290
     0
 63
     7
421
 16777215
 40
1.0
291
     1
 91
  2455826
 92
 54000000
292
     0
 70
     2
 71
   256
280
     1
  0
DICTIONARY
  5
D
102
{ACAD_REACTORS
330
C
102
}
330
C
100
AcDbDictionary
281
     1
  0
DICTIONARY
  5
1A
102
{ACAD_REACTORS
330
C
102
}
330
C
100
AcDbDictionary
281
     1
  3
Layout1
350
1E
  3
Layout2
350
26
  3
Model
350
22
  0
DICTIONARY
  5
3B
102
{ACAD_REACTORS
330
C
102
}
330
C
100
AcDbDictionary
281
     1
  3
ByBlock
350
3D
  3
ByLayer
350
3C
  3
Global
350
3E
  0
DICTIONARY
  5
18D
102
{ACAD_REACTORS
330
C
102
}
330
C
100
AcDbDictionary
281
     1
  0
DICTIONARY
  5
17
102
{ACAD_REACTORS
330
C
102
}
330
C
100
AcDbDictionary
281
     1
  3
Standard
350
18
  0
DICTIONARY
  5
19
102
{ACAD_REACTORS
330
C
102
}
330
C
100
AcDbDictionary
281
     1
  0
ACDBDICTIONARYWDFLT
  5
E
102
{ACAD_REACTORS
330
C
102
}
330
C
100
AcDbDictionary
281
     1
  3
Normal
350
F
100
AcDbDictionaryWithDefault
340
F
  0
DICTIONARY
  5
18C
102
{ACAD_REACTORS
330
C
102
}
330
C
100
AcDbDictionary
281
     1
  0
DICTIONARY
  5
2A
102
{ACAD_REACTORS
330
C
102
}
330
C
100
AcDbDictionary
281
     1
  3
2dWireframe
350
2F
  3
3D Hidden
350
31
  3
3dWireframe
350
30
  3
Basic
350
32
  3
Brighten
350
36
  3
ColorChange
350
3A
  3
Conceptual
350
34
  3
Dim
350
35
  3
Facepattern
350
39
  3
Flat
350
2B
  3
FlatWithEdges
350
2C
  3
Gouraud
350
2D
  3
GouraudWithEdges
350
2E
  3
Linepattern
350
38
  3
Realistic
350
33
  3
Thicken
350
37
  0
LAYOUT
  5
1E
102
{ACAD_REACTORS
330
1A
102
}
330
1A
100
AcDbPlotSettings
  1

  2
none_device
  4

  6

 40
0.0
 41
0.0
 42
0.0
 43
0.0
 44
0.0
 45
0.0
 46
0.0
 47
0.0
 48
0.0
 49
0.0
140
0.0
141
0.0
142
1.0
143
1.0
 70
   688
 72
     0
 73
     0
 74
     5
  7

 75
    16
 76
     0
 77
     2
 78
   300
147
1.0
148
0.0
149
0.0
100
AcDbLayout
  1
Layout1
 70
     1
 71
     1
 10
0.0
 20
0.0
 11
12.0
 21
9.0
 12
0.0
 22
0.0
 32
0.0
 14
1.000000000000000E+20
 24
1.000000000000000E+20
 34
1.000000000000000E+20
 15
-1.000000000000000E+20
 25
-1.000000000000000E+20
 35
-1.000000000000000E+20
146
0.0
 13
0.0
 23
0.0
 33
0.0
 16
1.0
 26
0.0
 36
0.0
 17
0.0
 27
1.0
 37
0.0
 76
     0
330
1B
  0
LAYOUT
  5
26
102
{ACAD_REACTORS
330
1A
102
}
330
1A
100
AcDbPlotSettings
  1

  2
none_device
  4

  6

 40
0.0
 41
0.0
 42
0.0
 43
0.0
 44
0.0
 45
0.0
 46
0.0
 47
0.0
 48
0.0
 49
0.0
140
0.0
141
0.0
142
1.0
143
1.0
 70
   688
 72
     0
 73
     0
 74
     5
  7

 75
    16
 76
     0
 77
     2
 78
   300
147
1.0
148
0.0
149
0.0
100
AcDbLayout
  1
Layout2
 70
     1
 71
     2
 10
0.0
 20
0.0
 11
0.0
 21
0.0
 12
0.0
 22
0.0
 32
0.0
 14
0.0
 24
0.0
 34
0.0
 15
0.0
 25
0.0
 35
0.0
146
0.0
 13
0.0
 23
0.0
 33
0.0
 16
1.0
 26
0.0
 36
0.0
 17
0.0
 27
1.0
 37
0.0
 76
     0
330
23
  0
LAYOUT
  5
22
102
{ACAD_REACTORS
330
1A
102
}
330
1A
100
AcDbPlotSettings
  1

  2
none_device
  4

  6

 40
0.0
 41
0.0
 42
0.0
 43
0.0
 44
0.0
 45
0.0
 46
0.0
 47
0.0
 48
0.0
 49
0.0
140
0.0
141
0.0
142
1.0
143
1.0
 70
  1712
 72
     0
 73
     0
 74
     0
  7

 75
     0
 76
     0
 77
     2
 78
   300
147
1.0
148
0.0
149
0.0
100
AcDbLayout
  1
Model
 70
     1
 71
     0
 10
0.0
 20
0.0
 11
12.0
 21
9.0
 12
0.0
 22
0.0
 32
0.0
 14
1.000000000000000E+20
 24
1.000000000000000E+20
 34
1.000000000000000E+20
 15
-1.000000000000000E+20
 25
-1.000000000000000E+20
 35
-1.000000000000000E+20
146
0.0
 13
0.0
 23
0.0
 33
0.0
 16
1.0
 26
0.0
 36
0.0
 17
0.0
 27
1.0
 37
0.0
 76
     0
330
1F
331
29
  0
MATERIAL
  5
3D
102
{ACAD_REACTORS
330
3B
102
}
330
3B
100
AcDbMaterial
  1
ByBlock
 72
     1
 94
      127
  0
MATERIAL
  5
3C
102
{ACAD_REACTORS
330
3B
102
}
330
3B
100
AcDbMaterial
  1
ByLayer
 72
     1
 94
      127
  0
MATERIAL
  5
3E
102
{ACAD_REACTORS
330
3B
102
}
330
3B
100
AcDbMaterial
  1
Global
 72
     1
 94
      127
  0
MLINESTYLE
  5
18
102
{ACAD_REACTORS
330
17
102
}
330
17
100
AcDbMlineStyle
  2
Standard
 70
     0
  3

 62
   256
 51
90.0
 52
90.0
 71
     2
 49
0.5
 62
   256
  6
BYLAYER
 49
-0.5
 62
   256
  6
BYLAYER
  0
ACDBPLACEHOLDER
  5
F
102
{ACAD_REACTORS
330
E
102
}
330
E
  0
VISUALSTYLE
  5
2F
102
{ACAD_REACTORS
330
2A
102
}
330
2A
100
AcDbVisualStyle
  2
2dWireframe
 70
     4
177
     2
291
     0
 71
     0
176
     1
 72
     2
176
     1
 73
     0
176
     1
 90
        0
176
     1
 40
-0.6
176
     1
 41
-30.0
176
     1
 62
     5
 63
     7
421
 16777215
176
     1
 74
     1
176
     1
 91
        4
176
     1
 64
     7
176
     1
 65
   257
176
     1
 75
     1
176
     1
175
     1
176
     1
 42
1.0
176
     1
 92
        0
176
     1
 66
   257
176
     1
 43
1.0
176
     1
 76
     1
176
     1
 77
     6
176
     1
 78
     2
176
     1
 67
     7
176
     1
 79
     5
176
     1
170
     0
176
     1
171
     0
176
     1
290
     0
176
     1
 93
        1
176
     1
 44
0.0
176
     1
173
     0
176
     1
  0
VISUALSTYLE
  5
31
102
{ACAD_REACTORS
330
2A
102
}
330
2A
100
AcDbVisualStyle
  2
3D Hidden
 70
     6
177
     2
291
     0
 71
     1
176
     1
 72
     2
176
     1
 73
     2
176
     1
 90
        0
176
     1
 40
-0.6
176
     1
 41
-30.0
176
     1
 62
     5
 63
     7
421
 16777215
176
     1
 74
     2
176
     1
 91
        2
176
     1
 64
     7
176
     1
 65
   257
176
     1
 75
     2
176
     1
175
     1
176
     1
 42
40.0
176
     1
 92
        0
176
     1
 66
   257
176
     1
 43
1.0
176
     1
 76
     1
176
     1
 77
     6
176
     1
 78
     2
176
     1
 67
     7
176
     1
 79
     3
176
     1
170
     0
176
     1
171
     0
176
     1
290
     0
176
     1
 93
        1
176
     1
 44
0.0
176
     1
173
     0
176
     1
  0
VISUALSTYLE
  5
30
102
{ACAD_REACTORS
330
2A
102
}
330
2A
100
AcDbVisualStyle
  2
3dWireframe
 70
     5
177
     2
291
     0
 71
     0
176
     1
 72
     2
176
     1
 73
     0
176
     1
 90
        0
176
     1
 40
-0.6
176
     1
 41
-30.0
176
     1
 62
     5
 63
     7
421
 16777215
176
     1
 74
     1
176
     1
 91
        4
176
     1
 64
     7
176
     1
 65
   257
176
     1
 75
     1
176
     1
175
     1
176
     1
 42
1.0
176
     1
 92
        0
176
     1
 66
   257
176
     1
 43
1.0
176
     1
 76
     1
176
     1
 77
     6
176
     1
 78
     2
176
     1
 67
     7
176
     1
 79
     5
176
     1
170
     0
176
     1
171
     0
176
     1
290
     0
176
     1
 93
        1
176
     1
 44
0.0
176
     1
173
     0
176
     1
  0
VISUALSTYLE
  5
32
102
{ACAD_REACTORS
330
2A
102
}
330
2A
100
AcDbVisualStyle
  2
Basic
 70
     7
177
     2
291
     1
 71
     1
176
     1
 72
     0
176
     1
 73
     1
176
     1
 90
        0
176
     1
 40
-0.6
176
     1
 41
-30.0
176
     1
 62
     5
 63
     7
421
 16777215
176
     1
 74
     0
176
     1
 91
        4
176
     1
 64
     7
176
     1
 65
   257
176
     1
 75
     1
176
     1
175
     1
176
     1
 42
1.0
176
     1
 92
        8
176
     1
 66
     7
176
     1
 43
1.0
176
     1
 76
     1
176
     1
 77
     6
176
     1
 78
     2
176
     1
 67
     7
176
     1
 79
     5
176
     1
170
     0
176
     1
171
     0
176
     1
290
     0
176
     1
 93
        1
176
     1
 44
0.0
176
     1
173
     0
176
     1
  0
VISUALSTYLE
  5
36
102
{ACAD_REACTORS
330
2A
102
}
330
2A
100
AcDbVisualStyle
  2
Brighten
 70
    12
177
     2
291
     1
 71
     2
176
     1
 72
     2
176
     1
 73
     0
176
     1
 90
        0
176
     1
 40
-0.6
176
     1
 41
-30.0
176
     1
 62
     5
 63
     7
421
 16777215
176
     1
 74
     1
176
     1
 91
        4
176
     1
 64
     7
176
     1
 65
   257
176
     1
 75
     1
176
     1
175
     1
176
     1
 42
1.0
176
     1
 92
        8
176
     1
 66
     7
176
     1
 43
1.0
176
     1
 76
     1
176
     1
 77
     6
176
     1
 78
     2
176
     1
 67
     7
176
     1
 79
     5
176
     1
170
     0
176
     1
171
     0
176
     1
290
     0
176
     1
 93
        1
176
     1
 44
50.0
176
     1
173
     0
176
     1
  0
VISUALSTYLE
  5
3A
102
{ACAD_REACTORS
330
2A
102
}
330
2A
100
AcDbVisualStyle
  2
ColorChange
 70
    16
177
     2
291
     1
 71
     2
176
     1
 72
     2
176
     1
 73
     3
176
     1
 90
        0
176
     1
 40
-0.6
176
     1
 41
-30.0
176
     1
 62
     5
 63
     8
421
  8421504
176
     1
 74
     1
176
     1
 91
        4
176
     1
 64
     7
176
     1
 65
   257
176
     1
 75
     1
176
     1
175
     1
176
     1
 42
1.0
176
     1
 92
        8
176
     1
 66
     8
424
  8421504
176
     1
 43
1.0
176
     1
 76
     1
176
     1
 77
     6
176
     1
 78
     2
176
     1
 67
     7
176
     1
 79
     5
176
     1
170
     0
176
     1
171
     0
176
     1
290
     0
176
     1
 93
        1
176
     1
 44
0.0
176
     1
173
     0
176
     1
  0
VISUALSTYLE
  5
34
102
{ACAD_REACTORS
330
2A
102
}
330
2A
100
AcDbVisualStyle
  2
Conceptual
 70
     9
177
     2
291
     0
 71
     3
176
     1
 72
     2
176
     1
 73
     0
176
     1
 90
        0
176
     1
 40
-0.6
176
     1
 41
-30.0
176
     1
 62
     5
 63
     7
421
 16777215
176
     1
 74
     2
176
     1
 91
        2
176
     1
 64
     7
176
     1
 65
   257
176
     1
 75
     1
176
     1
175
     1
176
     1
 42
40.0
176
     1
 92
        8
176
     1
 66
     7
176
     1
 43
1.0
176
     1
 76
     1
176
     1
 77
     6
176
     1
 78
     2
176
     1
 67
     7
176
     1
 79
     3
176
     1
170
     0
176
     1
171
     0
176
     1
290
     0
176
     1
 93
        1
176
     1
 44
0.0
176
     1
173
     0
176
     1
  0
VISUALSTYLE
  5
35
102
{ACAD_REACTORS
330
2A
102
}
330
2A
100
AcDbVisualStyle
  2
Dim
 70
    11
177
     2
291
     1
 71
     2
176
     1
 72
     2
176
     1
 73
     0
176
     1
 90
        0
176
     1
 40
-0.6
176
     1
 41
-30.0
176
     1
 62
     5
 63
     7
421
 16777215
176
     1
 74
     1
176
     1
 91
        4
176
     1
 64
     7
176
     1
 65
   257
176
     1
 75
     1
176
     1
175
     1
176
     1
 42
1.0
176
     1
 92
        8
176
     1
 66
     7
176
     1
 43
1.0
176
     1
 76
     1
176
     1
 77
     6
176
     1
 78
     2
176
     1
 67
     7
176
     1
 79
     5
176
     1
170
     0
176
     1
171
     0
176
     1
290
     0
176
     1
 93
        1
176
     1
 44
-50.0
176
     1
173
     0
176
     1
  0
VISUALSTYLE
  5
39
102
{ACAD_REACTORS
330
2A
102
}
330
2A
100
AcDbVisualStyle
  2
Facepattern
 70
    15
177
     2
291
     1
 71
     2
176
     1
 72
     2
176
     1
 73
     0
176
     1
 90
        0
176
     1
 40
-0.6
176
     1
 41
-30.0
176
     1
 62
     5
 63
     7
421
 16777215
176
     1
 74
     1
176
     1
 91
        4
176
     1
 64
     7
176
     1
 65
   257
176
     1
 75
     1
176
     1
175
     1
176
     1
 42
1.0
176
     1
 92
        8
176
     1
 66
     7
176
     1
 43
1.0
176
     1
 76
     1
176
     1
 77
     6
176
     1
 78
     2
176
     1
 67
     7
176
     1
 79
     5
176
     1
170
     0
176
     1
171
     0
176
     1
290
     0
176
     1
 93
        1
176
     1
 44
0.0
176
     1
173
     0
176
     1
  0
VISUALSTYLE
  5
2B
102
{ACAD_REACTORS
330
2A
102
}
330
2A
100
AcDbVisualStyle
  2
Flat
 70
     0
177
     2
291
     1
 71
     2
176
     1
 72
     1
176
     1
 73
     1
176
     1
 90
        2
176
     1
 40
-0.6
176
     1
 41
30.0
176
     1
 62
     5
 63
     7
421
 16777215
176
     1
 74
     0
176
     1
 91
        4
176
     1
 64
     7
176
     1
 65
   257
176
     1
 75
     1
176
     1
175
     1
176
     1
 42
1.0
176
     1
 92
        8
176
     1
 66
     7
176
     1
 43
1.0
176
     1
 76
     1
176
     1
 77
     6
176
     1
 78
     2
176
     1
 67
     7
176
     1
 79
     5
176
     1
170
     0
176
     1
171
     0
176
     1
290
     0
176
     1
 93
       13
176
     1
 44
0.0
176
     1
173
     0
176
     1
  0
VISUALSTYLE
  5
2C
102
{ACAD_REACTORS
330
2A
102
}
330
2A
100
AcDbVisualStyle
  2
FlatWithEdges
 70
     1
177
     2
291
     1
 71
     2
176
     1
 72
     1
176
     1
 73
     1
176
     1
 90
        2
176
     1
 40
-0.6
176
     1
 41
30.0
176
     1
 62
     5
 63
     7
421
 16777215
176
     1
 74
     1
176
     1
 91
        4
176
     1
 64
     7
176
     1
 65
   257
176
     1
 75
     1
176
     1
175
     1
176
     1
 42
1.0
176
     1
 92
        0
176
     1
 66
   257
176
     1
 43
1.0
176
     1
 76
     1
176
     1
 77
     6
176
     1
 78
     2
176
     1
 67
     7
176
     1
 79
     5
176
     1
170
     0
176
     1
171
     0
176
     1
290
     0
176
     1
 93
       13
176
     1
 44
0.0
176
     1
173
     0
176
     1
  0
VISUALSTYLE
  5
2D
102
{ACAD_REACTORS
330
2A
102
}
330
2A
100
AcDbVisualStyle
  2
Gouraud
 70
     2
177
     2
291
     1
 71
     2
176
     1
 72
     2
176
     1
 73
     1
176
     1
 90
        2
176
     1
 40
-0.6
176
     1
 41
30.0
176
     1
 62
     5
 63
     7
421
 16777215
176
     1
 74
     0
176
     1
 91
        4
176
     1
 64
     7
176
     1
 65
   257
176
     1
 75
     1
176
     1
175
     1
176
     1
 42
1.0
176
     1
 92
        0
176
     1
 66
     7
176
     1
 43
1.0
176
     1
 76
     1
176
     1
 77
     6
176
     1
 78
     2
176
     1
 67
     7
176
     1
 79
     5
176
     1
170
     0
176
     1
171
     0
176
     1
290
     0
176
     1
 93
       13
176
     1
 44
0.0
176
     1
173
     0
176
     1
  0
VISUALSTYLE
  5
2E
102
{ACAD_REACTORS
330
2A
102
}
330
2A
100
AcDbVisualStyle
  2
GouraudWithEdges
 70
     3
177
     2
291
     1
 71
     2
176
     1
 72
     2
176
     1
 73
     1
176
     1
 90
        2
176
     1
 40
-0.6
176
     1
 41
30.0
176
     1
 62
     5
 63
     7
421
 16777215
176
     1
 74
     1
176
     1
 91
        4
176
     1
 64
     7
176
     1
 65
   257
176
     1
 75
     1
176
     1
175
     1
176
     1
 42
1.0
176
     1
 92
        0
176
     1
 66
   257
176
     1
 43
1.0
176
     1
 76
     1
176
     1
 77
     6
176
     1
 78
     2
176
     1
 67
     7
176
     1
 79
     5
176
     1
170
     0
176
     1
171
     0
176
     1
290
     0
176
     1
 93
       13
176
     1
 44
0.0
176
     1
173
     0
176
     1
  0
VISUALSTYLE
  5
38
102
{ACAD_REACTORS
330
2A
102
}
330
2A
100
AcDbVisualStyle
  2
Linepattern
 70
    14
177
     2
291
     1
 71
     2
176
     1
 72
     2
176
     1
 73
     0
176
     1
 90
        0
176
     1
 40
-0.6
176
     1
 41
-30.0
176
     1
 62
     5
 63
     7
421
 16777215
176
     1
 74
     1
176
     1
 91
        4
176
     1
 64
     7
176
     1
 65
   257
176
     1
 75
     7
176
     1
175
     7
176
     1
 42
1.0
176
     1
 92
        8
176
     1
 66
     7
176
     1
 43
1.0
176
     1
 76
     1
176
     1
 77
     6
176
     1
 78
     2
176
     1
 67
     7
176
     1
 79
     5
176
     1
170
     0
176
     1
171
     0
176
     1
290
     0
176
     1
 93
        1
176
     1
 44
0.0
176
     1
173
     0
176
     1
  0
VISUALSTYLE
  5
33
102
{ACAD_REACTORS
330
2A
102
}
330
2A
100
AcDbVisualStyle
  2
Realistic
 70
     8
177
     2
291
     0
 71
     2
176
     1
 72
     2
176
     1
 73
     0
176
     1
 90
        0
176
     1
 40
-0.6
176
     1
 41
-30.0
176
     1
 62
     5
 63
     7
421
 16777215
176
     1
 74
     1
176
     1
 91
        0
176
     1
 64
     7
176
     1
 65
   257
176
     1
 75
     1
176
     1
175
     1
176
     1
 42
1.0
176
     1
 92
        8
176
     1
 66
     8
424
  7895160
176
     1
 43
1.0
176
     1
 76
     1
176
     1
 77
     6
176
     1
 78
     2
176
     1
 67
     7
176
     1
 79
     5
176
     1
170
     0
176
     1
171
     0
176
     1
290
     0
176
     1
 93
       13
176
     1
 44
0.0
176
     1
173
     0
176
     1
  0
VISUALSTYLE
  5
37
102
{ACAD_REACTORS
330
2A
102
}
330
2A
100
AcDbVisualStyle
  2
Thicken
 70
    13
177
     2
291
     1
 71
     2
176
     1
 72
     2
176
     1
 73
     0
176
     1
 90
        0
176
     1
 40
-0.6
176
     1
 41
-30.0
176
     1
 62
     5
 63
     7
421
 16777215
176
     1
 74
     1
176
     1
 91
        4
176
     1
 64
     7
176
     1
 65
   257
176
     1
 75
     1
176
     1
175
     1
176
     1
 42
1.0
176
     1
 92
       12
176
     1
 66
     7
176
     1
 43
1.0
176
     1
 76
     1
176
     1
 77
     6
176
     1
 78
     2
176
     1
 67
     7
176
     1
 79
     5
176
     1
170
     0
176
     1
171
     0
176
     1
290
     0
176
     1
 93
        1
176
     1
 44
0.0
176
     1
173
     0
176
     1
  0
ENDSEC
  0
EOF
