  0
SECTION
  2
HEADER
  9
$ACADVER
  1
AC1021
  9
$ACADMAINTVER
 70
    25
  9
$DWGCODEPAGE
  3
ANSI_1252
  9
$INSBASE
 10
0.0
 20
0.0
 30
0.0
  9
$EXTMIN
 10
-11.96453
 20
-9.09083
 30
0.0
  9
$EXTMAX
 10
12.76813
 20
7.27695
 30
0.0
  9
$LIMMIN
 10
0.0
 20
0.0
  9
$LIMMAX
 10
12.0
 20
9.0
  9
$ORTHOMODE
 70
     0
  9
$REGENMODE
 70
     1
  9
$FILLMODE
 70
     1
  9
$QTEXTMODE
 70
     0
  9
$MIRRTEXT
 70
     1
  9
$LTSCALE
 40
1.0
  9
$ATTMODE
 70
     1
  9
$TEXTSIZE
 40
0.2
  9
$TRACEWID
 40
0.05
  9
$TEXTSTYLE
  7
Standard
  9
$CLAYER
  8
0
  9
$CELTYPE
  6
ByLayer
  9
$CECOLOR
 62
   256
  9
$CELTSCALE
 40
1.0
  9
$DISPSILH
 70
     0
  9
$DIMSCALE
 40
1.0
  9
$DIMASZ
 40
0.18
  9
$DIMEXO
 40
0.0625
  9
$DIMDLI
 40
0.38
  9
$DIMRND
 40
0.0
  9
$DIMDLE
 40
0.0
  9
$DIMEXE
 40
0.18
  9
$DIMTP
 40
0.0
  9
$DIMTM
 40
0.0
  9
$DIMTXT
 40
0.18
  9
$DIMCEN
 40
0.09
  9
$DIMTSZ
 40
0.0
  9
$DIMTOL
 70
     0
  9
$DIMLIM
 70
     0
  9
$DIMTIH
 70
     1
  9
$DIMTOH
 70
     1
  9
$DIMSE1
 70
     0
  9
$DIMSE2
 70
     0
  9
$DIMTAD
 70
     0
  9
$DIMZIN
 70
     0
  9
$DIMBLK
  1

  9
$DIMASO
 70
     1
  9
$DIMSHO
 70
     1
  9
$DIMPOST
  1

  9
$DIMAPOST
  1

  9
$DIMALT
 70
     0
  9
$DIMALTD
 70
     2
  9
$DIMALTF
 40
25.4
  9
$DIMLFAC
 40
1.0
  9
$DIMTOFL
 70
     0
  9
$DIMTVP
 40
0.0
  9
$DIMTIX
 70
     0
  9
$DIMSOXD
 70
     0
  9
$DIMSAH
 70
     0
  9
$DIMBLK1
  1

  9
$DIMBLK2
  1

  9
$DIMSTYLE
  2
Standard
  9
$DIMCLRD
 70
     0
  9
$DIMCLRE
 70
     0
  9
$DIMCLRT
 70
     0
  9
$DIMTFAC
 40
1.0
  9
$DIMGAP
 40
0.09
  9
$DIMJUST
 70
     0
  9
$DIMSD1
 70
     0
  9
$DIMSD2
 70
     0
  9
$DIMTOLJ
 70
     1
  9
$DIMTZIN
 70
     0
  9
$DIMALTZ
 70
     0
  9
$DIMALTTZ
 70
     0
  9
$DIMUPT
 70
     0
  9
$DIMDEC
 70
     4
  9
$DIMTDEC
 70
     4
  9
$DIMALTU
 70
     2
  9
$DIMALTTD
 70
     2
  9
$DIMTXSTY
  7
Standard
  9
$DIMAUNIT
 70
     0
  9
$DIMADEC
 70
     0
  9
$DIMALTRND
 40
0.0
  9
$DIMAZIN
 70
     0
  9
$DIMDSEP
 70
    46
  9
$DIMATFIT
 70
     3
  9
$DIMFRAC
 70
     0
  9
$DIMLDRBLK
  1

  9
$DIMLUNIT
 70
     2
  9
$DIMLWD
 70
    -2
  9
$DIMLWE
 70
    -2
  9
$DIMTMOVE
 70
     0
  9
$DIMFXL
 40
1.0
  9
$DIMFXLON
 70
     0
  9
$DIMJOGANG
 40
0.7853981633974483
  9
$DIMTFILL
 70
     0
  9
$DIMTFILLCLR
 70
     0
  9
$DIMARCSYM
 70
     0
  9
$DIMLTYPE
  6

  9
$DIMLTEX1
  6

  9
$DIMLTEX2
  6

  9
$LUNITS
 70
     2
  9
$LUPREC
 70
     4
  9
$SKETCHINC
 40
0.1
  9
$FILLETRAD
 40
0.5
  9
$AUNITS
 70
     0
  9
$AUPREC
 70
     0
  9
$MENU
  1
.
  9
$ELEVATION
 40
0.0
  9
$PELEVATION
 40
0.0
  9
$THICKNESS
 40
0.0
  9
$LIMCHECK
 70
     0
  9
$CHAMFERA
 40
0.5
  9
$CHAMFERB
 40
0.5
  9
$CHAMFERC
 40
1.0
  9
$CHAMFERD
 40
0.0
  9
$SKPOLY
 70
     0
  9
$TDCREATE
 40
2456231.957774317
  9
$TDUCREATE
 40
2456232.124440984
  9
$TDUPDATE
 40
2456231.957774363
  9
$TDUUPDATE
 40
2456232.12444103
  9
$TDINDWG
 40
0.0000000116
  9
$TDUSRTIMER
 40
0.0000000116
  9
$USRTIMER
 70
     1
  9
$ANGBASE
 50
0.0
  9
$ANGDIR
 70
     0
  9
$PDMODE
 70
     0
  9
$PDSIZE
 40
0.0
  9
$PLINEWID
 40
0.0
  9
$SPLFRAME
 70
     0
  9
$SPLINETYPE
 70
     6
  9
$SPLINESEGS
 70
     8
  9
$HANDSEED
  5
A2
  9
$SURFTAB1
 70
     6
  9
$SURFTAB2
 70
     6
  9
$SURFTYPE
 70
     6
  9
$SURFU
 70
     6
  9
$SURFV
 70
     6
  9
$UCSBASE
  2

  9
$UCSNAME
  2

  9
$UCSORG
 10
0.0
 20
0.0
 30
0.0
  9
$UCSXDIR
 10
1.0
 20
0.0
 30
0.0
  9
$UCSYDIR
 10
0.0
 20
1.0
 30
0.0
  9
$UCSORTHOREF
  2

  9
$UCSORTHOVIEW
 70
     0
  9
$UCSORGTOP
 10
0.0
 20
0.0
 30
0.0
  9
$UCSORGBOTTOM
 10
0.0
 20
0.0
 30
0.0
  9
$UCSORGLEFT
 10
0.0
 20
0.0
 30
0.0
  9
$UCSORGRIGHT
 10
0.0
 20
0.0
 30
0.0
  9
$UCSORGFRONT
 10
0.0
 20
0.0
 30
0.0
  9
$UCSORGBACK
 10
0.0
 20
0.0
 30
0.0
  9
$PUCSBASE
  2

  9
$PUCSNAME
  2

  9
$PUCSORG
 10
0.0
 20
0.0
 30
0.0
  9
$PUCSXDIR
 10
1.0
 20
0.0
 30
0.0
  9
$PUCSYDIR
 10
0.0
 20
1.0
 30
0.0
  9
$PUCSORTHOREF
  2

  9
$PUCSORTHOVIEW
 70
     0
  9
$PUCSORGTOP
 10
0.0
 20
0.0
 30
0.0
  9
$PUCSORGBOTTOM
 10
0.0
 20
0.0
 30
0.0
  9
$PUCSORGLEFT
 10
0.0
 20
0.0
 30
0.0
  9
$PUCSORGRIGHT
 10
0.0
 20
0.0
 30
0.0
  9
$PUCSORGFRONT
 10
0.0
 20
0.0
 30
0.0
  9
$PUCSORGBACK
 10
0.0
 20
0.0
 30
0.0
  9
$USERI1
 70
     0
  9
$USERI2
 70
     0
  9
$USERI3
 70
     0
  9
$USERI4
 70
     0
  9
$USERI5
 70
     0
  9
$USERR1
 40
0.0
  9
$USERR2
 40
0.0
  9
$USERR3
 40
0.0
  9
$USERR4
 40
0.0
  9
$USERR5
 40
0.0
  9
$WORLDVIEW
 70
     1
  9
$SHADEDGE
 70
     3
  9
$SHADEDIF
 70
    70
  9
$TILEMODE
 70
     1
  9
$MAXACTVP
 70
    64
  9
$PINSBASE
 10
0.0
 20
0.0
 30
0.0
  9
$PLIMCHECK
 70
     0
  9
$PEXTMIN
 10
1.000000000000000E+20
 20
1.000000000000000E+20
 30
1.000000000000000E+20
  9
$PEXTMAX
 10
-1.000000000000000E+20
 20
-1.000000000000000E+20
 30
-1.000000000000000E+20
  9
$PLIMMIN
 10
0.0
 20
0.0
  9
$PLIMMAX
 10
12.0
 20
9.0
  9
$UNITMODE
 70
     0
  9
$VISRETAIN
 70
     1
  9
$PLINEGEN
 70
     0
  9
$PSLTSCALE
 70
     1
  9
$TREEDEPTH
 70
  3020
  9
$CMLSTYLE
  2
Standard
  9
$CMLJUST
 70
     0
  9
$CMLSCALE
 40
1.0
  9
$PROXYGRAPHICS
 70
     1
  9
$MEASUREMENT
 70
     0
  9
$CELWEIGHT
370
    -1
  9
$ENDCAPS
280
     0
  9
$JOINSTYLE
280
     0
  9
$LWDISPLAY
290
     0
  9
$INSUNITS
 70
     5
  9
$HYPERLINKBASE
  1

  9
$STYLESHEET
  1

  9
$XEDIT
290
     1
  9
$CEPSNTYPE
380
     0
  9
$PSTYLEMODE
290
     1
  9
$FINGERPRINTGUID
  2
{A5F5FEE3-0371-4E35-90B2-044FFCBFB90D}
  9
$VERSIONGUID
  2
{FAEB1C32-E019-11D5-929B-00C0DF256EC4}
  9
$EXTNAMES
290
     1
  9
$PSVPSCALE
 40
0.0
  9
$OLESTARTUP
290
     0
  9
$SORTENTS
280
   127
  9
$INDEXCTL
280
     0
  9
$HIDETEXT
280
     1
  9
$XCLIPFRAME
290
     0
  9
$HALOGAP
280
     0
  9
$OBSCOLOR
 70
   257
  9
$OBSLTYPE
280
     0
  9
$INTERSECTIONDISPLAY
280
     0
  9
$INTERSECTIONCOLOR
 70
   257
  9
$DIMASSOC
280
     2
  9
$PROJECTNAME
  1

  9
$CAMERADISPLAY
290
     0
  9
$LENSLENGTH
 40
50.0
  9
$CAMERAHEIGHT
 40
0.0
  9
$STEPSPERSEC
 40
2.0
  9
$STEPSIZE
 40
6.0
  9
$3DDWFPREC
 40
2.0
  9
$PSOLWIDTH
 40
0.25
  9
$PSOLHEIGHT
 40
4.0
  9
$LOFTANG1
 40
1.570796326794897
  9
$LOFTANG2
 40
1.570796326794897
  9
$LOFTMAG1
 40
0.0
  9
$LOFTMAG2
 40
0.0
  9
$LOFTPARAM
 70
     7
  9
$LOFTNORMALS
280
     1
  9
$LATITUDE
 40
37.795
  9
$LONGITUDE
 40
-122.394
  9
$NORTHDIRECTION
 40
0.0
  9
$TIMEZONE
 70
 -8000
  9
$LIGHTGLYPHDISPLAY
280
     1
  9
$TILEMODELIGHTSYNCH
280
     1
  9
$SOLIDHIST
280
     1
  9
$SHOWHIST
280
     1
  9
$DWFFRAME
280
     2
  9
$DGNFRAME
280
     2
  9
$REALWORLDSCALE
290
     1
  9
$INTERFERECOLOR
 62
   256
  9
$CSHADOW
280
     0
  9
$SHADOWPLANELOCATION
 40
0.0
  0
ENDSEC
  0
SECTION
  2
CLASSES
  0
CLASS
  1
ACDBDICTIONARYWDFLT
  2
AcDbDictionaryWithDefault
  3
ObjectDBX Classes
 90
        0
 91
        4
280
     0
281
     0
  0
CLASS
  1
VISUALSTYLE
  2
AcDbVisualStyle
  3
ObjectDBX Classes
 90
     4095
 91
        4
280
     0
281
     0
  0
CLASS
  1
MATERIAL
  2
AcDbMaterial
  3
ObjectDBX Classes
 90
     1153
 91
        4
280
     0
281
     0
  0
ENDSEC
  0
SECTION
  2
TABLES
  0
TABLE
  2
VPORT
  5
8
330
0
100
AcDbSymbolTable
 70
     1
  0
VPORT
  5
29
330
8
100
AcDbSymbolTableRecord
100
AcDbViewportTableRecord
  2
*Active
 70
     0
 10
0.0
 20
0.0
 11
1.0
 21
1.0
 12
10.42990654205607
 22
4.5
 13
0.0
 23
0.0
 14
0.5
 24
0.5
 15
0.5
 25
0.5
 16
0.0
 26
0.0
 36
1.0
 17
0.0
 27
0.0
 37
0.0
 40
9.0
 41
1.972972972850329
 42
50.0
 43
0.0
 44
0.0
 50
0.0
 51
0.0
 71
     0
 72
   100
 73
     1
 74
     3
 75
     0
 76
     0
 77
     0
 78
     0
281
     0
 65
     1
110
0.0
120
0.0
130
0.0
111
1.0
121
0.0
131
0.0
112
0.0
122
1.0
132
0.0
 79
     0
146
0.0
 60
     3
 61
     5
292
     1
282
     1
141
0.0
142
0.0
 63
   250
  0
ENDTAB
  0
TABLE
  2
LTYPE
  5
5
330
0
100
AcDbSymbolTable
 70
     1
  0
LTYPE
  5
14
330
5
100
AcDbSymbolTableRecord
100
AcDbLinetypeTableRecord
  2
ByBlock
 70
     0
  3

 72
    65
 73
     0
 40
0.0
  0
LTYPE
  5
15
330
5
100
AcDbSymbolTableRecord
100
AcDbLinetypeTableRecord
  2
ByLayer
 70
     0
  3

 72
    65
 73
     0
 40
0.0
  0
LTYPE
  5
16
330
5
100
AcDbSymbolTableRecord
100
AcDbLinetypeTableRecord
  2
Continuous
 70
     0
  3
Solid line
 72
    65
 73
     0
 40
0.0
  0
ENDTAB
  0
TABLE
  2
LAYER
  5
2
330
0
100
AcDbSymbolTable
 70
     3
  0
LAYER
  5
10
330
2
100
AcDbSymbolTableRecord
100
AcDbLayerTableRecord
  2
0
 70
     0
 62
     7
  6
Continuous
370
    -3
390
F
347
3E
  0
LAYER
  5
40
330
2
100
AcDbSymbolTableRecord
100
AcDbLayerTableRecord
  2
Layer 1
 70
     0
 62
     7
  6
Continuous
370
    -3
390
F
347
3E
  0
LAYER
  5
54
330
2
100
AcDbSymbolTableRecord
100
AcDbLayerTableRecord
  2
layer 2
 70
     0
 62
     7
  6
Continuous
370
    -3
390
F
347
3E
  0
ENDTAB
  0
TABLE
  2
STYLE
  5
3
330
0
100
AcDbSymbolTable
 70
     1
  0
STYLE
  5
11
330
3
100
AcDbSymbolTableRecord
100
AcDbTextStyleTableRecord
  2
Standard
 70
     0
 40
0.0
 41
1.0
 50
0.0
 71
     0
 42
0.2
  3
txt
  4

  0
ENDTAB
  0
TABLE
  2
VIEW
  5
6
330
0
100
AcDbSymbolTable
 70
     0
  0
ENDTAB
  0
TABLE
  2
UCS
  5
7
330
0
100
AcDbSymbolTable
 70
     0
  0
ENDTAB
  0
TABLE
  2
APPID
  5
9
330
0
100
AcDbSymbolTable
 70
     2
  0
APPID
  5
12
330
9
100
AcDbSymbolTableRecord
100
AcDbRegAppTableRecord
  2
ACAD
 70
     0
  0
APPID
  5
3F
330
9
100
AcDbSymbolTableRecord
100
AcDbRegAppTableRecord
  2
ODA
 70
     0
  0
ENDTAB
  0
TABLE
  2
DIMSTYLE
  5
A
330
0
100
AcDbSymbolTable
 70
     1
100
AcDbDimStyleTable
  0
DIMSTYLE
105
27
330
A
100
AcDbSymbolTableRecord
100
AcDbDimStyleTableRecord
  2
Standard
 70
     0
178
     0
340
11
  0
ENDTAB
  0
TABLE
  2
BLOCK_RECORD
  5
1
330
0
100
AcDbSymbolTable
 70
     1
  0
BLOCK_RECORD
  5
1F
330
1
100
AcDbSymbolTableRecord
100
AcDbBlockTableRecord
  2
*Model_Space
340
22
 70
     0
280
     1
281
     0
  0
BLOCK_RECORD
  5
1B
330
1
100
AcDbSymbolTableRecord
100
AcDbBlockTableRecord
  2
*Paper_Space
340
1E
 70
     0
280
     1
281
     0
  0
BLOCK_RECORD
  5
23
330
1
100
AcDbSymbolTableRecord
100
AcDbBlockTableRecord
  2
*Paper_Space0
340
26
 70
     0
280
     1
281
     0
  0
ENDTAB
  0
ENDSEC
  0
SECTION
  2
BLOCKS
  0
BLOCK
  5
20
330
1F
100
AcDbEntity
  8
0
100
AcDbBlockBegin
  2
*Model_Space
 70
     0
 10
0.0
 20
0.0
 30
0.0
  3
*Model_Space
  1

  0
ENDBLK
  5
21
330
1F
100
AcDbEntity
  8
0
100
AcDbBlockEnd
  0
BLOCK
  5
1C
330
1B
100
AcDbEntity
 67
     1
  8
0
100
AcDbBlockBegin
  2
*Paper_Space
 70
     0
 10
0.0
 20
0.0
 30
0.0
  3
*Paper_Space
  1

  0
ENDBLK
  5
1D
330
1B
100
AcDbEntity
 67
     1
  8
0
100
AcDbBlockEnd
  0
BLOCK
  5
24
330
23
100
AcDbEntity
  8
0
100
AcDbBlockBegin
  2
*Paper_Space0
 70
     0
 10
0.0
 20
0.0
 30
0.0
  3
*Paper_Space0
  1

  0
ENDBLK
  5
25
330
23
100
AcDbEntity
  8
0
100
AcDbBlockEnd
  0
ENDSEC
  0
SECTION
  2
ENTITIES
  0
SPLINE
  5
41
330
1F
100
AcDbEntity
  8
Layer 1
 62
   250
100
AcDbSpline
210
0.0
220
0.0
230
1.0
 70
    11
 71
     3
 72
    92
 73
    88
 74
     0
 42
0.0000000001
 43
0.0000000001
 12
1.0
 22
0.0
 32
0.0
 13
1.0
 23
0.0
 33
0.0
 40
0.0
 40
0.0
 40
0.0
 40
0.0
 40
0.0434782608695652
 40
0.0434782608695652
 40
0.0434782608695652
 40
0.0434782608695652
 40
0.0869565217391304
 40
0.0869565217391304
 40
0.0869565217391304
 40
0.0869565217391304
 40
0.1304347826086956
 40
0.1304347826086956
 40
0.1304347826086956
 40
0.1304347826086956
 40
0.1739130434782609
 40
0.1739130434782609
 40
0.1739130434782609
 40
0.1739130434782609
 40
0.2173913043478261
 40
0.2173913043478261
 40
0.2173913043478261
 40
0.2173913043478261
 40
0.2608695652173913
 40
0.2608695652173913
 40
0.2608695652173913
 40
0.2608695652173913
 40
0.3043478260869565
 40
0.3043478260869565
 40
0.3043478260869565
 40
0.3043478260869565
 40
0.3478260869565217
 40
0.3478260869565217
 40
0.3478260869565217
 40
0.3478260869565217
 40
0.391304347826087
 40
0.391304347826087
 40
0.391304347826087
 40
0.391304347826087
 40
0.4347826086956522
 40
0.4347826086956522
 40
0.4347826086956522
 40
0.4347826086956522
 40
0.4782608695652174
 40
0.4782608695652174
 40
0.4782608695652174
 40
0.4782608695652174
 40
0.5217391304347826
 40
0.5217391304347826
 40
0.5217391304347826
 40
0.5217391304347826
 40
0.5652173913043478
 40
0.5652173913043478
 40
0.5652173913043478
 40
0.5652173913043478
 40
0.6086956521739131
 40
0.6086956521739131
 40
0.6086956521739131
 40
0.6086956521739131
 40
0.6521739130434783
 40
0.6521739130434783
 40
0.6521739130434783
 40
0.6521739130434783
 40
0.6956521739130435
 40
0.6956521739130435
 40
0.6956521739130435
 40
0.6956521739130435
 40
0.7391304347826086
 40
0.7391304347826086
 40
0.7391304347826086
 40
0.7391304347826086
 40
0.782608695652174
 40
0.782608695652174
 40
0.782608695652174
 40
0.782608695652174
 40
0.8260869565217391
 40
0.8260869565217391
 40
0.8260869565217391
 40
0.8260869565217391
 40
0.8695652173913043
 40
0.8695652173913043
 40
0.8695652173913043
 40
0.8695652173913043
 40
0.9130434782608695
 40
0.9130434782608695
 40
0.9130434782608695
 40
0.9130434782608695
 40
1.0
 40
1.0
 40
1.0
 40
1.0
 10
-3.76079
 20
-9.00955
 30
0.0
 10
-3.76079
 20
-9.00955
 30
0.0
 10
-3.76079
 20
-9.08067
 30
0.0
 10
-3.76079
 20
-9.08067
 30
0.0
 10
-3.76079
 20
-9.08067
 30
0.0
 10
-3.76079
 20
-9.08067
 30
0.0
 10
-4.16212
 20
-9.08067
 30
0.0
 10
-4.16212
 20
-9.08067
 30
0.0
 10
-4.16212
 20
-9.08067
 30
0.0
 10
-4.16268
 20
-9.06275
 30
0.0
 10
-4.15972
 20
-9.04553
 30
0.0
 10
-4.15337
 20
-9.02888
 30
0.0
 10
-4.15337
 20
-9.02888
 30
0.0
 10
-4.14307
 20
-9.00165
 30
0.0
 10
-4.12656
 20
-8.9747
 30
0.0
 10
-4.10384
 20
-8.94831
 30
0.0
 10
-4.10384
 20
-8.94831
 30
0.0
 10
-4.08112
 20
-8.92192
 30
0.0
 10
-4.04866
 20
-8.89144
 30
0.0
 10
-4.00647
 20
-8.85687
 30
0.0
 10
-4.00647
 20
-8.85687
 30
0.0
 10
-3.94085
 20
-8.80282
 30
0.0
 10
-3.89626
 20
-8.76006
 30
0.0
 10
-3.87298
 20
-8.72846
 30
0.0
 10
-3.87298
 20
-8.72846
 30
0.0
 10
-3.84955
 20
-8.69685
 30
0.0
 10
-3.83784
 20
-8.66693
 30
0.0
 10
-3.83784
 20
-8.63871
 30
0.0
 10
-3.83784
 20
-8.63871
 30
0.0
 10
-3.83784
 20
-8.60922
 30
0.0
 10
-3.84843
 20
-8.58438
 30
0.0
 10
-3.86959
 20
-8.56406
 30
0.0
 10
-3.86959
 20
-8.56406
 30
0.0
 10
-3.89076
 20
-8.54388
 30
0.0
 10
-3.91842
 20
-8.53372
 30
0.0
 10
-3.95242
 20
-8.53372
 30
0.0
 10
-3.95242
 20
-8.53372
 30
0.0
 10
-3.98841
 20
-8.53372
 30
0.0
 10
-4.01719
 20
-8.54445
 30
0.0
 10
-4.03878
 20
-8.56589
 30
0.0
 10
-4.03878
 20
-8.56589
 30
0.0
 10
-4.06038
 20
-8.5872
 30
0.0
 10
-4.07124
 20
-8.61684
 30
0.0
 10
-4.07152
 20
-8.65479
 30
0.0
 10
-4.07152
 20
-8.65479
 30
0.0
 10
-4.07152
 20
-8.65479
 30
0.0
 10
-4.14772
 20
-8.64717
 30
0.0
 10
-4.14772
 20
-8.64717
 30
0.0
 10
-4.14772
 20
-8.64717
 30
0.0
 10
-4.1425
 20
-8.59017
 30
0.0
 10
-4.12275
 20
-8.5467
 30
0.0
 10
-4.0886
 20
-8.51679
 30
0.0
 10
-4.0886
 20
-8.51679
 30
0.0
 10
-4.05431
 20
-8.48687
 30
0.0
 10
-4.00845
 20
-8.47191
 30
0.0
 10
-3.95073
 20
-8.47191
 30
0.0
 10
-3.95073
 20
-8.47191
 30
0.0
 10
-3.89259
 20
-8.47191
 30
0.0
 10
-3.84645
 20
-8.488
 30
0.0
 10
-3.81258
 20
-8.52032
 30
0.0
 10
-3.81258
 20
-8.52032
 30
0.0
 10
-3.77858
 20
-8.55263
 30
0.0
 10
-3.76164
 20
-8.59271
 30
0.0
 10
-3.76164
 20
-8.6404
 30
0.0
 10
-3.76164
 20
-8.6404
 30
0.0
 10
-3.76164
 20
-8.66467
 30
0.0
 10
-3.76658
 20
-8.68852
 30
0.0
 10
-3.7766
 20
-8.71195
 30
0.0
 10
-3.7766
 20
-8.71195
 30
0.0
 10
-3.78648
 20
-8.73551
 30
0.0
 10
-3.80299
 20
-8.76021
 30
0.0
 10
-3.82599
 20
-8.78617
 30
0.0
 10
-3.82599
 20
-8.78617
 30
0.0
 10
-3.84913
 20
-8.81199
 30
0.0
 10
-3.88737
 20
-8.84769
 30
0.0
 10
-3.94071
 20
-8.89285
 30
0.0
 10
-3.94071
 20
-8.89285
 30
0.0
 10
-3.98544
 20
-8.93039
 30
0.0
 10
-4.01423
 20
-8.95579
 30
0.0
 10
-4.02693
 20
-8.96919
 30
0.0
 10
-4.02693
 20
-8.96919
 30
0.0
 10
-4.03963
 20
-8.9826
 30
0.0
 10
-4.05007
 20
-8.996
 30
0.0
 10
-4.0584
 20
-9.00955
 30
0.0
 10
-4.0584
 20
-9.00955
 30
0.0
 10
-4.0584
 20
-9.00955
 30
0.0
 10
-3.76079
 20
-9.00955
 30
0.0
 10
-3.76079
 20
-9.00955
 30
0.0
  0
SPLINE
  5
42
330
1F
100
AcDbEntity
  8
Layer 1
 62
   250
100
AcDbSpline
210
0.0
220
0.0
230
1.0
 70
    11
 71
     3
 72
    52
 73
    48
 74
     0
 42
0.0000000001
 43
0.0000000001
 12
1.0
 22
0.0
 32
0.0
 13
1.0
 23
0.0
 33
0.0
 40
0.0
 40
0.0
 40
0.0
 40
0.0
 40
0.0769230769230769
 40
0.0769230769230769
 40
0.0769230769230769
 40
0.0769230769230769
 40
0.1538461538461539
 40
0.1538461538461539
 40
0.1538461538461539
 40
0.1538461538461539
 40
0.2307692307692308
 40
0.2307692307692308
 40
0.2307692307692308
 40
0.2307692307692308
 40
0.3076923076923077
 40
0.3076923076923077
 40
0.3076923076923077
 40
0.3076923076923077
 40
0.3846153846153846
 40
0.3846153846153846
 40
0.3846153846153846
 40
0.3846153846153846
 40
0.4615384615384616
 40
0.4615384615384616
 40
0.4615384615384616
 40
0.4615384615384616
 40
0.5384615384615384
 40
0.5384615384615384
 40
0.5384615384615384
 40
0.5384615384615384
 40
0.6153846153846154
 40
0.6153846153846154
 40
0.6153846153846154
 40
0.6153846153846154
 40
0.6923076923076923
 40
0.6923076923076923
 40
0.6923076923076923
 40
0.6923076923076923
 40
0.7692307692307693
 40
0.7692307692307693
 40
0.7692307692307693
 40
0.7692307692307693
 40
0.8461538461538461
 40
0.8461538461538461
 40
0.8461538461538461
 40
0.8461538461538461
 40
1.0
 40
1.0
 40
1.0
 40
1.0
 10
-3.68022
 20
-8.78151
 30
0.0
 10
-3.68022
 20
-8.70997
 30
0.0
 10
-3.67288
 20
-8.65211
 30
0.0
 10
-3.65821
 20
-8.60837
 30
0.0
 10
-3.65821
 20
-8.60837
 30
0.0
 10
-3.64339
 20
-8.56448
 30
0.0
 10
-3.62152
 20
-8.53076
 30
0.0
 10
-3.59245
 20
-8.50719
 30
0.0
 10
-3.59245
 20
-8.50719
 30
0.0
 10
-3.56352
 20
-8.48363
 30
0.0
 10
-3.52697
 20
-8.47191
 30
0.0
 10
-3.48295
 20
-8.47191
 30
0.0
 10
-3.48295
 20
-8.47191
 30
0.0
 10
-3.45049
 20
-8.47191
 30
0.0
 10
-3.42199
 20
-8.47841
 30
0.0
 10
-3.39729
 20
-8.49153
 30
0.0
 10
-3.39729
 20
-8.49153
 30
0.0
 10
-3.37274
 20
-8.50465
 30
0.0
 10
-3.35242
 20
-8.52356
 30
0.0
 10
-3.33661
 20
-8.54826
 30
0.0
 10
-3.33661
 20
-8.54826
 30
0.0
 10
-3.32081
 20
-8.57281
 30
0.0
 10
-3.30839
 20
-8.60287
 30
0.0
 10
-3.29936
 20
-8.63828
 30
0.0
 10
-3.29936
 20
-8.63828
 30
0.0
 10
-3.29019
 20
-8.6737
 30
0.0
 10
-3.28567
 20
-8.72154
 30
0.0
 10
-3.28567
 20
-8.78151
 30
0.0
 10
-3.28567
 20
-8.78151
 30
0.0
 10
-3.28567
 20
-8.85263
 30
0.0
 10
-3.29301
 20
-8.91021
 30
0.0
 10
-3.30754
 20
-8.95395
 30
0.0
 10
-3.30754
 20
-8.95395
 30
0.0
 10
-3.32208
 20
-8.99784
 30
0.0
 10
-3.34395
 20
-9.03156
 30
0.0
 10
-3.37302
 20
-9.05527
 30
0.0
 10
-3.37302
 20
-9.05527
 30
0.0
 10
-3.40195
 20
-9.07898
 30
0.0
 10
-3.43864
 20
-9.09083
 30
0.0
 10
-3.48295
 20
-9.09083
 30
0.0
 10
-3.48295
 20
-9.09083
 30
0.0
 10
-3.54122
 20
-9.09083
 30
0.0
 10
-3.58709
 20
-9.07009
 30
0.0
 10
-3.62039
 20
-9.02846
 30
0.0
 10
-3.62039
 20
-9.02846
 30
0.0
 10
-3.66032
 20
-8.97766
 30
0.0
 10
-3.68022
 20
-8.89539
 30
0.0
 10
-3.68022
 20
-8.78151
 30
0.0
  0
SPLINE
  5
43
330
1F
100
AcDbEntity
  8
Layer 1
 62
   250
100
AcDbSpline
210
0.0
220
0.0
230
1.0
 70
    11
 71
     3
 72
    36
 73
    32
 74
     0
 42
0.0000000001
 43
0.0000000001
 12
1.0
 22
0.0
 32
0.0
 13
1.0
 23
0.0
 33
0.0
 40
0.0
 40
0.0
 40
0.0
 40
0.0
 40
0.1111111111111111
 40
0.1111111111111111
 40
0.1111111111111111
 40
0.1111111111111111
 40
0.2222222222222222
 40
0.2222222222222222
 40
0.2222222222222222
 40
0.2222222222222222
 40
0.3333333333333333
 40
0.3333333333333333
 40
0.3333333333333333
 40
0.3333333333333333
 40
0.4444444444444444
 40
0.4444444444444444
 40
0.4444444444444444
 40
0.4444444444444444
 40
0.5555555555555556
 40
0.5555555555555556
 40
0.5555555555555556
 40
0.5555555555555556
 40
0.6666666666666666
 40
0.6666666666666666
 40
0.6666666666666666
 40
0.6666666666666666
 40
0.7777777777777778
 40
0.7777777777777778
 40
0.7777777777777778
 40
0.7777777777777778
 40
1.0
 40
1.0
 40
1.0
 40
1.0
 10
-3.60402
 20
-8.7818
 30
0.0
 10
-3.60402
 20
-8.88156
 30
0.0
 10
-3.59245
 20
-8.94788
 30
0.0
 10
-3.56916
 20
-8.98062
 30
0.0
 10
-3.56916
 20
-8.98062
 30
0.0
 10
-3.54588
 20
-9.0135
 30
0.0
 10
-3.51709
 20
-9.02987
 30
0.0
 10
-3.48295
 20
-9.02987
 30
0.0
 10
-3.48295
 20
-9.02987
 30
0.0
 10
-3.4488
 20
-9.02987
 30
0.0
 10
-3.42001
 20
-9.01336
 30
0.0
 10
-3.39673
 20
-8.98048
 30
0.0
 10
-3.39673
 20
-8.98048
 30
0.0
 10
-3.37344
 20
-8.94746
 30
0.0
 10
-3.36187
 20
-8.88128
 30
0.0
 10
-3.36187
 20
-8.7818
 30
0.0
 10
-3.36187
 20
-8.7818
 30
0.0
 10
-3.36187
 20
-8.68203
 30
0.0
 10
-3.37344
 20
-8.61571
 30
0.0
 10
-3.39673
 20
-8.58297
 30
0.0
 10
-3.39673
 20
-8.58297
 30
0.0
 10
-3.41987
 20
-8.55009
 30
0.0
 10
-3.44894
 20
-8.53372
 30
0.0
 10
-3.48379
 20
-8.53372
 30
0.0
 10
-3.48379
 20
-8.53372
 30
0.0
 10
-3.51794
 20
-8.53372
 30
0.0
 10
-3.54532
 20
-8.54826
 30
0.0
 10
-3.56578
 20
-8.57718
 30
0.0
 10
-3.56578
 20
-8.57718
 30
0.0
 10
-3.59132
 20
-8.61401
 30
0.0
 10
-3.60402
 20
-8.68231
 30
0.0
 10
-3.60402
 20
-8.7818
 30
0.0
  0
SPLINE
  5
44
330
1F
100
AcDbEntity
  8
Layer 1
 62
   250
100
AcDbSpline
210
0.0
220
0.0
230
1.0
 70
    11
 71
     3
 72
   124
 73
   120
 74
     0
 42
0.0000000001
 43
0.0000000001
 12
1.0
 22
0.0
 32
0.0
 13
1.0
 23
0.0
 33
0.0
 40
0.0
 40
0.0
 40
0.0
 40
0.0
 40
0.032258064516129
 40
0.032258064516129
 40
0.032258064516129
 40
0.032258064516129
 40
0.0645161290322581
 40
0.0645161290322581
 40
0.0645161290322581
 40
0.0645161290322581
 40
0.0967741935483871
 40
0.0967741935483871
 40
0.0967741935483871
 40
0.0967741935483871
 40
0.1290322580645161
 40
0.1290322580645161
 40
0.1290322580645161
 40
0.1290322580645161
 40
0.1612903225806452
 40
0.1612903225806452
 40
0.1612903225806452
 40
0.1612903225806452
 40
0.1935483870967742
 40
0.1935483870967742
 40
0.1935483870967742
 40
0.1935483870967742
 40
0.2258064516129032
 40
0.2258064516129032
 40
0.2258064516129032
 40
0.2258064516129032
 40
0.2580645161290323
 40
0.2580645161290323
 40
0.2580645161290323
 40
0.2580645161290323
 40
0.2903225806451613
 40
0.2903225806451613
 40
0.2903225806451613
 40
0.2903225806451613
 40
0.3225806451612903
 40
0.3225806451612903
 40
0.3225806451612903
 40
0.3225806451612903
 40
0.3548387096774194
 40
0.3548387096774194
 40
0.3548387096774194
 40
0.3548387096774194
 40
0.3870967741935484
 40
0.3870967741935484
 40
0.3870967741935484
 40
0.3870967741935484
 40
0.4193548387096774
 40
0.4193548387096774
 40
0.4193548387096774
 40
0.4193548387096774
 40
0.4516129032258064
 40
0.4516129032258064
 40
0.4516129032258064
 40
0.4516129032258064
 40
0.4838709677419355
 40
0.4838709677419355
 40
0.4838709677419355
 40
0.4838709677419355
 40
0.5161290322580645
 40
0.5161290322580645
 40
0.5161290322580645
 40
0.5161290322580645
 40
0.5483870967741935
 40
0.5483870967741935
 40
0.5483870967741935
 40
0.5483870967741935
 40
0.5806451612903226
 40
0.5806451612903226
 40
0.5806451612903226
 40
0.5806451612903226
 40
0.6129032258064516
 40
0.6129032258064516
 40
0.6129032258064516
 40
0.6129032258064516
 40
0.6451612903225806
 40
0.6451612903225806
 40
0.6451612903225806
 40
0.6451612903225806
 40
0.6774193548387096
 40
0.6774193548387096
 40
0.6774193548387096
 40
0.6774193548387096
 40
0.7096774193548387
 40
0.7096774193548387
 40
0.7096774193548387
 40
0.7096774193548387
 40
0.7419354838709677
 40
0.7419354838709677
 40
0.7419354838709677
 40
0.7419354838709677
 40
0.7741935483870968
 40
0.7741935483870968
 40
0.7741935483870968
 40
0.7741935483870968
 40
0.8064516129032258
 40
0.8064516129032258
 40
0.8064516129032258
 40
0.8064516129032258
 40
0.8387096774193549
 40
0.8387096774193549
 40
0.8387096774193549
 40
0.8387096774193549
 40
0.8709677419354839
 40
0.8709677419354839
 40
0.8709677419354839
 40
0.8709677419354839
 40
0.9032258064516129
 40
0.9032258064516129
 40
0.9032258064516129
 40
0.9032258064516129
 40
0.9354838709677419
 40
0.9354838709677419
 40
0.9354838709677419
 40
0.9354838709677419
 40
1.0
 40
1.0
 40
1.0
 40
1.0
 10
-3.20933
 20
-8.9198
 30
0.0
 10
-3.20933
 20
-8.9198
 30
0.0
 10
-3.13482
 20
-8.90964
 30
0.0
 10
-3.13482
 20
-8.90964
 30
0.0
 10
-3.13482
 20
-8.90964
 30
0.0
 10
-3.12622
 20
-8.95198
 30
0.0
 10
-3.11182
 20
-8.98246
 30
0.0
 10
-3.09136
 20
-9.00108
 30
0.0
 10
-3.09136
 20
-9.00108
 30
0.0
 10
-3.0709
 20
-9.01971
 30
0.0
 10
-3.04578
 20
-9.02902
 30
0.0
 10
-3.01601
 20
-9.02902
 30
0.0
 10
-3.01601
 20
-9.02902
 30
0.0
 10
-2.98073
 20
-9.02902
 30
0.0
 10
-2.95095
 20
-9.01689
 30
0.0
 10
-2.92697
 20
-8.99262
 30
0.0
 10
-2.92697
 20
-8.99262
 30
0.0
 10
-2.90298
 20
-8.96835
 30
0.0
 10
-2.89098
 20
-8.93829
 30
0.0
 10
-2.89098
 20
-8.90245
 30
0.0
 10
-2.89098
 20
-8.90245
 30
0.0
 10
-2.89098
 20
-8.8683
 30
0.0
 10
-2.90213
 20
-8.84007
 30
0.0
 10
-2.92457
 20
-8.81778
 30
0.0
 10
-2.92457
 20
-8.81778
 30
0.0
 10
-2.94686
 20
-8.79562
 30
0.0
 10
-2.97523
 20
-8.78448
 30
0.0
 10
-3.0098
 20
-8.78448
 30
0.0
 10
-3.0098
 20
-8.78448
 30
0.0
 10
-3.02391
 20
-8.78448
 30
0.0
 10
-3.04141
 20
-8.7873
 30
0.0
 10
-3.06243
 20
-8.7928
 30
0.0
 10
-3.06243
 20
-8.7928
 30
0.0
 10
-3.06243
 20
-8.7928
 30
0.0
 10
-3.05411
 20
-8.72761
 30
0.0
 10
-3.05411
 20
-8.72761
 30
0.0
 10
-3.05411
 20
-8.72761
 30
0.0
 10
-3.04917
 20
-8.72817
 30
0.0
 10
-3.04508
 20
-8.72846
 30
0.0
 10
-3.04211
 20
-8.72846
 30
0.0
 10
-3.04211
 20
-8.72846
 30
0.0
 10
-3.01022
 20
-8.72846
 30
0.0
 10
-2.98172
 20
-8.72013
 30
0.0
 10
-2.95618
 20
-8.70362
 30
0.0
 10
-2.95618
 20
-8.70362
 30
0.0
 10
-2.93078
 20
-8.68711
 30
0.0
 10
-2.91808
 20
-8.66171
 30
0.0
 10
-2.91808
 20
-8.62742
 30
0.0
 10
-2.91808
 20
-8.62742
 30
0.0
 10
-2.91808
 20
-8.60018
 30
0.0
 10
-2.92739
 20
-8.57761
 30
0.0
 10
-2.94587
 20
-8.55969
 30
0.0
 10
-2.94587
 20
-8.55969
 30
0.0
 10
-2.96436
 20
-8.54176
 30
0.0
 10
-2.98821
 20
-8.53287
 30
0.0
 10
-3.01742
 20
-8.53287
 30
0.0
 10
-3.01742
 20
-8.53287
 30
0.0
 10
-3.04649
 20
-8.53287
 30
0.0
 10
-3.07062
 20
-8.54205
 30
0.0
 10
-3.08995
 20
-8.56039
 30
0.0
 10
-3.08995
 20
-8.56039
 30
0.0
 10
-3.10928
 20
-8.57874
 30
0.0
 10
-3.1217
 20
-8.60625
 30
0.0
 10
-3.1272
 20
-8.64294
 30
0.0
 10
-3.1272
 20
-8.64294
 30
0.0
 10
-3.1272
 20
-8.64294
 30
0.0
 10
-3.20171
 20
-8.62939
 30
0.0
 10
-3.20171
 20
-8.62939
 30
0.0
 10
-3.20171
 20
-8.62939
 30
0.0
 10
-3.19254
 20
-8.57944
 30
0.0
 10
-3.17194
 20
-8.54064
 30
0.0
 10
-3.13962
 20
-8.51312
 30
0.0
 10
-3.13962
 20
-8.51312
 30
0.0
 10
-3.10745
 20
-8.4856
 30
0.0
 10
-3.06723
 20
-8.47191
 30
0.0
 10
-3.01925
 20
-8.47191
 30
0.0
 10
-3.01925
 20
-8.47191
 30
0.0
 10
-2.98623
 20
-8.47191
 30
0.0
 10
-2.95575
 20
-8.47897
 30
0.0
 10
-2.92795
 20
-8.49322
 30
0.0
 10
-2.92795
 20
-8.49322
 30
0.0
 10
-2.90001
 20
-8.50733
 30
0.0
 10
-2.87871
 20
-8.52667
 30
0.0
 10
-2.86403
 20
-8.55108
 30
0.0
 10
-2.86403
 20
-8.55108
 30
0.0
 10
-2.84921
 20
-8.57563
 30
0.0
 10
-2.84188
 20
-8.6016
 30
0.0
 10
-2.84188
 20
-8.62911
 30
0.0
 10
-2.84188
 20
-8.62911
 30
0.0
 10
-2.84188
 20
-8.65522
 30
0.0
 10
-2.84893
 20
-8.67893
 30
0.0
 10
-2.8629
 20
-8.70037
 30
0.0
 10
-2.8629
 20
-8.70037
 30
0.0
 10
-2.87701
 20
-8.72182
 30
0.0
 10
-2.8979
 20
-8.7389
 30
0.0
 10
-2.92541
 20
-8.7516
 30
0.0
 10
-2.92541
 20
-8.7516
 30
0.0
 10
-2.88957
 20
-8.75978
 30
0.0
 10
-2.86177
 20
-8.777
 30
0.0
 10
-2.84188
 20
-8.8031
 30
0.0
 10
-2.84188
 20
-8.8031
 30
0.0
 10
-2.82212
 20
-8.82907
 30
0.0
 10
-2.81224
 20
-8.86181
 30
0.0
 10
-2.81224
 20
-8.90089
 30
0.0
 10
-2.81224
 20
-8.90089
 30
0.0
 10
-2.81224
 20
-8.95381
 30
0.0
 10
-2.83157
 20
-8.99883
 30
0.0
 10
-2.8701
 20
-9.03566
 30
0.0
 10
-2.8701
 20
-9.03566
 30
0.0
 10
-2.90876
 20
-9.07249
 30
0.0
 10
-2.95759
 20
-9.09083
 30
0.0
 10
-3.01657
 20
-9.09083
 30
0.0
 10
-3.01657
 20
-9.09083
 30
0.0
 10
-3.06977
 20
-9.09083
 30
0.0
 10
-3.11394
 20
-9.07488
 30
0.0
 10
-3.14908
 20
-9.04313
 30
0.0
 10
-3.14908
 20
-9.04313
 30
0.0
 10
-3.18435
 20
-9.01138
 30
0.0
 10
-3.20439
 20
-8.97032
 30
0.0
 10
-3.20933
 20
-8.9198
 30
0.0
  0
SPLINE
  5
45
330
1F
100
AcDbEntity
  8
Layer 1
 62
   250
100
AcDbSpline
210
0.0
220
0.0
230
1.0
 70
    11
 71
     3
 72
   124
 73
   120
 74
     0
 42
0.0000000001
 43
0.0000000001
 12
1.0
 22
0.0
 32
0.0
 13
1.0
 23
0.0
 33
0.0
 40
0.0
 40
0.0
 40
0.0
 40
0.0
 40
0.032258064516129
 40
0.032258064516129
 40
0.032258064516129
 40
0.032258064516129
 40
0.0645161290322581
 40
0.0645161290322581
 40
0.0645161290322581
 40
0.0645161290322581
 40
0.0967741935483871
 40
0.0967741935483871
 40
0.0967741935483871
 40
0.0967741935483871
 40
0.1290322580645161
 40
0.1290322580645161
 40
0.1290322580645161
 40
0.1290322580645161
 40
0.1612903225806452
 40
0.1612903225806452
 40
0.1612903225806452
 40
0.1612903225806452
 40
0.1935483870967742
 40
0.1935483870967742
 40
0.1935483870967742
 40
0.1935483870967742
 40
0.2258064516129032
 40
0.2258064516129032
 40
0.2258064516129032
 40
0.2258064516129032
 40
0.2580645161290323
 40
0.2580645161290323
 40
0.2580645161290323
 40
0.2580645161290323
 40
0.2903225806451613
 40
0.2903225806451613
 40
0.2903225806451613
 40
0.2903225806451613
 40
0.3225806451612903
 40
0.3225806451612903
 40
0.3225806451612903
 40
0.3225806451612903
 40
0.3548387096774194
 40
0.3548387096774194
 40
0.3548387096774194
 40
0.3548387096774194
 40
0.3870967741935484
 40
0.3870967741935484
 40
0.3870967741935484
 40
0.3870967741935484
 40
0.4193548387096774
 40
0.4193548387096774
 40
0.4193548387096774
 40
0.4193548387096774
 40
0.4516129032258064
 40
0.4516129032258064
 40
0.4516129032258064
 40
0.4516129032258064
 40
0.4838709677419355
 40
0.4838709677419355
 40
0.4838709677419355
 40
0.4838709677419355
 40
0.5161290322580645
 40
0.5161290322580645
 40
0.5161290322580645
 40
0.5161290322580645
 40
0.5483870967741935
 40
0.5483870967741935
 40
0.5483870967741935
 40
0.5483870967741935
 40
0.5806451612903226
 40
0.5806451612903226
 40
0.5806451612903226
 40
0.5806451612903226
 40
0.6129032258064516
 40
0.6129032258064516
 40
0.6129032258064516
 40
0.6129032258064516
 40
0.6451612903225806
 40
0.6451612903225806
 40
0.6451612903225806
 40
0.6451612903225806
 40
0.6774193548387096
 40
0.6774193548387096
 40
0.6774193548387096
 40
0.6774193548387096
 40
0.7096774193548387
 40
0.7096774193548387
 40
0.7096774193548387
 40
0.7096774193548387
 40
0.7419354838709677
 40
0.7419354838709677
 40
0.7419354838709677
 40
0.7419354838709677
 40
0.7741935483870968
 40
0.7741935483870968
 40
0.7741935483870968
 40
0.7741935483870968
 40
0.8064516129032258
 40
0.8064516129032258
 40
0.8064516129032258
 40
0.8064516129032258
 40
0.8387096774193549
 40
0.8387096774193549
 40
0.8387096774193549
 40
0.8387096774193549
 40
0.8709677419354839
 40
0.8709677419354839
 40
0.8709677419354839
 40
0.8709677419354839
 40
0.9032258064516129
 40
0.9032258064516129
 40
0.9032258064516129
 40
0.9032258064516129
 40
0.9354838709677419
 40
0.9354838709677419
 40
0.9354838709677419
 40
0.9354838709677419
 40
1.0
 40
1.0
 40
1.0
 40
1.0
 10
-2.73844
 20
-8.9198
 30
0.0
 10
-2.73844
 20
-8.9198
 30
0.0
 10
-2.66393
 20
-8.90964
 30
0.0
 10
-2.66393
 20
-8.90964
 30
0.0
 10
-2.66393
 20
-8.90964
 30
0.0
 10
-2.65533
 20
-8.95198
 30
0.0
 10
-2.64093
 20
-8.98246
 30
0.0
 10
-2.62047
 20
-9.00108
 30
0.0
 10
-2.62047
 20
-9.00108
 30
0.0
 10
-2.60001
 20
-9.01971
 30
0.0
 10
-2.57489
 20
-9.02902
 30
0.0
 10
-2.54512
 20
-9.02902
 30
0.0
 10
-2.54512
 20
-9.02902
 30
0.0
 10
-2.50984
 20
-9.02902
 30
0.0
 10
-2.48006
 20
-9.01689
 30
0.0
 10
-2.45608
 20
-8.99262
 30
0.0
 10
-2.45608
 20
-8.99262
 30
0.0
 10
-2.43209
 20
-8.96835
 30
0.0
 10
-2.42009
 20
-8.93829
 30
0.0
 10
-2.42009
 20
-8.90245
 30
0.0
 10
-2.42009
 20
-8.90245
 30
0.0
 10
-2.42009
 20
-8.8683
 30
0.0
 10
-2.43124
 20
-8.84007
 30
0.0
 10
-2.45368
 20
-8.81778
 30
0.0
 10
-2.45368
 20
-8.81778
 30
0.0
 10
-2.47597
 20
-8.79562
 30
0.0
 10
-2.50434
 20
-8.78448
 30
0.0
 10
-2.53891
 20
-8.78448
 30
0.0
 10
-2.53891
 20
-8.78448
 30
0.0
 10
-2.55302
 20
-8.78448
 30
0.0
 10
-2.57052
 20
-8.7873
 30
0.0
 10
-2.59154
 20
-8.7928
 30
0.0
 10
-2.59154
 20
-8.7928
 30
0.0
 10
-2.59154
 20
-8.7928
 30
0.0
 10
-2.58322
 20
-8.72761
 30
0.0
 10
-2.58322
 20
-8.72761
 30
0.0
 10
-2.58322
 20
-8.72761
 30
0.0
 10
-2.57828
 20
-8.72817
 30
0.0
 10
-2.57419
 20
-8.72846
 30
0.0
 10
-2.57122
 20
-8.72846
 30
0.0
 10
-2.57122
 20
-8.72846
 30
0.0
 10
-2.53933
 20
-8.72846
 30
0.0
 10
-2.51083
 20
-8.72013
 30
0.0
 10
-2.48529
 20
-8.70362
 30
0.0
 10
-2.48529
 20
-8.70362
 30
0.0
 10
-2.45989
 20
-8.68711
 30
0.0
 10
-2.44719
 20
-8.66171
 30
0.0
 10
-2.44719
 20
-8.62742
 30
0.0
 10
-2.44719
 20
-8.62742
 30
0.0
 10
-2.44719
 20
-8.60018
 30
0.0
 10
-2.4565
 20
-8.57761
 30
0.0
 10
-2.47498
 20
-8.55969
 30
0.0
 10
-2.47498
 20
-8.55969
 30
0.0
 10
-2.49347
 20
-8.54176
 30
0.0
 10
-2.51732
 20
-8.53287
 30
0.0
 10
-2.54653
 20
-8.53287
 30
0.0
 10
-2.54653
 20
-8.53287
 30
0.0
 10
-2.5756
 20
-8.53287
 30
0.0
 10
-2.59973
 20
-8.54205
 30
0.0
 10
-2.61906
 20
-8.56039
 30
0.0
 10
-2.61906
 20
-8.56039
 30
0.0
 10
-2.63839
 20
-8.57874
 30
0.0
 10
-2.65081
 20
-8.60625
 30
0.0
 10
-2.65631
 20
-8.64294
 30
0.0
 10
-2.65631
 20
-8.64294
 30
0.0
 10
-2.65631
 20
-8.64294
 30
0.0
 10
-2.73082
 20
-8.62939
 30
0.0
 10
-2.73082
 20
-8.62939
 30
0.0
 10
-2.73082
 20
-8.62939
 30
0.0
 10
-2.72165
 20
-8.57944
 30
0.0
 10
-2.70105
 20
-8.54064
 30
0.0
 10
-2.66873
 20
-8.51312
 30
0.0
 10
-2.66873
 20
-8.51312
 30
0.0
 10
-2.63656
 20
-8.4856
 30
0.0
 10
-2.59634
 20
-8.47191
 30
0.0
 10
-2.54836
 20
-8.47191
 30
0.0
 10
-2.54836
 20
-8.47191
 30
0.0
 10
-2.51534
 20
-8.47191
 30
0.0
 10
-2.48486
 20
-8.47897
 30
0.0
 10
-2.45706
 20
-8.49322
 30
0.0
 10
-2.45706
 20
-8.49322
 30
0.0
 10
-2.42912
 20
-8.50733
 30
0.0
 10
-2.40782
 20
-8.52667
 30
0.0
 10
-2.39314
 20
-8.55108
 30
0.0
 10
-2.39314
 20
-8.55108
 30
0.0
 10
-2.37832
 20
-8.57563
 30
0.0
 10
-2.37099
 20
-8.6016
 30
0.0
 10
-2.37099
 20
-8.62911
 30
0.0
 10
-2.37099
 20
-8.62911
 30
0.0
 10
-2.37099
 20
-8.65522
 30
0.0
 10
-2.37804
 20
-8.67893
 30
0.0
 10
-2.39201
 20
-8.70037
 30
0.0
 10
-2.39201
 20
-8.70037
 30
0.0
 10
-2.40612
 20
-8.72182
 30
0.0
 10
-2.42701
 20
-8.7389
 30
0.0
 10
-2.45452
 20
-8.7516
 30
0.0
 10
-2.45452
 20
-8.7516
 30
0.0
 10
-2.41868
 20
-8.75978
 30
0.0
 10
-2.39088
 20
-8.777
 30
0.0
 10
-2.37099
 20
-8.8031
 30
0.0
 10
-2.37099
 20
-8.8031
 30
0.0
 10
-2.35123
 20
-8.82907
 30
0.0
 10
-2.34135
 20
-8.86181
 30
0.0
 10
-2.34135
 20
-8.90089
 30
0.0
 10
-2.34135
 20
-8.90089
 30
0.0
 10
-2.34135
 20
-8.95381
 30
0.0
 10
-2.36068
 20
-8.99883
 30
0.0
 10
-2.39921
 20
-9.03566
 30
0.0
 10
-2.39921
 20
-9.03566
 30
0.0
 10
-2.43787
 20
-9.07249
 30
0.0
 10
-2.4867
 20
-9.09083
 30
0.0
 10
-2.54568
 20
-9.09083
 30
0.0
 10
-2.54568
 20
-9.09083
 30
0.0
 10
-2.59888
 20
-9.09083
 30
0.0
 10
-2.64305
 20
-9.07488
 30
0.0
 10
-2.67819
 20
-9.04313
 30
0.0
 10
-2.67819
 20
-9.04313
 30
0.0
 10
-2.71346
 20
-9.01138
 30
0.0
 10
-2.7335
 20
-8.97032
 30
0.0
 10
-2.73844
 20
-8.9198
 30
0.0
  0
SPLINE
  5
46
330
1F
100
AcDbEntity
  8
Layer 1
 62
   250
100
AcDbSpline
210
0.0
220
0.0
230
1.0
 70
    11
 71
     3
 72
    92
 73
    88
 74
     0
 42
0.0000000001
 43
0.0000000001
 12
1.0
 22
0.0
 32
0.0
 13
1.0
 23
0.0
 33
0.0
 40
0.0
 40
0.0
 40
0.0
 40
0.0
 40
0.0434782608695652
 40
0.0434782608695652
 40
0.0434782608695652
 40
0.0434782608695652
 40
0.0869565217391304
 40
0.0869565217391304
 40
0.0869565217391304
 40
0.0869565217391304
 40
0.1304347826086956
 40
0.1304347826086956
 40
0.1304347826086956
 40
0.1304347826086956
 40
0.1739130434782609
 40
0.1739130434782609
 40
0.1739130434782609
 40
0.1739130434782609
 40
0.2173913043478261
 40
0.2173913043478261
 40
0.2173913043478261
 40
0.2173913043478261
 40
0.2608695652173913
 40
0.2608695652173913
 40
0.2608695652173913
 40
0.2608695652173913
 40
0.3043478260869565
 40
0.3043478260869565
 40
0.3043478260869565
 40
0.3043478260869565
 40
0.3478260869565217
 40
0.3478260869565217
 40
0.3478260869565217
 40
0.3478260869565217
 40
0.391304347826087
 40
0.391304347826087
 40
0.391304347826087
 40
0.391304347826087
 40
0.4347826086956522
 40
0.4347826086956522
 40
0.4347826086956522
 40
0.4347826086956522
 40
0.4782608695652174
 40
0.4782608695652174
 40
0.4782608695652174
 40
0.4782608695652174
 40
0.5217391304347826
 40
0.5217391304347826
 40
0.5217391304347826
 40
0.5217391304347826
 40
0.5652173913043478
 40
0.5652173913043478
 40
0.5652173913043478
 40
0.5652173913043478
 40
0.6086956521739131
 40
0.6086956521739131
 40
0.6086956521739131
 40
0.6086956521739131
 40
0.6521739130434783
 40
0.6521739130434783
 40
0.6521739130434783
 40
0.6521739130434783
 40
0.6956521739130435
 40
0.6956521739130435
 40
0.6956521739130435
 40
0.6956521739130435
 40
0.7391304347826086
 40
0.7391304347826086
 40
0.7391304347826086
 40
0.7391304347826086
 40
0.782608695652174
 40
0.782608695652174
 40
0.782608695652174
 40
0.782608695652174
 40
0.8260869565217391
 40
0.8260869565217391
 40
0.8260869565217391
 40
0.8260869565217391
 40
0.8695652173913043
 40
0.8695652173913043
 40
0.8695652173913043
 40
0.8695652173913043
 40
0.9130434782608695
 40
0.9130434782608695
 40
0.9130434782608695
 40
0.9130434782608695
 40
1.0
 40
1.0
 40
1.0
 40
1.0
 10
-1.87723
 20
-9.00955
 30
0.0
 10
-1.87723
 20
-9.00955
 30
0.0
 10
-1.87723
 20
-9.08067
 30
0.0
 10
-1.87723
 20
-9.08067
 30
0.0
 10
-1.87723
 20
-9.08067
 30
0.0
 10
-1.87723
 20
-9.08067
 30
0.0
 10
-2.27856
 20
-9.08067
 30
0.0
 10
-2.27856
 20
-9.08067
 30
0.0
 10
-2.27856
 20
-9.08067
 30
0.0
 10
-2.27912
 20
-9.06275
 30
0.0
 10
-2.27616
 20
-9.04553
 30
0.0
 10
-2.26981
 20
-9.02888
 30
0.0
 10
-2.26981
 20
-9.02888
 30
0.0
 10
-2.25951
 20
-9.00165
 30
0.0
 10
-2.243
 20
-8.9747
 30
0.0
 10
-2.22028
 20
-8.94831
 30
0.0
 10
-2.22028
 20
-8.94831
 30
0.0
 10
-2.19756
 20
-8.92192
 30
0.0
 10
-2.1651
 20
-8.89144
 30
0.0
 10
-2.12291
 20
-8.85687
 30
0.0
 10
-2.12291
 20
-8.85687
 30
0.0
 10
-2.05729
 20
-8.80282
 30
0.0
 10
-2.0127
 20
-8.76006
 30
0.0
 10
-1.98942
 20
-8.72846
 30
0.0
 10
-1.98942
 20
-8.72846
 30
0.0
 10
-1.96599
 20
-8.69685
 30
0.0
 10
-1.95428
 20
-8.66693
 30
0.0
 10
-1.95428
 20
-8.63871
 30
0.0
 10
-1.95428
 20
-8.63871
 30
0.0
 10
-1.95428
 20
-8.60922
 30
0.0
 10
-1.96487
 20
-8.58438
 30
0.0
 10
-1.98603
 20
-8.56406
 30
0.0
 10
-1.98603
 20
-8.56406
 30
0.0
 10
-2.0072
 20
-8.54388
 30
0.0
 10
-2.03486
 20
-8.53372
 30
0.0
 10
-2.06886
 20
-8.53372
 30
0.0
 10
-2.06886
 20
-8.53372
 30
0.0
 10
-2.10485
 20
-8.53372
 30
0.0
 10
-2.13363
 20
-8.54445
 30
0.0
 10
-2.15522
 20
-8.56589
 30
0.0
 10
-2.15522
 20
-8.56589
 30
0.0
 10
-2.17682
 20
-8.5872
 30
0.0
 10
-2.18768
 20
-8.61684
 30
0.0
 10
-2.18796
 20
-8.65479
 30
0.0
 10
-2.18796
 20
-8.65479
 30
0.0
 10
-2.18796
 20
-8.65479
 30
0.0
 10
-2.26416
 20
-8.64717
 30
0.0
 10
-2.26416
 20
-8.64717
 30
0.0
 10
-2.26416
 20
-8.64717
 30
0.0
 10
-2.25894
 20
-8.59017
 30
0.0
 10
-2.23919
 20
-8.5467
 30
0.0
 10
-2.20504
 20
-8.51679
 30
0.0
 10
-2.20504
 20
-8.51679
 30
0.0
 10
-2.17075
 20
-8.48687
 30
0.0
 10
-2.12489
 20
-8.47191
 30
0.0
 10
-2.06717
 20
-8.47191
 30
0.0
 10
-2.06717
 20
-8.47191
 30
0.0
 10
-2.00903
 20
-8.47191
 30
0.0
 10
-1.96289
 20
-8.488
 30
0.0
 10
-1.92902
 20
-8.52032
 30
0.0
 10
-1.92902
 20
-8.52032
 30
0.0
 10
-1.89502
 20
-8.55263
 30
0.0
 10
-1.87808
 20
-8.59271
 30
0.0
 10
-1.87808
 20
-8.6404
 30
0.0
 10
-1.87808
 20
-8.6404
 30
0.0
 10
-1.87808
 20
-8.66467
 30
0.0
 10
-1.88302
 20
-8.68852
 30
0.0
 10
-1.89304
 20
-8.71195
 30
0.0
 10
-1.89304
 20
-8.71195
 30
0.0
 10
-1.90292
 20
-8.73551
 30
0.0
 10
-1.91943
 20
-8.76021
 30
0.0
 10
-1.94243
 20
-8.78617
 30
0.0
 10
-1.94243
 20
-8.78617
 30
0.0
 10
-1.96557
 20
-8.81199
 30
0.0
 10
-2.00381
 20
-8.84769
 30
0.0
 10
-2.05715
 20
-8.89285
 30
0.0
 10
-2.05715
 20
-8.89285
 30
0.0
 10
-2.10188
 20
-8.93039
 30
0.0
 10
-2.13067
 20
-8.95579
 30
0.0
 10
-2.14337
 20
-8.96919
 30
0.0
 10
-2.14337
 20
-8.96919
 30
0.0
 10
-2.15607
 20
-8.9826
 30
0.0
 10
-2.16651
 20
-8.996
 30
0.0
 10
-2.17484
 20
-9.00955
 30
0.0
 10
-2.17484
 20
-9.00955
 30
0.0
 10
-2.17484
 20
-9.00955
 30
0.0
 10
-1.87723
 20
-9.00955
 30
0.0
 10
-1.87723
 20
-9.00955
 30
0.0
  0
SPLINE
  5
47
330
1F
100
AcDbEntity
  8
Layer 1
 62
   250
100
AcDbSpline
210
0.0
220
0.0
230
1.0
 70
    11
 71
     3
 72
    48
 73
    44
 74
     0
 42
0.0000000001
 43
0.0000000001
 12
1.0
 22
0.0
 32
0.0
 13
1.0
 23
0.0
 33
0.0
 40
0.0
 40
0.0
 40
0.0
 40
0.0
 40
0.0833333333333333
 40
0.0833333333333333
 40
0.0833333333333333
 40
0.0833333333333333
 40
0.1666666666666667
 40
0.1666666666666667
 40
0.1666666666666667
 40
0.1666666666666667
 40
0.25
 40
0.25
 40
0.25
 40
0.25
 40
0.3333333333333333
 40
0.3333333333333333
 40
0.3333333333333333
 40
0.3333333333333333
 40
0.4166666666666667
 40
0.4166666666666667
 40
0.4166666666666667
 40
0.4166666666666667
 40
0.5
 40
0.5
 40
0.5
 40
0.5
 40
0.5833333333333334
 40
0.5833333333333334
 40
0.5833333333333334
 40
0.5833333333333334
 40
0.6666666666666666
 40
0.6666666666666666
 40
0.6666666666666666
 40
0.6666666666666666
 40
0.75
 40
0.75
 40
0.75
 40
0.75
 40
0.8333333333333334
 40
0.8333333333333334
 40
0.8333333333333334
 40
0.8333333333333334
 40
1.0
 40
1.0
 40
1.0
 40
1.0
 10
-1.79243
 20
-8.55319
 30
0.0
 10
-1.79243
 20
-8.55319
 30
0.0
 10
-1.79243
 20
-8.48207
 30
0.0
 10
-1.79243
 20
-8.48207
 30
0.0
 10
-1.79243
 20
-8.48207
 30
0.0
 10
-1.79243
 20
-8.48207
 30
0.0
 10
-1.40042
 20
-8.48207
 30
0.0
 10
-1.40042
 20
-8.48207
 30
0.0
 10
-1.40042
 20
-8.48207
 30
0.0
 10
-1.40042
 20
-8.48207
 30
0.0
 10
-1.40042
 20
-8.53965
 30
0.0
 10
-1.40042
 20
-8.53965
 30
0.0
 10
-1.40042
 20
-8.53965
 30
0.0
 10
-1.43894
 20
-8.58071
 30
0.0
 10
-1.47732
 20
-8.63532
 30
0.0
 10
-1.51514
 20
-8.70348
 30
0.0
 10
-1.51514
 20
-8.70348
 30
0.0
 10
-1.5531
 20
-8.77164
 30
0.0
 10
-1.58231
 20
-8.84177
 30
0.0
 10
-1.60305
 20
-8.91388
 30
0.0
 10
-1.60305
 20
-8.91388
 30
0.0
 10
-1.61787
 20
-8.96454
 30
0.0
 10
-1.62747
 20
-9.02027
 30
0.0
 10
-1.63156
 20
-9.08067
 30
0.0
 10
-1.63156
 20
-9.08067
 30
0.0
 10
-1.63156
 20
-9.08067
 30
0.0
 10
-1.70776
 20
-9.08067
 30
0.0
 10
-1.70776
 20
-9.08067
 30
0.0
 10
-1.70776
 20
-9.08067
 30
0.0
 10
-1.70691
 20
-9.03297
 30
0.0
 10
-1.6976
 20
-8.97526
 30
0.0
 10
-1.67968
 20
-8.90767
 30
0.0
 10
-1.67968
 20
-8.90767
 30
0.0
 10
-1.66176
 20
-8.83993
 30
0.0
 10
-1.63622
 20
-8.77474
 30
0.0
 10
-1.60277
 20
-8.71195
 30
0.0
 10
-1.60277
 20
-8.71195
 30
0.0
 10
-1.56933
 20
-8.64915
 30
0.0
 10
-1.53377
 20
-8.59623
 30
0.0
 10
-1.49609
 20
-8.55319
 30
0.0
 10
-1.49609
 20
-8.55319
 30
0.0
 10
-1.49609
 20
-8.55319
 30
0.0
 10
-1.79243
 20
-8.55319
 30
0.0
 10
-1.79243
 20
-8.55319
 30
0.0
  0
SPLINE
  5
48
330
1F
100
AcDbEntity
  8
Layer 1
 62
   250
100
AcDbSpline
210
0.0
220
0.0
230
1.0
 70
    11
 71
     3
 72
    36
 73
    32
 74
     0
 42
0.0000000001
 43
0.0000000001
 12
1.0
 22
0.0
 32
0.0
 13
1.0
 23
0.0
 33
0.0
 40
0.0
 40
0.0
 40
0.0
 40
0.0
 40
0.1111111111111111
 40
0.1111111111111111
 40
0.1111111111111111
 40
0.1111111111111111
 40
0.2222222222222222
 40
0.2222222222222222
 40
0.2222222222222222
 40
0.2222222222222222
 40
0.3333333333333333
 40
0.3333333333333333
 40
0.3333333333333333
 40
0.3333333333333333
 40
0.4444444444444444
 40
0.4444444444444444
 40
0.4444444444444444
 40
0.4444444444444444
 40
0.5555555555555556
 40
0.5555555555555556
 40
0.5555555555555556
 40
0.5555555555555556
 40
0.6666666666666666
 40
0.6666666666666666
 40
0.6666666666666666
 40
0.6666666666666666
 40
0.7777777777777778
 40
0.7777777777777778
 40
0.7777777777777778
 40
0.7777777777777778
 40
1.0
 40
1.0
 40
1.0
 40
1.0
 10
-0.92205
 20
-9.08067
 30
0.0
 10
-0.92205
 20
-9.08067
 30
0.0
 10
-0.92205
 20
-8.54557
 30
0.0
 10
-0.92205
 20
-8.54557
 30
0.0
 10
-0.92205
 20
-8.54557
 30
0.0
 10
-0.92205
 20
-8.54557
 30
0.0
 10
-1.12187
 20
-8.54557
 30
0.0
 10
-1.12187
 20
-8.54557
 30
0.0
 10
-1.12187
 20
-8.54557
 30
0.0
 10
-1.12187
 20
-8.54557
 30
0.0
 10
-1.12187
 20
-8.47445
 30
0.0
 10
-1.12187
 20
-8.47445
 30
0.0
 10
-1.12187
 20
-8.47445
 30
0.0
 10
-1.12187
 20
-8.47445
 30
0.0
 10
-0.6418
 20
-8.47445
 30
0.0
 10
-0.6418
 20
-8.47445
 30
0.0
 10
-0.6418
 20
-8.47445
 30
0.0
 10
-0.6418
 20
-8.47445
 30
0.0
 10
-0.6418
 20
-8.54557
 30
0.0
 10
-0.6418
 20
-8.54557
 30
0.0
 10
-0.6418
 20
-8.54557
 30
0.0
 10
-0.6418
 20
-8.54557
 30
0.0
 10
-0.84162
 20
-8.54557
 30
0.0
 10
-0.84162
 20
-8.54557
 30
0.0
 10
-0.84162
 20
-8.54557
 30
0.0
 10
-0.84162
 20
-8.54557
 30
0.0
 10
-0.84162
 20
-9.08067
 30
0.0
 10
-0.84162
 20
-9.08067
 30
0.0
 10
-0.84162
 20
-9.08067
 30
0.0
 10
-0.84162
 20
-9.08067
 30
0.0
 10
-0.92205
 20
-9.08067
 30
0.0
 10
-0.92205
 20
-9.08067
 30
0.0
  0
SPLINE
  5
49
330
1F
100
AcDbEntity
  8
Layer 1
 62
   250
100
AcDbSpline
210
0.0
220
0.0
230
1.0
 70
    11
 71
     3
 72
    52
 73
    48
 74
     0
 42
0.0000000001
 43
0.0000000001
 12
1.0
 22
0.0
 32
0.0
 13
1.0
 23
0.0
 33
0.0
 40
0.0
 40
0.0
 40
0.0
 40
0.0
 40
0.0769230769230769
 40
0.0769230769230769
 40
0.0769230769230769
 40
0.0769230769230769
 40
0.1538461538461539
 40
0.1538461538461539
 40
0.1538461538461539
 40
0.1538461538461539
 40
0.2307692307692308
 40
0.2307692307692308
 40
0.2307692307692308
 40
0.2307692307692308
 40
0.3076923076923077
 40
0.3076923076923077
 40
0.3076923076923077
 40
0.3076923076923077
 40
0.3846153846153846
 40
0.3846153846153846
 40
0.3846153846153846
 40
0.3846153846153846
 40
0.4615384615384616
 40
0.4615384615384616
 40
0.4615384615384616
 40
0.4615384615384616
 40
0.5384615384615384
 40
0.5384615384615384
 40
0.5384615384615384
 40
0.5384615384615384
 40
0.6153846153846154
 40
0.6153846153846154
 40
0.6153846153846154
 40
0.6153846153846154
 40
0.6923076923076923
 40
0.6923076923076923
 40
0.6923076923076923
 40
0.6923076923076923
 40
0.7692307692307693
 40
0.7692307692307693
 40
0.7692307692307693
 40
0.7692307692307693
 40
0.8461538461538461
 40
0.8461538461538461
 40
0.8461538461538461
 40
0.8461538461538461
 40
1.0
 40
1.0
 40
1.0
 40
1.0
 10
-0.55728
 20
-9.08067
 30
0.0
 10
-0.55728
 20
-9.08067
 30
0.0
 10
-0.55728
 20
-8.47445
 30
0.0
 10
-0.55728
 20
-8.47445
 30
0.0
 10
-0.55728
 20
-8.47445
 30
0.0
 10
-0.55728
 20
-8.47445
 30
0.0
 10
-0.11955
 20
-8.47445
 30
0.0
 10
-0.11955
 20
-8.47445
 30
0.0
 10
-0.11955
 20
-8.47445
 30
0.0
 10
-0.11955
 20
-8.47445
 30
0.0
 10
-0.11955
 20
-8.54557
 30
0.0
 10
-0.11955
 20
-8.54557
 30
0.0
 10
-0.11955
 20
-8.54557
 30
0.0
 10
-0.11955
 20
-8.54557
 30
0.0
 10
-0.47685
 20
-8.54557
 30
0.0
 10
-0.47685
 20
-8.54557
 30
0.0
 10
-0.47685
 20
-8.54557
 30
0.0
 10
-0.47685
 20
-8.54557
 30
0.0
 10
-0.47685
 20
-8.73184
 30
0.0
 10
-0.47685
 20
-8.73184
 30
0.0
 10
-0.47685
 20
-8.73184
 30
0.0
 10
-0.47685
 20
-8.73184
 30
0.0
 10
-0.14241
 20
-8.73184
 30
0.0
 10
-0.14241
 20
-8.73184
 30
0.0
 10
-0.14241
 20
-8.73184
 30
0.0
 10
-0.14241
 20
-8.73184
 30
0.0
 10
-0.14241
 20
-8.80296
 30
0.0
 10
-0.14241
 20
-8.80296
 30
0.0
 10
-0.14241
 20
-8.80296
 30
0.0
 10
-0.14241
 20
-8.80296
 30
0.0
 10
-0.47685
 20
-8.80296
 30
0.0
 10
-0.47685
 20
-8.80296
 30
0.0
 10
-0.47685
 20
-8.80296
 30
0.0
 10
-0.47685
 20
-8.80296
 30
0.0
 10
-0.47685
 20
-9.00955
 30
0.0
 10
-0.47685
 20
-9.00955
 30
0.0
 10
-0.47685
 20
-9.00955
 30
0.0
 10
-0.47685
 20
-9.00955
 30
0.0
 10
-0.10516
 20
-9.00955
 30
0.0
 10
-0.10516
 20
-9.00955
 30
0.0
 10
-0.10516
 20
-9.00955
 30
0.0
 10
-0.10516
 20
-9.00955
 30
0.0
 10
-0.10516
 20
-9.08067
 30
0.0
 10
-0.10516
 20
-9.08067
 30
0.0
 10
-0.10516
 20
-9.08067
 30
0.0
 10
-0.10516
 20
-9.08067
 30
0.0
 10
-0.55728
 20
-9.08067
 30
0.0
 10
-0.55728
 20
-9.08067
 30
0.0
  0
SPLINE
  5
4A
330
1F
100
AcDbEntity
  8
Layer 1
 62
   250
100
AcDbSpline
210
0.0
220
0.0
230
1.0
 70
    11
 71
     3
 72
    64
 73
    60
 74
     0
 42
0.0000000001
 43
0.0000000001
 12
1.0
 22
0.0
 32
0.0
 13
1.0
 23
0.0
 33
0.0
 40
0.0
 40
0.0
 40
0.0
 40
0.0
 40
0.0625
 40
0.0625
 40
0.0625
 40
0.0625
 40
0.125
 40
0.125
 40
0.125
 40
0.125
 40
0.1875
 40
0.1875
 40
0.1875
 40
0.1875
 40
0.25
 40
0.25
 40
0.25
 40
0.25
 40
0.3125
 40
0.3125
 40
0.3125
 40
0.3125
 40
0.375
 40
0.375
 40
0.375
 40
0.375
 40
0.4375
 40
0.4375
 40
0.4375
 40
0.4375
 40
0.5
 40
0.5
 40
0.5
 40
0.5
 40
0.5625
 40
0.5625
 40
0.5625
 40
0.5625
 40
0.625
 40
0.625
 40
0.625
 40
0.625
 40
0.6875
 40
0.6875
 40
0.6875
 40
0.6875
 40
0.75
 40
0.75
 40
0.75
 40
0.75
 40
0.8125
 40
0.8125
 40
0.8125
 40
0.8125
 40
0.875
 40
0.875
 40
0.875
 40
0.875
 40
1.0
 40
1.0
 40
1.0
 40
1.0
 10
0.00406
 20
-9.08067
 30
0.0
 10
0.00406
 20
-9.08067
 30
0.0
 10
0.00406
 20
-8.47445
 30
0.0
 10
0.00406
 20
-8.47445
 30
0.0
 10
0.00406
 20
-8.47445
 30
0.0
 10
0.00406
 20
-8.47445
 30
0.0
 10
0.12429
 20
-8.47445
 30
0.0
 10
0.12429
 20
-8.47445
 30
0.0
 10
0.12429
 20
-8.47445
 30
0.0
 10
0.12429
 20
-8.47445
 30
0.0
 10
0.26766
 20
-8.90357
 30
0.0
 10
0.26766
 20
-8.90357
 30
0.0
 10
0.26766
 20
-8.90357
 30
0.0
 10
0.28092
 20
-8.94351
 30
0.0
 10
0.29052
 20
-8.97343
 30
0.0
 10
0.29658
 20
-8.99332
 30
0.0
 10
0.29658
 20
-8.99332
 30
0.0
 10
0.3035
 20
-8.97131
 30
0.0
 10
0.31436
 20
-8.93885
 30
0.0
 10
0.32904
 20
-8.8961
 30
0.0
 10
0.32904
 20
-8.8961
 30
0.0
 10
0.32904
 20
-8.8961
 30
0.0
 10
0.47495
 20
-8.47445
 30
0.0
 10
0.47495
 20
-8.47445
 30
0.0
 10
0.47495
 20
-8.47445
 30
0.0
 10
0.47495
 20
-8.47445
 30
0.0
 10
0.58234
 20
-8.47445
 30
0.0
 10
0.58234
 20
-8.47445
 30
0.0
 10
0.58234
 20
-8.47445
 30
0.0
 10
0.58234
 20
-8.47445
 30
0.0
 10
0.58234
 20
-9.08067
 30
0.0
 10
0.58234
 20
-9.08067
 30
0.0
 10
0.58234
 20
-9.08067
 30
0.0
 10
0.58234
 20
-9.08067
 30
0.0
 10
0.50529
 20
-9.08067
 30
0.0
 10
0.50529
 20
-9.08067
 30
0.0
 10
0.50529
 20
-9.08067
 30
0.0
 10
0.50529
 20
-9.08067
 30
0.0
 10
0.50529
 20
-8.57351
 30
0.0
 10
0.50529
 20
-8.57351
 30
0.0
 10
0.50529
 20
-8.57351
 30
0.0
 10
0.50529
 20
-8.57351
 30
0.0
 10
0.32833
 20
-9.08067
 30
0.0
 10
0.32833
 20
-9.08067
 30
0.0
 10
0.32833
 20
-9.08067
 30
0.0
 10
0.32833
 20
-9.08067
 30
0.0
 10
0.25609
 20
-9.08067
 30
0.0
 10
0.25609
 20
-9.08067
 30
0.0
 10
0.25609
 20
-9.08067
 30
0.0
 10
0.25609
 20
-9.08067
 30
0.0
 10
0.08111
 20
-8.5642
 30
0.0
 10
0.08111
 20
-8.5642
 30
0.0
 10
0.08111
 20
-8.5642
 30
0.0
 10
0.08111
 20
-8.5642
 30
0.0
 10
0.08111
 20
-9.08067
 30
0.0
 10
0.08111
 20
-9.08067
 30
0.0
 10
0.08111
 20
-9.08067
 30
0.0
 10
0.08111
 20
-9.08067
 30
0.0
 10
0.00406
 20
-9.08067
 30
0.0
 10
0.00406
 20
-9.08067
 30
0.0
  0
SPLINE
  5
4B
330
1F
100
AcDbEntity
  8
Layer 1
 62
   250
100
AcDbSpline
210
0.0
220
0.0
230
1.0
 70
    11
 71
     3
 72
    48
 73
    44
 74
     0
 42
0.0000000001
 43
0.0000000001
 12
1.0
 22
0.0
 32
0.0
 13
1.0
 23
0.0
 33
0.0
 40
0.0
 40
0.0
 40
0.0
 40
0.0
 40
0.0833333333333333
 40
0.0833333333333333
 40
0.0833333333333333
 40
0.0833333333333333
 40
0.1666666666666667
 40
0.1666666666666667
 40
0.1666666666666667
 40
0.1666666666666667
 40
0.25
 40
0.25
 40
0.25
 40
0.25
 40
0.3333333333333333
 40
0.3333333333333333
 40
0.3333333333333333
 40
0.3333333333333333
 40
0.4166666666666667
 40
0.4166666666666667
 40
0.4166666666666667
 40
0.4166666666666667
 40
0.5
 40
0.5
 40
0.5
 40
0.5
 40
0.5833333333333334
 40
0.5833333333333334
 40
0.5833333333333334
 40
0.5833333333333334
 40
0.6666666666666666
 40
0.6666666666666666
 40
0.6666666666666666
 40
0.6666666666666666
 40
0.75
 40
0.75
 40
0.75
 40
0.75
 40
0.8333333333333334
 40
0.8333333333333334
 40
0.8333333333333334
 40
0.8333333333333334
 40
1.0
 40
1.0
 40
1.0
 40
1.0
 10
0.71103
 20
-9.08067
 30
0.0
 10
0.71103
 20
-9.08067
 30
0.0
 10
0.71103
 20
-8.47445
 30
0.0
 10
0.71103
 20
-8.47445
 30
0.0
 10
0.71103
 20
-8.47445
 30
0.0
 10
0.71103
 20
-8.47445
 30
0.0
 10
0.93992
 20
-8.47445
 30
0.0
 10
0.93992
 20
-8.47445
 30
0.0
 10
0.93992
 20
-8.47445
 30
0.0
 10
0.98013
 20
-8.47445
 30
0.0
 10
1.0109
 20
-8.47643
 30
0.0
 10
1.0322
 20
-8.48024
 30
0.0
 10
1.0322
 20
-8.48024
 30
0.0
 10
1.06198
 20
-8.48518
 30
0.0
 10
1.08696
 20
-8.49463
 30
0.0
 10
1.10713
 20
-8.50846
 30
0.0
 10
1.10713
 20
-8.50846
 30
0.0
 10
1.12731
 20
-8.52243
 30
0.0
 10
1.14354
 20
-8.54191
 30
0.0
 10
1.15582
 20
-8.56688
 30
0.0
 10
1.15582
 20
-8.56688
 30
0.0
 10
1.16809
 20
-8.59186
 30
0.0
 10
1.17416
 20
-8.61938
 30
0.0
 10
1.17416
 20
-8.64943
 30
0.0
 10
1.17416
 20
-8.64943
 30
0.0
 10
1.17416
 20
-8.7008
 30
0.0
 10
1.15779
 20
-8.7444
 30
0.0
 10
1.12491
 20
-8.77996
 30
0.0
 10
1.12491
 20
-8.77996
 30
0.0
 10
1.09218
 20
-8.81566
 30
0.0
 10
1.03277
 20
-8.83344
 30
0.0
 10
0.94697
 20
-8.83344
 30
0.0
 10
0.94697
 20
-8.83344
 30
0.0
 10
0.94697
 20
-8.83344
 30
0.0
 10
0.79147
 20
-8.83344
 30
0.0
 10
0.79147
 20
-8.83344
 30
0.0
 10
0.79147
 20
-8.83344
 30
0.0
 10
0.79147
 20
-8.83344
 30
0.0
 10
0.79147
 20
-9.08067
 30
0.0
 10
0.79147
 20
-9.08067
 30
0.0
 10
0.79147
 20
-9.08067
 30
0.0
 10
0.79147
 20
-9.08067
 30
0.0
 10
0.71103
 20
-9.08067
 30
0.0
 10
0.71103
 20
-9.08067
 30
0.0
  0
SPLINE
  5
4C
330
1F
100
AcDbEntity
  8
Layer 1
 62
   250
100
AcDbSpline
210
0.0
220
0.0
230
1.0
 70
    11
 71
     3
 72
    36
 73
    32
 74
     0
 42
0.0000000001
 43
0.0000000001
 12
1.0
 22
0.0
 32
0.0
 13
1.0
 23
0.0
 33
0.0
 40
0.0
 40
0.0
 40
0.0
 40
0.0
 40
0.1111111111111111
 40
0.1111111111111111
 40
0.1111111111111111
 40
0.1111111111111111
 40
0.2222222222222222
 40
0.2222222222222222
 40
0.2222222222222222
 40
0.2222222222222222
 40
0.3333333333333333
 40
0.3333333333333333
 40
0.3333333333333333
 40
0.3333333333333333
 40
0.4444444444444444
 40
0.4444444444444444
 40
0.4444444444444444
 40
0.4444444444444444
 40
0.5555555555555556
 40
0.5555555555555556
 40
0.5555555555555556
 40
0.5555555555555556
 40
0.6666666666666666
 40
0.6666666666666666
 40
0.6666666666666666
 40
0.6666666666666666
 40
0.7777777777777778
 40
0.7777777777777778
 40
0.7777777777777778
 40
0.7777777777777778
 40
1.0
 40
1.0
 40
1.0
 40
1.0
 10
0.79147
 20
-8.76232
 30
0.0
 10
0.79147
 20
-8.76232
 30
0.0
 10
0.9481
 20
-8.76232
 30
0.0
 10
0.9481
 20
-8.76232
 30
0.0
 10
0.9481
 20
-8.76232
 30
0.0
 10
1.00003
 20
-8.76232
 30
0.0
 10
1.03672
 20
-8.75273
 30
0.0
 10
1.05859
 20
-8.73339
 30
0.0
 10
1.05859
 20
-8.73339
 30
0.0
 10
1.08032
 20
-8.71406
 30
0.0
 10
1.09119
 20
-8.68697
 30
0.0
 10
1.09119
 20
-8.65183
 30
0.0
 10
1.09119
 20
-8.65183
 30
0.0
 10
1.09119
 20
-8.62657
 30
0.0
 10
1.08484
 20
-8.60484
 30
0.0
 10
1.072
 20
-8.58678
 30
0.0
 10
1.072
 20
-8.58678
 30
0.0
 10
1.05916
 20
-8.56872
 30
0.0
 10
1.04222
 20
-8.55672
 30
0.0
 10
1.02134
 20
-8.55094
 30
0.0
 10
1.02134
 20
-8.55094
 30
0.0
 10
1.00779
 20
-8.54741
 30
0.0
 10
0.98281
 20
-8.54557
 30
0.0
 10
0.94655
 20
-8.54557
 30
0.0
 10
0.94655
 20
-8.54557
 30
0.0
 10
0.94655
 20
-8.54557
 30
0.0
 10
0.79147
 20
-8.54557
 30
0.0
 10
0.79147
 20
-8.54557
 30
0.0
 10
0.79147
 20
-8.54557
 30
0.0
 10
0.79147
 20
-8.54557
 30
0.0
 10
0.79147
 20
-8.76232
 30
0.0
 10
0.79147
 20
-8.76232
 30
0.0
  0
SPLINE
  5
4D
330
1F
100
AcDbEntity
  8
Layer 1
 62
   250
100
AcDbSpline
210
0.0
220
0.0
230
1.0
 70
    11
 71
     3
 72
    28
 73
    24
 74
     0
 42
0.0000000001
 43
0.0000000001
 12
1.0
 22
0.0
 32
0.0
 13
1.0
 23
0.0
 33
0.0
 40
0.0
 40
0.0
 40
0.0
 40
0.0
 40
0.1428571428571428
 40
0.1428571428571428
 40
0.1428571428571428
 40
0.1428571428571428
 40
0.2857142857142857
 40
0.2857142857142857
 40
0.2857142857142857
 40
0.2857142857142857
 40
0.4285714285714285
 40
0.4285714285714285
 40
0.4285714285714285
 40
0.4285714285714285
 40
0.5714285714285714
 40
0.5714285714285714
 40
0.5714285714285714
 40
0.5714285714285714
 40
0.7142857142857143
 40
0.7142857142857143
 40
0.7142857142857143
 40
0.7142857142857143
 40
1.0
 40
1.0
 40
1.0
 40
1.0
 10
1.27238
 20
-9.08067
 30
0.0
 10
1.27238
 20
-9.08067
 30
0.0
 10
1.27238
 20
-8.47445
 30
0.0
 10
1.27238
 20
-8.47445
 30
0.0
 10
1.27238
 20
-8.47445
 30
0.0
 10
1.27238
 20
-8.47445
 30
0.0
 10
1.35281
 20
-8.47445
 30
0.0
 10
1.35281
 20
-8.47445
 30
0.0
 10
1.35281
 20
-8.47445
 30
0.0
 10
1.35281
 20
-8.47445
 30
0.0
 10
1.35281
 20
-9.00955
 30
0.0
 10
1.35281
 20
-9.00955
 30
0.0
 10
1.35281
 20
-9.00955
 30
0.0
 10
1.35281
 20
-9.00955
 30
0.0
 10
1.65084
 20
-9.00955
 30
0.0
 10
1.65084
 20
-9.00955
 30
0.0
 10
1.65084
 20
-9.00955
 30
0.0
 10
1.65084
 20
-9.00955
 30
0.0
 10
1.65084
 20
-9.08067
 30
0.0
 10
1.65084
 20
-9.08067
 30
0.0
 10
1.65084
 20
-9.08067
 30
0.0
 10
1.65084
 20
-9.08067
 30
0.0
 10
1.27238
 20
-9.08067
 30
0.0
 10
1.27238
 20
-9.08067
 30
0.0
  0
SPLINE
  5
4E
330
1F
100
AcDbEntity
  8
Layer 1
 62
   250
100
AcDbSpline
210
0.0
220
0.0
230
1.0
 70
    11
 71
     3
 72
    36
 73
    32
 74
     0
 42
0.0000000001
 43
0.0000000001
 12
1.0
 22
0.0
 32
0.0
 13
1.0
 23
0.0
 33
0.0
 40
0.0
 40
0.0
 40
0.0
 40
0.0
 40
0.1111111111111111
 40
0.1111111111111111
 40
0.1111111111111111
 40
0.1111111111111111
 40
0.2222222222222222
 40
0.2222222222222222
 40
0.2222222222222222
 40
0.2222222222222222
 40
0.3333333333333333
 40
0.3333333333333333
 40
0.3333333333333333
 40
0.3333333333333333
 40
0.4444444444444444
 40
0.4444444444444444
 40
0.4444444444444444
 40
0.4444444444444444
 40
0.5555555555555556
 40
0.5555555555555556
 40
0.5555555555555556
 40
0.5555555555555556
 40
0.6666666666666666
 40
0.6666666666666666
 40
0.6666666666666666
 40
0.6666666666666666
 40
0.7777777777777778
 40
0.7777777777777778
 40
0.7777777777777778
 40
0.7777777777777778
 40
1.0
 40
1.0
 40
1.0
 40
1.0
 10
1.68019
 20
-9.08067
 30
0.0
 10
1.68019
 20
-9.08067
 30
0.0
 10
1.91274
 20
-8.47445
 30
0.0
 10
1.91274
 20
-8.47445
 30
0.0
 10
1.91274
 20
-8.47445
 30
0.0
 10
1.91274
 20
-8.47445
 30
0.0
 10
2.00094
 20
-8.47445
 30
0.0
 10
2.00094
 20
-8.47445
 30
0.0
 10
2.00094
 20
-8.47445
 30
0.0
 10
2.00094
 20
-8.47445
 30
0.0
 10
2.24774
 20
-9.08067
 30
0.0
 10
2.24774
 20
-9.08067
 30
0.0
 10
2.24774
 20
-9.08067
 30
0.0
 10
2.24774
 20
-9.08067
 30
0.0
 10
2.15644
 20
-9.08067
 30
0.0
 10
2.15644
 20
-9.08067
 30
0.0
 10
2.15644
 20
-9.08067
 30
0.0
 10
2.15644
 20
-9.08067
 30
0.0
 10
2.08631
 20
-8.89694
 30
0.0
 10
2.08631
 20
-8.89694
 30
0.0
 10
2.08631
 20
-8.89694
 30
0.0
 10
2.08631
 20
-8.89694
 30
0.0
 10
1.83104
 20
-8.89694
 30
0.0
 10
1.83104
 20
-8.89694
 30
0.0
 10
1.83104
 20
-8.89694
 30
0.0
 10
1.83104
 20
-8.89694
 30
0.0
 10
1.76528
 20
-9.08067
 30
0.0
 10
1.76528
 20
-9.08067
 30
0.0
 10
1.76528
 20
-9.08067
 30
0.0
 10
1.76528
 20
-9.08067
 30
0.0
 10
1.68019
 20
-9.08067
 30
0.0
 10
1.68019
 20
-9.08067
 30
0.0
  0
SPLINE
  5
4F
330
1F
100
AcDbEntity
  8
Layer 1
 62
   250
100
AcDbSpline
210
0.0
220
0.0
230
1.0
 70
    11
 71
     3
 72
    24
 73
    20
 74
     0
 42
0.0000000001
 43
0.0000000001
 12
1.0
 22
0.0
 32
0.0
 13
1.0
 23
0.0
 33
0.0
 40
0.0
 40
0.0
 40
0.0
 40
0.0
 40
0.1666666666666667
 40
0.1666666666666667
 40
0.1666666666666667
 40
0.1666666666666667
 40
0.3333333333333333
 40
0.3333333333333333
 40
0.3333333333333333
 40
0.3333333333333333
 40
0.5
 40
0.5
 40
0.5
 40
0.5
 40
0.6666666666666666
 40
0.6666666666666666
 40
0.6666666666666666
 40
0.6666666666666666
 40
1.0
 40
1.0
 40
1.0
 40
1.0
 10
1.8546
 20
-8.83175
 30
0.0
 10
1.8546
 20
-8.83175
 30
0.0
 10
2.06119
 20
-8.83175
 30
0.0
 10
2.06119
 20
-8.83175
 30
0.0
 10
2.06119
 20
-8.83175
 30
0.0
 10
2.06119
 20
-8.83175
 30
0.0
 10
1.99797
 20
-8.66369
 30
0.0
 10
1.99797
 20
-8.66369
 30
0.0
 10
1.99797
 20
-8.66369
 30
0.0
 10
1.97892
 20
-8.6126
 30
0.0
 10
1.96453
 20
-8.57041
 30
0.0
 10
1.95451
 20
-8.53711
 30
0.0
 10
1.95451
 20
-8.53711
 30
0.0
 10
1.94619
 20
-8.57662
 30
0.0
 10
1.93504
 20
-8.61542
 30
0.0
 10
1.92107
 20
-8.65381
 30
0.0
 10
1.92107
 20
-8.65381
 30
0.0
 10
1.92107
 20
-8.65381
 30
0.0
 10
1.8546
 20
-8.83175
 30
0.0
 10
1.8546
 20
-8.83175
 30
0.0
  0
SPLINE
  5
50
330
1F
100
AcDbEntity
  8
Layer 1
 62
   250
100
AcDbSpline
210
0.0
220
0.0
230
1.0
 70
    11
 71
     3
 72
    36
 73
    32
 74
     0
 42
0.0000000001
 43
0.0000000001
 12
1.0
 22
0.0
 32
0.0
 13
1.0
 23
0.0
 33
0.0
 40
0.0
 40
0.0
 40
0.0
 40
0.0
 40
0.1111111111111111
 40
0.1111111111111111
 40
0.1111111111111111
 40
0.1111111111111111
 40
0.2222222222222222
 40
0.2222222222222222
 40
0.2222222222222222
 40
0.2222222222222222
 40
0.3333333333333333
 40
0.3333333333333333
 40
0.3333333333333333
 40
0.3333333333333333
 40
0.4444444444444444
 40
0.4444444444444444
 40
0.4444444444444444
 40
0.4444444444444444
 40
0.5555555555555556
 40
0.5555555555555556
 40
0.5555555555555556
 40
0.5555555555555556
 40
0.6666666666666666
 40
0.6666666666666666
 40
0.6666666666666666
 40
0.6666666666666666
 40
0.7777777777777778
 40
0.7777777777777778
 40
0.7777777777777778
 40
0.7777777777777778
 40
1.0
 40
1.0
 40
1.0
 40
1.0
 10
2.40269
 20
-9.08067
 30
0.0
 10
2.40269
 20
-9.08067
 30
0.0
 10
2.40269
 20
-8.54557
 30
0.0
 10
2.40269
 20
-8.54557
 30
0.0
 10
2.40269
 20
-8.54557
 30
0.0
 10
2.40269
 20
-8.54557
 30
0.0
 10
2.20287
 20
-8.54557
 30
0.0
 10
2.20287
 20
-8.54557
 30
0.0
 10
2.20287
 20
-8.54557
 30
0.0
 10
2.20287
 20
-8.54557
 30
0.0
 10
2.20287
 20
-8.47445
 30
0.0
 10
2.20287
 20
-8.47445
 30
0.0
 10
2.20287
 20
-8.47445
 30
0.0
 10
2.20287
 20
-8.47445
 30
0.0
 10
2.68294
 20
-8.47445
 30
0.0
 10
2.68294
 20
-8.47445
 30
0.0
 10
2.68294
 20
-8.47445
 30
0.0
 10
2.68294
 20
-8.47445
 30
0.0
 10
2.68294
 20
-8.54557
 30
0.0
 10
2.68294
 20
-8.54557
 30
0.0
 10
2.68294
 20
-8.54557
 30
0.0
 10
2.68294
 20
-8.54557
 30
0.0
 10
2.48312
 20
-8.54557
 30
0.0
 10
2.48312
 20
-8.54557
 30
0.0
 10
2.48312
 20
-8.54557
 30
0.0
 10
2.48312
 20
-8.54557
 30
0.0
 10
2.48312
 20
-9.08067
 30
0.0
 10
2.48312
 20
-9.08067
 30
0.0
 10
2.48312
 20
-9.08067
 30
0.0
 10
2.48312
 20
-9.08067
 30
0.0
 10
2.40269
 20
-9.08067
 30
0.0
 10
2.40269
 20
-9.08067
 30
0.0
  0
SPLINE
  5
51
330
1F
100
AcDbEntity
  8
Layer 1
 62
   250
100
AcDbSpline
210
0.0
220
0.0
230
1.0
 70
    11
 71
     3
 72
    52
 73
    48
 74
     0
 42
0.0000000001
 43
0.0000000001
 12
1.0
 22
0.0
 32
0.0
 13
1.0
 23
0.0
 33
0.0
 40
0.0
 40
0.0
 40
0.0
 40
0.0
 40
0.0769230769230769
 40
0.0769230769230769
 40
0.0769230769230769
 40
0.0769230769230769
 40
0.1538461538461539
 40
0.1538461538461539
 40
0.1538461538461539
 40
0.1538461538461539
 40
0.2307692307692308
 40
0.2307692307692308
 40
0.2307692307692308
 40
0.2307692307692308
 40
0.3076923076923077
 40
0.3076923076923077
 40
0.3076923076923077
 40
0.3076923076923077
 40
0.3846153846153846
 40
0.3846153846153846
 40
0.3846153846153846
 40
0.3846153846153846
 40
0.4615384615384616
 40
0.4615384615384616
 40
0.4615384615384616
 40
0.4615384615384616
 40
0.5384615384615384
 40
0.5384615384615384
 40
0.5384615384615384
 40
0.5384615384615384
 40
0.6153846153846154
 40
0.6153846153846154
 40
0.6153846153846154
 40
0.6153846153846154
 40
0.6923076923076923
 40
0.6923076923076923
 40
0.6923076923076923
 40
0.6923076923076923
 40
0.7692307692307693
 40
0.7692307692307693
 40
0.7692307692307693
 40
0.7692307692307693
 40
0.8461538461538461
 40
0.8461538461538461
 40
0.8461538461538461
 40
0.8461538461538461
 40
1.0
 40
1.0
 40
1.0
 40
1.0
 10
2.76746
 20
-9.08067
 30
0.0
 10
2.76746
 20
-9.08067
 30
0.0
 10
2.76746
 20
-8.47445
 30
0.0
 10
2.76746
 20
-8.47445
 30
0.0
 10
2.76746
 20
-8.47445
 30
0.0
 10
2.76746
 20
-8.47445
 30
0.0
 10
3.20519
 20
-8.47445
 30
0.0
 10
3.20519
 20
-8.47445
 30
0.0
 10
3.20519
 20
-8.47445
 30
0.0
 10
3.20519
 20
-8.47445
 30
0.0
 10
3.20519
 20
-8.54557
 30
0.0
 10
3.20519
 20
-8.54557
 30
0.0
 10
3.20519
 20
-8.54557
 30
0.0
 10
3.20519
 20
-8.54557
 30
0.0
 10
2.84789
 20
-8.54557
 30
0.0
 10
2.84789
 20
-8.54557
 30
0.0
 10
2.84789
 20
-8.54557
 30
0.0
 10
2.84789
 20
-8.54557
 30
0.0
 10
2.84789
 20
-8.73184
 30
0.0
 10
2.84789
 20
-8.73184
 30
0.0
 10
2.84789
 20
-8.73184
 30
0.0
 10
2.84789
 20
-8.73184
 30
0.0
 10
3.18233
 20
-8.73184
 30
0.0
 10
3.18233
 20
-8.73184
 30
0.0
 10
3.18233
 20
-8.73184
 30
0.0
 10
3.18233
 20
-8.73184
 30
0.0
 10
3.18233
 20
-8.80296
 30
0.0
 10
3.18233
 20
-8.80296
 30
0.0
 10
3.18233
 20
-8.80296
 30
0.0
 10
3.18233
 20
-8.80296
 30
0.0
 10
2.84789
 20
-8.80296
 30
0.0
 10
2.84789
 20
-8.80296
 30
0.0
 10
2.84789
 20
-8.80296
 30
0.0
 10
2.84789
 20
-8.80296
 30
0.0
 10
2.84789
 20
-9.00955
 30
0.0
 10
2.84789
 20
-9.00955
 30
0.0
 10
2.84789
 20
-9.00955
 30
0.0
 10
2.84789
 20
-9.00955
 30
0.0
 10
3.21958
 20
-9.00955
 30
0.0
 10
3.21958
 20
-9.00955
 30
0.0
 10
3.21958
 20
-9.00955
 30
0.0
 10
3.21958
 20
-9.00955
 30
0.0
 10
3.21958
 20
-9.08067
 30
0.0
 10
3.21958
 20
-9.08067
 30
0.0
 10
3.21958
 20
-9.08067
 30
0.0
 10
3.21958
 20
-9.08067
 30
0.0
 10
2.76746
 20
-9.08067
 30
0.0
 10
2.76746
 20
-9.08067
 30
0.0
  0
SPLINE
  5
52
330
1F
100
AcDbEntity
  8
Layer 1
 62
     3
370
     9
100
AcDbSpline
210
0.0
220
0.0
230
1.0
 70
     8
 71
     3
 72
    32
 73
    28
 74
     0
 42
0.0000000001
 43
0.0000000001
 12
1.0
 22
0.0
 32
0.0
 13
1.0
 23
0.0
 33
0.0
 40
0.0
 40
0.0
 40
0.0
 40
0.0
 40
0.125
 40
0.125
 40
0.125
 40
0.125
 40
0.25
 40
0.25
 40
0.25
 40
0.25
 40
0.375
 40
0.375
 40
0.375
 40
0.375
 40
0.5
 40
0.5
 40
0.5
 40
0.5
 40
0.625
 40
0.625
 40
0.625
 40
0.625
 40
0.75
 40
0.75
 40
0.75
 40
0.75
 40
1.0
 40
1.0
 40
1.0
 40
1.0
 10
5.71292
 20
5.57999
 30
0.0
 10
5.71292
 20
5.57999
 30
0.0
 10
-9.96956
 20
5.57999
 30
0.0
 10
-9.96956
 20
5.57999
 30
0.0
 10
-9.96956
 20
5.57999
 30
0.0
 10
-10.04609
 20
5.57994
 30
0.0
 10
-10.11948
 20
5.54949
 30
0.0
 10
-10.17357
 20
5.49534
 30
0.0
 10
-10.17357
 20
5.49534
 30
0.0
 10
-10.22766
 20
5.44118
 30
0.0
 10
-10.25801
 20
5.36812
 30
0.0
 10
-10.25797
 20
5.29158
 30
0.0
 10
-10.25797
 20
5.29158
 30
0.0
 10
-10.25797
 20
5.29158
 30
0.0
 10
-10.25797
 20
-5.85258
 30
0.0
 10
-10.25797
 20
-5.85258
 30
0.0
 10
-10.25797
 20
-5.85258
 30
0.0
 10
-10.25792
 20
-5.92912
 30
0.0
 10
-10.22747
 20
-6.0025
 30
0.0
 10
-10.17331
 20
-6.05659
 30
0.0
 10
-10.17331
 20
-6.05659
 30
0.0
 10
-10.11915
 20
-6.11068
 30
0.0
 10
-10.04609
 20
-6.14104
 30
0.0
 10
-9.96956
 20
-6.14099
 30
0.0
 10
-9.96956
 20
-6.14099
 30
0.0
 10
-9.96956
 20
-6.14099
 30
0.0
 10
5.71292
 20
-6.14099
 30
0.0
 10
5.71292
 20
-6.14099
 30
0.0
  0
SPLINE
  5
53
330
1F
100
AcDbEntity
  8
Layer 1
 62
     3
370
     9
100
AcDbSpline
210
0.0
220
0.0
230
1.0
 70
     8
 71
     3
 72
    32
 73
    28
 74
     0
 42
0.0000000001
 43
0.0000000001
 12
1.0
 22
0.0
 32
0.0
 13
1.0
 23
0.0
 33
0.0
 40
0.0
 40
0.0
 40
0.0
 40
0.0
 40
0.125
 40
0.125
 40
0.125
 40
0.125
 40
0.25
 40
0.25
 40
0.25
 40
0.25
 40
0.375
 40
0.375
 40
0.375
 40
0.375
 40
0.5
 40
0.5
 40
0.5
 40
0.5
 40
0.625
 40
0.625
 40
0.625
 40
0.625
 40
0.75
 40
0.75
 40
0.75
 40
0.75
 40
1.0
 40
1.0
 40
1.0
 40
1.0
 10
5.71292
 20
5.57999
 30
0.0
 10
5.71292
 20
5.57999
 30
0.0
 10
10.6979
 20
5.57999
 30
0.0
 10
10.6979
 20
5.57999
 30
0.0
 10
10.6979
 20
5.57999
 30
0.0
 10
10.77435
 20
5.58004
 30
0.0
 10
10.84768
 20
5.54972
 30
0.0
 10
10.90176
 20
5.4957
 30
0.0
 10
10.90176
 20
5.4957
 30
0.0
 10
10.95585
 20
5.44168
 30
0.0
 10
10.98626
 20
5.36802
 30
0.0
 10
10.98631
 20
5.29158
 30
0.0
 10
10.98631
 20
5.29158
 30
0.0
 10
10.98631
 20
5.29158
 30
0.0
 10
10.98631
 20
-5.85258
 30
0.0
 10
10.98631
 20
-5.85258
 30
0.0
 10
10.98631
 20
-5.85258
 30
0.0
 10
10.98636
 20
-5.92902
 30
0.0
 10
10.95604
 20
-6.00235
 30
0.0
 10
10.90202
 20
-6.05644
 30
0.0
 10
10.90202
 20
-6.05644
 30
0.0
 10
10.848
 20
-6.11053
 30
0.0
 10
10.77435
 20
-6.14094
 30
0.0
 10
10.6979
 20
-6.14099
 30
0.0
 10
10.6979
 20
-6.14099
 30
0.0
 10
10.6979
 20
-6.14099
 30
0.0
 10
5.71292
 20
-6.14099
 30
0.0
 10
5.71292
 20
-6.14099
 30
0.0
  0
SPLINE
  5
55
330
1F
100
AcDbEntity
  8
layer 2
 62
     1
370
     0
100
AcDbSpline
210
0.0
220
0.0
230
1.0
 70
    24
 71
     3
 72
     8
 73
     4
 74
     0
 42
0.0000000001
 43
0.0000000001
 12
1.0
 22
0.0
 32
0.0
 13
1.0
 23
0.0
 33
0.0
 40
0.0
 40
0.0
 40
0.0
 40
0.0
 40
1.0
 40
1.0
 40
1.0
 40
1.0
 10
-10.25797
 20
5.43579
 30
0.0
 10
-10.25797
 20
5.43579
 30
0.0
 10
-10.25797
 20
6.93722
 30
0.0
 10
-10.25797
 20
6.93722
 30
0.0
  0
SPLINE
  5
56
330
1F
100
AcDbEntity
  8
layer 2
 62
     1
370
     0
100
AcDbSpline
210
0.0
220
0.0
230
1.0
 70
    24
 71
     3
 72
     8
 73
     4
 74
     0
 42
0.0000000001
 43
0.0000000001
 12
1.0
 22
0.0
 32
0.0
 13
1.0
 23
0.0
 33
0.0
 40
0.0
 40
0.0
 40
0.0
 40
0.0
 40
1.0
 40
1.0
 40
1.0
 40
1.0
 10
10.98631
 20
5.43579
 30
0.0
 10
10.98631
 20
5.43579
 30
0.0
 10
10.98631
 20
6.93722
 30
0.0
 10
10.98631
 20
6.93722
 30
0.0
  0
SPLINE
  5
57
330
1F
100
AcDbEntity
  8
layer 2
 62
     1
370
     0
100
AcDbSpline
210
0.0
220
0.0
230
1.0
 70
    24
 71
     3
 72
     8
 73
     4
 74
     0
 42
0.0000000001
 43
0.0000000001
 12
1.0
 22
0.0
 32
0.0
 13
1.0
 23
0.0
 33
0.0
 40
0.0
 40
0.0
 40
0.0
 40
0.0
 40
1.0
 40
1.0
 40
1.0
 40
1.0
 10
-9.68115
 20
6.64881
 30
0.0
 10
-9.68115
 20
6.64881
 30
0.0
 10
10.40949
 20
6.64881
 30
0.0
 10
10.40949
 20
6.64881
 30
0.0
  0
SPLINE
  5
58
330
1F
100
AcDbEntity
  8
layer 2
 62
     1
100
AcDbSpline
210
0.0
220
0.0
230
1.0
 70
    27
 71
     3
 72
    12
 73
     8
 74
     0
 42
0.0000000001
 43
0.0000000001
 12
1.0
 22
0.0
 32
0.0
 13
1.0
 23
0.0
 33
0.0
 40
0.0
 40
0.0
 40
0.0
 40
0.0
 40
0.3333333333333333
 40
0.3333333333333333
 40
0.3333333333333333
 40
0.3333333333333333
 40
1.0
 40
1.0
 40
1.0
 40
1.0
 10
-9.68115
 20
6.74494
 30
0.0
 10
-9.68115
 20
6.74494
 30
0.0
 10
-10.25797
 20
6.64881
 30
0.0
 10
-10.25797
 20
6.64881
 30
0.0
 10
-10.25797
 20
6.64881
 30
0.0
 10
-10.25797
 20
6.64881
 30
0.0
 10
-9.68115
 20
6.74494
 30
0.0
 10
-9.68115
 20
6.74494
 30
0.0
  0
SPLINE
  5
59
330
1F
100
AcDbEntity
  8
layer 2
 62
     1
100
AcDbSpline
210
0.0
220
0.0
230
1.0
 70
     8
 71
     3
 72
    12
 73
     8
 74
     0
 42
0.0000000001
 43
0.0000000001
 12
1.0
 22
0.0
 32
0.0
 13
1.0
 23
0.0
 33
0.0
 40
0.0
 40
0.0
 40
0.0
 40
0.0
 40
0.3333333333333333
 40
0.3333333333333333
 40
0.3333333333333333
 40
0.3333333333333333
 40
1.0
 40
1.0
 40
1.0
 40
1.0
 10
-10.25797
 20
6.64881
 30
0.0
 10
-10.25797
 20
6.64881
 30
0.0
 10
-9.68115
 20
6.55267
 30
0.0
 10
-9.68115
 20
6.55267
 30
0.0
 10
-9.68115
 20
6.55267
 30
0.0
 10
-9.68115
 20
6.55267
 30
0.0
 10
-9.68115
 20
6.74494
 30
0.0
 10
-9.68115
 20
6.74494
 30
0.0
  0
SPLINE
  5
5A
330
1F
100
AcDbEntity
  8
layer 2
 62
     1
370
     9
100
AcDbSpline
210
0.0
220
0.0
230
1.0
 70
    24
 71
     3
 72
     8
 73
     4
 74
     0
 42
0.0000000001
 43
0.0000000001
 12
1.0
 22
0.0
 32
0.0
 13
1.0
 23
0.0
 33
0.0
 40
0.0
 40
0.0
 40
0.0
 40
0.0
 40
1.0
 40
1.0
 40
1.0
 40
1.0
 10
-9.68115
 20
6.74494
 30
0.0
 10
-9.68115
 20
6.74494
 30
0.0
 10
-10.25797
 20
6.64881
 30
0.0
 10
-10.25797
 20
6.64881
 30
0.0
  0
SPLINE
  5
5B
330
1F
100
AcDbEntity
  8
layer 2
 62
     1
370
     9
100
AcDbSpline
210
0.0
220
0.0
230
1.0
 70
     8
 71
     3
 72
    12
 73
     8
 74
     0
 42
0.0000000001
 43
0.0000000001
 12
1.0
 22
0.0
 32
0.0
 13
1.0
 23
0.0
 33
0.0
 40
0.0
 40
0.0
 40
0.0
 40
0.0
 40
0.3333333333333333
 40
0.3333333333333333
 40
0.3333333333333333
 40
0.3333333333333333
 40
1.0
 40
1.0
 40
1.0
 40
1.0
 10
-10.25797
 20
6.64881
 30
0.0
 10
-10.25797
 20
6.64881
 30
0.0
 10
-9.68115
 20
6.55267
 30
0.0
 10
-9.68115
 20
6.55267
 30
0.0
 10
-9.68115
 20
6.55267
 30
0.0
 10
-9.68115
 20
6.55267
 30
0.0
 10
-9.68115
 20
6.74494
 30
0.0
 10
-9.68115
 20
6.74494
 30
0.0
  0
SPLINE
  5
5C
330
1F
100
AcDbEntity
  8
layer 2
 62
     1
100
AcDbSpline
210
0.0
220
0.0
230
1.0
 70
    27
 71
     3
 72
    12
 73
     8
 74
     0
 42
0.0000000001
 43
0.0000000001
 12
1.0
 22
0.0
 32
0.0
 13
1.0
 23
0.0
 33
0.0
 40
0.0
 40
0.0
 40
0.0
 40
0.0
 40
0.3333333333333333
 40
0.3333333333333333
 40
0.3333333333333333
 40
0.3333333333333333
 40
1.0
 40
1.0
 40
1.0
 40
1.0
 10
10.40949
 20
6.74494
 30
0.0
 10
10.40949
 20
6.74494
 30
0.0
 10
10.98631
 20
6.64881
 30
0.0
 10
10.98631
 20
6.64881
 30
0.0
 10
10.98631
 20
6.64881
 30
0.0
 10
10.98631
 20
6.64881
 30
0.0
 10
10.40949
 20
6.74494
 30
0.0
 10
10.40949
 20
6.74494
 30
0.0
  0
SPLINE
  5
5D
330
1F
100
AcDbEntity
  8
layer 2
 62
     1
100
AcDbSpline
210
0.0
220
0.0
230
1.0
 70
     8
 71
     3
 72
    12
 73
     8
 74
     0
 42
0.0000000001
 43
0.0000000001
 12
1.0
 22
0.0
 32
0.0
 13
1.0
 23
0.0
 33
0.0
 40
0.0
 40
0.0
 40
0.0
 40
0.0
 40
0.3333333333333333
 40
0.3333333333333333
 40
0.3333333333333333
 40
0.3333333333333333
 40
1.0
 40
1.0
 40
1.0
 40
1.0
 10
10.98631
 20
6.64881
 30
0.0
 10
10.98631
 20
6.64881
 30
0.0
 10
10.40949
 20
6.55267
 30
0.0
 10
10.40949
 20
6.55267
 30
0.0
 10
10.40949
 20
6.55267
 30
0.0
 10
10.40949
 20
6.55267
 30
0.0
 10
10.40949
 20
6.74494
 30
0.0
 10
10.40949
 20
6.74494
 30
0.0
  0
SPLINE
  5
5E
330
1F
100
AcDbEntity
  8
layer 2
 62
     1
370
     9
100
AcDbSpline
210
0.0
220
0.0
230
1.0
 70
    24
 71
     3
 72
     8
 73
     4
 74
     0
 42
0.0000000001
 43
0.0000000001
 12
1.0
 22
0.0
 32
0.0
 13
1.0
 23
0.0
 33
0.0
 40
0.0
 40
0.0
 40
0.0
 40
0.0
 40
1.0
 40
1.0
 40
1.0
 40
1.0
 10
10.40949
 20
6.74494
 30
0.0
 10
10.40949
 20
6.74494
 30
0.0
 10
10.98631
 20
6.64881
 30
0.0
 10
10.98631
 20
6.64881
 30
0.0
  0
SPLINE
  5
5F
330
1F
100
AcDbEntity
  8
layer 2
 62
     1
370
     9
100
AcDbSpline
210
0.0
220
0.0
230
1.0
 70
     8
 71
     3
 72
    12
 73
     8
 74
     0
 42
0.0000000001
 43
0.0000000001
 12
1.0
 22
0.0
 32
0.0
 13
1.0
 23
0.0
 33
0.0
 40
0.0
 40
0.0
 40
0.0
 40
0.0
 40
0.3333333333333333
 40
0.3333333333333333
 40
0.3333333333333333
 40
0.3333333333333333
 40
1.0
 40
1.0
 40
1.0
 40
1.0
 10
10.98631
 20
6.64881
 30
0.0
 10
10.98631
 20
6.64881
 30
0.0
 10
10.40949
 20
6.55267
 30
0.0
 10
10.40949
 20
6.55267
 30
0.0
 10
10.40949
 20
6.55267
 30
0.0
 10
10.40949
 20
6.55267
 30
0.0
 10
10.40949
 20
6.74494
 30
0.0
 10
10.40949
 20
6.74494
 30
0.0
  0
SPLINE
  5
60
330
1F
100
AcDbEntity
  8
layer 2
 62
     1
100
AcDbSpline
210
0.0
220
0.0
230
1.0
 70
    11
 71
     3
 72
    92
 73
    88
 74
     0
 42
0.0000000001
 43
0.0000000001
 12
1.0
 22
0.0
 32
0.0
 13
1.0
 23
0.0
 33
0.0
 40
0.0
 40
0.0
 40
0.0
 40
0.0
 40
0.0434782608695652
 40
0.0434782608695652
 40
0.0434782608695652
 40
0.0434782608695652
 40
0.0869565217391304
 40
0.0869565217391304
 40
0.0869565217391304
 40
0.0869565217391304
 40
0.1304347826086956
 40
0.1304347826086956
 40
0.1304347826086956
 40
0.1304347826086956
 40
0.1739130434782609
 40
0.1739130434782609
 40
0.1739130434782609
 40
0.1739130434782609
 40
0.2173913043478261
 40
0.2173913043478261
 40
0.2173913043478261
 40
0.2173913043478261
 40
0.2608695652173913
 40
0.2608695652173913
 40
0.2608695652173913
 40
0.2608695652173913
 40
0.3043478260869565
 40
0.3043478260869565
 40
0.3043478260869565
 40
0.3043478260869565
 40
0.3478260869565217
 40
0.3478260869565217
 40
0.3478260869565217
 40
0.3478260869565217
 40
0.391304347826087
 40
0.391304347826087
 40
0.391304347826087
 40
0.391304347826087
 40
0.4347826086956522
 40
0.4347826086956522
 40
0.4347826086956522
 40
0.4347826086956522
 40
0.4782608695652174
 40
0.4782608695652174
 40
0.4782608695652174
 40
0.4782608695652174
 40
0.5217391304347826
 40
0.5217391304347826
 40
0.5217391304347826
 40
0.5217391304347826
 40
0.5652173913043478
 40
0.5652173913043478
 40
0.5652173913043478
 40
0.5652173913043478
 40
0.6086956521739131
 40
0.6086956521739131
 40
0.6086956521739131
 40
0.6086956521739131
 40
0.6521739130434783
 40
0.6521739130434783
 40
0.6521739130434783
 40
0.6521739130434783
 40
0.6956521739130435
 40
0.6956521739130435
 40
0.6956521739130435
 40
0.6956521739130435
 40
0.7391304347826086
 40
0.7391304347826086
 40
0.7391304347826086
 40
0.7391304347826086
 40
0.782608695652174
 40
0.782608695652174
 40
0.782608695652174
 40
0.782608695652174
 40
0.8260869565217391
 40
0.8260869565217391
 40
0.8260869565217391
 40
0.8260869565217391
 40
0.8695652173913043
 40
0.8695652173913043
 40
0.8695652173913043
 40
0.8695652173913043
 40
0.9130434782608695
 40
0.9130434782608695
 40
0.9130434782608695
 40
0.9130434782608695
 40
1.0
 40
1.0
 40
1.0
 40
1.0
 10
0.24176
 20
6.93997
 30
0.0
 10
0.24176
 20
6.93997
 30
0.0
 10
0.24176
 20
6.8954
 30
0.0
 10
0.24176
 20
6.8954
 30
0.0
 10
0.24176
 20
6.8954
 30
0.0
 10
0.24176
 20
6.8954
 30
0.0
 10
-0.00978
 20
6.8954
 30
0.0
 10
-0.00978
 20
6.8954
 30
0.0
 10
-0.00978
 20
6.8954
 30
0.0
 10
-0.01013
 20
6.90663
 30
0.0
 10
-0.00827
 20
6.91742
 30
0.0
 10
-0.00429
 20
6.92786
 30
0.0
 10
-0.00429
 20
6.92786
 30
0.0
 10
0.00216
 20
6.94493
 30
0.0
 10
0.01251
 20
6.96182
 30
0.0
 10
0.02675
 20
6.97836
 30
0.0
 10
0.02675
 20
6.97836
 30
0.0
 10
0.04099
 20
6.9949
 30
0.0
 10
0.06133
 20
7.014
 30
0.0
 10
0.08778
 20
7.03567
 30
0.0
 10
0.08778
 20
7.03567
 30
0.0
 10
0.12891
 20
7.06954
 30
0.0
 10
0.15686
 20
7.09634
 30
0.0
 10
0.17145
 20
7.11616
 30
0.0
 10
0.17145
 20
7.11616
 30
0.0
 10
0.18613
 20
7.13597
 30
0.0
 10
0.19347
 20
7.15472
 30
0.0
 10
0.19347
 20
7.17241
 30
0.0
 10
0.19347
 20
7.17241
 30
0.0
 10
0.19347
 20
7.19089
 30
0.0
 10
0.18684
 20
7.20646
 30
0.0
 10
0.17357
 20
7.21919
 30
0.0
 10
0.17357
 20
7.21919
 30
0.0
 10
0.16031
 20
7.23184
 30
0.0
 10
0.14297
 20
7.23821
 30
0.0
 10
0.12165
 20
7.23821
 30
0.0
 10
0.12165
 20
7.23821
 30
0.0
 10
0.0991
 20
7.23821
 30
0.0
 10
0.08106
 20
7.23149
 30
0.0
 10
0.06752
 20
7.21804
 30
0.0
 10
0.06752
 20
7.21804
 30
0.0
 10
0.05399
 20
7.20469
 30
0.0
 10
0.04718
 20
7.18612
 30
0.0
 10
0.04701
 20
7.16232
 30
0.0
 10
0.04701
 20
7.16232
 30
0.0
 10
0.04701
 20
7.16232
 30
0.0
 10
-0.00075
 20
7.1671
 30
0.0
 10
-0.00075
 20
7.1671
 30
0.0
 10
-0.00075
 20
7.1671
 30
0.0
 10
0.00252
 20
7.20283
 30
0.0
 10
0.0149
 20
7.23007
 30
0.0
 10
0.0363
 20
7.24882
 30
0.0
 10
0.0363
 20
7.24882
 30
0.0
 10
0.0578
 20
7.26758
 30
0.0
 10
0.08654
 20
7.27695
 30
0.0
 10
0.12271
 20
7.27695
 30
0.0
 10
0.12271
 20
7.27695
 30
0.0
 10
0.15915
 20
7.27695
 30
0.0
 10
0.18808
 20
7.26687
 30
0.0
 10
0.2093
 20
7.24661
 30
0.0
 10
0.2093
 20
7.24661
 30
0.0
 10
0.23062
 20
7.22636
 30
0.0
 10
0.24123
 20
7.20124
 30
0.0
 10
0.24123
 20
7.17134
 30
0.0
 10
0.24123
 20
7.17134
 30
0.0
 10
0.24123
 20
7.15613
 30
0.0
 10
0.23814
 20
7.14119
 30
0.0
 10
0.23186
 20
7.12651
 30
0.0
 10
0.23186
 20
7.12651
 30
0.0
 10
0.22567
 20
7.11173
 30
0.0
 10
0.21532
 20
7.09626
 30
0.0
 10
0.2009
 20
7.07998
 30
0.0
 10
0.2009
 20
7.07998
 30
0.0
 10
0.1864
 20
7.0638
 30
0.0
 10
0.16243
 20
7.04142
 30
0.0
 10
0.129
 20
7.01312
 30
0.0
 10
0.129
 20
7.01312
 30
0.0
 10
0.10096
 20
6.98959
 30
0.0
 10
0.08291
 20
6.97367
 30
0.0
 10
0.07495
 20
6.96527
 30
0.0
 10
0.07495
 20
6.96527
 30
0.0
 10
0.06699
 20
6.95687
 30
0.0
 10
0.06045
 20
6.94846
 30
0.0
 10
0.05523
 20
6.93997
 30
0.0
 10
0.05523
 20
6.93997
 30
0.0
 10
0.05523
 20
6.93997
 30
0.0
 10
0.24176
 20
6.93997
 30
0.0
 10
0.24176
 20
6.93997
 30
0.0
  0
SPLINE
  5
61
330
1F
100
AcDbEntity
  8
layer 2
 62
     1
100
AcDbSpline
210
0.0
220
0.0
230
1.0
 70
    11
 71
     3
 72
    92
 73
    88
 74
     0
 42
0.0000000001
 43
0.0000000001
 12
1.0
 22
0.0
 32
0.0
 13
1.0
 23
0.0
 33
0.0
 40
0.0
 40
0.0
 40
0.0
 40
0.0
 40
0.0434782608695652
 40
0.0434782608695652
 40
0.0434782608695652
 40
0.0434782608695652
 40
0.0869565217391304
 40
0.0869565217391304
 40
0.0869565217391304
 40
0.0869565217391304
 40
0.1304347826086956
 40
0.1304347826086956
 40
0.1304347826086956
 40
0.1304347826086956
 40
0.1739130434782609
 40
0.1739130434782609
 40
0.1739130434782609
 40
0.1739130434782609
 40
0.2173913043478261
 40
0.2173913043478261
 40
0.2173913043478261
 40
0.2173913043478261
 40
0.2608695652173913
 40
0.2608695652173913
 40
0.2608695652173913
 40
0.2608695652173913
 40
0.3043478260869565
 40
0.3043478260869565
 40
0.3043478260869565
 40
0.3043478260869565
 40
0.3478260869565217
 40
0.3478260869565217
 40
0.3478260869565217
 40
0.3478260869565217
 40
0.391304347826087
 40
0.391304347826087
 40
0.391304347826087
 40
0.391304347826087
 40
0.4347826086956522
 40
0.4347826086956522
 40
0.4347826086956522
 40
0.4347826086956522
 40
0.4782608695652174
 40
0.4782608695652174
 40
0.4782608695652174
 40
0.4782608695652174
 40
0.5217391304347826
 40
0.5217391304347826
 40
0.5217391304347826
 40
0.5217391304347826
 40
0.5652173913043478
 40
0.5652173913043478
 40
0.5652173913043478
 40
0.5652173913043478
 40
0.6086956521739131
 40
0.6086956521739131
 40
0.6086956521739131
 40
0.6086956521739131
 40
0.6521739130434783
 40
0.6521739130434783
 40
0.6521739130434783
 40
0.6521739130434783
 40
0.6956521739130435
 40
0.6956521739130435
 40
0.6956521739130435
 40
0.6956521739130435
 40
0.7391304347826086
 40
0.7391304347826086
 40
0.7391304347826086
 40
0.7391304347826086
 40
0.782608695652174
 40
0.782608695652174
 40
0.782608695652174
 40
0.782608695652174
 40
0.8260869565217391
 40
0.8260869565217391
 40
0.8260869565217391
 40
0.8260869565217391
 40
0.8695652173913043
 40
0.8695652173913043
 40
0.8695652173913043
 40
0.8695652173913043
 40
0.9130434782608695
 40
0.9130434782608695
 40
0.9130434782608695
 40
0.9130434782608695
 40
1.0
 40
1.0
 40
1.0
 40
1.0
 10
0.29916
 20
6.98349
 30
0.0
 10
0.29916
 20
6.98349
 30
0.0
 10
0.34374
 20
6.9872
 30
0.0
 10
0.34374
 20
6.9872
 30
0.0
 10
0.34374
 20
6.9872
 30
0.0
 10
0.34754
 20
6.96615
 30
0.0
 10
0.35479
 20
6.95094
 30
0.0
 10
0.3655
 20
6.94148
 30
0.0
 10
0.3655
 20
6.94148
 30
0.0
 10
0.3762
 20
6.93201
 30
0.0
 10
0.38991
 20
6.92724
 30
0.0
 10
0.40671
 20
6.92724
 30
0.0
 10
0.40671
 20
6.92724
 30
0.0
 10
0.42104
 20
6.92724
 30
0.0
 10
0.4336
 20
6.93051
 30
0.0
 10
0.44448
 20
6.93714
 30
0.0
 10
0.44448
 20
6.93714
 30
0.0
 10
0.45536
 20
6.94369
 30
0.0
 10
0.4642
 20
6.95244
 30
0.0
 10
0.47101
 20
6.9635
 30
0.0
 10
0.47101
 20
6.9635
 30
0.0
 10
0.47782
 20
6.97447
 30
0.0
 10
0.48357
 20
6.98933
 30
0.0
 10
0.48826
 20
7.00799
 30
0.0
 10
0.48826
 20
7.00799
 30
0.0
 10
0.49295
 20
7.02665
 30
0.0
 10
0.49525
 20
7.04566
 30
0.0
 10
0.49525
 20
7.06503
 30
0.0
 10
0.49525
 20
7.06503
 30
0.0
 10
0.49525
 20
7.06707
 30
0.0
 10
0.49516
 20
7.07025
 30
0.0
 10
0.49498
 20
7.07441
 30
0.0
 10
0.49498
 20
7.07441
 30
0.0
 10
0.4857
 20
7.05955
 30
0.0
 10
0.47296
 20
7.04744
 30
0.0
 10
0.45686
 20
7.03824
 30
0.0
 10
0.45686
 20
7.03824
 30
0.0
 10
0.44076
 20
7.02895
 30
0.0
 10
0.42325
 20
7.02435
 30
0.0
 10
0.4045
 20
7.02435
 30
0.0
 10
0.4045
 20
7.02435
 30
0.0
 10
0.3731
 20
7.02435
 30
0.0
 10
0.34657
 20
7.03576
 30
0.0
 10
0.32481
 20
7.05858
 30
0.0
 10
0.32481
 20
7.05858
 30
0.0
 10
0.30314
 20
7.08131
 30
0.0
 10
0.29226
 20
7.11138
 30
0.0
 10
0.29226
 20
7.1487
 30
0.0
 10
0.29226
 20
7.1487
 30
0.0
 10
0.29226
 20
7.18727
 30
0.0
 10
0.30358
 20
7.21822
 30
0.0
 10
0.32632
 20
7.24175
 30
0.0
 10
0.32632
 20
7.24175
 30
0.0
 10
0.34896
 20
7.26519
 30
0.0
 10
0.37735
 20
7.27695
 30
0.0
 10
0.41158
 20
7.27695
 30
0.0
 10
0.41158
 20
7.27695
 30
0.0
 10
0.43616
 20
7.27695
 30
0.0
 10
0.45872
 20
7.27032
 30
0.0
 10
0.47924
 20
7.25696
 30
0.0
 10
0.47924
 20
7.25696
 30
0.0
 10
0.49967
 20
7.2437
 30
0.0
 10
0.51515
 20
7.22477
 30
0.0
 10
0.52576
 20
7.20009
 30
0.0
 10
0.52576
 20
7.20009
 30
0.0
 10
0.53637
 20
7.1755
 30
0.0
 10
0.54168
 20
7.13986
 30
0.0
 10
0.54168
 20
7.09325
 30
0.0
 10
0.54168
 20
7.09325
 30
0.0
 10
0.54168
 20
7.04469
 30
0.0
 10
0.53646
 20
7.00604
 30
0.0
 10
0.52594
 20
6.9773
 30
0.0
 10
0.52594
 20
6.9773
 30
0.0
 10
0.51541
 20
6.94846
 30
0.0
 10
0.49967
 20
6.92662
 30
0.0
 10
0.47888
 20
6.91158
 30
0.0
 10
0.47888
 20
6.91158
 30
0.0
 10
0.4581
 20
6.89655
 30
0.0
 10
0.43378
 20
6.88903
 30
0.0
 10
0.40583
 20
6.88903
 30
0.0
 10
0.40583
 20
6.88903
 30
0.0
 10
0.37611
 20
6.88903
 30
0.0
 10
0.35188
 20
6.89725
 30
0.0
 10
0.33304
 20
6.91379
 30
0.0
 10
0.33304
 20
6.91379
 30
0.0
 10
0.31429
 20
6.93033
 30
0.0
 10
0.30297
 20
6.9536
 30
0.0
 10
0.29916
 20
6.98349
 30
0.0
  0
SPLINE
  5
62
330
1F
100
AcDbEntity
  8
layer 2
 62
     1
100
AcDbSpline
210
0.0
220
0.0
230
1.0
 70
    11
 71
     3
 72
    36
 73
    32
 74
     0
 42
0.0000000001
 43
0.0000000001
 12
1.0
 22
0.0
 32
0.0
 13
1.0
 23
0.0
 33
0.0
 40
0.0
 40
0.0
 40
0.0
 40
0.0
 40
0.1111111111111111
 40
0.1111111111111111
 40
0.1111111111111111
 40
0.1111111111111111
 40
0.2222222222222222
 40
0.2222222222222222
 40
0.2222222222222222
 40
0.2222222222222222
 40
0.3333333333333333
 40
0.3333333333333333
 40
0.3333333333333333
 40
0.3333333333333333
 40
0.4444444444444444
 40
0.4444444444444444
 40
0.4444444444444444
 40
0.4444444444444444
 40
0.5555555555555556
 40
0.5555555555555556
 40
0.5555555555555556
 40
0.5555555555555556
 40
0.6666666666666666
 40
0.6666666666666666
 40
0.6666666666666666
 40
0.6666666666666666
 40
0.7777777777777778
 40
0.7777777777777778
 40
0.7777777777777778
 40
0.7777777777777778
 40
1.0
 40
1.0
 40
1.0
 40
1.0
 10
0.48968
 20
7.15109
 30
0.0
 10
0.48968
 20
7.1778
 30
0.0
 10
0.4826
 20
7.19903
 30
0.0
 10
0.46845
 20
7.21468
 30
0.0
 10
0.46845
 20
7.21468
 30
0.0
 10
0.45439
 20
7.23034
 30
0.0
 10
0.43723
 20
7.23821
 30
0.0
 10
0.41706
 20
7.23821
 30
0.0
 10
0.41706
 20
7.23821
 30
0.0
 10
0.39619
 20
7.23821
 30
0.0
 10
0.37814
 20
7.22981
 30
0.0
 10
0.36293
 20
7.21292
 30
0.0
 10
0.36293
 20
7.21292
 30
0.0
 10
0.34763
 20
7.19602
 30
0.0
 10
0.34003
 20
7.17409
 30
0.0
 10
0.34003
 20
7.1472
 30
0.0
 10
0.34003
 20
7.1472
 30
0.0
 10
0.34003
 20
7.12306
 30
0.0
 10
0.34728
 20
7.10342
 30
0.0
 10
0.36169
 20
7.08838
 30
0.0
 10
0.36169
 20
7.08838
 30
0.0
 10
0.3762
 20
7.07326
 30
0.0
 10
0.39424
 20
7.06574
 30
0.0
 10
0.41573
 20
7.06574
 30
0.0
 10
0.41573
 20
7.06574
 30
0.0
 10
0.43731
 20
7.06574
 30
0.0
 10
0.455
 20
7.07326
 30
0.0
 10
0.46889
 20
7.08838
 30
0.0
 10
0.46889
 20
7.08838
 30
0.0
 10
0.48278
 20
7.10342
 30
0.0
 10
0.48968
 20
7.12438
 30
0.0
 10
0.48968
 20
7.15109
 30
0.0
  0
SPLINE
  5
63
330
1F
100
AcDbEntity
  8
layer 2
 62
     1
100
AcDbSpline
210
0.0
220
0.0
230
1.0
 70
    11
 71
     3
 72
    28
 73
    24
 74
     0
 42
0.0000000001
 43
0.0000000001
 12
1.0
 22
0.0
 32
0.0
 13
1.0
 23
0.0
 33
0.0
 40
0.0
 40
0.0
 40
0.0
 40
0.0
 40
0.1428571428571428
 40
0.1428571428571428
 40
0.1428571428571428
 40
0.1428571428571428
 40
0.2857142857142857
 40
0.2857142857142857
 40
0.2857142857142857
 40
0.2857142857142857
 40
0.4285714285714285
 40
0.4285714285714285
 40
0.4285714285714285
 40
0.4285714285714285
 40
0.5714285714285714
 40
0.5714285714285714
 40
0.5714285714285714
 40
0.5714285714285714
 40
0.7142857142857143
 40
0.7142857142857143
 40
0.7142857142857143
 40
0.7142857142857143
 40
1.0
 40
1.0
 40
1.0
 40
1.0
 10
0.60244
 20
7.1411
 30
0.0
 10
0.60244
 20
7.1411
 30
0.0
 10
0.58953
 20
7.21327
 30
0.0
 10
0.58953
 20
7.21327
 30
0.0
 10
0.58953
 20
7.21327
 30
0.0
 10
0.58953
 20
7.21327
 30
0.0
 10
0.58953
 20
7.27536
 30
0.0
 10
0.58953
 20
7.27536
 30
0.0
 10
0.58953
 20
7.27536
 30
0.0
 10
0.58953
 20
7.27536
 30
0.0
 10
0.6426
 20
7.27536
 30
0.0
 10
0.6426
 20
7.27536
 30
0.0
 10
0.6426
 20
7.27536
 30
0.0
 10
0.6426
 20
7.27536
 30
0.0
 10
0.6426
 20
7.21327
 30
0.0
 10
0.6426
 20
7.21327
 30
0.0
 10
0.6426
 20
7.21327
 30
0.0
 10
0.6426
 20
7.21327
 30
0.0
 10
0.63092
 20
7.1411
 30
0.0
 10
0.63092
 20
7.1411
 30
0.0
 10
0.63092
 20
7.1411
 30
0.0
 10
0.63092
 20
7.1411
 30
0.0
 10
0.60244
 20
7.1411
 30
0.0
 10
0.60244
 20
7.1411
 30
0.0
  0
SPLINE
  5
64
330
1F
100
AcDbEntity
  8
layer 2
 62
     1
100
AcDbSpline
210
0.0
220
0.0
230
1.0
 70
    11
 71
     3
 72
    28
 73
    24
 74
     0
 42
0.0000000001
 43
0.0000000001
 12
1.0
 22
0.0
 32
0.0
 13
1.0
 23
0.0
 33
0.0
 40
0.0
 40
0.0
 40
0.0
 40
0.0
 40
0.1428571428571428
 40
0.1428571428571428
 40
0.1428571428571428
 40
0.1428571428571428
 40
0.2857142857142857
 40
0.2857142857142857
 40
0.2857142857142857
 40
0.2857142857142857
 40
0.4285714285714285
 40
0.4285714285714285
 40
0.4285714285714285
 40
0.4285714285714285
 40
0.5714285714285714
 40
0.5714285714285714
 40
0.5714285714285714
 40
0.5714285714285714
 40
0.7142857142857143
 40
0.7142857142857143
 40
0.7142857142857143
 40
0.7142857142857143
 40
1.0
 40
1.0
 40
1.0
 40
1.0
 10
0.68814
 20
7.1411
 30
0.0
 10
0.68814
 20
7.1411
 30
0.0
 10
0.6755
 20
7.21327
 30
0.0
 10
0.6755
 20
7.21327
 30
0.0
 10
0.6755
 20
7.21327
 30
0.0
 10
0.6755
 20
7.21327
 30
0.0
 10
0.6755
 20
7.27536
 30
0.0
 10
0.6755
 20
7.27536
 30
0.0
 10
0.6755
 20
7.27536
 30
0.0
 10
0.6755
 20
7.27536
 30
0.0
 10
0.72857
 20
7.27536
 30
0.0
 10
0.72857
 20
7.27536
 30
0.0
 10
0.72857
 20
7.27536
 30
0.0
 10
0.72857
 20
7.27536
 30
0.0
 10
0.72857
 20
7.21327
 30
0.0
 10
0.72857
 20
7.21327
 30
0.0
 10
0.72857
 20
7.21327
 30
0.0
 10
0.72857
 20
7.21327
 30
0.0
 10
0.71609
 20
7.1411
 30
0.0
 10
0.71609
 20
7.1411
 30
0.0
 10
0.71609
 20
7.1411
 30
0.0
 10
0.71609
 20
7.1411
 30
0.0
 10
0.68814
 20
7.1411
 30
0.0
 10
0.68814
 20
7.1411
 30
0.0
  0
SPLINE
  5
65
330
1F
100
AcDbEntity
  8
layer 2
 62
     1
370
     0
100
AcDbSpline
210
0.0
220
0.0
230
1.0
 70
    24
 71
     3
 72
     8
 73
     4
 74
     0
 42
0.0000000001
 43
0.0000000001
 12
1.0
 22
0.0
 32
0.0
 13
1.0
 23
0.0
 33
0.0
 40
0.0
 40
0.0
 40
0.0
 40
0.0
 40
1.0
 40
1.0
 40
1.0
 40
1.0
 10
10.75986
 20
5.57999
 30
0.0
 10
10.75986
 20
5.57999
 30
0.0
 10
12.76813
 20
5.57999
 30
0.0
 10
12.76813
 20
5.57999
 30
0.0
  0
SPLINE
  5
66
330
1F
100
AcDbEntity
  8
layer 2
 62
     1
370
     0
100
AcDbSpline
210
0.0
220
0.0
230
1.0
 70
    24
 71
     3
 72
     8
 73
     4
 74
     0
 42
0.0000000001
 43
0.0000000001
 12
1.0
 22
0.0
 32
0.0
 13
1.0
 23
0.0
 33
0.0
 40
0.0
 40
0.0
 40
0.0
 40
0.0
 40
1.0
 40
1.0
 40
1.0
 40
1.0
 10
10.75986
 20
-6.14099
 30
0.0
 10
10.75986
 20
-6.14099
 30
0.0
 10
12.76813
 20
-6.14099
 30
0.0
 10
12.76813
 20
-6.14099
 30
0.0
  0
SPLINE
  5
67
330
1F
100
AcDbEntity
  8
layer 2
 62
     1
370
     0
100
AcDbSpline
210
0.0
220
0.0
230
1.0
 70
    24
 71
     3
 72
     8
 73
     4
 74
     0
 42
0.0000000001
 43
0.0000000001
 12
1.0
 22
0.0
 32
0.0
 13
1.0
 23
0.0
 33
0.0
 40
0.0
 40
0.0
 40
0.0
 40
0.0
 40
1.0
 40
1.0
 40
1.0
 40
1.0
 10
12.47972
 20
5.00317
 30
0.0
 10
12.47972
 20
5.00317
 30
0.0
 10
12.47972
 20
-5.56417
 30
0.0
 10
12.47972
 20
-5.56417
 30
0.0
  0
SPLINE
  5
68
330
1F
100
AcDbEntity
  8
layer 2
 62
     1
100
AcDbSpline
210
0.0
220
0.0
230
1.0
 70
    27
 71
     3
 72
    12
 73
     8
 74
     0
 42
0.0000000001
 43
0.0000000001
 12
1.0
 22
0.0
 32
0.0
 13
1.0
 23
0.0
 33
0.0
 40
0.0
 40
0.0
 40
0.0
 40
0.0
 40
0.3333333333333333
 40
0.3333333333333333
 40
0.3333333333333333
 40
0.3333333333333333
 40
1.0
 40
1.0
 40
1.0
 40
1.0
 10
12.38358
 20
5.00317
 30
0.0
 10
12.38358
 20
5.00317
 30
0.0
 10
12.47972
 20
5.57999
 30
0.0
 10
12.47972
 20
5.57999
 30
0.0
 10
12.47972
 20
5.57999
 30
0.0
 10
12.47972
 20
5.57999
 30
0.0
 10
12.38358
 20
5.00317
 30
0.0
 10
12.38358
 20
5.00317
 30
0.0
  0
SPLINE
  5
69
330
1F
100
AcDbEntity
  8
layer 2
 62
     1
100
AcDbSpline
210
0.0
220
0.0
230
1.0
 70
     8
 71
     3
 72
    12
 73
     8
 74
     0
 42
0.0000000001
 43
0.0000000001
 12
1.0
 22
0.0
 32
0.0
 13
1.0
 23
0.0
 33
0.0
 40
0.0
 40
0.0
 40
0.0
 40
0.0
 40
0.3333333333333333
 40
0.3333333333333333
 40
0.3333333333333333
 40
0.3333333333333333
 40
1.0
 40
1.0
 40
1.0
 40
1.0
 10
12.47972
 20
5.57999
 30
0.0
 10
12.47972
 20
5.57999
 30
0.0
 10
12.57586
 20
5.00317
 30
0.0
 10
12.57586
 20
5.00317
 30
0.0
 10
12.57586
 20
5.00317
 30
0.0
 10
12.57586
 20
5.00317
 30
0.0
 10
12.38358
 20
5.00317
 30
0.0
 10
12.38358
 20
5.00317
 30
0.0
  0
SPLINE
  5
6A
330
1F
100
AcDbEntity
  8
layer 2
 62
     1
370
     9
100
AcDbSpline
210
0.0
220
0.0
230
1.0
 70
    24
 71
     3
 72
     8
 73
     4
 74
     0
 42
0.0000000001
 43
0.0000000001
 12
1.0
 22
0.0
 32
0.0
 13
1.0
 23
0.0
 33
0.0
 40
0.0
 40
0.0
 40
0.0
 40
0.0
 40
1.0
 40
1.0
 40
1.0
 40
1.0
 10
12.38358
 20
5.00317
 30
0.0
 10
12.38358
 20
5.00317
 30
0.0
 10
12.47972
 20
5.57999
 30
0.0
 10
12.47972
 20
5.57999
 30
0.0
  0
SPLINE
  5
6B
330
1F
100
AcDbEntity
  8
layer 2
 62
     1
370
     9
100
AcDbSpline
210
0.0
220
0.0
230
1.0
 70
     8
 71
     3
 72
    12
 73
     8
 74
     0
 42
0.0000000001
 43
0.0000000001
 12
1.0
 22
0.0
 32
0.0
 13
1.0
 23
0.0
 33
0.0
 40
0.0
 40
0.0
 40
0.0
 40
0.0
 40
0.3333333333333333
 40
0.3333333333333333
 40
0.3333333333333333
 40
0.3333333333333333
 40
1.0
 40
1.0
 40
1.0
 40
1.0
 10
12.47972
 20
5.57999
 30
0.0
 10
12.47972
 20
5.57999
 30
0.0
 10
12.57586
 20
5.00317
 30
0.0
 10
12.57586
 20
5.00317
 30
0.0
 10
12.57586
 20
5.00317
 30
0.0
 10
12.57586
 20
5.00317
 30
0.0
 10
12.38358
 20
5.00317
 30
0.0
 10
12.38358
 20
5.00317
 30
0.0
  0
SPLINE
  5
6C
330
1F
100
AcDbEntity
  8
layer 2
 62
     1
100
AcDbSpline
210
0.0
220
0.0
230
1.0
 70
    27
 71
     3
 72
    12
 73
     8
 74
     0
 42
0.0000000001
 43
0.0000000001
 12
1.0
 22
0.0
 32
0.0
 13
1.0
 23
0.0
 33
0.0
 40
0.0
 40
0.0
 40
0.0
 40
0.0
 40
0.3333333333333333
 40
0.3333333333333333
 40
0.3333333333333333
 40
0.3333333333333333
 40
1.0
 40
1.0
 40
1.0
 40
1.0
 10
12.38358
 20
-5.56417
 30
0.0
 10
12.38358
 20
-5.56417
 30
0.0
 10
12.47972
 20
-6.14099
 30
0.0
 10
12.47972
 20
-6.14099
 30
0.0
 10
12.47972
 20
-6.14099
 30
0.0
 10
12.47972
 20
-6.14099
 30
0.0
 10
12.38358
 20
-5.56417
 30
0.0
 10
12.38358
 20
-5.56417
 30
0.0
  0
SPLINE
  5
6D
330
1F
100
AcDbEntity
  8
layer 2
 62
     1
100
AcDbSpline
210
0.0
220
0.0
230
1.0
 70
     8
 71
     3
 72
    12
 73
     8
 74
     0
 42
0.0000000001
 43
0.0000000001
 12
1.0
 22
0.0
 32
0.0
 13
1.0
 23
0.0
 33
0.0
 40
0.0
 40
0.0
 40
0.0
 40
0.0
 40
0.3333333333333333
 40
0.3333333333333333
 40
0.3333333333333333
 40
0.3333333333333333
 40
1.0
 40
1.0
 40
1.0
 40
1.0
 10
12.47972
 20
-6.14099
 30
0.0
 10
12.47972
 20
-6.14099
 30
0.0
 10
12.57586
 20
-5.56417
 30
0.0
 10
12.57586
 20
-5.56417
 30
0.0
 10
12.57586
 20
-5.56417
 30
0.0
 10
12.57586
 20
-5.56417
 30
0.0
 10
12.38358
 20
-5.56417
 30
0.0
 10
12.38358
 20
-5.56417
 30
0.0
  0
SPLINE
  5
6E
330
1F
100
AcDbEntity
  8
layer 2
 62
     1
370
     9
100
AcDbSpline
210
0.0
220
0.0
230
1.0
 70
    24
 71
     3
 72
     8
 73
     4
 74
     0
 42
0.0000000001
 43
0.0000000001
 12
1.0
 22
0.0
 32
0.0
 13
1.0
 23
0.0
 33
0.0
 40
0.0
 40
0.0
 40
0.0
 40
0.0
 40
1.0
 40
1.0
 40
1.0
 40
1.0
 10
12.38358
 20
-5.56417
 30
0.0
 10
12.38358
 20
-5.56417
 30
0.0
 10
12.47972
 20
-6.14099
 30
0.0
 10
12.47972
 20
-6.14099
 30
0.0
  0
SPLINE
  5
6F
330
1F
100
AcDbEntity
  8
layer 2
 62
     1
370
     9
100
AcDbSpline
210
0.0
220
0.0
230
1.0
 70
     8
 71
     3
 72
    12
 73
     8
 74
     0
 42
0.0000000001
 43
0.0000000001
 12
1.0
 22
0.0
 32
0.0
 13
1.0
 23
0.0
 33
0.0
 40
0.0
 40
0.0
 40
0.0
 40
0.0
 40
0.3333333333333333
 40
0.3333333333333333
 40
0.3333333333333333
 40
0.3333333333333333
 40
1.0
 40
1.0
 40
1.0
 40
1.0
 10
12.47972
 20
-6.14099
 30
0.0
 10
12.47972
 20
-6.14099
 30
0.0
 10
12.57586
 20
-5.56417
 30
0.0
 10
12.57586
 20
-5.56417
 30
0.0
 10
12.57586
 20
-5.56417
 30
0.0
 10
12.57586
 20
-5.56417
 30
0.0
 10
12.38358
 20
-5.56417
 30
0.0
 10
12.38358
 20
-5.56417
 30
0.0
  0
SPLINE
  5
70
330
1F
100
AcDbEntity
  8
layer 2
 62
     1
100
AcDbSpline
210
0.0
220
0.0
230
1.0
 70
    11
 71
     3
 72
    40
 73
    36
 74
     0
 42
0.0000000001
 43
0.0000000001
 12
1.0
 22
0.0
 32
0.0
 13
1.0
 23
0.0
 33
0.0
 40
0.0
 40
0.0
 40
0.0
 40
0.0
 40
0.1
 40
0.1
 40
0.1
 40
0.1
 40
0.2
 40
0.2
 40
0.2
 40
0.2
 40
0.3
 40
0.3
 40
0.3
 40
0.3
 40
0.4
 40
0.4
 40
0.4
 40
0.4
 40
0.5
 40
0.5
 40
0.5
 40
0.5
 40
0.6
 40
0.6
 40
0.6
 40
0.6
 40
0.7
 40
0.7
 40
0.7
 40
0.7
 40
0.8
 40
0.8
 40
0.8
 40
0.8
 40
1.0
 40
1.0
 40
1.0
 40
1.0
 10
12.23313
 20
0.69001
 30
0.0
 10
12.23313
 20
0.69001
 30
0.0
 10
12.23313
 20
0.64331
 30
0.0
 10
12.23313
 20
0.64331
 30
0.0
 10
12.23313
 20
0.64331
 30
0.0
 10
12.23313
 20
0.64331
 30
0.0
 10
11.93577
 20
0.64331
 30
0.0
 10
11.93577
 20
0.64331
 30
0.0
 10
11.93577
 20
0.64331
 30
0.0
 10
11.94657
 20
0.63207
 30
0.0
 10
11.95727
 20
0.6173
 30
0.0
 10
11.96797
 20
0.59908
 30
0.0
 10
11.96797
 20
0.59908
 30
0.0
 10
11.97867
 20
0.58086
 30
0.0
 10
11.98672
 20
0.56441
 30
0.0
 10
11.99203
 20
0.54991
 30
0.0
 10
11.99203
 20
0.54991
 30
0.0
 10
11.99203
 20
0.54991
 30
0.0
 10
11.94692
 20
0.54991
 30
0.0
 10
11.94692
 20
0.54991
 30
0.0
 10
11.94692
 20
0.54991
 30
0.0
 10
11.93471
 20
0.576
 30
0.0
 10
11.91985
 20
0.59882
 30
0.0
 10
11.90234
 20
0.61836
 30
0.0
 10
11.90234
 20
0.61836
 30
0.0
 10
11.88492
 20
0.63791
 30
0.0
 10
11.86803
 20
0.6518
 30
0.0
 10
11.85158
 20
0.65993
 30
0.0
 10
11.85158
 20
0.65993
 30
0.0
 10
11.85158
 20
0.65993
 30
0.0
 10
11.85158
 20
0.69001
 30
0.0
 10
11.85158
 20
0.69001
 30
0.0
 10
11.85158
 20
0.69001
 30
0.0
 10
11.85158
 20
0.69001
 30
0.0
 10
12.23313
 20
0.69001
 30
0.0
 10
12.23313
 20
0.69001
 30
0.0
  0
SPLINE
  5
71
330
1F
100
AcDbEntity
  8
layer 2
 62
     1
100
AcDbSpline
210
0.0
220
0.0
230
1.0
 70
    11
 71
     3
 72
    80
 73
    76
 74
     0
 42
0.0000000001
 43
0.0000000001
 12
1.0
 22
0.0
 32
0.0
 13
1.0
 23
0.0
 33
0.0
 40
0.0
 40
0.0
 40
0.0
 40
0.0
 40
0.05
 40
0.05
 40
0.05
 40
0.05
 40
0.1
 40
0.1
 40
0.1
 40
0.1
 40
0.15
 40
0.15
 40
0.15
 40
0.15
 40
0.2
 40
0.2
 40
0.2
 40
0.2
 40
0.25
 40
0.25
 40
0.25
 40
0.25
 40
0.3
 40
0.3
 40
0.3
 40
0.3
 40
0.35
 40
0.35
 40
0.35
 40
0.35
 40
0.4
 40
0.4
 40
0.4
 40
0.4
 40
0.45
 40
0.45
 40
0.45
 40
0.45
 40
0.5
 40
0.5
 40
0.5
 40
0.5
 40
0.55
 40
0.55
 40
0.55
 40
0.55
 40
0.6
 40
0.6
 40
0.6
 40
0.6
 40
0.65
 40
0.65
 40
0.65
 40
0.65
 40
0.7
 40
0.7
 40
0.7
 40
0.7
 40
0.75
 40
0.75
 40
0.75
 40
0.75
 40
0.8
 40
0.8
 40
0.8
 40
0.8
 40
0.85
 40
0.85
 40
0.85
 40
0.85
 40
0.9
 40
0.9
 40
0.9
 40
0.9
 40
1.0
 40
1.0
 40
1.0
 40
1.0
 10
11.94604
 20
1.05254
 30
0.0
 10
11.94604
 20
1.05254
 30
0.0
 10
11.94975
 20
1.00637
 30
0.0
 10
11.94975
 20
1.00637
 30
0.0
 10
11.94975
 20
1.00637
 30
0.0
 10
11.93144
 20
1.00222
 30
0.0
 10
11.91809
 20
0.99629
 30
0.0
 10
11.90977
 20
0.9886
 30
0.0
 10
11.90977
 20
0.9886
 30
0.0
 10
11.89642
 20
0.97595
 30
0.0
 10
11.88978
 20
0.96029
 30
0.0
 10
11.88978
 20
0.94172
 30
0.0
 10
11.88978
 20
0.94172
 30
0.0
 10
11.88978
 20
0.92677
 30
0.0
 10
11.89394
 20
0.91351
 30
0.0
 10
11.90225
 20
0.9021
 30
0.0
 10
11.90225
 20
0.9021
 30
0.0
 10
11.91295
 20
0.88741
 30
0.0
 10
11.92852
 20
0.87591
 30
0.0
 10
11.94904
 20
0.86734
 30
0.0
 10
11.94904
 20
0.86734
 30
0.0
 10
11.96965
 20
0.85885
 30
0.0
 10
11.99892
 20
0.85443
 30
0.0
 10
12.03687
 20
0.85407
 30
0.0
 10
12.03687
 20
0.85407
 30
0.0
 10
12.0198
 20
0.8653
 30
0.0
 10
12.00706
 20
0.8791
 30
0.0
 10
11.99883
 20
0.89537
 30
0.0
 10
11.99883
 20
0.89537
 30
0.0
 10
11.99052
 20
0.91165
 30
0.0
 10
11.98636
 20
0.92863
 30
0.0
 10
11.98636
 20
0.94649
 30
0.0
 10
11.98636
 20
0.94649
 30
0.0
 10
11.98636
 20
0.97763
 30
0.0
 10
11.99786
 20
1.00416
 30
0.0
 10
12.02077
 20
1.0261
 30
0.0
 10
12.02077
 20
1.0261
 30
0.0
 10
12.04368
 20
1.04794
 30
0.0
 10
12.07322
 20
1.05891
 30
0.0
 10
12.10957
 20
1.05891
 30
0.0
 10
12.10957
 20
1.05891
 30
0.0
 10
12.13345
 20
1.05891
 30
0.0
 10
12.15556
 20
1.05378
 30
0.0
 10
12.17608
 20
1.04352
 30
0.0
 10
12.17608
 20
1.04352
 30
0.0
 10
12.1966
 20
1.03317
 30
0.0
 10
12.21225
 20
1.01911
 30
0.0
 10
12.22313
 20
1.00107
 30
0.0
 10
12.22313
 20
1.00107
 30
0.0
 10
12.23401
 20
0.98311
 30
0.0
 10
12.2395
 20
0.96268
 30
0.0
 10
12.2395
 20
0.93986
 30
0.0
 10
12.2395
 20
0.93986
 30
0.0
 10
12.2395
 20
0.90104
 30
0.0
 10
12.22517
 20
0.86928
 30
0.0
 10
12.1966
 20
0.84469
 30
0.0
 10
12.1966
 20
0.84469
 30
0.0
 10
12.16803
 20
0.8202
 30
0.0
 10
12.12089
 20
0.8079
 30
0.0
 10
12.05526
 20
0.8079
 30
0.0
 10
12.05526
 20
0.8079
 30
0.0
 10
11.98185
 20
0.8079
 30
0.0
 10
11.92843
 20
0.82152
 30
0.0
 10
11.89509
 20
0.84867
 30
0.0
 10
11.89509
 20
0.84867
 30
0.0
 10
11.86608
 20
0.87238
 30
0.0
 10
11.85158
 20
0.90431
 30
0.0
 10
11.85158
 20
0.94455
 30
0.0
 10
11.85158
 20
0.94455
 30
0.0
 10
11.85158
 20
0.97444
 30
0.0
 10
11.85998
 20
0.99903
 30
0.0
 10
11.87669
 20
1.01814
 30
0.0
 10
11.87669
 20
1.01814
 30
0.0
 10
11.89341
 20
1.03724
 30
0.0
 10
11.91649
 20
1.04874
 30
0.0
 10
11.94604
 20
1.05254
 30
0.0
  0
SPLINE
  5
72
330
1F
100
AcDbEntity
  8
layer 2
 62
     1
100
AcDbSpline
210
0.0
220
0.0
230
1.0
 70
    11
 71
     3
 72
    40
 73
    36
 74
     0
 42
0.0000000001
 43
0.0000000001
 12
1.0
 22
0.0
 32
0.0
 13
1.0
 23
0.0
 33
0.0
 40
0.0
 40
0.0
 40
0.0
 40
0.0
 40
0.1
 40
0.1
 40
0.1
 40
0.1
 40
0.2
 40
0.2
 40
0.2
 40
0.2
 40
0.3
 40
0.3
 40
0.3
 40
0.3
 40
0.4
 40
0.4
 40
0.4
 40
0.4
 40
0.5
 40
0.5
 40
0.5
 40
0.5
 40
0.6
 40
0.6
 40
0.6
 40
0.6
 40
0.7
 40
0.7
 40
0.7
 40
0.7
 40
0.8
 40
0.8
 40
0.8
 40
0.8
 40
1.0
 40
1.0
 40
1.0
 40
1.0
 10
12.11001
 20
0.8615
 30
0.0
 10
12.12611
 20
0.8615
 30
0.0
 10
12.1415
 20
0.86495
 30
0.0
 10
12.15618
 20
0.87176
 30
0.0
 10
12.15618
 20
0.87176
 30
0.0
 10
12.17086
 20
0.87857
 30
0.0
 10
12.18201
 20
0.88812
 30
0.0
 10
12.1897
 20
0.90024
 30
0.0
 10
12.1897
 20
0.90024
 30
0.0
 10
12.1974
 20
0.91244
 30
0.0
 10
12.20129
 20
0.92536
 30
0.0
 10
12.20129
 20
0.93906
 30
0.0
 10
12.20129
 20
0.93906
 30
0.0
 10
12.20129
 20
0.95897
 30
0.0
 10
12.19333
 20
0.97595
 30
0.0
 10
12.17741
 20
0.99001
 30
0.0
 10
12.17741
 20
0.99001
 30
0.0
 10
12.16149
 20
1.00407
 30
0.0
 10
12.13991
 20
1.01115
 30
0.0
 10
12.11258
 20
1.01115
 30
0.0
 10
12.11258
 20
1.01115
 30
0.0
 10
12.08631
 20
1.01115
 30
0.0
 10
12.06561
 20
1.00416
 30
0.0
 10
12.05049
 20
0.99027
 30
0.0
 10
12.05049
 20
0.99027
 30
0.0
 10
12.03536
 20
0.97639
 30
0.0
 10
12.02776
 20
0.9587
 30
0.0
 10
12.02776
 20
0.93721
 30
0.0
 10
12.02776
 20
0.93721
 30
0.0
 10
12.02776
 20
0.91616
 30
0.0
 10
12.03536
 20
0.8982
 30
0.0
 10
12.05049
 20
0.88352
 30
0.0
 10
12.05049
 20
0.88352
 30
0.0
 10
12.06561
 20
0.86884
 30
0.0
 10
12.08542
 20
0.8615
 30
0.0
 10
12.11001
 20
0.8615
 30
0.0
  0
SPLINE
  5
73
330
1F
100
AcDbEntity
  8
layer 2
 62
     1
100
AcDbSpline
210
0.0
220
0.0
230
1.0
 70
    11
 71
     3
 72
    28
 73
    24
 74
     0
 42
0.0000000001
 43
0.0000000001
 12
1.0
 22
0.0
 32
0.0
 13
1.0
 23
0.0
 33
0.0
 40
0.0
 40
0.0
 40
0.0
 40
0.0
 40
0.1428571428571428
 40
0.1428571428571428
 40
0.1428571428571428
 40
0.1428571428571428
 40
0.2857142857142857
 40
0.2857142857142857
 40
0.2857142857142857
 40
0.2857142857142857
 40
0.4285714285714285
 40
0.4285714285714285
 40
0.4285714285714285
 40
0.4285714285714285
 40
0.5714285714285714
 40
0.5714285714285714
 40
0.5714285714285714
 40
0.5714285714285714
 40
0.7142857142857143
 40
0.7142857142857143
 40
0.7142857142857143
 40
0.7142857142857143
 40
1.0
 40
1.0
 40
1.0
 40
1.0
 10
11.98742
 20
1.1202
 30
0.0
 10
11.98742
 20
1.1202
 30
0.0
 10
11.91526
 20
1.10729
 30
0.0
 10
11.91526
 20
1.10729
 30
0.0
 10
11.91526
 20
1.10729
 30
0.0
 10
11.91526
 20
1.10729
 30
0.0
 10
11.85317
 20
1.10729
 30
0.0
 10
11.85317
 20
1.10729
 30
0.0
 10
11.85317
 20
1.10729
 30
0.0
 10
11.85317
 20
1.10729
 30
0.0
 10
11.85317
 20
1.16036
 30
0.0
 10
11.85317
 20
1.16036
 30
0.0
 10
11.85317
 20
1.16036
 30
0.0
 10
11.85317
 20
1.16036
 30
0.0
 10
11.91526
 20
1.16036
 30
0.0
 10
11.91526
 20
1.16036
 30
0.0
 10
11.91526
 20
1.16036
 30
0.0
 10
11.91526
 20
1.16036
 30
0.0
 10
11.98742
 20
1.14868
 30
0.0
 10
11.98742
 20
1.14868
 30
0.0
 10
11.98742
 20
1.14868
 30
0.0
 10
11.98742
 20
1.14868
 30
0.0
 10
11.98742
 20
1.1202
 30
0.0
 10
11.98742
 20
1.1202
 30
0.0
  0
SPLINE
  5
74
330
1F
100
AcDbEntity
  8
layer 2
 62
     1
100
AcDbSpline
210
0.0
220
0.0
230
1.0
 70
    11
 71
     3
 72
    28
 73
    24
 74
     0
 42
0.0000000001
 43
0.0000000001
 12
1.0
 22
0.0
 32
0.0
 13
1.0
 23
0.0
 33
0.0
 40
0.0
 40
0.0
 40
0.0
 40
0.0
 40
0.1428571428571428
 40
0.1428571428571428
 40
0.1428571428571428
 40
0.1428571428571428
 40
0.2857142857142857
 40
0.2857142857142857
 40
0.2857142857142857
 40
0.2857142857142857
 40
0.4285714285714285
 40
0.4285714285714285
 40
0.4285714285714285
 40
0.4285714285714285
 40
0.5714285714285714
 40
0.5714285714285714
 40
0.5714285714285714
 40
0.5714285714285714
 40
0.7142857142857143
 40
0.7142857142857143
 40
0.7142857142857143
 40
0.7142857142857143
 40
1.0
 40
1.0
 40
1.0
 40
1.0
 10
11.98742
 20
1.2059
 30
0.0
 10
11.98742
 20
1.2059
 30
0.0
 10
11.91526
 20
1.19326
 30
0.0
 10
11.91526
 20
1.19326
 30
0.0
 10
11.91526
 20
1.19326
 30
0.0
 10
11.91526
 20
1.19326
 30
0.0
 10
11.85317
 20
1.19326
 30
0.0
 10
11.85317
 20
1.19326
 30
0.0
 10
11.85317
 20
1.19326
 30
0.0
 10
11.85317
 20
1.19326
 30
0.0
 10
11.85317
 20
1.24633
 30
0.0
 10
11.85317
 20
1.24633
 30
0.0
 10
11.85317
 20
1.24633
 30
0.0
 10
11.85317
 20
1.24633
 30
0.0
 10
11.91526
 20
1.24633
 30
0.0
 10
11.91526
 20
1.24633
 30
0.0
 10
11.91526
 20
1.24633
 30
0.0
 10
11.91526
 20
1.24633
 30
0.0
 10
11.98742
 20
1.23385
 30
0.0
 10
11.98742
 20
1.23385
 30
0.0
 10
11.98742
 20
1.23385
 30
0.0
 10
11.98742
 20
1.23385
 30
0.0
 10
11.98742
 20
1.2059
 30
0.0
 10
11.98742
 20
1.2059
 30
0.0
  0
SPLINE
  5
75
330
1F
100
AcDbEntity
  8
layer 2
 62
     1
370
     0
100
AcDbSpline
210
0.0
220
0.0
230
1.0
 70
    24
 71
     3
 72
     8
 73
     4
 74
     0
 42
0.0000000001
 43
0.0000000001
 12
1.0
 22
0.0
 32
0.0
 13
1.0
 23
0.0
 33
0.0
 40
0.0
 40
0.0
 40
0.0
 40
0.0
 40
1.0
 40
1.0
 40
1.0
 40
1.0
 10
-11.82444
 20
-7.72213
 30
0.0
 10
-11.82444
 20
-7.72213
 30
0.0
 10
-10.41645
 20
-6.303
 30
0.0
 10
-10.41645
 20
-6.303
 30
0.0
  0
SPLINE
  5
76
330
1F
100
AcDbEntity
  8
layer 2
 62
     1
100
AcDbSpline
210
0.0
220
0.0
230
1.0
 70
    11
 71
     3
 72
    80
 73
    76
 74
     0
 42
0.0000000001
 43
0.0000000001
 12
1.0
 22
0.0
 32
0.0
 13
1.0
 23
0.0
 33
0.0
 40
0.0
 40
0.0
 40
0.0
 40
0.0
 40
0.05
 40
0.05
 40
0.05
 40
0.05
 40
0.1
 40
0.1
 40
0.1
 40
0.1
 40
0.15
 40
0.15
 40
0.15
 40
0.15
 40
0.2
 40
0.2
 40
0.2
 40
0.2
 40
0.25
 40
0.25
 40
0.25
 40
0.25
 40
0.3
 40
0.3
 40
0.3
 40
0.3
 40
0.35
 40
0.35
 40
0.35
 40
0.35
 40
0.4
 40
0.4
 40
0.4
 40
0.4
 40
0.45
 40
0.45
 40
0.45
 40
0.45
 40
0.5
 40
0.5
 40
0.5
 40
0.5
 40
0.55
 40
0.55
 40
0.55
 40
0.55
 40
0.6
 40
0.6
 40
0.6
 40
0.6
 40
0.65
 40
0.65
 40
0.65
 40
0.65
 40
0.7
 40
0.7
 40
0.7
 40
0.7
 40
0.75
 40
0.75
 40
0.75
 40
0.75
 40
0.8
 40
0.8
 40
0.8
 40
0.8
 40
0.85
 40
0.85
 40
0.85
 40
0.85
 40
0.9
 40
0.9
 40
0.9
 40
0.9
 40
1.0
 40
1.0
 40
1.0
 40
1.0
 10
-11.6948
 20
-6.36011
 30
0.0
 10
-11.6948
 20
-6.36011
 30
0.0
 10
-11.96453
 20
-6.0925
 30
0.0
 10
-11.96453
 20
-6.0925
 30
0.0
 10
-11.96453
 20
-6.0925
 30
0.0
 10
-11.96453
 20
-6.0925
 30
0.0
 10
-11.84592
 20
-5.97295
 30
0.0
 10
-11.84592
 20
-5.97295
 30
0.0
 10
-11.84592
 20
-5.97295
 30
0.0
 10
-11.82206
 20
-5.94891
 30
0.0
 10
-11.80149
 20
-5.93306
 30
0.0
 10
-11.78426
 20
-5.92537
 30
0.0
 10
-11.78426
 20
-5.92537
 30
0.0
 10
-11.76703
 20
-5.91767
 30
0.0
 10
-11.74859
 20
-5.91616
 30
0.0
 10
-11.72893
 20
-5.92083
 30
0.0
 10
-11.72893
 20
-5.92083
 30
0.0
 10
-11.70927
 20
-5.92551
 30
0.0
 10
-11.69204
 20
-5.93526
 30
0.0
 10
-11.67722
 20
-5.94996
 30
0.0
 10
-11.67722
 20
-5.94996
 30
0.0
 10
-11.65807
 20
-5.96896
 30
0.0
 10
-11.6481
 20
-5.99119
 30
0.0
 10
-11.64725
 20
-6.01657
 30
0.0
 10
-11.64725
 20
-6.01657
 30
0.0
 10
-11.6464
 20
-6.04196
 30
0.0
 10
-11.65705
 20
-6.06927
 30
0.0
 10
-11.67913
 20
-6.09869
 30
0.0
 10
-11.67913
 20
-6.09869
 30
0.0
 10
-11.66521
 20
-6.09369
 30
0.0
 10
-11.65358
 20
-6.09102
 30
0.0
 10
-11.64433
 20
-6.09049
 30
0.0
 10
-11.64433
 20
-6.09049
 30
0.0
 10
-11.62445
 20
-6.08953
 30
0.0
 10
-11.60267
 20
-6.09157
 30
0.0
 10
-11.57914
 20
-6.09661
 30
0.0
 10
-11.57914
 20
-6.09661
 30
0.0
 10
-11.57914
 20
-6.09661
 30
0.0
 10
-11.45939
 20
-6.12284
 30
0.0
 10
-11.45939
 20
-6.12284
 30
0.0
 10
-11.45939
 20
-6.12284
 30
0.0
 10
-11.45939
 20
-6.12284
 30
0.0
 10
-11.50363
 20
-6.16742
 30
0.0
 10
-11.50363
 20
-6.16742
 30
0.0
 10
-11.50363
 20
-6.16742
 30
0.0
 10
-11.50363
 20
-6.16742
 30
0.0
 10
-11.59514
 20
-6.14739
 30
0.0
 10
-11.59514
 20
-6.14739
 30
0.0
 10
-11.59514
 20
-6.14739
 30
0.0
 10
-11.62167
 20
-6.14162
 30
0.0
 10
-11.64258
 20
-6.13794
 30
0.0
 10
-11.65785
 20
-6.13613
 30
0.0
 10
-11.65785
 20
-6.13613
 30
0.0
 10
-11.67318
 20
-6.13438
 30
0.0
 10
-11.68512
 20
-6.13449
 30
0.0
 10
-11.69387
 20
-6.1364
 30
0.0
 10
-11.69387
 20
-6.1364
 30
0.0
 10
-11.70249
 20
-6.13831
 30
0.0
 10
-11.7103
 20
-6.1414
 30
0.0
 10
-11.71716
 20
-6.14556
 30
0.0
 10
-11.71716
 20
-6.14556
 30
0.0
 10
-11.72196
 20
-6.14877
 30
0.0
 10
-11.72895
 20
-6.15492
 30
0.0
 10
-11.7381
 20
-6.16415
 30
0.0
 10
-11.7381
 20
-6.16415
 30
0.0
 10
-11.7381
 20
-6.16415
 30
0.0
 10
-11.77909
 20
-6.20546
 30
0.0
 10
-11.77909
 20
-6.20546
 30
0.0
 10
-11.77909
 20
-6.20546
 30
0.0
 10
-11.77909
 20
-6.20546
 30
0.0
 10
-11.65929
 20
-6.32432
 30
0.0
 10
-11.65929
 20
-6.32432
 30
0.0
 10
-11.65929
 20
-6.32432
 30
0.0
 10
-11.65929
 20
-6.32432
 30
0.0
 10
-11.6948
 20
-6.36011
 30
0.0
 10
-11.6948
 20
-6.36011
 30
0.0
  0
SPLINE
  5
77
330
1F
100
AcDbEntity
  8
layer 2
 62
     1
100
AcDbSpline
210
0.0
220
0.0
230
1.0
 70
    11
 71
     3
 72
    36
 73
    32
 74
     0
 42
0.0000000001
 43
0.0000000001
 12
1.0
 22
0.0
 32
0.0
 13
1.0
 23
0.0
 33
0.0
 40
0.0
 40
0.0
 40
0.0
 40
0.0
 40
0.1111111111111111
 40
0.1111111111111111
 40
0.1111111111111111
 40
0.1111111111111111
 40
0.2222222222222222
 40
0.2222222222222222
 40
0.2222222222222222
 40
0.2222222222222222
 40
0.3333333333333333
 40
0.3333333333333333
 40
0.3333333333333333
 40
0.3333333333333333
 40
0.4444444444444444
 40
0.4444444444444444
 40
0.4444444444444444
 40
0.4444444444444444
 40
0.5555555555555556
 40
0.5555555555555556
 40
0.5555555555555556
 40
0.5555555555555556
 40
0.6666666666666666
 40
0.6666666666666666
 40
0.6666666666666666
 40
0.6666666666666666
 40
0.7777777777777778
 40
0.7777777777777778
 40
0.7777777777777778
 40
0.7777777777777778
 40
1.0
 40
1.0
 40
1.0
 40
1.0
 10
-11.80998
 20
-6.17482
 30
0.0
 10
-11.80998
 20
-6.17482
 30
0.0
 10
-11.73398
 20
-6.09822
 30
0.0
 10
-11.73398
 20
-6.09822
 30
0.0
 10
-11.73398
 20
-6.09822
 30
0.0
 10
-11.71779
 20
-6.0819
 30
0.0
 10
-11.7069
 20
-6.06753
 30
0.0
 10
-11.70119
 20
-6.055
 30
0.0
 10
-11.70119
 20
-6.055
 30
0.0
 10
-11.69543
 20
-6.04253
 30
0.0
 10
-11.69391
 20
-6.03021
 30
0.0
 10
-11.69671
 20
-6.01808
 30
0.0
 10
-11.69671
 20
-6.01808
 30
0.0
 10
-11.69939
 20
-6.00596
 30
0.0
 10
-11.70506
 20
-5.9956
 30
0.0
 10
-11.71378
 20
-5.98694
 30
0.0
 10
-11.71378
 20
-5.98694
 30
0.0
 10
-11.72653
 20
-5.9743
 30
0.0
 10
-11.74162
 20
-5.96841
 30
0.0
 10
-11.75901
 20
-5.96948
 30
0.0
 10
-11.75901
 20
-5.96948
 30
0.0
 10
-11.77639
 20
-5.97055
 30
0.0
 10
-11.79492
 20
-5.98107
 30
0.0
 10
-11.81467
 20
-6.00097
 30
0.0
 10
-11.81467
 20
-6.00097
 30
0.0
 10
-11.81467
 20
-6.00097
 30
0.0
 10
-11.89926
 20
-6.08624
 30
0.0
 10
-11.89926
 20
-6.08624
 30
0.0
 10
-11.89926
 20
-6.08624
 30
0.0
 10
-11.89926
 20
-6.08624
 30
0.0
 10
-11.80998
 20
-6.17482
 30
0.0
 10
-11.80998
 20
-6.17482
 30
0.0
  0
SPLINE
  5
78
330
1F
100
AcDbEntity
  8
layer 2
 62
     1
100
AcDbSpline
210
0.0
220
0.0
230
1.0
 70
    11
 71
     3
 72
    40
 73
    36
 74
     0
 42
0.0000000001
 43
0.0000000001
 12
1.0
 22
0.0
 32
0.0
 13
1.0
 23
0.0
 33
0.0
 40
0.0
 40
0.0
 40
0.0
 40
0.0
 40
0.1
 40
0.1
 40
0.1
 40
0.1
 40
0.2
 40
0.2
 40
0.2
 40
0.2
 40
0.3
 40
0.3
 40
0.3
 40
0.3
 40
0.4
 40
0.4
 40
0.4
 40
0.4
 40
0.5
 40
0.5
 40
0.5
 40
0.5
 40
0.6
 40
0.6
 40
0.6
 40
0.6
 40
0.7
 40
0.7
 40
0.7
 40
0.7
 40
0.8
 40
0.8
 40
0.8
 40
0.8
 40
1.0
 40
1.0
 40
1.0
 40
1.0
 10
-11.31537
 20
-5.97768
 30
0.0
 10
-11.31537
 20
-5.97768
 30
0.0
 10
-11.34826
 20
-6.01083
 30
0.0
 10
-11.34826
 20
-6.01083
 30
0.0
 10
-11.34826
 20
-6.01083
 30
0.0
 10
-11.34826
 20
-6.01083
 30
0.0
 10
-11.55935
 20
-5.8014
 30
0.0
 10
-11.55935
 20
-5.8014
 30
0.0
 10
-11.55935
 20
-5.8014
 30
0.0
 10
-11.5596
 20
-5.81698
 30
0.0
 10
-11.56241
 20
-5.835
 30
0.0
 10
-11.56764
 20
-5.85547
 30
0.0
 10
-11.56764
 20
-5.85547
 30
0.0
 10
-11.57288
 20
-5.87594
 30
0.0
 10
-11.57875
 20
-5.89329
 30
0.0
 10
-11.5852
 20
-5.90732
 30
0.0
 10
-11.5852
 20
-5.90732
 30
0.0
 10
-11.5852
 20
-5.90732
 30
0.0
 10
-11.61722
 20
-5.87555
 30
0.0
 10
-11.61722
 20
-5.87555
 30
0.0
 10
-11.61722
 20
-5.87555
 30
0.0
 10
-11.60751
 20
-5.84843
 30
0.0
 10
-11.60199
 20
-5.82177
 30
0.0
 10
-11.60065
 20
-5.79556
 30
0.0
 10
-11.60065
 20
-5.79556
 30
0.0
 10
-11.59925
 20
-5.76941
 30
0.0
 10
-11.60146
 20
-5.74766
 30
0.0
 10
-11.60741
 20
-5.73029
 30
0.0
 10
-11.60741
 20
-5.73029
 30
0.0
 10
-11.60741
 20
-5.73029
 30
0.0
 10
-11.58623
 20
-5.70895
 30
0.0
 10
-11.58623
 20
-5.70895
 30
0.0
 10
-11.58623
 20
-5.70895
 30
0.0
 10
-11.58623
 20
-5.70895
 30
0.0
 10
-11.31537
 20
-5.97768
 30
0.0
 10
-11.31537
 20
-5.97768
 30
0.0
  0
SPLINE
  5
79
330
1F
100
AcDbEntity
  8
layer 2
 62
     1
100
AcDbSpline
210
0.0
220
0.0
230
1.0
 70
    11
 71
     3
 72
    52
 73
    48
 74
     0
 42
0.0000000001
 43
0.0000000001
 12
1.0
 22
0.0
 32
0.0
 13
1.0
 23
0.0
 33
0.0
 40
0.0
 40
0.0
 40
0.0
 40
0.0
 40
0.0769230769230769
 40
0.0769230769230769
 40
0.0769230769230769
 40
0.0769230769230769
 40
0.1538461538461539
 40
0.1538461538461539
 40
0.1538461538461539
 40
0.1538461538461539
 40
0.2307692307692308
 40
0.2307692307692308
 40
0.2307692307692308
 40
0.2307692307692308
 40
0.3076923076923077
 40
0.3076923076923077
 40
0.3076923076923077
 40
0.3076923076923077
 40
0.3846153846153846
 40
0.3846153846153846
 40
0.3846153846153846
 40
0.3846153846153846
 40
0.4615384615384616
 40
0.4615384615384616
 40
0.4615384615384616
 40
0.4615384615384616
 40
0.5384615384615384
 40
0.5384615384615384
 40
0.5384615384615384
 40
0.5384615384615384
 40
0.6153846153846154
 40
0.6153846153846154
 40
0.6153846153846154
 40
0.6153846153846154
 40
0.6923076923076923
 40
0.6923076923076923
 40
0.6923076923076923
 40
0.6923076923076923
 40
0.7692307692307693
 40
0.7692307692307693
 40
0.7692307692307693
 40
0.7692307692307693
 40
0.8461538461538461
 40
0.8461538461538461
 40
0.8461538461538461
 40
0.8461538461538461
 40
1.0
 40
1.0
 40
1.0
 40
1.0
 10
-11.36395
 20
-5.76042
 30
0.0
 10
-11.39578
 20
-5.72884
 30
0.0
 10
-11.41828
 20
-5.70003
 30
0.0
 10
-11.43127
 20
-5.67419
 30
0.0
 10
-11.43127
 20
-5.67419
 30
0.0
 10
-11.44425
 20
-5.64822
 30
0.0
 10
-11.4496
 20
-5.6236
 30
0.0
 10
-11.44726
 20
-5.60027
 30
0.0
 10
-11.44726
 20
-5.60027
 30
0.0
 10
-11.44497
 20
-5.57699
 30
0.0
 10
-11.43405
 20
-5.55556
 30
0.0
 10
-11.41461
 20
-5.53597
 30
0.0
 10
-11.41461
 20
-5.53597
 30
0.0
 10
-11.40029
 20
-5.52153
 30
0.0
 10
-11.38481
 20
-5.51171
 30
0.0
 10
-11.36808
 20
-5.50652
 30
0.0
 10
-11.36808
 20
-5.50652
 30
0.0
 10
-11.3514
 20
-5.50139
 30
0.0
 10
-11.33401
 20
-5.50069
 30
0.0
 10
-11.31605
 20
-5.50456
 30
0.0
 10
-11.31605
 20
-5.50456
 30
0.0
 10
-11.29814
 20
-5.50837
 30
0.0
 10
-11.27929
 20
-5.51611
 30
0.0
 10
-11.25954
 20
-5.52773
 30
0.0
 10
-11.25954
 20
-5.52773
 30
0.0
 10
-11.23974
 20
-5.53929
 30
0.0
 10
-11.21646
 20
-5.55839
 30
0.0
 10
-11.18977
 20
-5.58487
 30
0.0
 10
-11.18977
 20
-5.58487
 30
0.0
 10
-11.15813
 20
-5.61627
 30
0.0
 10
-11.13575
 20
-5.64495
 30
0.0
 10
-11.12271
 20
-5.67072
 30
0.0
 10
-11.12271
 20
-5.67072
 30
0.0
 10
-11.10959
 20
-5.69656
 30
0.0
 10
-11.10424
 20
-5.72118
 30
0.0
 10
-11.10653
 20
-5.74458
 30
0.0
 10
-11.10653
 20
-5.74458
 30
0.0
 10
-11.10875
 20
-5.76792
 30
0.0
 10
-11.11967
 20
-5.78948
 30
0.0
 10
-11.13923
 20
-5.80919
 30
0.0
 10
-11.13923
 20
-5.80919
 30
0.0
 10
-11.16496
 20
-5.83512
 30
0.0
 10
-11.19444
 20
-5.84637
 30
0.0
 10
-11.22766
 20
-5.84281
 30
0.0
 10
-11.22766
 20
-5.84281
 30
0.0
 10
-11.26789
 20
-5.83815
 30
0.0
 10
-11.31328
 20
-5.81069
 30
0.0
 10
-11.36395
 20
-5.76042
 30
0.0
  0
SPLINE
  5
7A
330
1F
100
AcDbEntity
  8
layer 2
 62
     1
100
AcDbSpline
210
0.0
220
0.0
230
1.0
 70
    11
 71
     3
 72
    36
 73
    32
 74
     0
 42
0.0000000001
 43
0.0000000001
 12
1.0
 22
0.0
 32
0.0
 13
1.0
 23
0.0
 33
0.0
 40
0.0
 40
0.0
 40
0.0
 40
0.0
 40
0.1111111111111111
 40
0.1111111111111111
 40
0.1111111111111111
 40
0.1111111111111111
 40
0.2222222222222222
 40
0.2222222222222222
 40
0.2222222222222222
 40
0.2222222222222222
 40
0.3333333333333333
 40
0.3333333333333333
 40
0.3333333333333333
 40
0.3333333333333333
 40
0.4444444444444444
 40
0.4444444444444444
 40
0.4444444444444444
 40
0.4444444444444444
 40
0.5555555555555556
 40
0.5555555555555556
 40
0.5555555555555556
 40
0.5555555555555556
 40
0.6666666666666666
 40
0.6666666666666666
 40
0.6666666666666666
 40
0.6666666666666666
 40
0.7777777777777778
 40
0.7777777777777778
 40
0.7777777777777778
 40
0.7777777777777778
 40
1.0
 40
1.0
 40
1.0
 40
1.0
 10
-11.33018
 20
-5.72664
 30
0.0
 10
-11.28579
 20
-5.77068
 30
0.0
 10
-11.25117
 20
-5.79481
 30
0.0
 10
-11.22633
 20
-5.7989
 30
0.0
 10
-11.22633
 20
-5.7989
 30
0.0
 10
-11.20142
 20
-5.80306
 30
0.0
 10
-11.18143
 20
-5.79747
 30
0.0
 10
-11.16636
 20
-5.78228
 30
0.0
 10
-11.16636
 20
-5.78228
 30
0.0
 10
-11.15128
 20
-5.76708
 30
0.0
 10
-11.14592
 20
-5.74699
 30
0.0
 10
-11.15027
 20
-5.72212
 30
0.0
 10
-11.15027
 20
-5.72212
 30
0.0
 10
-11.15468
 20
-5.69718
 30
0.0
 10
-11.17902
 20
-5.66281
 30
0.0
 10
-11.22329
 20
-5.6189
 30
0.0
 10
-11.22329
 20
-5.6189
 30
0.0
 10
-11.26768
 20
-5.57485
 30
0.0
 10
-11.3023
 20
-5.55073
 30
0.0
 10
-11.32714
 20
-5.54663
 30
0.0
 10
-11.32714
 20
-5.54663
 30
0.0
 10
-11.35198
 20
-5.54242
 30
0.0
 10
-11.3721
 20
-5.54813
 30
0.0
 10
-11.38749
 20
-5.56363
 30
0.0
 10
-11.38749
 20
-5.56363
 30
0.0
 10
-11.40256
 20
-5.57883
 30
0.0
 10
-11.40818
 20
-5.59742
 30
0.0
 10
-11.40434
 20
-5.6193
 30
0.0
 10
-11.40434
 20
-5.6193
 30
0.0
 10
-11.39923
 20
-5.64692
 30
0.0
 10
-11.37445
 20
-5.68272
 30
0.0
 10
-11.33018
 20
-5.72664
 30
0.0
  0
SPLINE
  5
7B
330
1F
100
AcDbEntity
  8
layer 2
 62
     1
370
     0
100
AcDbSpline
210
0.0
220
0.0
230
1.0
 70
    24
 71
     3
 72
     8
 73
     4
 74
     0
 42
0.0000000001
 43
0.0000000001
 12
1.0
 22
0.0
 32
0.0
 13
1.0
 23
0.0
 33
0.0
 40
0.0
 40
0.0
 40
0.0
 40
0.0
 40
1.0
 40
1.0
 40
1.0
 40
1.0
 10
-9.96956
 20
-5.85258
 30
0.0
 10
-9.96956
 20
-5.85258
 30
0.0
 10
-10.17269
 20
-6.05732
 30
0.0
 10
-10.17269
 20
-6.05732
 30
0.0
  0
SPLINE
  5
7C
330
1F
100
AcDbEntity
  8
layer 2
 62
     1
100
AcDbSpline
210
0.0
220
0.0
230
1.0
 70
    27
 71
     3
 72
    12
 73
     8
 74
     0
 42
0.0000000001
 43
0.0000000001
 12
1.0
 22
0.0
 32
0.0
 13
1.0
 23
0.0
 33
0.0
 40
0.0
 40
0.0
 40
0.0
 40
0.0
 40
0.3333333333333333
 40
0.3333333333333333
 40
0.3333333333333333
 40
0.3333333333333333
 40
1.0
 40
1.0
 40
1.0
 40
1.0
 10
-10.4574
 20
-6.26238
 30
0.0
 10
-10.4574
 20
-6.26238
 30
0.0
 10
-10.17269
 20
-6.05732
 30
0.0
 10
-10.17269
 20
-6.05732
 30
0.0
 10
-10.17269
 20
-6.05732
 30
0.0
 10
-10.17269
 20
-6.05732
 30
0.0
 10
-10.4574
 20
-6.26238
 30
0.0
 10
-10.4574
 20
-6.26238
 30
0.0
  0
SPLINE
  5
7D
330
1F
100
AcDbEntity
  8
layer 2
 62
     1
100
AcDbSpline
210
0.0
220
0.0
230
1.0
 70
     8
 71
     3
 72
    12
 73
     8
 74
     0
 42
0.0000000001
 43
0.0000000001
 12
1.0
 22
0.0
 32
0.0
 13
1.0
 23
0.0
 33
0.0
 40
0.0
 40
0.0
 40
0.0
 40
0.0
 40
0.3333333333333333
 40
0.3333333333333333
 40
0.3333333333333333
 40
0.3333333333333333
 40
1.0
 40
1.0
 40
1.0
 40
1.0
 10
-10.17269
 20
-6.05732
 30
0.0
 10
-10.17269
 20
-6.05732
 30
0.0
 10
-10.3755
 20
-6.34363
 30
0.0
 10
-10.3755
 20
-6.34363
 30
0.0
 10
-10.3755
 20
-6.34363
 30
0.0
 10
-10.3755
 20
-6.34363
 30
0.0
 10
-10.4574
 20
-6.26238
 30
0.0
 10
-10.4574
 20
-6.26238
 30
0.0
  0
SPLINE
  5
7E
330
1F
100
AcDbEntity
  8
layer 2
 62
     1
370
     9
100
AcDbSpline
210
0.0
220
0.0
230
1.0
 70
    24
 71
     3
 72
     8
 73
     4
 74
     0
 42
0.0000000001
 43
0.0000000001
 12
1.0
 22
0.0
 32
0.0
 13
1.0
 23
0.0
 33
0.0
 40
0.0
 40
0.0
 40
0.0
 40
0.0
 40
1.0
 40
1.0
 40
1.0
 40
1.0
 10
-10.4574
 20
-6.26238
 30
0.0
 10
-10.4574
 20
-6.26238
 30
0.0
 10
-10.17269
 20
-6.05732
 30
0.0
 10
-10.17269
 20
-6.05732
 30
0.0
  0
SPLINE
  5
7F
330
1F
100
AcDbEntity
  8
layer 2
 62
     1
370
     9
100
AcDbSpline
210
0.0
220
0.0
230
1.0
 70
     8
 71
     3
 72
    12
 73
     8
 74
     0
 42
0.0000000001
 43
0.0000000001
 12
1.0
 22
0.0
 32
0.0
 13
1.0
 23
0.0
 33
0.0
 40
0.0
 40
0.0
 40
0.0
 40
0.0
 40
0.3333333333333333
 40
0.3333333333333333
 40
0.3333333333333333
 40
0.3333333333333333
 40
1.0
 40
1.0
 40
1.0
 40
1.0
 10
-10.17269
 20
-6.05732
 30
0.0
 10
-10.17269
 20
-6.05732
 30
0.0
 10
-10.3755
 20
-6.34363
 30
0.0
 10
-10.3755
 20
-6.34363
 30
0.0
 10
-10.3755
 20
-6.34363
 30
0.0
 10
-10.3755
 20
-6.34363
 30
0.0
 10
-10.4574
 20
-6.26238
 30
0.0
 10
-10.4574
 20
-6.26238
 30
0.0
  0
ENDSEC
  0
SECTION
  2
OBJECTS
  0
DICTIONARY
  5
C
330
0
100
AcDbDictionary
281
     1
  3
ACAD_GROUP
350
D
  3
ACAD_LAYOUT
350
1A
  3
ACAD_MATERIAL
350
3B
  3
ACAD_MLEADERSTYLE
350
A1
  3
ACAD_MLINESTYLE
350
17
  3
ACAD_PLOTSETTINGS
350
19
  3
ACAD_PLOTSTYLENAME
350
E
  3
ACAD_TABLESTYLE
350
A0
  3
ACAD_VISUALSTYLE
350
2A
  0
DICTIONARY
  5
D
102
{ACAD_REACTORS
330
C
102
}
330
C
100
AcDbDictionary
281
     1
  0
DICTIONARY
  5
1A
102
{ACAD_REACTORS
330
C
102
}
330
C
100
AcDbDictionary
281
     1
  3
Layout1
350
1E
  3
Layout2
350
26
  3
Model
350
22
  0
DICTIONARY
  5
3B
102
{ACAD_REACTORS
330
C
102
}
330
C
100
AcDbDictionary
281
     1
  3
ByBlock
350
3D
  3
ByLayer
350
3C
  3
Global
350
3E
  0
DICTIONARY
  5
A1
102
{ACAD_REACTORS
330
C
102
}
330
C
100
AcDbDictionary
281
     1
  0
DICTIONARY
  5
17
102
{ACAD_REACTORS
330
C
102
}
330
C
100
AcDbDictionary
281
     1
  3
Standard
350
18
  0
DICTIONARY
  5
19
102
{ACAD_REACTORS
330
C
102
}
330
C
100
AcDbDictionary
281
     1
  0
ACDBDICTIONARYWDFLT
  5
E
102
{ACAD_REACTORS
330
C
102
}
330
C
100
AcDbDictionary
281
     1
  3
Normal
350
F
100
AcDbDictionaryWithDefault
340
F
  0
DICTIONARY
  5
A0
102
{ACAD_REACTORS
330
C
102
}
330
C
100
AcDbDictionary
281
     1
  0
DICTIONARY
  5
2A
102
{ACAD_REACTORS
330
C
102
}
330
C
100
AcDbDictionary
281
     1
  3
2dWireframe
350
2F
  3
3D Hidden
350
31
  3
3dWireframe
350
30
  3
Basic
350
32
  3
Brighten
350
36
  3
ColorChange
350
3A
  3
Conceptual
350
34
  3
Dim
350
35
  3
Facepattern
350
39
  3
Flat
350
2B
  3
FlatWithEdges
350
2C
  3
Gouraud
350
2D
  3
GouraudWithEdges
350
2E
  3
Linepattern
350
38
  3
Realistic
350
33
  3
Thicken
350
37
  0
LAYOUT
  5
1E
102
{ACAD_REACTORS
330
1A
102
}
330
1A
100
AcDbPlotSettings
  1

  2
none_device
  4

  6

 40
0.0
 41
0.0
 42
0.0
 43
0.0
 44
0.0
 45
0.0
 46
0.0
 47
0.0
 48
0.0
 49
0.0
140
0.0
141
0.0
142
1.0
143
1.0
 70
   688
 72
     0
 73
     0
 74
     5
  7

 75
    16
 76
     0
 77
     2
 78
   300
147
1.0
148
0.0
149
0.0
100
AcDbLayout
  1
Layout1
 70
     1
 71
     1
 10
0.0
 20
0.0
 11
12.0
 21
9.0
 12
0.0
 22
0.0
 32
0.0
 14
1.000000000000000E+20
 24
1.000000000000000E+20
 34
1.000000000000000E+20
 15
-1.000000000000000E+20
 25
-1.000000000000000E+20
 35
-1.000000000000000E+20
146
0.0
 13
0.0
 23
0.0
 33
0.0
 16
1.0
 26
0.0
 36
0.0
 17
0.0
 27
1.0
 37
0.0
 76
     0
330
1B
  0
LAYOUT
  5
26
102
{ACAD_REACTORS
330
1A
102
}
330
1A
100
AcDbPlotSettings
  1

  2
none_device
  4

  6

 40
0.0
 41
0.0
 42
0.0
 43
0.0
 44
0.0
 45
0.0
 46
0.0
 47
0.0
 48
0.0
 49
0.0
140
0.0
141
0.0
142
1.0
143
1.0
 70
   688
 72
     0
 73
     0
 74
     5
  7

 75
    16
 76
     0
 77
     2
 78
   300
147
1.0
148
0.0
149
0.0
100
AcDbLayout
  1
Layout2
 70
     1
 71
     2
 10
0.0
 20
0.0
 11
0.0
 21
0.0
 12
0.0
 22
0.0
 32
0.0
 14
0.0
 24
0.0
 34
0.0
 15
0.0
 25
0.0
 35
0.0
146
0.0
 13
0.0
 23
0.0
 33
0.0
 16
1.0
 26
0.0
 36
0.0
 17
0.0
 27
1.0
 37
0.0
 76
     0
330
23
  0
LAYOUT
  5
22
102
{ACAD_REACTORS
330
1A
102
}
330
1A
100
AcDbPlotSettings
  1

  2
none_device
  4

  6

 40
0.0
 41
0.0
 42
0.0
 43
0.0
 44
0.0
 45
0.0
 46
0.0
 47
0.0
 48
0.0
 49
0.0
140
0.0
141
0.0
142
1.0
143
1.0
 70
  1712
 72
     0
 73
     0
 74
     0
  7

 75
     0
 76
     0
 77
     2
 78
   300
147
1.0
148
0.0
149
0.0
100
AcDbLayout
  1
Model
 70
     1
 71
     0
 10
0.0
 20
0.0
 11
12.0
 21
9.0
 12
0.0
 22
0.0
 32
0.0
 14
-11.96453
 24
-9.09083
 34
0.0
 15
12.76813
 25
7.27695
 35
0.0
146
0.0
 13
0.0
 23
0.0
 33
0.0
 16
1.0
 26
0.0
 36
0.0
 17
0.0
 27
1.0
 37
0.0
 76
     0
330
1F
331
29
  0
MATERIAL
  5
3D
102
{ACAD_REACTORS
330
3B
102
}
330
3B
100
AcDbMaterial
  1
ByBlock
 72
     1
 94
      127
  0
MATERIAL
  5
3C
102
{ACAD_REACTORS
330
3B
102
}
330
3B
100
AcDbMaterial
  1
ByLayer
 72
     1
 94
      127
  0
MATERIAL
  5
3E
102
{ACAD_REACTORS
330
3B
102
}
330
3B
100
AcDbMaterial
  1
Global
 72
     1
 94
      127
  0
MLINESTYLE
  5
18
102
{ACAD_REACTORS
330
17
102
}
330
17
100
AcDbMlineStyle
  2
Standard
 70
     0
  3

 62
   256
 51
90.0
 52
90.0
 71
     2
 49
0.5
 62
   256
  6
BYLAYER
 49
-0.5
 62
   256
  6
BYLAYER
  0
ACDBPLACEHOLDER
  5
F
102
{ACAD_REACTORS
330
E
102
}
330
E
  0
VISUALSTYLE
  5
2F
102
{ACAD_REACTORS
330
2A
102
}
102
{ACAD_XDICTIONARY
360
88
102
}
330
2A
100
AcDbVisualStyle
  2
2dWireframe
 70
     4
 71
     0
 72
     2
 73
     0
 90
        0
 40
-0.6
 41
-30.0
 62
     5
 63
     7
421
 16777215
 74
     1
 91
        4
 64
     7
 65
   257
 75
     1
175
     1
 42
1.0
 92
        0
 66
   257
 43
1.0
 76
     1
 77
     6
 78
     2
 67
     7
 79
     5
170
     0
171
     0
290
     0
174
     0
 93
        1
 44
0.0
173
     0
291
     0
 45
0.0
  0
VISUALSTYLE
  5
31
102
{ACAD_REACTORS
330
2A
102
}
102
{ACAD_XDICTIONARY
360
8C
102
}
330
2A
100
AcDbVisualStyle
  2
3D Hidden
 70
     6
 71
     1
 72
     2
 73
     2
 90
        0
 40
-0.6
 41
-30.0
 62
     5
 63
     7
421
 16777215
 74
     2
 91
        2
 64
     7
 65
   257
 75
     2
175
     1
 42
40.0
 92
        0
 66
   257
 43
1.0
 76
     1
 77
     6
 78
     2
 67
     7
 79
     3
170
     0
171
     0
290
     0
174
     0
 93
        1
 44
0.0
173
     0
291
     0
 45
0.0
  0
VISUALSTYLE
  5
30
102
{ACAD_REACTORS
330
2A
102
}
102
{ACAD_XDICTIONARY
360
8A
102
}
330
2A
100
AcDbVisualStyle
  2
3dWireframe
 70
     5
 71
     0
 72
     2
 73
     0
 90
        0
 40
-0.6
 41
-30.0
 62
     5
 63
     7
421
 16777215
 74
     1
 91
        4
 64
     7
 65
   257
 75
     1
175
     1
 42
1.0
 92
        0
 66
   257
 43
1.0
 76
     1
 77
     6
 78
     2
 67
     7
 79
     5
170
     0
171
     0
290
     0
174
     0
 93
        1
 44
0.0
173
     0
291
     0
 45
0.0
  0
VISUALSTYLE
  5
32
102
{ACAD_REACTORS
330
2A
102
}
102
{ACAD_XDICTIONARY
360
8E
102
}
330
2A
100
AcDbVisualStyle
  2
Basic
 70
     7
 71
     1
 72
     0
 73
     1
 90
        0
 40
-0.6
 41
-30.0
 62
     5
 63
     7
421
 16777215
 74
     0
 91
        4
 64
     7
 65
   257
 75
     1
175
     1
 42
1.0
 92
        8
 66
     7
 43
1.0
 76
     1
 77
     6
 78
     2
 67
     7
 79
     5
170
     0
171
     0
290
     0
174
     0
 93
        1
 44
0.0
173
     0
291
     1
 45
0.0
  0
VISUALSTYLE
  5
36
102
{ACAD_REACTORS
330
2A
102
}
102
{ACAD_XDICTIONARY
360
96
102
}
330
2A
100
AcDbVisualStyle
  2
Brighten
 70
    12
 71
     2
 72
     2
 73
     0
 90
        0
 40
-0.6
 41
-30.0
 62
     5
 63
     7
421
 16777215
 74
     1
 91
        4
 64
     7
 65
   257
 75
     1
175
     1
 42
1.0
 92
        8
 66
     7
 43
1.0
 76
     1
 77
     6
 78
     2
 67
     7
 79
     5
170
     0
171
     0
290
     0
174
     0
 93
        1
 44
50.0
173
     0
291
     1
 45
0.0
  0
VISUALSTYLE
  5
3A
102
{ACAD_REACTORS
330
2A
102
}
102
{ACAD_XDICTIONARY
360
9E
102
}
330
2A
100
AcDbVisualStyle
  2
ColorChange
 70
    16
 71
     2
 72
     2
 73
     3
 90
        0
 40
-0.6
 41
-30.0
 62
     5
 63
     8
421
  8421504
 74
     1
 91
        4
 64
     7
 65
   257
 75
     1
175
     1
 42
1.0
 92
        8
 66
     8
424
  8421504
 43
1.0
 76
     1
 77
     6
 78
     2
 67
     7
 79
     5
170
     0
171
     0
290
     0
174
     0
 93
        1
 44
0.0
173
     0
291
     1
 45
0.0
  0
VISUALSTYLE
  5
34
102
{ACAD_REACTORS
330
2A
102
}
102
{ACAD_XDICTIONARY
360
92
102
}
330
2A
100
AcDbVisualStyle
  2
Conceptual
 70
     9
 71
     3
 72
     2
 73
     0
 90
        0
 40
-0.6
 41
-30.0
 62
     5
 63
     7
421
 16777215
 74
     2
 91
        2
 64
     7
 65
   257
 75
     1
175
     1
 42
40.0
 92
        8
 66
     7
 43
1.0
 76
     1
 77
     6
 78
     2
 67
     7
 79
     3
170
     0
171
     0
290
     0
174
     0
 93
        1
 44
0.0
173
     0
291
     0
 45
0.0
  0
VISUALSTYLE
  5
35
102
{ACAD_REACTORS
330
2A
102
}
102
{ACAD_XDICTIONARY
360
94
102
}
330
2A
100
AcDbVisualStyle
  2
Dim
 70
    11
 71
     2
 72
     2
 73
     0
 90
        0
 40
-0.6
 41
-30.0
 62
     5
 63
     7
421
 16777215
 74
     1
 91
        4
 64
     7
 65
   257
 75
     1
175
     1
 42
1.0
 92
        8
 66
     7
 43
1.0
 76
     1
 77
     6
 78
     2
 67
     7
 79
     5
170
     0
171
     0
290
     0
174
     0
 93
        1
 44
-50.0
173
     0
291
     1
 45
0.0
  0
VISUALSTYLE
  5
39
102
{ACAD_REACTORS
330
2A
102
}
102
{ACAD_XDICTIONARY
360
9C
102
}
330
2A
100
AcDbVisualStyle
  2
Facepattern
 70
    15
 71
     2
 72
     2
 73
     0
 90
        0
 40
-0.6
 41
-30.0
 62
     5
 63
     7
421
 16777215
 74
     1
 91
        4
 64
     7
 65
   257
 75
     1
175
     1
 42
1.0
 92
        8
 66
     7
 43
1.0
 76
     1
 77
     6
 78
     2
 67
     7
 79
     5
170
     0
171
     0
290
     0
174
     0
 93
        1
 44
0.0
173
     0
291
     1
 45
0.0
  0
VISUALSTYLE
  5
2B
102
{ACAD_REACTORS
330
2A
102
}
102
{ACAD_XDICTIONARY
360
80
102
}
330
2A
100
AcDbVisualStyle
  2
Flat
 70
     0
 71
     2
 72
     1
 73
     1
 90
        2
 40
-0.6
 41
30.0
 62
     5
 63
     7
421
 16777215
 74
     0
 91
        4
 64
     7
 65
   257
 75
     1
175
     1
 42
1.0
 92
        8
 66
     7
 43
1.0
 76
     1
 77
     6
 78
     2
 67
     7
 79
     5
170
     0
171
     0
290
     0
174
     0
 93
       13
 44
0.0
173
     0
291
     1
 45
0.0
  0
VISUALSTYLE
  5
2C
102
{ACAD_REACTORS
330
2A
102
}
102
{ACAD_XDICTIONARY
360
82
102
}
330
2A
100
AcDbVisualStyle
  2
FlatWithEdges
 70
     1
 71
     2
 72
     1
 73
     1
 90
        2
 40
-0.6
 41
30.0
 62
     5
 63
     7
421
 16777215
 74
     1
 91
        4
 64
     7
 65
   257
 75
     1
175
     1
 42
1.0
 92
        0
 66
   257
 43
1.0
 76
     1
 77
     6
 78
     2
 67
     7
 79
     5
170
     0
171
     0
290
     0
174
     0
 93
       13
 44
0.0
173
     0
291
     1
 45
0.0
  0
VISUALSTYLE
  5
2D
102
{ACAD_REACTORS
330
2A
102
}
102
{ACAD_XDICTIONARY
360
84
102
}
330
2A
100
AcDbVisualStyle
  2
Gouraud
 70
     2
 71
     2
 72
     2
 73
     1
 90
        2
 40
-0.6
 41
30.0
 62
     5
 63
     7
421
 16777215
 74
     0
 91
        4
 64
     7
 65
   257
 75
     1
175
     1
 42
1.0
 92
        0
 66
     7
 43
1.0
 76
     1
 77
     6
 78
     2
 67
     7
 79
     5
170
     0
171
     0
290
     0
174
     0
 93
       13
 44
0.0
173
     0
291
     1
 45
0.0
  0
VISUALSTYLE
  5
2E
102
{ACAD_REACTORS
330
2A
102
}
102
{ACAD_XDICTIONARY
360
86
102
}
330
2A
100
AcDbVisualStyle
  2
GouraudWithEdges
 70
     3
 71
     2
 72
     2
 73
     1
 90
        2
 40
-0.6
 41
30.0
 62
     5
 63
     7
421
 16777215
 74
     1
 91
        4
 64
     7
 65
   257
 75
     1
175
     1
 42
1.0
 92
        0
 66
   257
 43
1.0
 76
     1
 77
     6
 78
     2
 67
     7
 79
     5
170
     0
171
     0
290
     0
174
     0
 93
       13
 44
0.0
173
     0
291
     1
 45
0.0
  0
VISUALSTYLE
  5
38
102
{ACAD_REACTORS
330
2A
102
}
102
{ACAD_XDICTIONARY
360
9A
102
}
330
2A
100
AcDbVisualStyle
  2
Linepattern
 70
    14
 71
     2
 72
     2
 73
     0
 90
        0
 40
-0.6
 41
-30.0
 62
     5
 63
     7
421
 16777215
 74
     1
 91
        4
 64
     7
 65
   257
 75
     7
175
     7
 42
1.0
 92
        8
 66
     7
 43
1.0
 76
     1
 77
     6
 78
     2
 67
     7
 79
     5
170
     0
171
     0
290
     0
174
     0
 93
        1
 44
0.0
173
     0
291
     1
 45
0.0
  0
VISUALSTYLE
  5
33
102
{ACAD_REACTORS
330
2A
102
}
102
{ACAD_XDICTIONARY
360
90
102
}
330
2A
100
AcDbVisualStyle
  2
Realistic
 70
     8
 71
     2
 72
     2
 73
     0
 90
        0
 40
-0.6
 41
-30.0
 62
     5
 63
     7
421
 16777215
 74
     1
 91
        0
 64
     7
 65
   257
 75
     1
175
     1
 42
1.0
 92
        8
 66
     8
424
  7895160
 43
1.0
 76
     1
 77
     6
 78
     2
 67
     7
 79
     5
170
     0
171
     0
290
     0
174
     0
 93
       13
 44
0.0
173
     0
291
     0
 45
0.0
  0
VISUALSTYLE
  5
37
102
{ACAD_REACTORS
330
2A
102
}
102
{ACAD_XDICTIONARY
360
98
102
}
330
2A
100
AcDbVisualStyle
  2
Thicken
 70
    13
 71
     2
 72
     2
 73
     0
 90
        0
 40
-0.6
 41
-30.0
 62
     5
 63
     7
421
 16777215
 74
     1
 91
        4
 64
     7
 65
   257
 75
     1
175
     1
 42
1.0
 92
       12
 66
     7
 43
1.0
 76
     1
 77
     6
 78
     2
 67
     7
 79
     5
170
     0
171
     0
290
     0
174
     0
 93
        1
 44
0.0
173
     0
291
     1
 45
0.0
  0
DICTIONARY
  5
88
330
2F
100
AcDbDictionary
280
     1
281
     1
  3
ACAD_XREC_ROUNDTRIP
360
89
  0
DICTIONARY
  5
8C
330
31
100
AcDbDictionary
280
     1
281
     1
  3
ACAD_XREC_ROUNDTRIP
360
8D
  0
DICTIONARY
  5
8A
330
30
100
AcDbDictionary
280
     1
281
     1
  3
ACAD_XREC_ROUNDTRIP
360
8B
  0
DICTIONARY
  5
8E
330
32
100
AcDbDictionary
280
     1
281
     1
  3
ACAD_XREC_ROUNDTRIP
360
8F
  0
DICTIONARY
  5
96
330
36
100
AcDbDictionary
280
     1
281
     1
  3
ACAD_XREC_ROUNDTRIP
360
97
  0
DICTIONARY
  5
9E
330
3A
100
AcDbDictionary
280
     1
281
     1
  3
ACAD_XREC_ROUNDTRIP
360
9F
  0
DICTIONARY
  5
92
330
34
100
AcDbDictionary
280
     1
281
     1
  3
ACAD_XREC_ROUNDTRIP
360
93
  0
DICTIONARY
  5
94
330
35
100
AcDbDictionary
280
     1
281
     1
  3
ACAD_XREC_ROUNDTRIP
360
95
  0
DICTIONARY
  5
9C
330
39
100
AcDbDictionary
280
     1
281
     1
  3
ACAD_XREC_ROUNDTRIP
360
9D
  0
DICTIONARY
  5
80
330
2B
100
AcDbDictionary
280
     1
281
     1
  3
ACAD_XREC_ROUNDTRIP
360
81
  0
DICTIONARY
  5
82
330
2C
100
AcDbDictionary
280
     1
281
     1
  3
ACAD_XREC_ROUNDTRIP
360
83
  0
DICTIONARY
  5
84
330
2D
100
AcDbDictionary
280
     1
281
     1
  3
ACAD_XREC_ROUNDTRIP
360
85
  0
DICTIONARY
  5
86
330
2E
100
AcDbDictionary
280
     1
281
     1
  3
ACAD_XREC_ROUNDTRIP
360
87
  0
DICTIONARY
  5
9A
330
38
100
AcDbDictionary
280
     1
281
     1
  3
ACAD_XREC_ROUNDTRIP
360
9B
  0
DICTIONARY
  5
90
330
33
100
AcDbDictionary
280
     1
281
     1
  3
ACAD_XREC_ROUNDTRIP
360
91
  0
DICTIONARY
  5
98
330
37
100
AcDbDictionary
280
     1
281
     1
  3
ACAD_XREC_ROUNDTRIP
360
99
  0
XRECORD
  5
89
102
{ACAD_REACTORS
330
88
102
}
330
88
100
AcDbXrecord
280
     1
102
RTVSPropertyOp0
 70
     1
102
RTVSPropertyOp1
 70
     1
102
RTVSPropertyOp2
 70
     1
102
RTVSPropertyOp3
 70
     1
102
RTVSPropertyOp4
 70
     1
102
RTVSPropertyOp5
 70
     1
102
RTVSPropertyOp6
 70
     1
102
RTVSPropertyOp7
 70
     1
102
RTVSPropertyOp8
 70
     1
102
RTVSPropertyOp9
 70
     1
102
RTVSPropertyOp10
 70
     1
102
RTVSPropertyOp11
 70
     1
102
RTVSPropertyOp12
 70
     1
102
RTVSPropertyOp13
 70
     1
102
RTVSPropertyOp14
 70
     1
102
RTVSPropertyOp15
 70
     1
102
RTVSPropertyOp16
 70
     1
102
RTVSPropertyOp17
 70
     1
102
RTVSPropertyOp18
 70
     1
102
RTVSPropertyOp19
 70
     1
102
RTVSPropertyOp20
 70
     1
102
RTVSPropertyOp21
 70
     1
102
RTVSPropertyOp22
 70
     1
102
RTVSPropertyOp23
 70
     1
102
RTVSPropertyOp24
 70
     1
102
RTVSPropertyOp25
 70
     1
102
RTVSPropertyOp26
 70
     1
102
RTVSPropertyOp27
 70
     1
102
RTVSPropertyOp28
 70
     1
102
RTVSPropertyOp29
 70
     1
102
RTVSPropertyOp30
 70
     1
102
RTVSPropertyOp31
 70
     1
102
RTVSPropertyOp32
 70
     1
  0
XRECORD
  5
8D
102
{ACAD_REACTORS
330
8C
102
}
330
8C
100
AcDbXrecord
280
     1
102
RTVSPropertyOp0
 70
     1
102
RTVSPropertyOp1
 70
     1
102
RTVSPropertyOp2
 70
     1
102
RTVSPropertyOp3
 70
     1
102
RTVSPropertyOp4
 70
     1
102
RTVSPropertyOp5
 70
     1
102
RTVSPropertyOp6
 70
     1
102
RTVSPropertyOp7
 70
     1
102
RTVSPropertyOp8
 70
     1
102
RTVSPropertyOp9
 70
     1
102
RTVSPropertyOp10
 70
     1
102
RTVSPropertyOp11
 70
     1
102
RTVSPropertyOp12
 70
     1
102
RTVSPropertyOp13
 70
     1
102
RTVSPropertyOp14
 70
     1
102
RTVSPropertyOp15
 70
     1
102
RTVSPropertyOp16
 70
     1
102
RTVSPropertyOp17
 70
     1
102
RTVSPropertyOp18
 70
     1
102
RTVSPropertyOp19
 70
     1
102
RTVSPropertyOp20
 70
     1
102
RTVSPropertyOp21
 70
     1
102
RTVSPropertyOp22
 70
     1
102
RTVSPropertyOp23
 70
     1
102
RTVSPropertyOp24
 70
     1
102
RTVSPropertyOp25
 70
     1
102
RTVSPropertyOp26
 70
     1
102
RTVSPropertyOp27
 70
     1
102
RTVSPropertyOp28
 70
     1
102
RTVSPropertyOp29
 70
     1
102
RTVSPropertyOp30
 70
     1
102
RTVSPropertyOp31
 70
     1
102
RTVSPropertyOp32
 70
     1
  0
XRECORD
  5
8B
102
{ACAD_REACTORS
330
8A
102
}
330
8A
100
AcDbXrecord
280
     1
102
RTVSPropertyOp0
 70
     1
102
RTVSPropertyOp1
 70
     1
102
RTVSPropertyOp2
 70
     1
102
RTVSPropertyOp3
 70
     1
102
RTVSPropertyOp4
 70
     1
102
RTVSPropertyOp5
 70
     1
102
RTVSPropertyOp6
 70
     1
102
RTVSPropertyOp7
 70
     1
102
RTVSPropertyOp8
 70
     1
102
RTVSPropertyOp9
 70
     1
102
RTVSPropertyOp10
 70
     1
102
RTVSPropertyOp11
 70
     1
102
RTVSPropertyOp12
 70
     1
102
RTVSPropertyOp13
 70
     1
102
RTVSPropertyOp14
 70
     1
102
RTVSPropertyOp15
 70
     1
102
RTVSPropertyOp16
 70
     1
102
RTVSPropertyOp17
 70
     1
102
RTVSPropertyOp18
 70
     1
102
RTVSPropertyOp19
 70
     1
102
RTVSPropertyOp20
 70
     1
102
RTVSPropertyOp21
 70
     1
102
RTVSPropertyOp22
 70
     1
102
RTVSPropertyOp23
 70
     1
102
RTVSPropertyOp24
 70
     1
102
RTVSPropertyOp25
 70
     1
102
RTVSPropertyOp26
 70
     1
102
RTVSPropertyOp27
 70
     1
102
RTVSPropertyOp28
 70
     1
102
RTVSPropertyOp29
 70
     1
102
RTVSPropertyOp30
 70
     1
102
RTVSPropertyOp31
 70
     1
102
RTVSPropertyOp32
 70
     1
  0
XRECORD
  5
8F
102
{ACAD_REACTORS
330
8E
102
}
330
8E
100
AcDbXrecord
280
     1
102
RTVSPropertyOp0
 70
     1
102
RTVSPropertyOp1
 70
     1
102
RTVSPropertyOp2
 70
     1
102
RTVSPropertyOp3
 70
     1
102
RTVSPropertyOp4
 70
     1
102
RTVSPropertyOp5
 70
     1
102
RTVSPropertyOp6
 70
     1
102
RTVSPropertyOp7
 70
     1
102
RTVSPropertyOp8
 70
     1
102
RTVSPropertyOp9
 70
     1
102
RTVSPropertyOp10
 70
     1
102
RTVSPropertyOp11
 70
     1
102
RTVSPropertyOp12
 70
     1
102
RTVSPropertyOp13
 70
     1
102
RTVSPropertyOp14
 70
     1
102
RTVSPropertyOp15
 70
     1
102
RTVSPropertyOp16
 70
     1
102
RTVSPropertyOp17
 70
     1
102
RTVSPropertyOp18
 70
     1
102
RTVSPropertyOp19
 70
     1
102
RTVSPropertyOp20
 70
     1
102
RTVSPropertyOp21
 70
     1
102
RTVSPropertyOp22
 70
     1
102
RTVSPropertyOp23
 70
     1
102
RTVSPropertyOp24
 70
     1
102
RTVSPropertyOp25
 70
     1
102
RTVSPropertyOp26
 70
     1
102
RTVSPropertyOp27
 70
     1
102
RTVSPropertyOp28
 70
     1
102
RTVSPropertyOp29
 70
     1
102
RTVSPropertyOp30
 70
     1
102
RTVSPropertyOp31
 70
     1
102
RTVSPropertyOp32
 70
     1
  0
XRECORD
  5
97
102
{ACAD_REACTORS
330
96
102
}
330
96
100
AcDbXrecord
280
     1
102
RTVSPropertyOp0
 70
     1
102
RTVSPropertyOp1
 70
     1
102
RTVSPropertyOp2
 70
     1
102
RTVSPropertyOp3
 70
     1
102
RTVSPropertyOp4
 70
     1
102
RTVSPropertyOp5
 70
     1
102
RTVSPropertyOp6
 70
     1
102
RTVSPropertyOp7
 70
     1
102
RTVSPropertyOp8
 70
     1
102
RTVSPropertyOp9
 70
     1
102
RTVSPropertyOp10
 70
     1
102
RTVSPropertyOp11
 70
     1
102
RTVSPropertyOp12
 70
     1
102
RTVSPropertyOp13
 70
     1
102
RTVSPropertyOp14
 70
     1
102
RTVSPropertyOp15
 70
     1
102
RTVSPropertyOp16
 70
     1
102
RTVSPropertyOp17
 70
     1
102
RTVSPropertyOp18
 70
     1
102
RTVSPropertyOp19
 70
     1
102
RTVSPropertyOp20
 70
     1
102
RTVSPropertyOp21
 70
     1
102
RTVSPropertyOp22
 70
     1
102
RTVSPropertyOp23
 70
     1
102
RTVSPropertyOp24
 70
     1
102
RTVSPropertyOp25
 70
     1
102
RTVSPropertyOp26
 70
     1
102
RTVSPropertyOp27
 70
     1
102
RTVSPropertyOp28
 70
     1
102
RTVSPropertyOp29
 70
     1
102
RTVSPropertyOp30
 70
     1
102
RTVSPropertyOp31
 70
     1
102
RTVSPropertyOp32
 70
     1
  0
XRECORD
  5
9F
102
{ACAD_REACTORS
330
9E
102
}
330
9E
100
AcDbXrecord
280
     1
102
RTVSPropertyOp0
 70
     1
102
RTVSPropertyOp1
 70
     1
102
RTVSPropertyOp2
 70
     1
102
RTVSPropertyOp3
 70
     1
102
RTVSPropertyOp4
 70
     1
102
RTVSPropertyOp5
 70
     1
102
RTVSPropertyOp6
 70
     1
102
RTVSPropertyOp7
 70
     1
102
RTVSPropertyOp8
 70
     1
102
RTVSPropertyOp9
 70
     1
102
RTVSPropertyOp10
 70
     1
102
RTVSPropertyOp11
 70
     1
102
RTVSPropertyOp12
 70
     1
102
RTVSPropertyOp13
 70
     1
102
RTVSPropertyOp14
 70
     1
102
RTVSPropertyOp15
 70
     1
102
RTVSPropertyOp16
 70
     1
102
RTVSPropertyOp17
 70
     1
102
RTVSPropertyOp18
 70
     1
102
RTVSPropertyOp19
 70
     1
102
RTVSPropertyOp20
 70
     1
102
RTVSPropertyOp21
 70
     1
102
RTVSPropertyOp22
 70
     1
102
RTVSPropertyOp23
 70
     1
102
RTVSPropertyOp24
 70
     1
102
RTVSPropertyOp25
 70
     1
102
RTVSPropertyOp26
 70
     1
102
RTVSPropertyOp27
 70
     1
102
RTVSPropertyOp28
 70
     1
102
RTVSPropertyOp29
 70
     1
102
RTVSPropertyOp30
 70
     1
102
RTVSPropertyOp31
 70
     1
102
RTVSPropertyOp32
 70
     1
  0
XRECORD
  5
93
102
{ACAD_REACTORS
330
92
102
}
330
92
100
AcDbXrecord
280
     1
102
RTVSPropertyOp0
 70
     1
102
RTVSPropertyOp1
 70
     1
102
RTVSPropertyOp2
 70
     1
102
RTVSPropertyOp3
 70
     1
102
RTVSPropertyOp4
 70
     1
102
RTVSPropertyOp5
 70
     1
102
RTVSPropertyOp6
 70
     1
102
RTVSPropertyOp7
 70
     1
102
RTVSPropertyOp8
 70
     1
102
RTVSPropertyOp9
 70
     1
102
RTVSPropertyOp10
 70
     1
102
RTVSPropertyOp11
 70
     1
102
RTVSPropertyOp12
 70
     1
102
RTVSPropertyOp13
 70
     1
102
RTVSPropertyOp14
 70
     1
102
RTVSPropertyOp15
 70
     1
102
RTVSPropertyOp16
 70
     1
102
RTVSPropertyOp17
 70
     1
102
RTVSPropertyOp18
 70
     1
102
RTVSPropertyOp19
 70
     1
102
RTVSPropertyOp20
 70
     1
102
RTVSPropertyOp21
 70
     1
102
RTVSPropertyOp22
 70
     1
102
RTVSPropertyOp23
 70
     1
102
RTVSPropertyOp24
 70
     1
102
RTVSPropertyOp25
 70
     1
102
RTVSPropertyOp26
 70
     1
102
RTVSPropertyOp27
 70
     1
102
RTVSPropertyOp28
 70
     1
102
RTVSPropertyOp29
 70
     1
102
RTVSPropertyOp30
 70
     1
102
RTVSPropertyOp31
 70
     1
102
RTVSPropertyOp32
 70
     1
  0
XRECORD
  5
95
102
{ACAD_REACTORS
330
94
102
}
330
94
100
AcDbXrecord
280
     1
102
RTVSPropertyOp0
 70
     1
102
RTVSPropertyOp1
 70
     1
102
RTVSPropertyOp2
 70
     1
102
RTVSPropertyOp3
 70
     1
102
RTVSPropertyOp4
 70
     1
102
RTVSPropertyOp5
 70
     1
102
RTVSPropertyOp6
 70
     1
102
RTVSPropertyOp7
 70
     1
102
RTVSPropertyOp8
 70
     1
102
RTVSPropertyOp9
 70
     1
102
RTVSPropertyOp10
 70
     1
102
RTVSPropertyOp11
 70
     1
102
RTVSPropertyOp12
 70
     1
102
RTVSPropertyOp13
 70
     1
102
RTVSPropertyOp14
 70
     1
102
RTVSPropertyOp15
 70
     1
102
RTVSPropertyOp16
 70
     1
102
RTVSPropertyOp17
 70
     1
102
RTVSPropertyOp18
 70
     1
102
RTVSPropertyOp19
 70
     1
102
RTVSPropertyOp20
 70
     1
102
RTVSPropertyOp21
 70
     1
102
RTVSPropertyOp22
 70
     1
102
RTVSPropertyOp23
 70
     1
102
RTVSPropertyOp24
 70
     1
102
RTVSPropertyOp25
 70
     1
102
RTVSPropertyOp26
 70
     1
102
RTVSPropertyOp27
 70
     1
102
RTVSPropertyOp28
 70
     1
102
RTVSPropertyOp29
 70
     1
102
RTVSPropertyOp30
 70
     1
102
RTVSPropertyOp31
 70
     1
102
RTVSPropertyOp32
 70
     1
  0
XRECORD
  5
9D
102
{ACAD_REACTORS
330
9C
102
}
330
9C
100
AcDbXrecord
280
     1
102
RTVSPropertyOp0
 70
     1
102
RTVSPropertyOp1
 70
     1
102
RTVSPropertyOp2
 70
     1
102
RTVSPropertyOp3
 70
     1
102
RTVSPropertyOp4
 70
     1
102
RTVSPropertyOp5
 70
     1
102
RTVSPropertyOp6
 70
     1
102
RTVSPropertyOp7
 70
     1
102
RTVSPropertyOp8
 70
     1
102
RTVSPropertyOp9
 70
     1
102
RTVSPropertyOp10
 70
     1
102
RTVSPropertyOp11
 70
     1
102
RTVSPropertyOp12
 70
     1
102
RTVSPropertyOp13
 70
     1
102
RTVSPropertyOp14
 70
     1
102
RTVSPropertyOp15
 70
     1
102
RTVSPropertyOp16
 70
     1
102
RTVSPropertyOp17
 70
     1
102
RTVSPropertyOp18
 70
     1
102
RTVSPropertyOp19
 70
     1
102
RTVSPropertyOp20
 70
     1
102
RTVSPropertyOp21
 70
     1
102
RTVSPropertyOp22
 70
     1
102
RTVSPropertyOp23
 70
     1
102
RTVSPropertyOp24
 70
     1
102
RTVSPropertyOp25
 70
     1
102
RTVSPropertyOp26
 70
     1
102
RTVSPropertyOp27
 70
     1
102
RTVSPropertyOp28
 70
     1
102
RTVSPropertyOp29
 70
     1
102
RTVSPropertyOp30
 70
     1
102
RTVSPropertyOp31
 70
     1
102
RTVSPropertyOp32
 70
     1
  0
XRECORD
  5
81
102
{ACAD_REACTORS
330
80
102
}
330
80
100
AcDbXrecord
280
     1
102
RTVSPropertyOp0
 70
     1
102
RTVSPropertyOp1
 70
     1
102
RTVSPropertyOp2
 70
     1
102
RTVSPropertyOp3
 70
     1
102
RTVSPropertyOp4
 70
     1
102
RTVSPropertyOp5
 70
     1
102
RTVSPropertyOp6
 70
     1
102
RTVSPropertyOp7
 70
     1
102
RTVSPropertyOp8
 70
     1
102
RTVSPropertyOp9
 70
     1
102
RTVSPropertyOp10
 70
     1
102
RTVSPropertyOp11
 70
     1
102
RTVSPropertyOp12
 70
     1
102
RTVSPropertyOp13
 70
     1
102
RTVSPropertyOp14
 70
     1
102
RTVSPropertyOp15
 70
     1
102
RTVSPropertyOp16
 70
     1
102
RTVSPropertyOp17
 70
     1
102
RTVSPropertyOp18
 70
     1
102
RTVSPropertyOp19
 70
     1
102
RTVSPropertyOp20
 70
     1
102
RTVSPropertyOp21
 70
     1
102
RTVSPropertyOp22
 70
     1
102
RTVSPropertyOp23
 70
     1
102
RTVSPropertyOp24
 70
     1
102
RTVSPropertyOp25
 70
     1
102
RTVSPropertyOp26
 70
     1
102
RTVSPropertyOp27
 70
     1
102
RTVSPropertyOp28
 70
     1
102
RTVSPropertyOp29
 70
     1
102
RTVSPropertyOp30
 70
     1
102
RTVSPropertyOp31
 70
     1
102
RTVSPropertyOp32
 70
     1
  0
XRECORD
  5
83
102
{ACAD_REACTORS
330
82
102
}
330
82
100
AcDbXrecord
280
     1
102
RTVSPropertyOp0
 70
     1
102
RTVSPropertyOp1
 70
     1
102
RTVSPropertyOp2
 70
     1
102
RTVSPropertyOp3
 70
     1
102
RTVSPropertyOp4
 70
     1
102
RTVSPropertyOp5
 70
     1
102
RTVSPropertyOp6
 70
     1
102
RTVSPropertyOp7
 70
     1
102
RTVSPropertyOp8
 70
     1
102
RTVSPropertyOp9
 70
     1
102
RTVSPropertyOp10
 70
     1
102
RTVSPropertyOp11
 70
     1
102
RTVSPropertyOp12
 70
     1
102
RTVSPropertyOp13
 70
     1
102
RTVSPropertyOp14
 70
     1
102
RTVSPropertyOp15
 70
     1
102
RTVSPropertyOp16
 70
     1
102
RTVSPropertyOp17
 70
     1
102
RTVSPropertyOp18
 70
     1
102
RTVSPropertyOp19
 70
     1
102
RTVSPropertyOp20
 70
     1
102
RTVSPropertyOp21
 70
     1
102
RTVSPropertyOp22
 70
     1
102
RTVSPropertyOp23
 70
     1
102
RTVSPropertyOp24
 70
     1
102
RTVSPropertyOp25
 70
     1
102
RTVSPropertyOp26
 70
     1
102
RTVSPropertyOp27
 70
     1
102
RTVSPropertyOp28
 70
     1
102
RTVSPropertyOp29
 70
     1
102
RTVSPropertyOp30
 70
     1
102
RTVSPropertyOp31
 70
     1
102
RTVSPropertyOp32
 70
     1
  0
XRECORD
  5
85
102
{ACAD_REACTORS
330
84
102
}
330
84
100
AcDbXrecord
280
     1
102
RTVSPropertyOp0
 70
     1
102
RTVSPropertyOp1
 70
     1
102
RTVSPropertyOp2
 70
     1
102
RTVSPropertyOp3
 70
     1
102
RTVSPropertyOp4
 70
     1
102
RTVSPropertyOp5
 70
     1
102
RTVSPropertyOp6
 70
     1
102
RTVSPropertyOp7
 70
     1
102
RTVSPropertyOp8
 70
     1
102
RTVSPropertyOp9
 70
     1
102
RTVSPropertyOp10
 70
     1
102
RTVSPropertyOp11
 70
     1
102
RTVSPropertyOp12
 70
     1
102
RTVSPropertyOp13
 70
     1
102
RTVSPropertyOp14
 70
     1
102
RTVSPropertyOp15
 70
     1
102
RTVSPropertyOp16
 70
     1
102
RTVSPropertyOp17
 70
     1
102
RTVSPropertyOp18
 70
     1
102
RTVSPropertyOp19
 70
     1
102
RTVSPropertyOp20
 70
     1
102
RTVSPropertyOp21
 70
     1
102
RTVSPropertyOp22
 70
     1
102
RTVSPropertyOp23
 70
     1
102
RTVSPropertyOp24
 70
     1
102
RTVSPropertyOp25
 70
     1
102
RTVSPropertyOp26
 70
     1
102
RTVSPropertyOp27
 70
     1
102
RTVSPropertyOp28
 70
     1
102
RTVSPropertyOp29
 70
     1
102
RTVSPropertyOp30
 70
     1
102
RTVSPropertyOp31
 70
     1
102
RTVSPropertyOp32
 70
     1
  0
XRECORD
  5
87
102
{ACAD_REACTORS
330
86
102
}
330
86
100
AcDbXrecord
280
     1
102
RTVSPropertyOp0
 70
     1
102
RTVSPropertyOp1
 70
     1
102
RTVSPropertyOp2
 70
     1
102
RTVSPropertyOp3
 70
     1
102
RTVSPropertyOp4
 70
     1
102
RTVSPropertyOp5
 70
     1
102
RTVSPropertyOp6
 70
     1
102
RTVSPropertyOp7
 70
     1
102
RTVSPropertyOp8
 70
     1
102
RTVSPropertyOp9
 70
     1
102
RTVSPropertyOp10
 70
     1
102
RTVSPropertyOp11
 70
     1
102
RTVSPropertyOp12
 70
     1
102
RTVSPropertyOp13
 70
     1
102
RTVSPropertyOp14
 70
     1
102
RTVSPropertyOp15
 70
     1
102
RTVSPropertyOp16
 70
     1
102
RTVSPropertyOp17
 70
     1
102
RTVSPropertyOp18
 70
     1
102
RTVSPropertyOp19
 70
     1
102
RTVSPropertyOp20
 70
     1
102
RTVSPropertyOp21
 70
     1
102
RTVSPropertyOp22
 70
     1
102
RTVSPropertyOp23
 70
     1
102
RTVSPropertyOp24
 70
     1
102
RTVSPropertyOp25
 70
     1
102
RTVSPropertyOp26
 70
     1
102
RTVSPropertyOp27
 70
     1
102
RTVSPropertyOp28
 70
     1
102
RTVSPropertyOp29
 70
     1
102
RTVSPropertyOp30
 70
     1
102
RTVSPropertyOp31
 70
     1
102
RTVSPropertyOp32
 70
     1
  0
XRECORD
  5
9B
102
{ACAD_REACTORS
330
9A
102
}
330
9A
100
AcDbXrecord
280
     1
102
RTVSPropertyOp0
 70
     1
102
RTVSPropertyOp1
 70
     1
102
RTVSPropertyOp2
 70
     1
102
RTVSPropertyOp3
 70
     1
102
RTVSPropertyOp4
 70
     1
102
RTVSPropertyOp5
 70
     1
102
RTVSPropertyOp6
 70
     1
102
RTVSPropertyOp7
 70
     1
102
RTVSPropertyOp8
 70
     1
102
RTVSPropertyOp9
 70
     1
102
RTVSPropertyOp10
 70
     1
102
RTVSPropertyOp11
 70
     1
102
RTVSPropertyOp12
 70
     1
102
RTVSPropertyOp13
 70
     1
102
RTVSPropertyOp14
 70
     1
102
RTVSPropertyOp15
 70
     1
102
RTVSPropertyOp16
 70
     1
102
RTVSPropertyOp17
 70
     1
102
RTVSPropertyOp18
 70
     1
102
RTVSPropertyOp19
 70
     1
102
RTVSPropertyOp20
 70
     1
102
RTVSPropertyOp21
 70
     1
102
RTVSPropertyOp22
 70
     1
102
RTVSPropertyOp23
 70
     1
102
RTVSPropertyOp24
 70
     1
102
RTVSPropertyOp25
 70
     1
102
RTVSPropertyOp26
 70
     1
102
RTVSPropertyOp27
 70
     1
102
RTVSPropertyOp28
 70
     1
102
RTVSPropertyOp29
 70
     1
102
RTVSPropertyOp30
 70
     1
102
RTVSPropertyOp31
 70
     1
102
RTVSPropertyOp32
 70
     1
  0
XRECORD
  5
91
102
{ACAD_REACTORS
330
90
102
}
330
90
100
AcDbXrecord
280
     1
102
RTVSPropertyOp0
 70
     1
102
RTVSPropertyOp1
 70
     1
102
RTVSPropertyOp2
 70
     1
102
RTVSPropertyOp3
 70
     1
102
RTVSPropertyOp4
 70
     1
102
RTVSPropertyOp5
 70
     1
102
RTVSPropertyOp6
 70
     1
102
RTVSPropertyOp7
 70
     1
102
RTVSPropertyOp8
 70
     1
102
RTVSPropertyOp9
 70
     1
102
RTVSPropertyOp10
 70
     1
102
RTVSPropertyOp11
 70
     1
102
RTVSPropertyOp12
 70
     1
102
RTVSPropertyOp13
 70
     1
102
RTVSPropertyOp14
 70
     1
102
RTVSPropertyOp15
 70
     1
102
RTVSPropertyOp16
 70
     1
102
RTVSPropertyOp17
 70
     1
102
RTVSPropertyOp18
 70
     1
102
RTVSPropertyOp19
 70
     1
102
RTVSPropertyOp20
 70
     1
102
RTVSPropertyOp21
 70
     1
102
RTVSPropertyOp22
 70
     1
102
RTVSPropertyOp23
 70
     1
102
RTVSPropertyOp24
 70
     1
102
RTVSPropertyOp25
 70
     1
102
RTVSPropertyOp26
 70
     1
102
RTVSPropertyOp27
 70
     1
102
RTVSPropertyOp28
 70
     1
102
RTVSPropertyOp29
 70
     1
102
RTVSPropertyOp30
 70
     1
102
RTVSPropertyOp31
 70
     1
102
RTVSPropertyOp32
 70
     1
  0
XRECORD
  5
99
102
{ACAD_REACTORS
330
98
102
}
330
98
100
AcDbXrecord
280
     1
102
RTVSPropertyOp0
 70
     1
102
RTVSPropertyOp1
 70
     1
102
RTVSPropertyOp2
 70
     1
102
RTVSPropertyOp3
 70
     1
102
RTVSPropertyOp4
 70
     1
102
RTVSPropertyOp5
 70
     1
102
RTVSPropertyOp6
 70
     1
102
RTVSPropertyOp7
 70
     1
102
RTVSPropertyOp8
 70
     1
102
RTVSPropertyOp9
 70
     1
102
RTVSPropertyOp10
 70
     1
102
RTVSPropertyOp11
 70
     1
102
RTVSPropertyOp12
 70
     1
102
RTVSPropertyOp13
 70
     1
102
RTVSPropertyOp14
 70
     1
102
RTVSPropertyOp15
 70
     1
102
RTVSPropertyOp16
 70
     1
102
RTVSPropertyOp17
 70
     1
102
RTVSPropertyOp18
 70
     1
102
RTVSPropertyOp19
 70
     1
102
RTVSPropertyOp20
 70
     1
102
RTVSPropertyOp21
 70
     1
102
RTVSPropertyOp22
 70
     1
102
RTVSPropertyOp23
 70
     1
102
RTVSPropertyOp24
 70
     1
102
RTVSPropertyOp25
 70
     1
102
RTVSPropertyOp26
 70
     1
102
RTVSPropertyOp27
 70
     1
102
RTVSPropertyOp28
 70
     1
102
RTVSPropertyOp29
 70
     1
102
RTVSPropertyOp30
 70
     1
102
RTVSPropertyOp31
 70
     1
102
RTVSPropertyOp32
 70
     1
  0
ENDSEC
  0
EOF
