  0
SECTION
  2
HEADER
  9
$ACADVER
  1
AC1021
  9
$ACADMAINTVER
 70
    25
  9
$DWGCODEPAGE
  3
ANSI_1252
  9
$INSBASE
 10
0.0
 20
0.0
 30
0.0
  9
$EXTMIN
 10
-10.99186
 20
-8.00527
 30
0.0
  9
$EXTMAX
 10
12.11138
 20
6.51056
 30
0.0
  9
$LIMMIN
 10
0.0
 20
0.0
  9
$LIMMAX
 10
12.0
 20
9.0
  9
$ORTHOMODE
 70
     0
  9
$REGENMODE
 70
     1
  9
$FILLMODE
 70
     1
  9
$QTEXTMODE
 70
     0
  9
$MIRRTEXT
 70
     1
  9
$LTSCALE
 40
1.0
  9
$ATTMODE
 70
     1
  9
$TEXTSIZE
 40
0.2
  9
$TRACEWID
 40
0.05
  9
$TEXTSTYLE
  7
Standard
  9
$CLAYER
  8
0
  9
$CELTYPE
  6
ByLayer
  9
$CECOLOR
 62
   256
  9
$CELTSCALE
 40
1.0
  9
$DISPSILH
 70
     0
  9
$DIMSCALE
 40
1.0
  9
$DIMASZ
 40
0.18
  9
$DIMEXO
 40
0.0625
  9
$DIMDLI
 40
0.38
  9
$DIMRND
 40
0.0
  9
$DIMDLE
 40
0.0
  9
$DIMEXE
 40
0.18
  9
$DIMTP
 40
0.0
  9
$DIMTM
 40
0.0
  9
$DIMTXT
 40
0.18
  9
$DIMCEN
 40
0.09
  9
$DIMTSZ
 40
0.0
  9
$DIMTOL
 70
     0
  9
$DIMLIM
 70
     0
  9
$DIMTIH
 70
     1
  9
$DIMTOH
 70
     1
  9
$DIMSE1
 70
     0
  9
$DIMSE2
 70
     0
  9
$DIMTAD
 70
     0
  9
$DIMZIN
 70
     0
  9
$DIMBLK
  1

  9
$DIMASO
 70
     1
  9
$DIMSHO
 70
     1
  9
$DIMPOST
  1

  9
$DIMAPOST
  1

  9
$DIMALT
 70
     0
  9
$DIMALTD
 70
     2
  9
$DIMALTF
 40
25.4
  9
$DIMLFAC
 40
1.0
  9
$DIMTOFL
 70
     0
  9
$DIMTVP
 40
0.0
  9
$DIMTIX
 70
     0
  9
$DIMSOXD
 70
     0
  9
$DIMSAH
 70
     0
  9
$DIMBLK1
  1

  9
$DIMBLK2
  1

  9
$DIMSTYLE
  2
Standard
  9
$DIMCLRD
 70
     0
  9
$DIMCLRE
 70
     0
  9
$DIMCLRT
 70
     0
  9
$DIMTFAC
 40
1.0
  9
$DIMGAP
 40
0.09
  9
$DIMJUST
 70
     0
  9
$DIMSD1
 70
     0
  9
$DIMSD2
 70
     0
  9
$DIMTOLJ
 70
     1
  9
$DIMTZIN
 70
     0
  9
$DIMALTZ
 70
     0
  9
$DIMALTTZ
 70
     0
  9
$DIMUPT
 70
     0
  9
$DIMDEC
 70
     4
  9
$DIMTDEC
 70
     4
  9
$DIMALTU
 70
     2
  9
$DIMALTTD
 70
     2
  9
$DIMTXSTY
  7
Standard
  9
$DIMAUNIT
 70
     0
  9
$DIMADEC
 70
     0
  9
$DIMALTRND
 40
0.0
  9
$DIMAZIN
 70
     0
  9
$DIMDSEP
 70
    46
  9
$DIMATFIT
 70
     3
  9
$DIMFRAC
 70
     0
  9
$DIMLDRBLK
  1

  9
$DIMLUNIT
 70
     2
  9
$DIMLWD
 70
    -2
  9
$DIMLWE
 70
    -2
  9
$DIMTMOVE
 70
     0
  9
$DIMFXL
 40
1.0
  9
$DIMFXLON
 70
     0
  9
$DIMJOGANG
 40
0.7853981633974483
  9
$DIMTFILL
 70
     0
  9
$DIMTFILLCLR
 70
     0
  9
$DIMARCSYM
 70
     0
  9
$DIMLTYPE
  6

  9
$DIMLTEX1
  6

  9
$DIMLTEX2
  6

  9
$LUNITS
 70
     2
  9
$LUPREC
 70
     4
  9
$SKETCHINC
 40
0.1
  9
$FILLETRAD
 40
0.5
  9
$AUNITS
 70
     0
  9
$AUPREC
 70
     0
  9
$MENU
  1
.
  9
$ELEVATION
 40
0.0
  9
$PELEVATION
 40
0.0
  9
$THICKNESS
 40
0.0
  9
$LIMCHECK
 70
     0
  9
$CHAMFERA
 40
0.5
  9
$CHAMFERB
 40
0.5
  9
$CHAMFERC
 40
1.0
  9
$CHAMFERD
 40
0.0
  9
$SKPOLY
 70
     0
  9
$TDCREATE
 40
2456231.954835694
  9
$TDUCREATE
 40
2456232.121502361
  9
$TDUPDATE
 40
2456231.954835752
  9
$TDUUPDATE
 40
2456232.121502419
  9
$TDINDWG
 40
0.0000000116
  9
$TDUSRTIMER
 40
0.0000000116
  9
$USRTIMER
 70
     1
  9
$ANGBASE
 50
0.0
  9
$ANGDIR
 70
     0
  9
$PDMODE
 70
     0
  9
$PDSIZE
 40
0.0
  9
$PLINEWID
 40
0.0
  9
$SPLFRAME
 70
     0
  9
$SPLINETYPE
 70
     6
  9
$SPLINESEGS
 70
     8
  9
$HANDSEED
  5
A4
  9
$SURFTAB1
 70
     6
  9
$SURFTAB2
 70
     6
  9
$SURFTYPE
 70
     6
  9
$SURFU
 70
     6
  9
$SURFV
 70
     6
  9
$UCSBASE
  2

  9
$UCSNAME
  2

  9
$UCSORG
 10
0.0
 20
0.0
 30
0.0
  9
$UCSXDIR
 10
1.0
 20
0.0
 30
0.0
  9
$UCSYDIR
 10
0.0
 20
1.0
 30
0.0
  9
$UCSORTHOREF
  2

  9
$UCSORTHOVIEW
 70
     0
  9
$UCSORGTOP
 10
0.0
 20
0.0
 30
0.0
  9
$UCSORGBOTTOM
 10
0.0
 20
0.0
 30
0.0
  9
$UCSORGLEFT
 10
0.0
 20
0.0
 30
0.0
  9
$UCSORGRIGHT
 10
0.0
 20
0.0
 30
0.0
  9
$UCSORGFRONT
 10
0.0
 20
0.0
 30
0.0
  9
$UCSORGBACK
 10
0.0
 20
0.0
 30
0.0
  9
$PUCSBASE
  2

  9
$PUCSNAME
  2

  9
$PUCSORG
 10
0.0
 20
0.0
 30
0.0
  9
$PUCSXDIR
 10
1.0
 20
0.0
 30
0.0
  9
$PUCSYDIR
 10
0.0
 20
1.0
 30
0.0
  9
$PUCSORTHOREF
  2

  9
$PUCSORTHOVIEW
 70
     0
  9
$PUCSORGTOP
 10
0.0
 20
0.0
 30
0.0
  9
$PUCSORGBOTTOM
 10
0.0
 20
0.0
 30
0.0
  9
$PUCSORGLEFT
 10
0.0
 20
0.0
 30
0.0
  9
$PUCSORGRIGHT
 10
0.0
 20
0.0
 30
0.0
  9
$PUCSORGFRONT
 10
0.0
 20
0.0
 30
0.0
  9
$PUCSORGBACK
 10
0.0
 20
0.0
 30
0.0
  9
$USERI1
 70
     0
  9
$USERI2
 70
     0
  9
$USERI3
 70
     0
  9
$USERI4
 70
     0
  9
$USERI5
 70
     0
  9
$USERR1
 40
0.0
  9
$USERR2
 40
0.0
  9
$USERR3
 40
0.0
  9
$USERR4
 40
0.0
  9
$USERR5
 40
0.0
  9
$WORLDVIEW
 70
     1
  9
$SHADEDGE
 70
     3
  9
$SHADEDIF
 70
    70
  9
$TILEMODE
 70
     1
  9
$MAXACTVP
 70
    64
  9
$PINSBASE
 10
0.0
 20
0.0
 30
0.0
  9
$PLIMCHECK
 70
     0
  9
$PEXTMIN
 10
1.000000000000000E+20
 20
1.000000000000000E+20
 30
1.000000000000000E+20
  9
$PEXTMAX
 10
-1.000000000000000E+20
 20
-1.000000000000000E+20
 30
-1.000000000000000E+20
  9
$PLIMMIN
 10
0.0
 20
0.0
  9
$PLIMMAX
 10
12.0
 20
9.0
  9
$UNITMODE
 70
     0
  9
$VISRETAIN
 70
     1
  9
$PLINEGEN
 70
     0
  9
$PSLTSCALE
 70
     1
  9
$TREEDEPTH
 70
  3020
  9
$CMLSTYLE
  2
Standard
  9
$CMLJUST
 70
     0
  9
$CMLSCALE
 40
1.0
  9
$PROXYGRAPHICS
 70
     1
  9
$MEASUREMENT
 70
     0
  9
$CELWEIGHT
370
    -1
  9
$ENDCAPS
280
     0
  9
$JOINSTYLE
280
     0
  9
$LWDISPLAY
290
     0
  9
$INSUNITS
 70
     5
  9
$HYPERLINKBASE
  1

  9
$STYLESHEET
  1

  9
$XEDIT
290
     1
  9
$CEPSNTYPE
380
     0
  9
$PSTYLEMODE
290
     1
  9
$FINGERPRINTGUID
  2
{9A8D3CB2-1152-498B-BDAC-9E76CB489E7B}
  9
$VERSIONGUID
  2
{FAEB1C32-E019-11D5-929B-00C0DF256EC4}
  9
$EXTNAMES
290
     1
  9
$PSVPSCALE
 40
0.0
  9
$OLESTARTUP
290
     0
  9
$SORTENTS
280
   127
  9
$INDEXCTL
280
     0
  9
$HIDETEXT
280
     1
  9
$XCLIPFRAME
290
     0
  9
$HALOGAP
280
     0
  9
$OBSCOLOR
 70
   257
  9
$OBSLTYPE
280
     0
  9
$INTERSECTIONDISPLAY
280
     0
  9
$INTERSECTIONCOLOR
 70
   257
  9
$DIMASSOC
280
     2
  9
$PROJECTNAME
  1

  9
$CAMERADISPLAY
290
     0
  9
$LENSLENGTH
 40
50.0
  9
$CAMERAHEIGHT
 40
0.0
  9
$STEPSPERSEC
 40
2.0
  9
$STEPSIZE
 40
6.0
  9
$3DDWFPREC
 40
2.0
  9
$PSOLWIDTH
 40
0.25
  9
$PSOLHEIGHT
 40
4.0
  9
$LOFTANG1
 40
1.570796326794897
  9
$LOFTANG2
 40
1.570796326794897
  9
$LOFTMAG1
 40
0.0
  9
$LOFTMAG2
 40
0.0
  9
$LOFTPARAM
 70
     7
  9
$LOFTNORMALS
280
     1
  9
$LATITUDE
 40
37.795
  9
$LONGITUDE
 40
-122.394
  9
$NORTHDIRECTION
 40
0.0
  9
$TIMEZONE
 70
 -8000
  9
$LIGHTGLYPHDISPLAY
280
     1
  9
$TILEMODELIGHTSYNCH
280
     1
  9
$SOLIDHIST
280
     1
  9
$SHOWHIST
280
     1
  9
$DWFFRAME
280
     2
  9
$DGNFRAME
280
     2
  9
$REALWORLDSCALE
290
     1
  9
$INTERFERECOLOR
 62
   256
  9
$CSHADOW
280
     0
  9
$SHADOWPLANELOCATION
 40
0.0
  0
ENDSEC
  0
SECTION
  2
CLASSES
  0
CLASS
  1
ACDBDICTIONARYWDFLT
  2
AcDbDictionaryWithDefault
  3
ObjectDBX Classes
 90
        0
 91
        4
280
     0
281
     0
  0
CLASS
  1
VISUALSTYLE
  2
AcDbVisualStyle
  3
ObjectDBX Classes
 90
     4095
 91
        4
280
     0
281
     0
  0
CLASS
  1
MATERIAL
  2
AcDbMaterial
  3
ObjectDBX Classes
 90
     1153
 91
        4
280
     0
281
     0
  0
ENDSEC
  0
SECTION
  2
TABLES
  0
TABLE
  2
VPORT
  5
8
330
0
100
AcDbSymbolTable
 70
     1
  0
VPORT
  5
29
330
8
100
AcDbSymbolTableRecord
100
AcDbViewportTableRecord
  2
*Active
 70
     0
 10
0.0
 20
0.0
 11
1.0
 21
1.0
 12
10.42990654205607
 22
4.5
 13
0.0
 23
0.0
 14
0.5
 24
0.5
 15
0.5
 25
0.5
 16
0.0
 26
0.0
 36
1.0
 17
0.0
 27
0.0
 37
0.0
 40
9.0
 41
1.972972972850329
 42
50.0
 43
0.0
 44
0.0
 50
0.0
 51
0.0
 71
     0
 72
   100
 73
     1
 74
     3
 75
     0
 76
     0
 77
     0
 78
     0
281
     0
 65
     1
110
0.0
120
0.0
130
0.0
111
1.0
121
0.0
131
0.0
112
0.0
122
1.0
132
0.0
 79
     0
146
0.0
 60
     3
 61
     5
292
     1
282
     1
141
0.0
142
0.0
 63
   250
  0
ENDTAB
  0
TABLE
  2
LTYPE
  5
5
330
0
100
AcDbSymbolTable
 70
     1
  0
LTYPE
  5
14
330
5
100
AcDbSymbolTableRecord
100
AcDbLinetypeTableRecord
  2
ByBlock
 70
     0
  3

 72
    65
 73
     0
 40
0.0
  0
LTYPE
  5
15
330
5
100
AcDbSymbolTableRecord
100
AcDbLinetypeTableRecord
  2
ByLayer
 70
     0
  3

 72
    65
 73
     0
 40
0.0
  0
LTYPE
  5
16
330
5
100
AcDbSymbolTableRecord
100
AcDbLinetypeTableRecord
  2
Continuous
 70
     0
  3
Solid line
 72
    65
 73
     0
 40
0.0
  0
ENDTAB
  0
TABLE
  2
LAYER
  5
2
330
0
100
AcDbSymbolTable
 70
     3
  0
LAYER
  5
10
330
2
100
AcDbSymbolTableRecord
100
AcDbLayerTableRecord
  2
0
 70
     0
 62
     7
  6
Continuous
370
    -3
390
F
347
3E
  0
LAYER
  5
40
330
2
100
AcDbSymbolTableRecord
100
AcDbLayerTableRecord
  2
Layer 1
 70
     0
 62
     7
  6
Continuous
370
    -3
390
F
347
3E
  0
LAYER
  5
56
330
2
100
AcDbSymbolTableRecord
100
AcDbLayerTableRecord
  2
layer 2
 70
     0
 62
     7
  6
Continuous
370
    -3
390
F
347
3E
  0
ENDTAB
  0
TABLE
  2
STYLE
  5
3
330
0
100
AcDbSymbolTable
 70
     1
  0
STYLE
  5
11
330
3
100
AcDbSymbolTableRecord
100
AcDbTextStyleTableRecord
  2
Standard
 70
     0
 40
0.0
 41
1.0
 50
0.0
 71
     0
 42
0.2
  3
txt
  4

  0
ENDTAB
  0
TABLE
  2
VIEW
  5
6
330
0
100
AcDbSymbolTable
 70
     0
  0
ENDTAB
  0
TABLE
  2
UCS
  5
7
330
0
100
AcDbSymbolTable
 70
     0
  0
ENDTAB
  0
TABLE
  2
APPID
  5
9
330
0
100
AcDbSymbolTable
 70
     2
  0
APPID
  5
12
330
9
100
AcDbSymbolTableRecord
100
AcDbRegAppTableRecord
  2
ACAD
 70
     0
  0
APPID
  5
3F
330
9
100
AcDbSymbolTableRecord
100
AcDbRegAppTableRecord
  2
ODA
 70
     0
  0
ENDTAB
  0
TABLE
  2
DIMSTYLE
  5
A
330
0
100
AcDbSymbolTable
 70
     1
100
AcDbDimStyleTable
  0
DIMSTYLE
105
27
330
A
100
AcDbSymbolTableRecord
100
AcDbDimStyleTableRecord
  2
Standard
 70
     0
178
     0
340
11
  0
ENDTAB
  0
TABLE
  2
BLOCK_RECORD
  5
1
330
0
100
AcDbSymbolTable
 70
     1
  0
BLOCK_RECORD
  5
1F
330
1
100
AcDbSymbolTableRecord
100
AcDbBlockTableRecord
  2
*Model_Space
340
22
 70
     0
280
     1
281
     0
  0
BLOCK_RECORD
  5
1B
330
1
100
AcDbSymbolTableRecord
100
AcDbBlockTableRecord
  2
*Paper_Space
340
1E
 70
     0
280
     1
281
     0
  0
BLOCK_RECORD
  5
23
330
1
100
AcDbSymbolTableRecord
100
AcDbBlockTableRecord
  2
*Paper_Space0
340
26
 70
     0
280
     1
281
     0
  0
ENDTAB
  0
ENDSEC
  0
SECTION
  2
BLOCKS
  0
BLOCK
  5
20
330
1F
100
AcDbEntity
  8
0
100
AcDbBlockBegin
  2
*Model_Space
 70
     0
 10
0.0
 20
0.0
 30
0.0
  3
*Model_Space
  1

  0
ENDBLK
  5
21
330
1F
100
AcDbEntity
  8
0
100
AcDbBlockEnd
  0
BLOCK
  5
1C
330
1B
100
AcDbEntity
 67
     1
  8
0
100
AcDbBlockBegin
  2
*Paper_Space
 70
     0
 10
0.0
 20
0.0
 30
0.0
  3
*Paper_Space
  1

  0
ENDBLK
  5
1D
330
1B
100
AcDbEntity
 67
     1
  8
0
100
AcDbBlockEnd
  0
BLOCK
  5
24
330
23
100
AcDbEntity
  8
0
100
AcDbBlockBegin
  2
*Paper_Space0
 70
     0
 10
0.0
 20
0.0
 30
0.0
  3
*Paper_Space0
  1

  0
ENDBLK
  5
25
330
23
100
AcDbEntity
  8
0
100
AcDbBlockEnd
  0
ENDSEC
  0
SECTION
  2
ENTITIES
  0
SPLINE
  5
41
330
1F
100
AcDbEntity
  8
Layer 1
 62
   250
100
AcDbSpline
210
0.0
220
0.0
230
1.0
 70
    11
 71
     3
 72
    92
 73
    88
 74
     0
 42
0.0000000001
 43
0.0000000001
 12
1.0
 22
0.0
 32
0.0
 13
1.0
 23
0.0
 33
0.0
 40
0.0
 40
0.0
 40
0.0
 40
0.0
 40
0.0434782608695652
 40
0.0434782608695652
 40
0.0434782608695652
 40
0.0434782608695652
 40
0.0869565217391304
 40
0.0869565217391304
 40
0.0869565217391304
 40
0.0869565217391304
 40
0.1304347826086956
 40
0.1304347826086956
 40
0.1304347826086956
 40
0.1304347826086956
 40
0.1739130434782609
 40
0.1739130434782609
 40
0.1739130434782609
 40
0.1739130434782609
 40
0.2173913043478261
 40
0.2173913043478261
 40
0.2173913043478261
 40
0.2173913043478261
 40
0.2608695652173913
 40
0.2608695652173913
 40
0.2608695652173913
 40
0.2608695652173913
 40
0.3043478260869565
 40
0.3043478260869565
 40
0.3043478260869565
 40
0.3043478260869565
 40
0.3478260869565217
 40
0.3478260869565217
 40
0.3478260869565217
 40
0.3478260869565217
 40
0.391304347826087
 40
0.391304347826087
 40
0.391304347826087
 40
0.391304347826087
 40
0.4347826086956522
 40
0.4347826086956522
 40
0.4347826086956522
 40
0.4347826086956522
 40
0.4782608695652174
 40
0.4782608695652174
 40
0.4782608695652174
 40
0.4782608695652174
 40
0.5217391304347826
 40
0.5217391304347826
 40
0.5217391304347826
 40
0.5217391304347826
 40
0.5652173913043478
 40
0.5652173913043478
 40
0.5652173913043478
 40
0.5652173913043478
 40
0.6086956521739131
 40
0.6086956521739131
 40
0.6086956521739131
 40
0.6086956521739131
 40
0.6521739130434783
 40
0.6521739130434783
 40
0.6521739130434783
 40
0.6521739130434783
 40
0.6956521739130435
 40
0.6956521739130435
 40
0.6956521739130435
 40
0.6956521739130435
 40
0.7391304347826086
 40
0.7391304347826086
 40
0.7391304347826086
 40
0.7391304347826086
 40
0.782608695652174
 40
0.782608695652174
 40
0.782608695652174
 40
0.782608695652174
 40
0.8260869565217391
 40
0.8260869565217391
 40
0.8260869565217391
 40
0.8260869565217391
 40
0.8695652173913043
 40
0.8695652173913043
 40
0.8695652173913043
 40
0.8695652173913043
 40
0.9130434782608695
 40
0.9130434782608695
 40
0.9130434782608695
 40
0.9130434782608695
 40
1.0
 40
1.0
 40
1.0
 40
1.0
 10
-2.22927
 20
-7.92399
 30
0.0
 10
-2.22927
 20
-7.92399
 30
0.0
 10
-2.22927
 20
-7.99511
 30
0.0
 10
-2.22927
 20
-7.99511
 30
0.0
 10
-2.22927
 20
-7.99511
 30
0.0
 10
-2.22927
 20
-7.99511
 30
0.0
 10
-2.6306
 20
-7.99511
 30
0.0
 10
-2.6306
 20
-7.99511
 30
0.0
 10
-2.6306
 20
-7.99511
 30
0.0
 10
-2.63116
 20
-7.97719
 30
0.0
 10
-2.6282
 20
-7.95997
 30
0.0
 10
-2.62185
 20
-7.94332
 30
0.0
 10
-2.62185
 20
-7.94332
 30
0.0
 10
-2.61155
 20
-7.91609
 30
0.0
 10
-2.59504
 20
-7.88914
 30
0.0
 10
-2.57232
 20
-7.86275
 30
0.0
 10
-2.57232
 20
-7.86275
 30
0.0
 10
-2.5496
 20
-7.83636
 30
0.0
 10
-2.51714
 20
-7.80588
 30
0.0
 10
-2.47495
 20
-7.77131
 30
0.0
 10
-2.47495
 20
-7.77131
 30
0.0
 10
-2.40933
 20
-7.71726
 30
0.0
 10
-2.36474
 20
-7.6745
 30
0.0
 10
-2.34146
 20
-7.6429
 30
0.0
 10
-2.34146
 20
-7.6429
 30
0.0
 10
-2.31803
 20
-7.61129
 30
0.0
 10
-2.30632
 20
-7.58137
 30
0.0
 10
-2.30632
 20
-7.55315
 30
0.0
 10
-2.30632
 20
-7.55315
 30
0.0
 10
-2.30632
 20
-7.52366
 30
0.0
 10
-2.31691
 20
-7.49882
 30
0.0
 10
-2.33807
 20
-7.4785
 30
0.0
 10
-2.33807
 20
-7.4785
 30
0.0
 10
-2.35924
 20
-7.45832
 30
0.0
 10
-2.3869
 20
-7.44816
 30
0.0
 10
-2.4209
 20
-7.44816
 30
0.0
 10
-2.4209
 20
-7.44816
 30
0.0
 10
-2.45689
 20
-7.44816
 30
0.0
 10
-2.48567
 20
-7.45889
 30
0.0
 10
-2.50726
 20
-7.48033
 30
0.0
 10
-2.50726
 20
-7.48033
 30
0.0
 10
-2.52886
 20
-7.50164
 30
0.0
 10
-2.53972
 20
-7.53128
 30
0.0
 10
-2.54
 20
-7.56923
 30
0.0
 10
-2.54
 20
-7.56923
 30
0.0
 10
-2.54
 20
-7.56923
 30
0.0
 10
-2.6162
 20
-7.56161
 30
0.0
 10
-2.6162
 20
-7.56161
 30
0.0
 10
-2.6162
 20
-7.56161
 30
0.0
 10
-2.61098
 20
-7.50461
 30
0.0
 10
-2.59123
 20
-7.46114
 30
0.0
 10
-2.55708
 20
-7.43123
 30
0.0
 10
-2.55708
 20
-7.43123
 30
0.0
 10
-2.52279
 20
-7.40131
 30
0.0
 10
-2.47693
 20
-7.38635
 30
0.0
 10
-2.41921
 20
-7.38635
 30
0.0
 10
-2.41921
 20
-7.38635
 30
0.0
 10
-2.36107
 20
-7.38635
 30
0.0
 10
-2.31493
 20
-7.40244
 30
0.0
 10
-2.28106
 20
-7.43476
 30
0.0
 10
-2.28106
 20
-7.43476
 30
0.0
 10
-2.24706
 20
-7.46707
 30
0.0
 10
-2.23012
 20
-7.50715
 30
0.0
 10
-2.23012
 20
-7.55484
 30
0.0
 10
-2.23012
 20
-7.55484
 30
0.0
 10
-2.23012
 20
-7.57911
 30
0.0
 10
-2.23506
 20
-7.60296
 30
0.0
 10
-2.24508
 20
-7.62639
 30
0.0
 10
-2.24508
 20
-7.62639
 30
0.0
 10
-2.25496
 20
-7.64995
 30
0.0
 10
-2.27147
 20
-7.67465
 30
0.0
 10
-2.29447
 20
-7.70061
 30
0.0
 10
-2.29447
 20
-7.70061
 30
0.0
 10
-2.31761
 20
-7.72643
 30
0.0
 10
-2.35585
 20
-7.76213
 30
0.0
 10
-2.40919
 20
-7.80729
 30
0.0
 10
-2.40919
 20
-7.80729
 30
0.0
 10
-2.45392
 20
-7.84483
 30
0.0
 10
-2.48271
 20
-7.87023
 30
0.0
 10
-2.49541
 20
-7.88363
 30
0.0
 10
-2.49541
 20
-7.88363
 30
0.0
 10
-2.50811
 20
-7.89704
 30
0.0
 10
-2.51855
 20
-7.91044
 30
0.0
 10
-2.52688
 20
-7.92399
 30
0.0
 10
-2.52688
 20
-7.92399
 30
0.0
 10
-2.52688
 20
-7.92399
 30
0.0
 10
-2.22927
 20
-7.92399
 30
0.0
 10
-2.22927
 20
-7.92399
 30
0.0
  0
SPLINE
  5
42
330
1F
100
AcDbEntity
  8
Layer 1
 62
   250
100
AcDbSpline
210
0.0
220
0.0
230
1.0
 70
    11
 71
     3
 72
    52
 73
    48
 74
     0
 42
0.0000000001
 43
0.0000000001
 12
1.0
 22
0.0
 32
0.0
 13
1.0
 23
0.0
 33
0.0
 40
0.0
 40
0.0
 40
0.0
 40
0.0
 40
0.0769230769230769
 40
0.0769230769230769
 40
0.0769230769230769
 40
0.0769230769230769
 40
0.1538461538461539
 40
0.1538461538461539
 40
0.1538461538461539
 40
0.1538461538461539
 40
0.2307692307692308
 40
0.2307692307692308
 40
0.2307692307692308
 40
0.2307692307692308
 40
0.3076923076923077
 40
0.3076923076923077
 40
0.3076923076923077
 40
0.3076923076923077
 40
0.3846153846153846
 40
0.3846153846153846
 40
0.3846153846153846
 40
0.3846153846153846
 40
0.4615384615384616
 40
0.4615384615384616
 40
0.4615384615384616
 40
0.4615384615384616
 40
0.5384615384615384
 40
0.5384615384615384
 40
0.5384615384615384
 40
0.5384615384615384
 40
0.6153846153846154
 40
0.6153846153846154
 40
0.6153846153846154
 40
0.6153846153846154
 40
0.6923076923076923
 40
0.6923076923076923
 40
0.6923076923076923
 40
0.6923076923076923
 40
0.7692307692307693
 40
0.7692307692307693
 40
0.7692307692307693
 40
0.7692307692307693
 40
0.8461538461538461
 40
0.8461538461538461
 40
0.8461538461538461
 40
0.8461538461538461
 40
1.0
 40
1.0
 40
1.0
 40
1.0
 10
-2.1487
 20
-7.69595
 30
0.0
 10
-2.1487
 20
-7.62441
 30
0.0
 10
-2.14136
 20
-7.56655
 30
0.0
 10
-2.12669
 20
-7.52281
 30
0.0
 10
-2.12669
 20
-7.52281
 30
0.0
 10
-2.11187
 20
-7.47892
 30
0.0
 10
-2.09
 20
-7.4452
 30
0.0
 10
-2.06093
 20
-7.42163
 30
0.0
 10
-2.06093
 20
-7.42163
 30
0.0
 10
-2.032
 20
-7.39807
 30
0.0
 10
-1.99545
 20
-7.38635
 30
0.0
 10
-1.95143
 20
-7.38635
 30
0.0
 10
-1.95143
 20
-7.38635
 30
0.0
 10
-1.91897
 20
-7.38635
 30
0.0
 10
-1.89047
 20
-7.39285
 30
0.0
 10
-1.86577
 20
-7.40597
 30
0.0
 10
-1.86577
 20
-7.40597
 30
0.0
 10
-1.84122
 20
-7.41909
 30
0.0
 10
-1.8209
 20
-7.438
 30
0.0
 10
-1.80509
 20
-7.4627
 30
0.0
 10
-1.80509
 20
-7.4627
 30
0.0
 10
-1.78929
 20
-7.48725
 30
0.0
 10
-1.77687
 20
-7.51731
 30
0.0
 10
-1.76784
 20
-7.55272
 30
0.0
 10
-1.76784
 20
-7.55272
 30
0.0
 10
-1.75867
 20
-7.58814
 30
0.0
 10
-1.75415
 20
-7.63598
 30
0.0
 10
-1.75415
 20
-7.69595
 30
0.0
 10
-1.75415
 20
-7.69595
 30
0.0
 10
-1.75415
 20
-7.76707
 30
0.0
 10
-1.76149
 20
-7.82465
 30
0.0
 10
-1.77602
 20
-7.86839
 30
0.0
 10
-1.77602
 20
-7.86839
 30
0.0
 10
-1.79056
 20
-7.91228
 30
0.0
 10
-1.81243
 20
-7.946
 30
0.0
 10
-1.8415
 20
-7.96971
 30
0.0
 10
-1.8415
 20
-7.96971
 30
0.0
 10
-1.87043
 20
-7.99342
 30
0.0
 10
-1.90712
 20
-8.00527
 30
0.0
 10
-1.95143
 20
-8.00527
 30
0.0
 10
-1.95143
 20
-8.00527
 30
0.0
 10
-2.0097
 20
-8.00527
 30
0.0
 10
-2.05557
 20
-7.98453
 30
0.0
 10
-2.08887
 20
-7.9429
 30
0.0
 10
-2.08887
 20
-7.9429
 30
0.0
 10
-2.1288
 20
-7.8921
 30
0.0
 10
-2.1487
 20
-7.80983
 30
0.0
 10
-2.1487
 20
-7.69595
 30
0.0
  0
SPLINE
  5
43
330
1F
100
AcDbEntity
  8
Layer 1
 62
   250
100
AcDbSpline
210
0.0
220
0.0
230
1.0
 70
    11
 71
     3
 72
    36
 73
    32
 74
     0
 42
0.0000000001
 43
0.0000000001
 12
1.0
 22
0.0
 32
0.0
 13
1.0
 23
0.0
 33
0.0
 40
0.0
 40
0.0
 40
0.0
 40
0.0
 40
0.1111111111111111
 40
0.1111111111111111
 40
0.1111111111111111
 40
0.1111111111111111
 40
0.2222222222222222
 40
0.2222222222222222
 40
0.2222222222222222
 40
0.2222222222222222
 40
0.3333333333333333
 40
0.3333333333333333
 40
0.3333333333333333
 40
0.3333333333333333
 40
0.4444444444444444
 40
0.4444444444444444
 40
0.4444444444444444
 40
0.4444444444444444
 40
0.5555555555555556
 40
0.5555555555555556
 40
0.5555555555555556
 40
0.5555555555555556
 40
0.6666666666666666
 40
0.6666666666666666
 40
0.6666666666666666
 40
0.6666666666666666
 40
0.7777777777777778
 40
0.7777777777777778
 40
0.7777777777777778
 40
0.7777777777777778
 40
1.0
 40
1.0
 40
1.0
 40
1.0
 10
-2.0725
 20
-7.69624
 30
0.0
 10
-2.0725
 20
-7.796
 30
0.0
 10
-2.06093
 20
-7.86232
 30
0.0
 10
-2.03764
 20
-7.89506
 30
0.0
 10
-2.03764
 20
-7.89506
 30
0.0
 10
-2.01436
 20
-7.92794
 30
0.0
 10
-1.98557
 20
-7.94431
 30
0.0
 10
-1.95143
 20
-7.94431
 30
0.0
 10
-1.95143
 20
-7.94431
 30
0.0
 10
-1.91728
 20
-7.94431
 30
0.0
 10
-1.88849
 20
-7.9278
 30
0.0
 10
-1.86521
 20
-7.89492
 30
0.0
 10
-1.86521
 20
-7.89492
 30
0.0
 10
-1.84192
 20
-7.8619
 30
0.0
 10
-1.83035
 20
-7.79572
 30
0.0
 10
-1.83035
 20
-7.69624
 30
0.0
 10
-1.83035
 20
-7.69624
 30
0.0
 10
-1.83035
 20
-7.59647
 30
0.0
 10
-1.84192
 20
-7.53015
 30
0.0
 10
-1.86521
 20
-7.49741
 30
0.0
 10
-1.86521
 20
-7.49741
 30
0.0
 10
-1.88835
 20
-7.46453
 30
0.0
 10
-1.91742
 20
-7.44816
 30
0.0
 10
-1.95227
 20
-7.44816
 30
0.0
 10
-1.95227
 20
-7.44816
 30
0.0
 10
-1.98642
 20
-7.44816
 30
0.0
 10
-2.0138
 20
-7.4627
 30
0.0
 10
-2.03426
 20
-7.49162
 30
0.0
 10
-2.03426
 20
-7.49162
 30
0.0
 10
-2.0598
 20
-7.52845
 30
0.0
 10
-2.0725
 20
-7.59675
 30
0.0
 10
-2.0725
 20
-7.69624
 30
0.0
  0
SPLINE
  5
44
330
1F
100
AcDbEntity
  8
Layer 1
 62
   250
100
AcDbSpline
210
0.0
220
0.0
230
1.0
 70
    11
 71
     3
 72
   124
 73
   120
 74
     0
 42
0.0000000001
 43
0.0000000001
 12
1.0
 22
0.0
 32
0.0
 13
1.0
 23
0.0
 33
0.0
 40
0.0
 40
0.0
 40
0.0
 40
0.0
 40
0.032258064516129
 40
0.032258064516129
 40
0.032258064516129
 40
0.032258064516129
 40
0.0645161290322581
 40
0.0645161290322581
 40
0.0645161290322581
 40
0.0645161290322581
 40
0.0967741935483871
 40
0.0967741935483871
 40
0.0967741935483871
 40
0.0967741935483871
 40
0.1290322580645161
 40
0.1290322580645161
 40
0.1290322580645161
 40
0.1290322580645161
 40
0.1612903225806452
 40
0.1612903225806452
 40
0.1612903225806452
 40
0.1612903225806452
 40
0.1935483870967742
 40
0.1935483870967742
 40
0.1935483870967742
 40
0.1935483870967742
 40
0.2258064516129032
 40
0.2258064516129032
 40
0.2258064516129032
 40
0.2258064516129032
 40
0.2580645161290323
 40
0.2580645161290323
 40
0.2580645161290323
 40
0.2580645161290323
 40
0.2903225806451613
 40
0.2903225806451613
 40
0.2903225806451613
 40
0.2903225806451613
 40
0.3225806451612903
 40
0.3225806451612903
 40
0.3225806451612903
 40
0.3225806451612903
 40
0.3548387096774194
 40
0.3548387096774194
 40
0.3548387096774194
 40
0.3548387096774194
 40
0.3870967741935484
 40
0.3870967741935484
 40
0.3870967741935484
 40
0.3870967741935484
 40
0.4193548387096774
 40
0.4193548387096774
 40
0.4193548387096774
 40
0.4193548387096774
 40
0.4516129032258064
 40
0.4516129032258064
 40
0.4516129032258064
 40
0.4516129032258064
 40
0.4838709677419355
 40
0.4838709677419355
 40
0.4838709677419355
 40
0.4838709677419355
 40
0.5161290322580645
 40
0.5161290322580645
 40
0.5161290322580645
 40
0.5161290322580645
 40
0.5483870967741935
 40
0.5483870967741935
 40
0.5483870967741935
 40
0.5483870967741935
 40
0.5806451612903226
 40
0.5806451612903226
 40
0.5806451612903226
 40
0.5806451612903226
 40
0.6129032258064516
 40
0.6129032258064516
 40
0.6129032258064516
 40
0.6129032258064516
 40
0.6451612903225806
 40
0.6451612903225806
 40
0.6451612903225806
 40
0.6451612903225806
 40
0.6774193548387096
 40
0.6774193548387096
 40
0.6774193548387096
 40
0.6774193548387096
 40
0.7096774193548387
 40
0.7096774193548387
 40
0.7096774193548387
 40
0.7096774193548387
 40
0.7419354838709677
 40
0.7419354838709677
 40
0.7419354838709677
 40
0.7419354838709677
 40
0.7741935483870968
 40
0.7741935483870968
 40
0.7741935483870968
 40
0.7741935483870968
 40
0.8064516129032258
 40
0.8064516129032258
 40
0.8064516129032258
 40
0.8064516129032258
 40
0.8387096774193549
 40
0.8387096774193549
 40
0.8387096774193549
 40
0.8387096774193549
 40
0.8709677419354839
 40
0.8709677419354839
 40
0.8709677419354839
 40
0.8709677419354839
 40
0.9032258064516129
 40
0.9032258064516129
 40
0.9032258064516129
 40
0.9032258064516129
 40
0.9354838709677419
 40
0.9354838709677419
 40
0.9354838709677419
 40
0.9354838709677419
 40
1.0
 40
1.0
 40
1.0
 40
1.0
 10
-1.67781
 20
-7.83424
 30
0.0
 10
-1.67781
 20
-7.83424
 30
0.0
 10
-1.6033
 20
-7.82408
 30
0.0
 10
-1.6033
 20
-7.82408
 30
0.0
 10
-1.6033
 20
-7.82408
 30
0.0
 10
-1.5947
 20
-7.86642
 30
0.0
 10
-1.5803
 20
-7.8969
 30
0.0
 10
-1.55984
 20
-7.91552
 30
0.0
 10
-1.55984
 20
-7.91552
 30
0.0
 10
-1.53938
 20
-7.93415
 30
0.0
 10
-1.51426
 20
-7.94346
 30
0.0
 10
-1.48449
 20
-7.94346
 30
0.0
 10
-1.48449
 20
-7.94346
 30
0.0
 10
-1.44921
 20
-7.94346
 30
0.0
 10
-1.41943
 20
-7.93133
 30
0.0
 10
-1.39545
 20
-7.90706
 30
0.0
 10
-1.39545
 20
-7.90706
 30
0.0
 10
-1.37146
 20
-7.88279
 30
0.0
 10
-1.35946
 20
-7.85273
 30
0.0
 10
-1.35946
 20
-7.81689
 30
0.0
 10
-1.35946
 20
-7.81689
 30
0.0
 10
-1.35946
 20
-7.78274
 30
0.0
 10
-1.37061
 20
-7.75451
 30
0.0
 10
-1.39305
 20
-7.73222
 30
0.0
 10
-1.39305
 20
-7.73222
 30
0.0
 10
-1.41534
 20
-7.71006
 30
0.0
 10
-1.44371
 20
-7.69892
 30
0.0
 10
-1.47828
 20
-7.69892
 30
0.0
 10
-1.47828
 20
-7.69892
 30
0.0
 10
-1.49239
 20
-7.69892
 30
0.0
 10
-1.50989
 20
-7.70174
 30
0.0
 10
-1.53091
 20
-7.70724
 30
0.0
 10
-1.53091
 20
-7.70724
 30
0.0
 10
-1.53091
 20
-7.70724
 30
0.0
 10
-1.52259
 20
-7.64205
 30
0.0
 10
-1.52259
 20
-7.64205
 30
0.0
 10
-1.52259
 20
-7.64205
 30
0.0
 10
-1.51765
 20
-7.64261
 30
0.0
 10
-1.51356
 20
-7.6429
 30
0.0
 10
-1.51059
 20
-7.6429
 30
0.0
 10
-1.51059
 20
-7.6429
 30
0.0
 10
-1.4787
 20
-7.6429
 30
0.0
 10
-1.4502
 20
-7.63457
 30
0.0
 10
-1.42466
 20
-7.61806
 30
0.0
 10
-1.42466
 20
-7.61806
 30
0.0
 10
-1.39926
 20
-7.60155
 30
0.0
 10
-1.38656
 20
-7.57615
 30
0.0
 10
-1.38656
 20
-7.54186
 30
0.0
 10
-1.38656
 20
-7.54186
 30
0.0
 10
-1.38656
 20
-7.51462
 30
0.0
 10
-1.39587
 20
-7.49205
 30
0.0
 10
-1.41435
 20
-7.47413
 30
0.0
 10
-1.41435
 20
-7.47413
 30
0.0
 10
-1.43284
 20
-7.4562
 30
0.0
 10
-1.45669
 20
-7.44731
 30
0.0
 10
-1.4859
 20
-7.44731
 30
0.0
 10
-1.4859
 20
-7.44731
 30
0.0
 10
-1.51497
 20
-7.44731
 30
0.0
 10
-1.5391
 20
-7.45649
 30
0.0
 10
-1.55843
 20
-7.47483
 30
0.0
 10
-1.55843
 20
-7.47483
 30
0.0
 10
-1.57776
 20
-7.49318
 30
0.0
 10
-1.59018
 20
-7.52069
 30
0.0
 10
-1.59568
 20
-7.55738
 30
0.0
 10
-1.59568
 20
-7.55738
 30
0.0
 10
-1.59568
 20
-7.55738
 30
0.0
 10
-1.67019
 20
-7.54383
 30
0.0
 10
-1.67019
 20
-7.54383
 30
0.0
 10
-1.67019
 20
-7.54383
 30
0.0
 10
-1.66102
 20
-7.49388
 30
0.0
 10
-1.64042
 20
-7.45508
 30
0.0
 10
-1.6081
 20
-7.42756
 30
0.0
 10
-1.6081
 20
-7.42756
 30
0.0
 10
-1.57593
 20
-7.40004
 30
0.0
 10
-1.53571
 20
-7.38635
 30
0.0
 10
-1.48773
 20
-7.38635
 30
0.0
 10
-1.48773
 20
-7.38635
 30
0.0
 10
-1.45471
 20
-7.38635
 30
0.0
 10
-1.42423
 20
-7.39341
 30
0.0
 10
-1.39643
 20
-7.40766
 30
0.0
 10
-1.39643
 20
-7.40766
 30
0.0
 10
-1.36849
 20
-7.42177
 30
0.0
 10
-1.34719
 20
-7.44111
 30
0.0
 10
-1.33251
 20
-7.46552
 30
0.0
 10
-1.33251
 20
-7.46552
 30
0.0
 10
-1.31769
 20
-7.49007
 30
0.0
 10
-1.31036
 20
-7.51604
 30
0.0
 10
-1.31036
 20
-7.54355
 30
0.0
 10
-1.31036
 20
-7.54355
 30
0.0
 10
-1.31036
 20
-7.56966
 30
0.0
 10
-1.31741
 20
-7.59337
 30
0.0
 10
-1.33138
 20
-7.61481
 30
0.0
 10
-1.33138
 20
-7.61481
 30
0.0
 10
-1.34549
 20
-7.63626
 30
0.0
 10
-1.36638
 20
-7.65334
 30
0.0
 10
-1.39389
 20
-7.66604
 30
0.0
 10
-1.39389
 20
-7.66604
 30
0.0
 10
-1.35805
 20
-7.67422
 30
0.0
 10
-1.33025
 20
-7.69144
 30
0.0
 10
-1.31036
 20
-7.71754
 30
0.0
 10
-1.31036
 20
-7.71754
 30
0.0
 10
-1.2906
 20
-7.74351
 30
0.0
 10
-1.28072
 20
-7.77625
 30
0.0
 10
-1.28072
 20
-7.81533
 30
0.0
 10
-1.28072
 20
-7.81533
 30
0.0
 10
-1.28072
 20
-7.86825
 30
0.0
 10
-1.30005
 20
-7.91327
 30
0.0
 10
-1.33858
 20
-7.9501
 30
0.0
 10
-1.33858
 20
-7.9501
 30
0.0
 10
-1.37724
 20
-7.98693
 30
0.0
 10
-1.42607
 20
-8.00527
 30
0.0
 10
-1.48505
 20
-8.00527
 30
0.0
 10
-1.48505
 20
-8.00527
 30
0.0
 10
-1.53825
 20
-8.00527
 30
0.0
 10
-1.58242
 20
-7.98932
 30
0.0
 10
-1.61756
 20
-7.95757
 30
0.0
 10
-1.61756
 20
-7.95757
 30
0.0
 10
-1.65283
 20
-7.92582
 30
0.0
 10
-1.67287
 20
-7.88476
 30
0.0
 10
-1.67781
 20
-7.83424
 30
0.0
  0
SPLINE
  5
45
330
1F
100
AcDbEntity
  8
Layer 1
 62
   250
100
AcDbSpline
210
0.0
220
0.0
230
1.0
 70
    11
 71
     3
 72
   124
 73
   120
 74
     0
 42
0.0000000001
 43
0.0000000001
 12
1.0
 22
0.0
 32
0.0
 13
1.0
 23
0.0
 33
0.0
 40
0.0
 40
0.0
 40
0.0
 40
0.0
 40
0.032258064516129
 40
0.032258064516129
 40
0.032258064516129
 40
0.032258064516129
 40
0.0645161290322581
 40
0.0645161290322581
 40
0.0645161290322581
 40
0.0645161290322581
 40
0.0967741935483871
 40
0.0967741935483871
 40
0.0967741935483871
 40
0.0967741935483871
 40
0.1290322580645161
 40
0.1290322580645161
 40
0.1290322580645161
 40
0.1290322580645161
 40
0.1612903225806452
 40
0.1612903225806452
 40
0.1612903225806452
 40
0.1612903225806452
 40
0.1935483870967742
 40
0.1935483870967742
 40
0.1935483870967742
 40
0.1935483870967742
 40
0.2258064516129032
 40
0.2258064516129032
 40
0.2258064516129032
 40
0.2258064516129032
 40
0.2580645161290323
 40
0.2580645161290323
 40
0.2580645161290323
 40
0.2580645161290323
 40
0.2903225806451613
 40
0.2903225806451613
 40
0.2903225806451613
 40
0.2903225806451613
 40
0.3225806451612903
 40
0.3225806451612903
 40
0.3225806451612903
 40
0.3225806451612903
 40
0.3548387096774194
 40
0.3548387096774194
 40
0.3548387096774194
 40
0.3548387096774194
 40
0.3870967741935484
 40
0.3870967741935484
 40
0.3870967741935484
 40
0.3870967741935484
 40
0.4193548387096774
 40
0.4193548387096774
 40
0.4193548387096774
 40
0.4193548387096774
 40
0.4516129032258064
 40
0.4516129032258064
 40
0.4516129032258064
 40
0.4516129032258064
 40
0.4838709677419355
 40
0.4838709677419355
 40
0.4838709677419355
 40
0.4838709677419355
 40
0.5161290322580645
 40
0.5161290322580645
 40
0.5161290322580645
 40
0.5161290322580645
 40
0.5483870967741935
 40
0.5483870967741935
 40
0.5483870967741935
 40
0.5483870967741935
 40
0.5806451612903226
 40
0.5806451612903226
 40
0.5806451612903226
 40
0.5806451612903226
 40
0.6129032258064516
 40
0.6129032258064516
 40
0.6129032258064516
 40
0.6129032258064516
 40
0.6451612903225806
 40
0.6451612903225806
 40
0.6451612903225806
 40
0.6451612903225806
 40
0.6774193548387096
 40
0.6774193548387096
 40
0.6774193548387096
 40
0.6774193548387096
 40
0.7096774193548387
 40
0.7096774193548387
 40
0.7096774193548387
 40
0.7096774193548387
 40
0.7419354838709677
 40
0.7419354838709677
 40
0.7419354838709677
 40
0.7419354838709677
 40
0.7741935483870968
 40
0.7741935483870968
 40
0.7741935483870968
 40
0.7741935483870968
 40
0.8064516129032258
 40
0.8064516129032258
 40
0.8064516129032258
 40
0.8064516129032258
 40
0.8387096774193549
 40
0.8387096774193549
 40
0.8387096774193549
 40
0.8387096774193549
 40
0.8709677419354839
 40
0.8709677419354839
 40
0.8709677419354839
 40
0.8709677419354839
 40
0.9032258064516129
 40
0.9032258064516129
 40
0.9032258064516129
 40
0.9032258064516129
 40
0.9354838709677419
 40
0.9354838709677419
 40
0.9354838709677419
 40
0.9354838709677419
 40
1.0
 40
1.0
 40
1.0
 40
1.0
 10
-1.20692
 20
-7.83424
 30
0.0
 10
-1.20692
 20
-7.83424
 30
0.0
 10
-1.13241
 20
-7.82408
 30
0.0
 10
-1.13241
 20
-7.82408
 30
0.0
 10
-1.13241
 20
-7.82408
 30
0.0
 10
-1.12381
 20
-7.86642
 30
0.0
 10
-1.10941
 20
-7.8969
 30
0.0
 10
-1.08895
 20
-7.91552
 30
0.0
 10
-1.08895
 20
-7.91552
 30
0.0
 10
-1.06849
 20
-7.93415
 30
0.0
 10
-1.04337
 20
-7.94346
 30
0.0
 10
-1.0136
 20
-7.94346
 30
0.0
 10
-1.0136
 20
-7.94346
 30
0.0
 10
-0.97832
 20
-7.94346
 30
0.0
 10
-0.94854
 20
-7.93133
 30
0.0
 10
-0.92456
 20
-7.90706
 30
0.0
 10
-0.92456
 20
-7.90706
 30
0.0
 10
-0.90057
 20
-7.88279
 30
0.0
 10
-0.88857
 20
-7.85273
 30
0.0
 10
-0.88857
 20
-7.81689
 30
0.0
 10
-0.88857
 20
-7.81689
 30
0.0
 10
-0.88857
 20
-7.78274
 30
0.0
 10
-0.89972
 20
-7.75451
 30
0.0
 10
-0.92216
 20
-7.73222
 30
0.0
 10
-0.92216
 20
-7.73222
 30
0.0
 10
-0.94445
 20
-7.71006
 30
0.0
 10
-0.97282
 20
-7.69892
 30
0.0
 10
-1.00739
 20
-7.69892
 30
0.0
 10
-1.00739
 20
-7.69892
 30
0.0
 10
-1.0215
 20
-7.69892
 30
0.0
 10
-1.039
 20
-7.70174
 30
0.0
 10
-1.06002
 20
-7.70724
 30
0.0
 10
-1.06002
 20
-7.70724
 30
0.0
 10
-1.06002
 20
-7.70724
 30
0.0
 10
-1.0517
 20
-7.64205
 30
0.0
 10
-1.0517
 20
-7.64205
 30
0.0
 10
-1.0517
 20
-7.64205
 30
0.0
 10
-1.04676
 20
-7.64261
 30
0.0
 10
-1.04267
 20
-7.6429
 30
0.0
 10
-1.0397
 20
-7.6429
 30
0.0
 10
-1.0397
 20
-7.6429
 30
0.0
 10
-1.00781
 20
-7.6429
 30
0.0
 10
-0.97931
 20
-7.63457
 30
0.0
 10
-0.95377
 20
-7.61806
 30
0.0
 10
-0.95377
 20
-7.61806
 30
0.0
 10
-0.92837
 20
-7.60155
 30
0.0
 10
-0.91567
 20
-7.57615
 30
0.0
 10
-0.91567
 20
-7.54186
 30
0.0
 10
-0.91567
 20
-7.54186
 30
0.0
 10
-0.91567
 20
-7.51462
 30
0.0
 10
-0.92498
 20
-7.49205
 30
0.0
 10
-0.94346
 20
-7.47413
 30
0.0
 10
-0.94346
 20
-7.47413
 30
0.0
 10
-0.96195
 20
-7.4562
 30
0.0
 10
-0.9858
 20
-7.44731
 30
0.0
 10
-1.01501
 20
-7.44731
 30
0.0
 10
-1.01501
 20
-7.44731
 30
0.0
 10
-1.04408
 20
-7.44731
 30
0.0
 10
-1.06821
 20
-7.45649
 30
0.0
 10
-1.08754
 20
-7.47483
 30
0.0
 10
-1.08754
 20
-7.47483
 30
0.0
 10
-1.10687
 20
-7.49318
 30
0.0
 10
-1.11929
 20
-7.52069
 30
0.0
 10
-1.12479
 20
-7.55738
 30
0.0
 10
-1.12479
 20
-7.55738
 30
0.0
 10
-1.12479
 20
-7.55738
 30
0.0
 10
-1.1993
 20
-7.54383
 30
0.0
 10
-1.1993
 20
-7.54383
 30
0.0
 10
-1.1993
 20
-7.54383
 30
0.0
 10
-1.19013
 20
-7.49388
 30
0.0
 10
-1.16953
 20
-7.45508
 30
0.0
 10
-1.13721
 20
-7.42756
 30
0.0
 10
-1.13721
 20
-7.42756
 30
0.0
 10
-1.10504
 20
-7.40004
 30
0.0
 10
-1.06482
 20
-7.38635
 30
0.0
 10
-1.01684
 20
-7.38635
 30
0.0
 10
-1.01684
 20
-7.38635
 30
0.0
 10
-0.98382
 20
-7.38635
 30
0.0
 10
-0.95334
 20
-7.39341
 30
0.0
 10
-0.92554
 20
-7.40766
 30
0.0
 10
-0.92554
 20
-7.40766
 30
0.0
 10
-0.8976
 20
-7.42177
 30
0.0
 10
-0.8763
 20
-7.44111
 30
0.0
 10
-0.86162
 20
-7.46552
 30
0.0
 10
-0.86162
 20
-7.46552
 30
0.0
 10
-0.8468
 20
-7.49007
 30
0.0
 10
-0.83947
 20
-7.51604
 30
0.0
 10
-0.83947
 20
-7.54355
 30
0.0
 10
-0.83947
 20
-7.54355
 30
0.0
 10
-0.83947
 20
-7.56966
 30
0.0
 10
-0.84652
 20
-7.59337
 30
0.0
 10
-0.86049
 20
-7.61481
 30
0.0
 10
-0.86049
 20
-7.61481
 30
0.0
 10
-0.8746
 20
-7.63626
 30
0.0
 10
-0.89549
 20
-7.65334
 30
0.0
 10
-0.923
 20
-7.66604
 30
0.0
 10
-0.923
 20
-7.66604
 30
0.0
 10
-0.88716
 20
-7.67422
 30
0.0
 10
-0.85936
 20
-7.69144
 30
0.0
 10
-0.83947
 20
-7.71754
 30
0.0
 10
-0.83947
 20
-7.71754
 30
0.0
 10
-0.81971
 20
-7.74351
 30
0.0
 10
-0.80983
 20
-7.77625
 30
0.0
 10
-0.80983
 20
-7.81533
 30
0.0
 10
-0.80983
 20
-7.81533
 30
0.0
 10
-0.80983
 20
-7.86825
 30
0.0
 10
-0.82916
 20
-7.91327
 30
0.0
 10
-0.86769
 20
-7.9501
 30
0.0
 10
-0.86769
 20
-7.9501
 30
0.0
 10
-0.90635
 20
-7.98693
 30
0.0
 10
-0.95518
 20
-8.00527
 30
0.0
 10
-1.01416
 20
-8.00527
 30
0.0
 10
-1.01416
 20
-8.00527
 30
0.0
 10
-1.06736
 20
-8.00527
 30
0.0
 10
-1.11153
 20
-7.98932
 30
0.0
 10
-1.14667
 20
-7.95757
 30
0.0
 10
-1.14667
 20
-7.95757
 30
0.0
 10
-1.18194
 20
-7.92582
 30
0.0
 10
-1.20198
 20
-7.88476
 30
0.0
 10
-1.20692
 20
-7.83424
 30
0.0
  0
SPLINE
  5
46
330
1F
100
AcDbEntity
  8
Layer 1
 62
   250
100
AcDbSpline
210
0.0
220
0.0
230
1.0
 70
    11
 71
     3
 72
    92
 73
    88
 74
     0
 42
0.0000000001
 43
0.0000000001
 12
1.0
 22
0.0
 32
0.0
 13
1.0
 23
0.0
 33
0.0
 40
0.0
 40
0.0
 40
0.0
 40
0.0
 40
0.0434782608695652
 40
0.0434782608695652
 40
0.0434782608695652
 40
0.0434782608695652
 40
0.0869565217391304
 40
0.0869565217391304
 40
0.0869565217391304
 40
0.0869565217391304
 40
0.1304347826086956
 40
0.1304347826086956
 40
0.1304347826086956
 40
0.1304347826086956
 40
0.1739130434782609
 40
0.1739130434782609
 40
0.1739130434782609
 40
0.1739130434782609
 40
0.2173913043478261
 40
0.2173913043478261
 40
0.2173913043478261
 40
0.2173913043478261
 40
0.2608695652173913
 40
0.2608695652173913
 40
0.2608695652173913
 40
0.2608695652173913
 40
0.3043478260869565
 40
0.3043478260869565
 40
0.3043478260869565
 40
0.3043478260869565
 40
0.3478260869565217
 40
0.3478260869565217
 40
0.3478260869565217
 40
0.3478260869565217
 40
0.391304347826087
 40
0.391304347826087
 40
0.391304347826087
 40
0.391304347826087
 40
0.4347826086956522
 40
0.4347826086956522
 40
0.4347826086956522
 40
0.4347826086956522
 40
0.4782608695652174
 40
0.4782608695652174
 40
0.4782608695652174
 40
0.4782608695652174
 40
0.5217391304347826
 40
0.5217391304347826
 40
0.5217391304347826
 40
0.5217391304347826
 40
0.5652173913043478
 40
0.5652173913043478
 40
0.5652173913043478
 40
0.5652173913043478
 40
0.6086956521739131
 40
0.6086956521739131
 40
0.6086956521739131
 40
0.6086956521739131
 40
0.6521739130434783
 40
0.6521739130434783
 40
0.6521739130434783
 40
0.6521739130434783
 40
0.6956521739130435
 40
0.6956521739130435
 40
0.6956521739130435
 40
0.6956521739130435
 40
0.7391304347826086
 40
0.7391304347826086
 40
0.7391304347826086
 40
0.7391304347826086
 40
0.782608695652174
 40
0.782608695652174
 40
0.782608695652174
 40
0.782608695652174
 40
0.8260869565217391
 40
0.8260869565217391
 40
0.8260869565217391
 40
0.8260869565217391
 40
0.8695652173913043
 40
0.8695652173913043
 40
0.8695652173913043
 40
0.8695652173913043
 40
0.9130434782608695
 40
0.9130434782608695
 40
0.9130434782608695
 40
0.9130434782608695
 40
1.0
 40
1.0
 40
1.0
 40
1.0
 10
-0.34571
 20
-7.92399
 30
0.0
 10
-0.34571
 20
-7.92399
 30
0.0
 10
-0.34571
 20
-7.99511
 30
0.0
 10
-0.34571
 20
-7.99511
 30
0.0
 10
-0.34571
 20
-7.99511
 30
0.0
 10
-0.34571
 20
-7.99511
 30
0.0
 10
-0.74704
 20
-7.99511
 30
0.0
 10
-0.74704
 20
-7.99511
 30
0.0
 10
-0.74704
 20
-7.99511
 30
0.0
 10
-0.7476
 20
-7.97719
 30
0.0
 10
-0.74464
 20
-7.95997
 30
0.0
 10
-0.73829
 20
-7.94332
 30
0.0
 10
-0.73829
 20
-7.94332
 30
0.0
 10
-0.72799
 20
-7.91609
 30
0.0
 10
-0.71148
 20
-7.88914
 30
0.0
 10
-0.68876
 20
-7.86275
 30
0.0
 10
-0.68876
 20
-7.86275
 30
0.0
 10
-0.66604
 20
-7.83636
 30
0.0
 10
-0.63358
 20
-7.80588
 30
0.0
 10
-0.59139
 20
-7.77131
 30
0.0
 10
-0.59139
 20
-7.77131
 30
0.0
 10
-0.52577
 20
-7.71726
 30
0.0
 10
-0.48118
 20
-7.6745
 30
0.0
 10
-0.4579
 20
-7.6429
 30
0.0
 10
-0.4579
 20
-7.6429
 30
0.0
 10
-0.43447
 20
-7.61129
 30
0.0
 10
-0.42276
 20
-7.58137
 30
0.0
 10
-0.42276
 20
-7.55315
 30
0.0
 10
-0.42276
 20
-7.55315
 30
0.0
 10
-0.42276
 20
-7.52366
 30
0.0
 10
-0.43335
 20
-7.49882
 30
0.0
 10
-0.45451
 20
-7.4785
 30
0.0
 10
-0.45451
 20
-7.4785
 30
0.0
 10
-0.47568
 20
-7.45832
 30
0.0
 10
-0.50334
 20
-7.44816
 30
0.0
 10
-0.53734
 20
-7.44816
 30
0.0
 10
-0.53734
 20
-7.44816
 30
0.0
 10
-0.57333
 20
-7.44816
 30
0.0
 10
-0.60211
 20
-7.45889
 30
0.0
 10
-0.6237
 20
-7.48033
 30
0.0
 10
-0.6237
 20
-7.48033
 30
0.0
 10
-0.6453
 20
-7.50164
 30
0.0
 10
-0.65616
 20
-7.53128
 30
0.0
 10
-0.65644
 20
-7.56923
 30
0.0
 10
-0.65644
 20
-7.56923
 30
0.0
 10
-0.65644
 20
-7.56923
 30
0.0
 10
-0.73264
 20
-7.56161
 30
0.0
 10
-0.73264
 20
-7.56161
 30
0.0
 10
-0.73264
 20
-7.56161
 30
0.0
 10
-0.72742
 20
-7.50461
 30
0.0
 10
-0.70767
 20
-7.46114
 30
0.0
 10
-0.67352
 20
-7.43123
 30
0.0
 10
-0.67352
 20
-7.43123
 30
0.0
 10
-0.63923
 20
-7.40131
 30
0.0
 10
-0.59337
 20
-7.38635
 30
0.0
 10
-0.53565
 20
-7.38635
 30
0.0
 10
-0.53565
 20
-7.38635
 30
0.0
 10
-0.47751
 20
-7.38635
 30
0.0
 10
-0.43137
 20
-7.40244
 30
0.0
 10
-0.3975
 20
-7.43476
 30
0.0
 10
-0.3975
 20
-7.43476
 30
0.0
 10
-0.3635
 20
-7.46707
 30
0.0
 10
-0.34656
 20
-7.50715
 30
0.0
 10
-0.34656
 20
-7.55484
 30
0.0
 10
-0.34656
 20
-7.55484
 30
0.0
 10
-0.34656
 20
-7.57911
 30
0.0
 10
-0.3515
 20
-7.60296
 30
0.0
 10
-0.36152
 20
-7.62639
 30
0.0
 10
-0.36152
 20
-7.62639
 30
0.0
 10
-0.3714
 20
-7.64995
 30
0.0
 10
-0.38791
 20
-7.67465
 30
0.0
 10
-0.41091
 20
-7.70061
 30
0.0
 10
-0.41091
 20
-7.70061
 30
0.0
 10
-0.43405
 20
-7.72643
 30
0.0
 10
-0.47229
 20
-7.76213
 30
0.0
 10
-0.52563
 20
-7.80729
 30
0.0
 10
-0.52563
 20
-7.80729
 30
0.0
 10
-0.57036
 20
-7.84483
 30
0.0
 10
-0.59915
 20
-7.87023
 30
0.0
 10
-0.61185
 20
-7.88363
 30
0.0
 10
-0.61185
 20
-7.88363
 30
0.0
 10
-0.62455
 20
-7.89704
 30
0.0
 10
-0.63499
 20
-7.91044
 30
0.0
 10
-0.64332
 20
-7.92399
 30
0.0
 10
-0.64332
 20
-7.92399
 30
0.0
 10
-0.64332
 20
-7.92399
 30
0.0
 10
-0.34571
 20
-7.92399
 30
0.0
 10
-0.34571
 20
-7.92399
 30
0.0
  0
SPLINE
  5
47
330
1F
100
AcDbEntity
  8
Layer 1
 62
   250
100
AcDbSpline
210
0.0
220
0.0
230
1.0
 70
    11
 71
     3
 72
   124
 73
   120
 74
     0
 42
0.0000000001
 43
0.0000000001
 12
1.0
 22
0.0
 32
0.0
 13
1.0
 23
0.0
 33
0.0
 40
0.0
 40
0.0
 40
0.0
 40
0.0
 40
0.032258064516129
 40
0.032258064516129
 40
0.032258064516129
 40
0.032258064516129
 40
0.0645161290322581
 40
0.0645161290322581
 40
0.0645161290322581
 40
0.0645161290322581
 40
0.0967741935483871
 40
0.0967741935483871
 40
0.0967741935483871
 40
0.0967741935483871
 40
0.1290322580645161
 40
0.1290322580645161
 40
0.1290322580645161
 40
0.1290322580645161
 40
0.1612903225806452
 40
0.1612903225806452
 40
0.1612903225806452
 40
0.1612903225806452
 40
0.1935483870967742
 40
0.1935483870967742
 40
0.1935483870967742
 40
0.1935483870967742
 40
0.2258064516129032
 40
0.2258064516129032
 40
0.2258064516129032
 40
0.2258064516129032
 40
0.2580645161290323
 40
0.2580645161290323
 40
0.2580645161290323
 40
0.2580645161290323
 40
0.2903225806451613
 40
0.2903225806451613
 40
0.2903225806451613
 40
0.2903225806451613
 40
0.3225806451612903
 40
0.3225806451612903
 40
0.3225806451612903
 40
0.3225806451612903
 40
0.3548387096774194
 40
0.3548387096774194
 40
0.3548387096774194
 40
0.3548387096774194
 40
0.3870967741935484
 40
0.3870967741935484
 40
0.3870967741935484
 40
0.3870967741935484
 40
0.4193548387096774
 40
0.4193548387096774
 40
0.4193548387096774
 40
0.4193548387096774
 40
0.4516129032258064
 40
0.4516129032258064
 40
0.4516129032258064
 40
0.4516129032258064
 40
0.4838709677419355
 40
0.4838709677419355
 40
0.4838709677419355
 40
0.4838709677419355
 40
0.5161290322580645
 40
0.5161290322580645
 40
0.5161290322580645
 40
0.5161290322580645
 40
0.5483870967741935
 40
0.5483870967741935
 40
0.5483870967741935
 40
0.5483870967741935
 40
0.5806451612903226
 40
0.5806451612903226
 40
0.5806451612903226
 40
0.5806451612903226
 40
0.6129032258064516
 40
0.6129032258064516
 40
0.6129032258064516
 40
0.6129032258064516
 40
0.6451612903225806
 40
0.6451612903225806
 40
0.6451612903225806
 40
0.6451612903225806
 40
0.6774193548387096
 40
0.6774193548387096
 40
0.6774193548387096
 40
0.6774193548387096
 40
0.7096774193548387
 40
0.7096774193548387
 40
0.7096774193548387
 40
0.7096774193548387
 40
0.7419354838709677
 40
0.7419354838709677
 40
0.7419354838709677
 40
0.7419354838709677
 40
0.7741935483870968
 40
0.7741935483870968
 40
0.7741935483870968
 40
0.7741935483870968
 40
0.8064516129032258
 40
0.8064516129032258
 40
0.8064516129032258
 40
0.8064516129032258
 40
0.8387096774193549
 40
0.8387096774193549
 40
0.8387096774193549
 40
0.8387096774193549
 40
0.8709677419354839
 40
0.8709677419354839
 40
0.8709677419354839
 40
0.8709677419354839
 40
0.9032258064516129
 40
0.9032258064516129
 40
0.9032258064516129
 40
0.9032258064516129
 40
0.9354838709677419
 40
0.9354838709677419
 40
0.9354838709677419
 40
0.9354838709677419
 40
1.0
 40
1.0
 40
1.0
 40
1.0
 10
-0.26514
 20
-7.83424
 30
0.0
 10
-0.26514
 20
-7.83424
 30
0.0
 10
-0.19063
 20
-7.82408
 30
0.0
 10
-0.19063
 20
-7.82408
 30
0.0
 10
-0.19063
 20
-7.82408
 30
0.0
 10
-0.18203
 20
-7.86642
 30
0.0
 10
-0.16763
 20
-7.8969
 30
0.0
 10
-0.14717
 20
-7.91552
 30
0.0
 10
-0.14717
 20
-7.91552
 30
0.0
 10
-0.12671
 20
-7.93415
 30
0.0
 10
-0.10159
 20
-7.94346
 30
0.0
 10
-0.07182
 20
-7.94346
 30
0.0
 10
-0.07182
 20
-7.94346
 30
0.0
 10
-0.03654
 20
-7.94346
 30
0.0
 10
-0.00676
 20
-7.93133
 30
0.0
 10
0.01722
 20
-7.90706
 30
0.0
 10
0.01722
 20
-7.90706
 30
0.0
 10
0.04121
 20
-7.88279
 30
0.0
 10
0.05321
 20
-7.85273
 30
0.0
 10
0.05321
 20
-7.81689
 30
0.0
 10
0.05321
 20
-7.81689
 30
0.0
 10
0.05321
 20
-7.78274
 30
0.0
 10
0.04206
 20
-7.75451
 30
0.0
 10
0.01962
 20
-7.73222
 30
0.0
 10
0.01962
 20
-7.73222
 30
0.0
 10
-0.00267
 20
-7.71006
 30
0.0
 10
-0.03104
 20
-7.69892
 30
0.0
 10
-0.06561
 20
-7.69892
 30
0.0
 10
-0.06561
 20
-7.69892
 30
0.0
 10
-0.07972
 20
-7.69892
 30
0.0
 10
-0.09722
 20
-7.70174
 30
0.0
 10
-0.11824
 20
-7.70724
 30
0.0
 10
-0.11824
 20
-7.70724
 30
0.0
 10
-0.11824
 20
-7.70724
 30
0.0
 10
-0.10992
 20
-7.64205
 30
0.0
 10
-0.10992
 20
-7.64205
 30
0.0
 10
-0.10992
 20
-7.64205
 30
0.0
 10
-0.10498
 20
-7.64261
 30
0.0
 10
-0.10089
 20
-7.6429
 30
0.0
 10
-0.09792
 20
-7.6429
 30
0.0
 10
-0.09792
 20
-7.6429
 30
0.0
 10
-0.06603
 20
-7.6429
 30
0.0
 10
-0.03753
 20
-7.63457
 30
0.0
 10
-0.01199
 20
-7.61806
 30
0.0
 10
-0.01199
 20
-7.61806
 30
0.0
 10
0.01341
 20
-7.60155
 30
0.0
 10
0.02611
 20
-7.57615
 30
0.0
 10
0.02611
 20
-7.54186
 30
0.0
 10
0.02611
 20
-7.54186
 30
0.0
 10
0.02611
 20
-7.51462
 30
0.0
 10
0.0168
 20
-7.49205
 30
0.0
 10
-0.00168
 20
-7.47413
 30
0.0
 10
-0.00168
 20
-7.47413
 30
0.0
 10
-0.02017
 20
-7.4562
 30
0.0
 10
-0.04402
 20
-7.44731
 30
0.0
 10
-0.07323
 20
-7.44731
 30
0.0
 10
-0.07323
 20
-7.44731
 30
0.0
 10
-0.1023
 20
-7.44731
 30
0.0
 10
-0.12643
 20
-7.45649
 30
0.0
 10
-0.14576
 20
-7.47483
 30
0.0
 10
-0.14576
 20
-7.47483
 30
0.0
 10
-0.16509
 20
-7.49318
 30
0.0
 10
-0.17751
 20
-7.52069
 30
0.0
 10
-0.18301
 20
-7.55738
 30
0.0
 10
-0.18301
 20
-7.55738
 30
0.0
 10
-0.18301
 20
-7.55738
 30
0.0
 10
-0.25752
 20
-7.54383
 30
0.0
 10
-0.25752
 20
-7.54383
 30
0.0
 10
-0.25752
 20
-7.54383
 30
0.0
 10
-0.24835
 20
-7.49388
 30
0.0
 10
-0.22775
 20
-7.45508
 30
0.0
 10
-0.19543
 20
-7.42756
 30
0.0
 10
-0.19543
 20
-7.42756
 30
0.0
 10
-0.16326
 20
-7.40004
 30
0.0
 10
-0.12304
 20
-7.38635
 30
0.0
 10
-0.07506
 20
-7.38635
 30
0.0
 10
-0.07506
 20
-7.38635
 30
0.0
 10
-0.04204
 20
-7.38635
 30
0.0
 10
-0.01156
 20
-7.39341
 30
0.0
 10
0.01624
 20
-7.40766
 30
0.0
 10
0.01624
 20
-7.40766
 30
0.0
 10
0.04418
 20
-7.42177
 30
0.0
 10
0.06548
 20
-7.44111
 30
0.0
 10
0.08016
 20
-7.46552
 30
0.0
 10
0.08016
 20
-7.46552
 30
0.0
 10
0.09498
 20
-7.49007
 30
0.0
 10
0.10231
 20
-7.51604
 30
0.0
 10
0.10231
 20
-7.54355
 30
0.0
 10
0.10231
 20
-7.54355
 30
0.0
 10
0.10231
 20
-7.56966
 30
0.0
 10
0.09526
 20
-7.59337
 30
0.0
 10
0.08129
 20
-7.61481
 30
0.0
 10
0.08129
 20
-7.61481
 30
0.0
 10
0.06718
 20
-7.63626
 30
0.0
 10
0.04629
 20
-7.65334
 30
0.0
 10
0.01878
 20
-7.66604
 30
0.0
 10
0.01878
 20
-7.66604
 30
0.0
 10
0.05462
 20
-7.67422
 30
0.0
 10
0.08242
 20
-7.69144
 30
0.0
 10
0.10231
 20
-7.71754
 30
0.0
 10
0.10231
 20
-7.71754
 30
0.0
 10
0.12207
 20
-7.74351
 30
0.0
 10
0.13195
 20
-7.77625
 30
0.0
 10
0.13195
 20
-7.81533
 30
0.0
 10
0.13195
 20
-7.81533
 30
0.0
 10
0.13195
 20
-7.86825
 30
0.0
 10
0.11262
 20
-7.91327
 30
0.0
 10
0.07409
 20
-7.9501
 30
0.0
 10
0.07409
 20
-7.9501
 30
0.0
 10
0.03543
 20
-7.98693
 30
0.0
 10
-0.0134
 20
-8.00527
 30
0.0
 10
-0.07238
 20
-8.00527
 30
0.0
 10
-0.07238
 20
-8.00527
 30
0.0
 10
-0.12558
 20
-8.00527
 30
0.0
 10
-0.16975
 20
-7.98932
 30
0.0
 10
-0.20489
 20
-7.95757
 30
0.0
 10
-0.20489
 20
-7.95757
 30
0.0
 10
-0.24016
 20
-7.92582
 30
0.0
 10
-0.2602
 20
-7.88476
 30
0.0
 10
-0.26514
 20
-7.83424
 30
0.0
  0
SPLINE
  5
48
330
1F
100
AcDbEntity
  8
Layer 1
 62
   250
100
AcDbSpline
210
0.0
220
0.0
230
1.0
 70
    11
 71
     3
 72
    20
 73
    16
 74
     0
 42
0.0000000001
 43
0.0000000001
 12
1.0
 22
0.0
 32
0.0
 13
1.0
 23
0.0
 33
0.0
 40
0.0
 40
0.0
 40
0.0
 40
0.0
 40
0.2
 40
0.2
 40
0.2
 40
0.2
 40
0.4
 40
0.4
 40
0.4
 40
0.4
 40
0.6
 40
0.6
 40
0.6
 40
0.6
 40
1.0
 40
1.0
 40
1.0
 40
1.0
 10
0.19644
 20
-7.81308
 30
0.0
 10
0.19644
 20
-7.81308
 30
0.0
 10
0.19644
 20
-7.73857
 30
0.0
 10
0.19644
 20
-7.73857
 30
0.0
 10
0.19644
 20
-7.73857
 30
0.0
 10
0.19644
 20
-7.73857
 30
0.0
 10
0.42673
 20
-7.73857
 30
0.0
 10
0.42673
 20
-7.73857
 30
0.0
 10
0.42673
 20
-7.73857
 30
0.0
 10
0.42673
 20
-7.73857
 30
0.0
 10
0.42673
 20
-7.81308
 30
0.0
 10
0.42673
 20
-7.81308
 30
0.0
 10
0.42673
 20
-7.81308
 30
0.0
 10
0.42673
 20
-7.81308
 30
0.0
 10
0.19644
 20
-7.81308
 30
0.0
 10
0.19644
 20
-7.81308
 30
0.0
  0
SPLINE
  5
49
330
1F
100
AcDbEntity
  8
Layer 1
 62
   250
100
AcDbSpline
210
0.0
220
0.0
230
1.0
 70
    11
 71
     3
 72
    28
 73
    24
 74
     0
 42
0.0000000001
 43
0.0000000001
 12
1.0
 22
0.0
 32
0.0
 13
1.0
 23
0.0
 33
0.0
 40
0.0
 40
0.0
 40
0.0
 40
0.0
 40
0.1428571428571428
 40
0.1428571428571428
 40
0.1428571428571428
 40
0.1428571428571428
 40
0.2857142857142857
 40
0.2857142857142857
 40
0.2857142857142857
 40
0.2857142857142857
 40
0.4285714285714285
 40
0.4285714285714285
 40
0.4285714285714285
 40
0.4285714285714285
 40
0.5714285714285714
 40
0.5714285714285714
 40
0.5714285714285714
 40
0.5714285714285714
 40
0.7142857142857143
 40
0.7142857142857143
 40
0.7142857142857143
 40
0.7142857142857143
 40
1.0
 40
1.0
 40
1.0
 40
1.0
 10
0.51394
 20
-7.99511
 30
0.0
 10
0.51394
 20
-7.99511
 30
0.0
 10
0.51394
 20
-7.38889
 30
0.0
 10
0.51394
 20
-7.38889
 30
0.0
 10
0.51394
 20
-7.38889
 30
0.0
 10
0.51394
 20
-7.38889
 30
0.0
 10
0.59437
 20
-7.38889
 30
0.0
 10
0.59437
 20
-7.38889
 30
0.0
 10
0.59437
 20
-7.38889
 30
0.0
 10
0.59437
 20
-7.38889
 30
0.0
 10
0.59437
 20
-7.92399
 30
0.0
 10
0.59437
 20
-7.92399
 30
0.0
 10
0.59437
 20
-7.92399
 30
0.0
 10
0.59437
 20
-7.92399
 30
0.0
 10
0.8924
 20
-7.92399
 30
0.0
 10
0.8924
 20
-7.92399
 30
0.0
 10
0.8924
 20
-7.92399
 30
0.0
 10
0.8924
 20
-7.92399
 30
0.0
 10
0.8924
 20
-7.99511
 30
0.0
 10
0.8924
 20
-7.99511
 30
0.0
 10
0.8924
 20
-7.99511
 30
0.0
 10
0.8924
 20
-7.99511
 30
0.0
 10
0.51394
 20
-7.99511
 30
0.0
 10
0.51394
 20
-7.99511
 30
0.0
  0
SPLINE
  5
4A
330
1F
100
AcDbEntity
  8
Layer 1
 62
   250
100
AcDbSpline
210
0.0
220
0.0
230
1.0
 70
    11
 71
     3
 72
    36
 73
    32
 74
     0
 42
0.0000000001
 43
0.0000000001
 12
1.0
 22
0.0
 32
0.0
 13
1.0
 23
0.0
 33
0.0
 40
0.0
 40
0.0
 40
0.0
 40
0.0
 40
0.1111111111111111
 40
0.1111111111111111
 40
0.1111111111111111
 40
0.1111111111111111
 40
0.2222222222222222
 40
0.2222222222222222
 40
0.2222222222222222
 40
0.2222222222222222
 40
0.3333333333333333
 40
0.3333333333333333
 40
0.3333333333333333
 40
0.3333333333333333
 40
0.4444444444444444
 40
0.4444444444444444
 40
0.4444444444444444
 40
0.4444444444444444
 40
0.5555555555555556
 40
0.5555555555555556
 40
0.5555555555555556
 40
0.5555555555555556
 40
0.6666666666666666
 40
0.6666666666666666
 40
0.6666666666666666
 40
0.6666666666666666
 40
0.7777777777777778
 40
0.7777777777777778
 40
0.7777777777777778
 40
0.7777777777777778
 40
1.0
 40
1.0
 40
1.0
 40
1.0
 10
1.33083
 20
-7.99511
 30
0.0
 10
1.33083
 20
-7.99511
 30
0.0
 10
1.33083
 20
-7.46001
 30
0.0
 10
1.33083
 20
-7.46001
 30
0.0
 10
1.33083
 20
-7.46001
 30
0.0
 10
1.33083
 20
-7.46001
 30
0.0
 10
1.13101
 20
-7.46001
 30
0.0
 10
1.13101
 20
-7.46001
 30
0.0
 10
1.13101
 20
-7.46001
 30
0.0
 10
1.13101
 20
-7.46001
 30
0.0
 10
1.13101
 20
-7.38889
 30
0.0
 10
1.13101
 20
-7.38889
 30
0.0
 10
1.13101
 20
-7.38889
 30
0.0
 10
1.13101
 20
-7.38889
 30
0.0
 10
1.61108
 20
-7.38889
 30
0.0
 10
1.61108
 20
-7.38889
 30
0.0
 10
1.61108
 20
-7.38889
 30
0.0
 10
1.61108
 20
-7.38889
 30
0.0
 10
1.61108
 20
-7.46001
 30
0.0
 10
1.61108
 20
-7.46001
 30
0.0
 10
1.61108
 20
-7.46001
 30
0.0
 10
1.61108
 20
-7.46001
 30
0.0
 10
1.41126
 20
-7.46001
 30
0.0
 10
1.41126
 20
-7.46001
 30
0.0
 10
1.41126
 20
-7.46001
 30
0.0
 10
1.41126
 20
-7.46001
 30
0.0
 10
1.41126
 20
-7.99511
 30
0.0
 10
1.41126
 20
-7.99511
 30
0.0
 10
1.41126
 20
-7.99511
 30
0.0
 10
1.41126
 20
-7.99511
 30
0.0
 10
1.33083
 20
-7.99511
 30
0.0
 10
1.33083
 20
-7.99511
 30
0.0
  0
SPLINE
  5
4B
330
1F
100
AcDbEntity
  8
Layer 1
 62
   250
100
AcDbSpline
210
0.0
220
0.0
230
1.0
 70
    11
 71
     3
 72
    52
 73
    48
 74
     0
 42
0.0000000001
 43
0.0000000001
 12
1.0
 22
0.0
 32
0.0
 13
1.0
 23
0.0
 33
0.0
 40
0.0
 40
0.0
 40
0.0
 40
0.0
 40
0.0769230769230769
 40
0.0769230769230769
 40
0.0769230769230769
 40
0.0769230769230769
 40
0.1538461538461539
 40
0.1538461538461539
 40
0.1538461538461539
 40
0.1538461538461539
 40
0.2307692307692308
 40
0.2307692307692308
 40
0.2307692307692308
 40
0.2307692307692308
 40
0.3076923076923077
 40
0.3076923076923077
 40
0.3076923076923077
 40
0.3076923076923077
 40
0.3846153846153846
 40
0.3846153846153846
 40
0.3846153846153846
 40
0.3846153846153846
 40
0.4615384615384616
 40
0.4615384615384616
 40
0.4615384615384616
 40
0.4615384615384616
 40
0.5384615384615384
 40
0.5384615384615384
 40
0.5384615384615384
 40
0.5384615384615384
 40
0.6153846153846154
 40
0.6153846153846154
 40
0.6153846153846154
 40
0.6153846153846154
 40
0.6923076923076923
 40
0.6923076923076923
 40
0.6923076923076923
 40
0.6923076923076923
 40
0.7692307692307693
 40
0.7692307692307693
 40
0.7692307692307693
 40
0.7692307692307693
 40
0.8461538461538461
 40
0.8461538461538461
 40
0.8461538461538461
 40
0.8461538461538461
 40
1.0
 40
1.0
 40
1.0
 40
1.0
 10
1.6956
 20
-7.99511
 30
0.0
 10
1.6956
 20
-7.99511
 30
0.0
 10
1.6956
 20
-7.38889
 30
0.0
 10
1.6956
 20
-7.38889
 30
0.0
 10
1.6956
 20
-7.38889
 30
0.0
 10
1.6956
 20
-7.38889
 30
0.0
 10
2.13333
 20
-7.38889
 30
0.0
 10
2.13333
 20
-7.38889
 30
0.0
 10
2.13333
 20
-7.38889
 30
0.0
 10
2.13333
 20
-7.38889
 30
0.0
 10
2.13333
 20
-7.46001
 30
0.0
 10
2.13333
 20
-7.46001
 30
0.0
 10
2.13333
 20
-7.46001
 30
0.0
 10
2.13333
 20
-7.46001
 30
0.0
 10
1.77603
 20
-7.46001
 30
0.0
 10
1.77603
 20
-7.46001
 30
0.0
 10
1.77603
 20
-7.46001
 30
0.0
 10
1.77603
 20
-7.46001
 30
0.0
 10
1.77603
 20
-7.64628
 30
0.0
 10
1.77603
 20
-7.64628
 30
0.0
 10
1.77603
 20
-7.64628
 30
0.0
 10
1.77603
 20
-7.64628
 30
0.0
 10
2.11047
 20
-7.64628
 30
0.0
 10
2.11047
 20
-7.64628
 30
0.0
 10
2.11047
 20
-7.64628
 30
0.0
 10
2.11047
 20
-7.64628
 30
0.0
 10
2.11047
 20
-7.7174
 30
0.0
 10
2.11047
 20
-7.7174
 30
0.0
 10
2.11047
 20
-7.7174
 30
0.0
 10
2.11047
 20
-7.7174
 30
0.0
 10
1.77603
 20
-7.7174
 30
0.0
 10
1.77603
 20
-7.7174
 30
0.0
 10
1.77603
 20
-7.7174
 30
0.0
 10
1.77603
 20
-7.7174
 30
0.0
 10
1.77603
 20
-7.92399
 30
0.0
 10
1.77603
 20
-7.92399
 30
0.0
 10
1.77603
 20
-7.92399
 30
0.0
 10
1.77603
 20
-7.92399
 30
0.0
 10
2.14772
 20
-7.92399
 30
0.0
 10
2.14772
 20
-7.92399
 30
0.0
 10
2.14772
 20
-7.92399
 30
0.0
 10
2.14772
 20
-7.92399
 30
0.0
 10
2.14772
 20
-7.99511
 30
0.0
 10
2.14772
 20
-7.99511
 30
0.0
 10
2.14772
 20
-7.99511
 30
0.0
 10
2.14772
 20
-7.99511
 30
0.0
 10
1.6956
 20
-7.99511
 30
0.0
 10
1.6956
 20
-7.99511
 30
0.0
  0
SPLINE
  5
4C
330
1F
100
AcDbEntity
  8
Layer 1
 62
   250
100
AcDbSpline
210
0.0
220
0.0
230
1.0
 70
    11
 71
     3
 72
    64
 73
    60
 74
     0
 42
0.0000000001
 43
0.0000000001
 12
1.0
 22
0.0
 32
0.0
 13
1.0
 23
0.0
 33
0.0
 40
0.0
 40
0.0
 40
0.0
 40
0.0
 40
0.0625
 40
0.0625
 40
0.0625
 40
0.0625
 40
0.125
 40
0.125
 40
0.125
 40
0.125
 40
0.1875
 40
0.1875
 40
0.1875
 40
0.1875
 40
0.25
 40
0.25
 40
0.25
 40
0.25
 40
0.3125
 40
0.3125
 40
0.3125
 40
0.3125
 40
0.375
 40
0.375
 40
0.375
 40
0.375
 40
0.4375
 40
0.4375
 40
0.4375
 40
0.4375
 40
0.5
 40
0.5
 40
0.5
 40
0.5
 40
0.5625
 40
0.5625
 40
0.5625
 40
0.5625
 40
0.625
 40
0.625
 40
0.625
 40
0.625
 40
0.6875
 40
0.6875
 40
0.6875
 40
0.6875
 40
0.75
 40
0.75
 40
0.75
 40
0.75
 40
0.8125
 40
0.8125
 40
0.8125
 40
0.8125
 40
0.875
 40
0.875
 40
0.875
 40
0.875
 40
1.0
 40
1.0
 40
1.0
 40
1.0
 10
2.25694
 20
-7.99511
 30
0.0
 10
2.25694
 20
-7.99511
 30
0.0
 10
2.25694
 20
-7.38889
 30
0.0
 10
2.25694
 20
-7.38889
 30
0.0
 10
2.25694
 20
-7.38889
 30
0.0
 10
2.25694
 20
-7.38889
 30
0.0
 10
2.37717
 20
-7.38889
 30
0.0
 10
2.37717
 20
-7.38889
 30
0.0
 10
2.37717
 20
-7.38889
 30
0.0
 10
2.37717
 20
-7.38889
 30
0.0
 10
2.52054
 20
-7.81801
 30
0.0
 10
2.52054
 20
-7.81801
 30
0.0
 10
2.52054
 20
-7.81801
 30
0.0
 10
2.5338
 20
-7.85795
 30
0.0
 10
2.5434
 20
-7.88787
 30
0.0
 10
2.54946
 20
-7.90776
 30
0.0
 10
2.54946
 20
-7.90776
 30
0.0
 10
2.55638
 20
-7.88575
 30
0.0
 10
2.56724
 20
-7.85329
 30
0.0
 10
2.58192
 20
-7.81054
 30
0.0
 10
2.58192
 20
-7.81054
 30
0.0
 10
2.58192
 20
-7.81054
 30
0.0
 10
2.72783
 20
-7.38889
 30
0.0
 10
2.72783
 20
-7.38889
 30
0.0
 10
2.72783
 20
-7.38889
 30
0.0
 10
2.72783
 20
-7.38889
 30
0.0
 10
2.83522
 20
-7.38889
 30
0.0
 10
2.83522
 20
-7.38889
 30
0.0
 10
2.83522
 20
-7.38889
 30
0.0
 10
2.83522
 20
-7.38889
 30
0.0
 10
2.83522
 20
-7.99511
 30
0.0
 10
2.83522
 20
-7.99511
 30
0.0
 10
2.83522
 20
-7.99511
 30
0.0
 10
2.83522
 20
-7.99511
 30
0.0
 10
2.75817
 20
-7.99511
 30
0.0
 10
2.75817
 20
-7.99511
 30
0.0
 10
2.75817
 20
-7.99511
 30
0.0
 10
2.75817
 20
-7.99511
 30
0.0
 10
2.75817
 20
-7.48795
 30
0.0
 10
2.75817
 20
-7.48795
 30
0.0
 10
2.75817
 20
-7.48795
 30
0.0
 10
2.75817
 20
-7.48795
 30
0.0
 10
2.58121
 20
-7.99511
 30
0.0
 10
2.58121
 20
-7.99511
 30
0.0
 10
2.58121
 20
-7.99511
 30
0.0
 10
2.58121
 20
-7.99511
 30
0.0
 10
2.50897
 20
-7.99511
 30
0.0
 10
2.50897
 20
-7.99511
 30
0.0
 10
2.50897
 20
-7.99511
 30
0.0
 10
2.50897
 20
-7.99511
 30
0.0
 10
2.33399
 20
-7.47864
 30
0.0
 10
2.33399
 20
-7.47864
 30
0.0
 10
2.33399
 20
-7.47864
 30
0.0
 10
2.33399
 20
-7.47864
 30
0.0
 10
2.33399
 20
-7.99511
 30
0.0
 10
2.33399
 20
-7.99511
 30
0.0
 10
2.33399
 20
-7.99511
 30
0.0
 10
2.33399
 20
-7.99511
 30
0.0
 10
2.25694
 20
-7.99511
 30
0.0
 10
2.25694
 20
-7.99511
 30
0.0
  0
SPLINE
  5
4D
330
1F
100
AcDbEntity
  8
Layer 1
 62
   250
100
AcDbSpline
210
0.0
220
0.0
230
1.0
 70
    11
 71
     3
 72
    48
 73
    44
 74
     0
 42
0.0000000001
 43
0.0000000001
 12
1.0
 22
0.0
 32
0.0
 13
1.0
 23
0.0
 33
0.0
 40
0.0
 40
0.0
 40
0.0
 40
0.0
 40
0.0833333333333333
 40
0.0833333333333333
 40
0.0833333333333333
 40
0.0833333333333333
 40
0.1666666666666667
 40
0.1666666666666667
 40
0.1666666666666667
 40
0.1666666666666667
 40
0.25
 40
0.25
 40
0.25
 40
0.25
 40
0.3333333333333333
 40
0.3333333333333333
 40
0.3333333333333333
 40
0.3333333333333333
 40
0.4166666666666667
 40
0.4166666666666667
 40
0.4166666666666667
 40
0.4166666666666667
 40
0.5
 40
0.5
 40
0.5
 40
0.5
 40
0.5833333333333334
 40
0.5833333333333334
 40
0.5833333333333334
 40
0.5833333333333334
 40
0.6666666666666666
 40
0.6666666666666666
 40
0.6666666666666666
 40
0.6666666666666666
 40
0.75
 40
0.75
 40
0.75
 40
0.75
 40
0.8333333333333334
 40
0.8333333333333334
 40
0.8333333333333334
 40
0.8333333333333334
 40
1.0
 40
1.0
 40
1.0
 40
1.0
 10
2.96391
 20
-7.99511
 30
0.0
 10
2.96391
 20
-7.99511
 30
0.0
 10
2.96391
 20
-7.38889
 30
0.0
 10
2.96391
 20
-7.38889
 30
0.0
 10
2.96391
 20
-7.38889
 30
0.0
 10
2.96391
 20
-7.38889
 30
0.0
 10
3.1928
 20
-7.38889
 30
0.0
 10
3.1928
 20
-7.38889
 30
0.0
 10
3.1928
 20
-7.38889
 30
0.0
 10
3.23301
 20
-7.38889
 30
0.0
 10
3.26378
 20
-7.39087
 30
0.0
 10
3.28508
 20
-7.39468
 30
0.0
 10
3.28508
 20
-7.39468
 30
0.0
 10
3.31486
 20
-7.39962
 30
0.0
 10
3.33984
 20
-7.40907
 30
0.0
 10
3.36001
 20
-7.4229
 30
0.0
 10
3.36001
 20
-7.4229
 30
0.0
 10
3.38019
 20
-7.43687
 30
0.0
 10
3.39642
 20
-7.45635
 30
0.0
 10
3.4087
 20
-7.48132
 30
0.0
 10
3.4087
 20
-7.48132
 30
0.0
 10
3.42097
 20
-7.5063
 30
0.0
 10
3.42704
 20
-7.53382
 30
0.0
 10
3.42704
 20
-7.56387
 30
0.0
 10
3.42704
 20
-7.56387
 30
0.0
 10
3.42704
 20
-7.61524
 30
0.0
 10
3.41067
 20
-7.65884
 30
0.0
 10
3.37779
 20
-7.6944
 30
0.0
 10
3.37779
 20
-7.6944
 30
0.0
 10
3.34506
 20
-7.7301
 30
0.0
 10
3.28565
 20
-7.74788
 30
0.0
 10
3.19985
 20
-7.74788
 30
0.0
 10
3.19985
 20
-7.74788
 30
0.0
 10
3.19985
 20
-7.74788
 30
0.0
 10
3.04435
 20
-7.74788
 30
0.0
 10
3.04435
 20
-7.74788
 30
0.0
 10
3.04435
 20
-7.74788
 30
0.0
 10
3.04435
 20
-7.74788
 30
0.0
 10
3.04435
 20
-7.99511
 30
0.0
 10
3.04435
 20
-7.99511
 30
0.0
 10
3.04435
 20
-7.99511
 30
0.0
 10
3.04435
 20
-7.99511
 30
0.0
 10
2.96391
 20
-7.99511
 30
0.0
 10
2.96391
 20
-7.99511
 30
0.0
  0
SPLINE
  5
4E
330
1F
100
AcDbEntity
  8
Layer 1
 62
   250
100
AcDbSpline
210
0.0
220
0.0
230
1.0
 70
    11
 71
     3
 72
    36
 73
    32
 74
     0
 42
0.0000000001
 43
0.0000000001
 12
1.0
 22
0.0
 32
0.0
 13
1.0
 23
0.0
 33
0.0
 40
0.0
 40
0.0
 40
0.0
 40
0.0
 40
0.1111111111111111
 40
0.1111111111111111
 40
0.1111111111111111
 40
0.1111111111111111
 40
0.2222222222222222
 40
0.2222222222222222
 40
0.2222222222222222
 40
0.2222222222222222
 40
0.3333333333333333
 40
0.3333333333333333
 40
0.3333333333333333
 40
0.3333333333333333
 40
0.4444444444444444
 40
0.4444444444444444
 40
0.4444444444444444
 40
0.4444444444444444
 40
0.5555555555555556
 40
0.5555555555555556
 40
0.5555555555555556
 40
0.5555555555555556
 40
0.6666666666666666
 40
0.6666666666666666
 40
0.6666666666666666
 40
0.6666666666666666
 40
0.7777777777777778
 40
0.7777777777777778
 40
0.7777777777777778
 40
0.7777777777777778
 40
1.0
 40
1.0
 40
1.0
 40
1.0
 10
3.04435
 20
-7.67676
 30
0.0
 10
3.04435
 20
-7.67676
 30
0.0
 10
3.20098
 20
-7.67676
 30
0.0
 10
3.20098
 20
-7.67676
 30
0.0
 10
3.20098
 20
-7.67676
 30
0.0
 10
3.25291
 20
-7.67676
 30
0.0
 10
3.2896
 20
-7.66717
 30
0.0
 10
3.31147
 20
-7.64783
 30
0.0
 10
3.31147
 20
-7.64783
 30
0.0
 10
3.3332
 20
-7.6285
 30
0.0
 10
3.34407
 20
-7.60141
 30
0.0
 10
3.34407
 20
-7.56627
 30
0.0
 10
3.34407
 20
-7.56627
 30
0.0
 10
3.34407
 20
-7.54101
 30
0.0
 10
3.33772
 20
-7.51928
 30
0.0
 10
3.32488
 20
-7.50122
 30
0.0
 10
3.32488
 20
-7.50122
 30
0.0
 10
3.31204
 20
-7.48316
 30
0.0
 10
3.2951
 20
-7.47116
 30
0.0
 10
3.27422
 20
-7.46538
 30
0.0
 10
3.27422
 20
-7.46538
 30
0.0
 10
3.26067
 20
-7.46185
 30
0.0
 10
3.23569
 20
-7.46001
 30
0.0
 10
3.19943
 20
-7.46001
 30
0.0
 10
3.19943
 20
-7.46001
 30
0.0
 10
3.19943
 20
-7.46001
 30
0.0
 10
3.04435
 20
-7.46001
 30
0.0
 10
3.04435
 20
-7.46001
 30
0.0
 10
3.04435
 20
-7.46001
 30
0.0
 10
3.04435
 20
-7.46001
 30
0.0
 10
3.04435
 20
-7.67676
 30
0.0
 10
3.04435
 20
-7.67676
 30
0.0
  0
SPLINE
  5
4F
330
1F
100
AcDbEntity
  8
Layer 1
 62
   250
100
AcDbSpline
210
0.0
220
0.0
230
1.0
 70
    11
 71
     3
 72
    28
 73
    24
 74
     0
 42
0.0000000001
 43
0.0000000001
 12
1.0
 22
0.0
 32
0.0
 13
1.0
 23
0.0
 33
0.0
 40
0.0
 40
0.0
 40
0.0
 40
0.0
 40
0.1428571428571428
 40
0.1428571428571428
 40
0.1428571428571428
 40
0.1428571428571428
 40
0.2857142857142857
 40
0.2857142857142857
 40
0.2857142857142857
 40
0.2857142857142857
 40
0.4285714285714285
 40
0.4285714285714285
 40
0.4285714285714285
 40
0.4285714285714285
 40
0.5714285714285714
 40
0.5714285714285714
 40
0.5714285714285714
 40
0.5714285714285714
 40
0.7142857142857143
 40
0.7142857142857143
 40
0.7142857142857143
 40
0.7142857142857143
 40
1.0
 40
1.0
 40
1.0
 40
1.0
 10
3.52526
 20
-7.99511
 30
0.0
 10
3.52526
 20
-7.99511
 30
0.0
 10
3.52526
 20
-7.38889
 30
0.0
 10
3.52526
 20
-7.38889
 30
0.0
 10
3.52526
 20
-7.38889
 30
0.0
 10
3.52526
 20
-7.38889
 30
0.0
 10
3.60569
 20
-7.38889
 30
0.0
 10
3.60569
 20
-7.38889
 30
0.0
 10
3.60569
 20
-7.38889
 30
0.0
 10
3.60569
 20
-7.38889
 30
0.0
 10
3.60569
 20
-7.92399
 30
0.0
 10
3.60569
 20
-7.92399
 30
0.0
 10
3.60569
 20
-7.92399
 30
0.0
 10
3.60569
 20
-7.92399
 30
0.0
 10
3.90372
 20
-7.92399
 30
0.0
 10
3.90372
 20
-7.92399
 30
0.0
 10
3.90372
 20
-7.92399
 30
0.0
 10
3.90372
 20
-7.92399
 30
0.0
 10
3.90372
 20
-7.99511
 30
0.0
 10
3.90372
 20
-7.99511
 30
0.0
 10
3.90372
 20
-7.99511
 30
0.0
 10
3.90372
 20
-7.99511
 30
0.0
 10
3.52526
 20
-7.99511
 30
0.0
 10
3.52526
 20
-7.99511
 30
0.0
  0
SPLINE
  5
50
330
1F
100
AcDbEntity
  8
Layer 1
 62
   250
100
AcDbSpline
210
0.0
220
0.0
230
1.0
 70
    11
 71
     3
 72
    36
 73
    32
 74
     0
 42
0.0000000001
 43
0.0000000001
 12
1.0
 22
0.0
 32
0.0
 13
1.0
 23
0.0
 33
0.0
 40
0.0
 40
0.0
 40
0.0
 40
0.0
 40
0.1111111111111111
 40
0.1111111111111111
 40
0.1111111111111111
 40
0.1111111111111111
 40
0.2222222222222222
 40
0.2222222222222222
 40
0.2222222222222222
 40
0.2222222222222222
 40
0.3333333333333333
 40
0.3333333333333333
 40
0.3333333333333333
 40
0.3333333333333333
 40
0.4444444444444444
 40
0.4444444444444444
 40
0.4444444444444444
 40
0.4444444444444444
 40
0.5555555555555556
 40
0.5555555555555556
 40
0.5555555555555556
 40
0.5555555555555556
 40
0.6666666666666666
 40
0.6666666666666666
 40
0.6666666666666666
 40
0.6666666666666666
 40
0.7777777777777778
 40
0.7777777777777778
 40
0.7777777777777778
 40
0.7777777777777778
 40
1.0
 40
1.0
 40
1.0
 40
1.0
 10
3.93307
 20
-7.99511
 30
0.0
 10
3.93307
 20
-7.99511
 30
0.0
 10
4.16562
 20
-7.38889
 30
0.0
 10
4.16562
 20
-7.38889
 30
0.0
 10
4.16562
 20
-7.38889
 30
0.0
 10
4.16562
 20
-7.38889
 30
0.0
 10
4.25382
 20
-7.38889
 30
0.0
 10
4.25382
 20
-7.38889
 30
0.0
 10
4.25382
 20
-7.38889
 30
0.0
 10
4.25382
 20
-7.38889
 30
0.0
 10
4.50062
 20
-7.99511
 30
0.0
 10
4.50062
 20
-7.99511
 30
0.0
 10
4.50062
 20
-7.99511
 30
0.0
 10
4.50062
 20
-7.99511
 30
0.0
 10
4.40932
 20
-7.99511
 30
0.0
 10
4.40932
 20
-7.99511
 30
0.0
 10
4.40932
 20
-7.99511
 30
0.0
 10
4.40932
 20
-7.99511
 30
0.0
 10
4.33919
 20
-7.81138
 30
0.0
 10
4.33919
 20
-7.81138
 30
0.0
 10
4.33919
 20
-7.81138
 30
0.0
 10
4.33919
 20
-7.81138
 30
0.0
 10
4.08392
 20
-7.81138
 30
0.0
 10
4.08392
 20
-7.81138
 30
0.0
 10
4.08392
 20
-7.81138
 30
0.0
 10
4.08392
 20
-7.81138
 30
0.0
 10
4.01816
 20
-7.99511
 30
0.0
 10
4.01816
 20
-7.99511
 30
0.0
 10
4.01816
 20
-7.99511
 30
0.0
 10
4.01816
 20
-7.99511
 30
0.0
 10
3.93307
 20
-7.99511
 30
0.0
 10
3.93307
 20
-7.99511
 30
0.0
  0
SPLINE
  5
51
330
1F
100
AcDbEntity
  8
Layer 1
 62
   250
100
AcDbSpline
210
0.0
220
0.0
230
1.0
 70
    11
 71
     3
 72
    24
 73
    20
 74
     0
 42
0.0000000001
 43
0.0000000001
 12
1.0
 22
0.0
 32
0.0
 13
1.0
 23
0.0
 33
0.0
 40
0.0
 40
0.0
 40
0.0
 40
0.0
 40
0.1666666666666667
 40
0.1666666666666667
 40
0.1666666666666667
 40
0.1666666666666667
 40
0.3333333333333333
 40
0.3333333333333333
 40
0.3333333333333333
 40
0.3333333333333333
 40
0.5
 40
0.5
 40
0.5
 40
0.5
 40
0.6666666666666666
 40
0.6666666666666666
 40
0.6666666666666666
 40
0.6666666666666666
 40
1.0
 40
1.0
 40
1.0
 40
1.0
 10
4.10748
 20
-7.74619
 30
0.0
 10
4.10748
 20
-7.74619
 30
0.0
 10
4.31407
 20
-7.74619
 30
0.0
 10
4.31407
 20
-7.74619
 30
0.0
 10
4.31407
 20
-7.74619
 30
0.0
 10
4.31407
 20
-7.74619
 30
0.0
 10
4.25085
 20
-7.57813
 30
0.0
 10
4.25085
 20
-7.57813
 30
0.0
 10
4.25085
 20
-7.57813
 30
0.0
 10
4.2318
 20
-7.52704
 30
0.0
 10
4.21741
 20
-7.48485
 30
0.0
 10
4.20739
 20
-7.45155
 30
0.0
 10
4.20739
 20
-7.45155
 30
0.0
 10
4.19907
 20
-7.49106
 30
0.0
 10
4.18792
 20
-7.52986
 30
0.0
 10
4.17395
 20
-7.56825
 30
0.0
 10
4.17395
 20
-7.56825
 30
0.0
 10
4.17395
 20
-7.56825
 30
0.0
 10
4.10748
 20
-7.74619
 30
0.0
 10
4.10748
 20
-7.74619
 30
0.0
  0
SPLINE
  5
52
330
1F
100
AcDbEntity
  8
Layer 1
 62
   250
100
AcDbSpline
210
0.0
220
0.0
230
1.0
 70
    11
 71
     3
 72
    36
 73
    32
 74
     0
 42
0.0000000001
 43
0.0000000001
 12
1.0
 22
0.0
 32
0.0
 13
1.0
 23
0.0
 33
0.0
 40
0.0
 40
0.0
 40
0.0
 40
0.0
 40
0.1111111111111111
 40
0.1111111111111111
 40
0.1111111111111111
 40
0.1111111111111111
 40
0.2222222222222222
 40
0.2222222222222222
 40
0.2222222222222222
 40
0.2222222222222222
 40
0.3333333333333333
 40
0.3333333333333333
 40
0.3333333333333333
 40
0.3333333333333333
 40
0.4444444444444444
 40
0.4444444444444444
 40
0.4444444444444444
 40
0.4444444444444444
 40
0.5555555555555556
 40
0.5555555555555556
 40
0.5555555555555556
 40
0.5555555555555556
 40
0.6666666666666666
 40
0.6666666666666666
 40
0.6666666666666666
 40
0.6666666666666666
 40
0.7777777777777778
 40
0.7777777777777778
 40
0.7777777777777778
 40
0.7777777777777778
 40
1.0
 40
1.0
 40
1.0
 40
1.0
 10
4.65557
 20
-7.99511
 30
0.0
 10
4.65557
 20
-7.99511
 30
0.0
 10
4.65557
 20
-7.46001
 30
0.0
 10
4.65557
 20
-7.46001
 30
0.0
 10
4.65557
 20
-7.46001
 30
0.0
 10
4.65557
 20
-7.46001
 30
0.0
 10
4.45575
 20
-7.46001
 30
0.0
 10
4.45575
 20
-7.46001
 30
0.0
 10
4.45575
 20
-7.46001
 30
0.0
 10
4.45575
 20
-7.46001
 30
0.0
 10
4.45575
 20
-7.38889
 30
0.0
 10
4.45575
 20
-7.38889
 30
0.0
 10
4.45575
 20
-7.38889
 30
0.0
 10
4.45575
 20
-7.38889
 30
0.0
 10
4.93582
 20
-7.38889
 30
0.0
 10
4.93582
 20
-7.38889
 30
0.0
 10
4.93582
 20
-7.38889
 30
0.0
 10
4.93582
 20
-7.38889
 30
0.0
 10
4.93582
 20
-7.46001
 30
0.0
 10
4.93582
 20
-7.46001
 30
0.0
 10
4.93582
 20
-7.46001
 30
0.0
 10
4.93582
 20
-7.46001
 30
0.0
 10
4.736
 20
-7.46001
 30
0.0
 10
4.736
 20
-7.46001
 30
0.0
 10
4.736
 20
-7.46001
 30
0.0
 10
4.736
 20
-7.46001
 30
0.0
 10
4.736
 20
-7.99511
 30
0.0
 10
4.736
 20
-7.99511
 30
0.0
 10
4.736
 20
-7.99511
 30
0.0
 10
4.736
 20
-7.99511
 30
0.0
 10
4.65557
 20
-7.99511
 30
0.0
 10
4.65557
 20
-7.99511
 30
0.0
  0
SPLINE
  5
53
330
1F
100
AcDbEntity
  8
Layer 1
 62
   250
100
AcDbSpline
210
0.0
220
0.0
230
1.0
 70
    11
 71
     3
 72
    52
 73
    48
 74
     0
 42
0.0000000001
 43
0.0000000001
 12
1.0
 22
0.0
 32
0.0
 13
1.0
 23
0.0
 33
0.0
 40
0.0
 40
0.0
 40
0.0
 40
0.0
 40
0.0769230769230769
 40
0.0769230769230769
 40
0.0769230769230769
 40
0.0769230769230769
 40
0.1538461538461539
 40
0.1538461538461539
 40
0.1538461538461539
 40
0.1538461538461539
 40
0.2307692307692308
 40
0.2307692307692308
 40
0.2307692307692308
 40
0.2307692307692308
 40
0.3076923076923077
 40
0.3076923076923077
 40
0.3076923076923077
 40
0.3076923076923077
 40
0.3846153846153846
 40
0.3846153846153846
 40
0.3846153846153846
 40
0.3846153846153846
 40
0.4615384615384616
 40
0.4615384615384616
 40
0.4615384615384616
 40
0.4615384615384616
 40
0.5384615384615384
 40
0.5384615384615384
 40
0.5384615384615384
 40
0.5384615384615384
 40
0.6153846153846154
 40
0.6153846153846154
 40
0.6153846153846154
 40
0.6153846153846154
 40
0.6923076923076923
 40
0.6923076923076923
 40
0.6923076923076923
 40
0.6923076923076923
 40
0.7692307692307693
 40
0.7692307692307693
 40
0.7692307692307693
 40
0.7692307692307693
 40
0.8461538461538461
 40
0.8461538461538461
 40
0.8461538461538461
 40
0.8461538461538461
 40
1.0
 40
1.0
 40
1.0
 40
1.0
 10
5.02034
 20
-7.99511
 30
0.0
 10
5.02034
 20
-7.99511
 30
0.0
 10
5.02034
 20
-7.38889
 30
0.0
 10
5.02034
 20
-7.38889
 30
0.0
 10
5.02034
 20
-7.38889
 30
0.0
 10
5.02034
 20
-7.38889
 30
0.0
 10
5.45807
 20
-7.38889
 30
0.0
 10
5.45807
 20
-7.38889
 30
0.0
 10
5.45807
 20
-7.38889
 30
0.0
 10
5.45807
 20
-7.38889
 30
0.0
 10
5.45807
 20
-7.46001
 30
0.0
 10
5.45807
 20
-7.46001
 30
0.0
 10
5.45807
 20
-7.46001
 30
0.0
 10
5.45807
 20
-7.46001
 30
0.0
 10
5.10077
 20
-7.46001
 30
0.0
 10
5.10077
 20
-7.46001
 30
0.0
 10
5.10077
 20
-7.46001
 30
0.0
 10
5.10077
 20
-7.46001
 30
0.0
 10
5.10077
 20
-7.64628
 30
0.0
 10
5.10077
 20
-7.64628
 30
0.0
 10
5.10077
 20
-7.64628
 30
0.0
 10
5.10077
 20
-7.64628
 30
0.0
 10
5.43521
 20
-7.64628
 30
0.0
 10
5.43521
 20
-7.64628
 30
0.0
 10
5.43521
 20
-7.64628
 30
0.0
 10
5.43521
 20
-7.64628
 30
0.0
 10
5.43521
 20
-7.7174
 30
0.0
 10
5.43521
 20
-7.7174
 30
0.0
 10
5.43521
 20
-7.7174
 30
0.0
 10
5.43521
 20
-7.7174
 30
0.0
 10
5.10077
 20
-7.7174
 30
0.0
 10
5.10077
 20
-7.7174
 30
0.0
 10
5.10077
 20
-7.7174
 30
0.0
 10
5.10077
 20
-7.7174
 30
0.0
 10
5.10077
 20
-7.92399
 30
0.0
 10
5.10077
 20
-7.92399
 30
0.0
 10
5.10077
 20
-7.92399
 30
0.0
 10
5.10077
 20
-7.92399
 30
0.0
 10
5.47246
 20
-7.92399
 30
0.0
 10
5.47246
 20
-7.92399
 30
0.0
 10
5.47246
 20
-7.92399
 30
0.0
 10
5.47246
 20
-7.92399
 30
0.0
 10
5.47246
 20
-7.99511
 30
0.0
 10
5.47246
 20
-7.99511
 30
0.0
 10
5.47246
 20
-7.99511
 30
0.0
 10
5.47246
 20
-7.99511
 30
0.0
 10
5.02034
 20
-7.99511
 30
0.0
 10
5.02034
 20
-7.99511
 30
0.0
  0
SPLINE
  5
54
330
1F
100
AcDbEntity
  8
Layer 1
 62
     3
370
     9
100
AcDbSpline
210
0.0
220
0.0
230
1.0
 70
     8
 71
     3
 72
    32
 73
    28
 74
     0
 42
0.0000000001
 43
0.0000000001
 12
1.0
 22
0.0
 32
0.0
 13
1.0
 23
0.0
 33
0.0
 40
0.0
 40
0.0
 40
0.0
 40
0.0
 40
0.125
 40
0.125
 40
0.125
 40
0.125
 40
0.25
 40
0.25
 40
0.25
 40
0.25
 40
0.375
 40
0.375
 40
0.375
 40
0.375
 40
0.5
 40
0.5
 40
0.5
 40
0.5
 40
0.625
 40
0.625
 40
0.625
 40
0.625
 40
0.75
 40
0.75
 40
0.75
 40
0.75
 40
1.0
 40
1.0
 40
1.0
 40
1.0
 10
3.34418
 20
4.97983
 30
0.0
 10
3.34418
 20
4.97983
 30
0.0
 10
-9.13489
 20
4.97983
 30
0.0
 10
-9.13489
 20
4.97983
 30
0.0
 10
-9.13489
 20
4.97983
 30
0.0
 10
-9.20408
 20
4.97979
 30
0.0
 10
-9.27041
 20
4.95226
 30
0.0
 10
-9.3193
 20
4.90331
 30
0.0
 10
-9.3193
 20
4.90331
 30
0.0
 10
-9.3682
 20
4.85435
 30
0.0
 10
-9.39564
 20
4.78831
 30
0.0
 10
-9.3956
 20
4.71912
 30
0.0
 10
-9.3956
 20
4.71912
 30
0.0
 10
-9.3956
 20
4.71912
 30
0.0
 10
-9.3956
 20
-5.35466
 30
0.0
 10
-9.3956
 20
-5.35466
 30
0.0
 10
-9.3956
 20
-5.35466
 30
0.0
 10
-9.39555
 20
-5.42385
 30
0.0
 10
-9.36803
 20
-5.49018
 30
0.0
 10
-9.31907
 20
-5.53908
 30
0.0
 10
-9.31907
 20
-5.53908
 30
0.0
 10
-9.27012
 20
-5.58797
 30
0.0
 10
-9.20408
 20
-5.61541
 30
0.0
 10
-9.13489
 20
-5.61537
 30
0.0
 10
-9.13489
 20
-5.61537
 30
0.0
 10
-9.13489
 20
-5.61537
 30
0.0
 10
3.34418
 20
-5.61537
 30
0.0
 10
3.34418
 20
-5.61537
 30
0.0
  0
SPLINE
  5
55
330
1F
100
AcDbEntity
  8
Layer 1
 62
     3
370
     9
100
AcDbSpline
210
0.0
220
0.0
230
1.0
 70
     8
 71
     3
 72
    32
 73
    28
 74
     0
 42
0.0000000001
 43
0.0000000001
 12
1.0
 22
0.0
 32
0.0
 13
1.0
 23
0.0
 33
0.0
 40
0.0
 40
0.0
 40
0.0
 40
0.0
 40
0.125
 40
0.125
 40
0.125
 40
0.125
 40
0.25
 40
0.25
 40
0.25
 40
0.25
 40
0.375
 40
0.375
 40
0.375
 40
0.375
 40
0.5
 40
0.5
 40
0.5
 40
0.5
 40
0.625
 40
0.625
 40
0.625
 40
0.625
 40
0.75
 40
0.75
 40
0.75
 40
0.75
 40
1.0
 40
1.0
 40
1.0
 40
1.0
 10
3.34418
 20
4.97983
 30
0.0
 10
3.34418
 20
4.97983
 30
0.0
 10
10.2097
 20
4.97983
 30
0.0
 10
10.2097
 20
4.97983
 30
0.0
 10
10.2097
 20
4.97983
 30
0.0
 10
10.27879
 20
4.97988
 30
0.0
 10
10.34508
 20
4.95247
 30
0.0
 10
10.39397
 20
4.90364
 30
0.0
 10
10.39397
 20
4.90364
 30
0.0
 10
10.44287
 20
4.85481
 30
0.0
 10
10.47036
 20
4.78822
 30
0.0
 10
10.4704
 20
4.71912
 30
0.0
 10
10.4704
 20
4.71912
 30
0.0
 10
10.4704
 20
4.71912
 30
0.0
 10
10.4704
 20
-5.35466
 30
0.0
 10
10.4704
 20
-5.35466
 30
0.0
 10
10.4704
 20
-5.35466
 30
0.0
 10
10.47045
 20
-5.42376
 30
0.0
 10
10.44304
 20
-5.49005
 30
0.0
 10
10.39421
 20
-5.53894
 30
0.0
 10
10.39421
 20
-5.53894
 30
0.0
 10
10.34538
 20
-5.58783
 30
0.0
 10
10.27879
 20
-5.61532
 30
0.0
 10
10.2097
 20
-5.61537
 30
0.0
 10
10.2097
 20
-5.61537
 30
0.0
 10
10.2097
 20
-5.61537
 30
0.0
 10
3.34418
 20
-5.61537
 30
0.0
 10
3.34418
 20
-5.61537
 30
0.0
  0
SPLINE
  5
57
330
1F
100
AcDbEntity
  8
layer 2
 62
     1
370
     0
100
AcDbSpline
210
0.0
220
0.0
230
1.0
 70
    24
 71
     3
 72
     8
 73
     4
 74
     0
 42
0.0000000001
 43
0.0000000001
 12
1.0
 22
0.0
 32
0.0
 13
1.0
 23
0.0
 33
0.0
 40
0.0
 40
0.0
 40
0.0
 40
0.0
 40
1.0
 40
1.0
 40
1.0
 40
1.0
 10
-9.3956
 20
4.84948
 30
0.0
 10
-9.3956
 20
4.84948
 30
0.0
 10
-9.3956
 20
6.20345
 30
0.0
 10
-9.3956
 20
6.20345
 30
0.0
  0
SPLINE
  5
58
330
1F
100
AcDbEntity
  8
layer 2
 62
     1
370
     0
100
AcDbSpline
210
0.0
220
0.0
230
1.0
 70
    24
 71
     3
 72
     8
 73
     4
 74
     0
 42
0.0000000001
 43
0.0000000001
 12
1.0
 22
0.0
 32
0.0
 13
1.0
 23
0.0
 33
0.0
 40
0.0
 40
0.0
 40
0.0
 40
0.0
 40
1.0
 40
1.0
 40
1.0
 40
1.0
 10
10.4704
 20
4.84948
 30
0.0
 10
10.4704
 20
4.84948
 30
0.0
 10
10.4704
 20
6.20345
 30
0.0
 10
10.4704
 20
6.20345
 30
0.0
  0
SPLINE
  5
59
330
1F
100
AcDbEntity
  8
layer 2
 62
     1
370
     0
100
AcDbSpline
210
0.0
220
0.0
230
1.0
 70
    24
 71
     3
 72
     8
 73
     4
 74
     0
 42
0.0000000001
 43
0.0000000001
 12
1.0
 22
0.0
 32
0.0
 13
1.0
 23
0.0
 33
0.0
 40
0.0
 40
0.0
 40
0.0
 40
0.0
 40
1.0
 40
1.0
 40
1.0
 40
1.0
 10
-8.87418
 20
5.94274
 30
0.0
 10
-8.87418
 20
5.94274
 30
0.0
 10
9.94899
 20
5.94274
 30
0.0
 10
9.94899
 20
5.94274
 30
0.0
  0
SPLINE
  5
5A
330
1F
100
AcDbEntity
  8
layer 2
 62
     1
100
AcDbSpline
210
0.0
220
0.0
230
1.0
 70
    27
 71
     3
 72
    12
 73
     8
 74
     0
 42
0.0000000001
 43
0.0000000001
 12
1.0
 22
0.0
 32
0.0
 13
1.0
 23
0.0
 33
0.0
 40
0.0
 40
0.0
 40
0.0
 40
0.0
 40
0.3333333333333333
 40
0.3333333333333333
 40
0.3333333333333333
 40
0.3333333333333333
 40
1.0
 40
1.0
 40
1.0
 40
1.0
 10
-8.87418
 20
6.02965
 30
0.0
 10
-8.87418
 20
6.02965
 30
0.0
 10
-9.3956
 20
5.94274
 30
0.0
 10
-9.3956
 20
5.94274
 30
0.0
 10
-9.3956
 20
5.94274
 30
0.0
 10
-9.3956
 20
5.94274
 30
0.0
 10
-8.87418
 20
6.02965
 30
0.0
 10
-8.87418
 20
6.02965
 30
0.0
  0
SPLINE
  5
5B
330
1F
100
AcDbEntity
  8
layer 2
 62
     1
100
AcDbSpline
210
0.0
220
0.0
230
1.0
 70
     8
 71
     3
 72
    12
 73
     8
 74
     0
 42
0.0000000001
 43
0.0000000001
 12
1.0
 22
0.0
 32
0.0
 13
1.0
 23
0.0
 33
0.0
 40
0.0
 40
0.0
 40
0.0
 40
0.0
 40
0.3333333333333333
 40
0.3333333333333333
 40
0.3333333333333333
 40
0.3333333333333333
 40
1.0
 40
1.0
 40
1.0
 40
1.0
 10
-9.3956
 20
5.94274
 30
0.0
 10
-9.3956
 20
5.94274
 30
0.0
 10
-8.87418
 20
5.85584
 30
0.0
 10
-8.87418
 20
5.85584
 30
0.0
 10
-8.87418
 20
5.85584
 30
0.0
 10
-8.87418
 20
5.85584
 30
0.0
 10
-8.87418
 20
6.02965
 30
0.0
 10
-8.87418
 20
6.02965
 30
0.0
  0
SPLINE
  5
5C
330
1F
100
AcDbEntity
  8
layer 2
 62
     1
370
     9
100
AcDbSpline
210
0.0
220
0.0
230
1.0
 70
    24
 71
     3
 72
     8
 73
     4
 74
     0
 42
0.0000000001
 43
0.0000000001
 12
1.0
 22
0.0
 32
0.0
 13
1.0
 23
0.0
 33
0.0
 40
0.0
 40
0.0
 40
0.0
 40
0.0
 40
1.0
 40
1.0
 40
1.0
 40
1.0
 10
-8.87418
 20
6.02965
 30
0.0
 10
-8.87418
 20
6.02965
 30
0.0
 10
-9.3956
 20
5.94274
 30
0.0
 10
-9.3956
 20
5.94274
 30
0.0
  0
SPLINE
  5
5D
330
1F
100
AcDbEntity
  8
layer 2
 62
     1
370
     9
100
AcDbSpline
210
0.0
220
0.0
230
1.0
 70
     8
 71
     3
 72
    12
 73
     8
 74
     0
 42
0.0000000001
 43
0.0000000001
 12
1.0
 22
0.0
 32
0.0
 13
1.0
 23
0.0
 33
0.0
 40
0.0
 40
0.0
 40
0.0
 40
0.0
 40
0.3333333333333333
 40
0.3333333333333333
 40
0.3333333333333333
 40
0.3333333333333333
 40
1.0
 40
1.0
 40
1.0
 40
1.0
 10
-9.3956
 20
5.94274
 30
0.0
 10
-9.3956
 20
5.94274
 30
0.0
 10
-8.87418
 20
5.85584
 30
0.0
 10
-8.87418
 20
5.85584
 30
0.0
 10
-8.87418
 20
5.85584
 30
0.0
 10
-8.87418
 20
5.85584
 30
0.0
 10
-8.87418
 20
6.02965
 30
0.0
 10
-8.87418
 20
6.02965
 30
0.0
  0
SPLINE
  5
5E
330
1F
100
AcDbEntity
  8
layer 2
 62
     1
100
AcDbSpline
210
0.0
220
0.0
230
1.0
 70
    27
 71
     3
 72
    12
 73
     8
 74
     0
 42
0.0000000001
 43
0.0000000001
 12
1.0
 22
0.0
 32
0.0
 13
1.0
 23
0.0
 33
0.0
 40
0.0
 40
0.0
 40
0.0
 40
0.0
 40
0.3333333333333333
 40
0.3333333333333333
 40
0.3333333333333333
 40
0.3333333333333333
 40
1.0
 40
1.0
 40
1.0
 40
1.0
 10
9.94899
 20
6.02965
 30
0.0
 10
9.94899
 20
6.02965
 30
0.0
 10
10.4704
 20
5.94274
 30
0.0
 10
10.4704
 20
5.94274
 30
0.0
 10
10.4704
 20
5.94274
 30
0.0
 10
10.4704
 20
5.94274
 30
0.0
 10
9.94899
 20
6.02965
 30
0.0
 10
9.94899
 20
6.02965
 30
0.0
  0
SPLINE
  5
5F
330
1F
100
AcDbEntity
  8
layer 2
 62
     1
100
AcDbSpline
210
0.0
220
0.0
230
1.0
 70
     8
 71
     3
 72
    12
 73
     8
 74
     0
 42
0.0000000001
 43
0.0000000001
 12
1.0
 22
0.0
 32
0.0
 13
1.0
 23
0.0
 33
0.0
 40
0.0
 40
0.0
 40
0.0
 40
0.0
 40
0.3333333333333333
 40
0.3333333333333333
 40
0.3333333333333333
 40
0.3333333333333333
 40
1.0
 40
1.0
 40
1.0
 40
1.0
 10
10.4704
 20
5.94274
 30
0.0
 10
10.4704
 20
5.94274
 30
0.0
 10
9.94899
 20
5.85584
 30
0.0
 10
9.94899
 20
5.85584
 30
0.0
 10
9.94899
 20
5.85584
 30
0.0
 10
9.94899
 20
5.85584
 30
0.0
 10
9.94899
 20
6.02965
 30
0.0
 10
9.94899
 20
6.02965
 30
0.0
  0
SPLINE
  5
60
330
1F
100
AcDbEntity
  8
layer 2
 62
     1
370
     9
100
AcDbSpline
210
0.0
220
0.0
230
1.0
 70
    24
 71
     3
 72
     8
 73
     4
 74
     0
 42
0.0000000001
 43
0.0000000001
 12
1.0
 22
0.0
 32
0.0
 13
1.0
 23
0.0
 33
0.0
 40
0.0
 40
0.0
 40
0.0
 40
0.0
 40
1.0
 40
1.0
 40
1.0
 40
1.0
 10
9.94899
 20
6.02965
 30
0.0
 10
9.94899
 20
6.02965
 30
0.0
 10
10.4704
 20
5.94274
 30
0.0
 10
10.4704
 20
5.94274
 30
0.0
  0
SPLINE
  5
61
330
1F
100
AcDbEntity
  8
layer 2
 62
     1
370
     9
100
AcDbSpline
210
0.0
220
0.0
230
1.0
 70
     8
 71
     3
 72
    12
 73
     8
 74
     0
 42
0.0000000001
 43
0.0000000001
 12
1.0
 22
0.0
 32
0.0
 13
1.0
 23
0.0
 33
0.0
 40
0.0
 40
0.0
 40
0.0
 40
0.0
 40
0.3333333333333333
 40
0.3333333333333333
 40
0.3333333333333333
 40
0.3333333333333333
 40
1.0
 40
1.0
 40
1.0
 40
1.0
 10
10.4704
 20
5.94274
 30
0.0
 10
10.4704
 20
5.94274
 30
0.0
 10
9.94899
 20
5.85584
 30
0.0
 10
9.94899
 20
5.85584
 30
0.0
 10
9.94899
 20
5.85584
 30
0.0
 10
9.94899
 20
5.85584
 30
0.0
 10
9.94899
 20
6.02965
 30
0.0
 10
9.94899
 20
6.02965
 30
0.0
  0
SPLINE
  5
62
330
1F
100
AcDbEntity
  8
layer 2
 62
     1
100
AcDbSpline
210
0.0
220
0.0
230
1.0
 70
    11
 71
     3
 72
   124
 73
   120
 74
     0
 42
0.0000000001
 43
0.0000000001
 12
1.0
 22
0.0
 32
0.0
 13
1.0
 23
0.0
 33
0.0
 40
0.0
 40
0.0
 40
0.0
 40
0.0
 40
0.032258064516129
 40
0.032258064516129
 40
0.032258064516129
 40
0.032258064516129
 40
0.0645161290322581
 40
0.0645161290322581
 40
0.0645161290322581
 40
0.0645161290322581
 40
0.0967741935483871
 40
0.0967741935483871
 40
0.0967741935483871
 40
0.0967741935483871
 40
0.1290322580645161
 40
0.1290322580645161
 40
0.1290322580645161
 40
0.1290322580645161
 40
0.1612903225806452
 40
0.1612903225806452
 40
0.1612903225806452
 40
0.1612903225806452
 40
0.1935483870967742
 40
0.1935483870967742
 40
0.1935483870967742
 40
0.1935483870967742
 40
0.2258064516129032
 40
0.2258064516129032
 40
0.2258064516129032
 40
0.2258064516129032
 40
0.2580645161290323
 40
0.2580645161290323
 40
0.2580645161290323
 40
0.2580645161290323
 40
0.2903225806451613
 40
0.2903225806451613
 40
0.2903225806451613
 40
0.2903225806451613
 40
0.3225806451612903
 40
0.3225806451612903
 40
0.3225806451612903
 40
0.3225806451612903
 40
0.3548387096774194
 40
0.3548387096774194
 40
0.3548387096774194
 40
0.3548387096774194
 40
0.3870967741935484
 40
0.3870967741935484
 40
0.3870967741935484
 40
0.3870967741935484
 40
0.4193548387096774
 40
0.4193548387096774
 40
0.4193548387096774
 40
0.4193548387096774
 40
0.4516129032258064
 40
0.4516129032258064
 40
0.4516129032258064
 40
0.4516129032258064
 40
0.4838709677419355
 40
0.4838709677419355
 40
0.4838709677419355
 40
0.4838709677419355
 40
0.5161290322580645
 40
0.5161290322580645
 40
0.5161290322580645
 40
0.5161290322580645
 40
0.5483870967741935
 40
0.5483870967741935
 40
0.5483870967741935
 40
0.5483870967741935
 40
0.5806451612903226
 40
0.5806451612903226
 40
0.5806451612903226
 40
0.5806451612903226
 40
0.6129032258064516
 40
0.6129032258064516
 40
0.6129032258064516
 40
0.6129032258064516
 40
0.6451612903225806
 40
0.6451612903225806
 40
0.6451612903225806
 40
0.6451612903225806
 40
0.6774193548387096
 40
0.6774193548387096
 40
0.6774193548387096
 40
0.6774193548387096
 40
0.7096774193548387
 40
0.7096774193548387
 40
0.7096774193548387
 40
0.7096774193548387
 40
0.7419354838709677
 40
0.7419354838709677
 40
0.7419354838709677
 40
0.7419354838709677
 40
0.7741935483870968
 40
0.7741935483870968
 40
0.7741935483870968
 40
0.7741935483870968
 40
0.8064516129032258
 40
0.8064516129032258
 40
0.8064516129032258
 40
0.8064516129032258
 40
0.8387096774193549
 40
0.8387096774193549
 40
0.8387096774193549
 40
0.8387096774193549
 40
0.8709677419354839
 40
0.8709677419354839
 40
0.8709677419354839
 40
0.8709677419354839
 40
0.9032258064516129
 40
0.9032258064516129
 40
0.9032258064516129
 40
0.9032258064516129
 40
0.9354838709677419
 40
0.9354838709677419
 40
0.9354838709677419
 40
0.9354838709677419
 40
1.0
 40
1.0
 40
1.0
 40
1.0
 10
0.20561
 20
6.25679
 30
0.0
 10
0.20561
 20
6.25679
 30
0.0
 10
0.24782
 20
6.26255
 30
0.0
 10
0.24782
 20
6.26255
 30
0.0
 10
0.24782
 20
6.26255
 30
0.0
 10
0.2527
 20
6.23857
 30
0.0
 10
0.26085
 20
6.2213
 30
0.0
 10
0.27244
 20
6.21074
 30
0.0
 10
0.27244
 20
6.21074
 30
0.0
 10
0.28404
 20
6.20019
 30
0.0
 10
0.29827
 20
6.19491
 30
0.0
 10
0.31514
 20
6.19491
 30
0.0
 10
0.31514
 20
6.19491
 30
0.0
 10
0.33513
 20
6.19491
 30
0.0
 10
0.352
 20
6.20179
 30
0.0
 10
0.36559
 20
6.21554
 30
0.0
 10
0.36559
 20
6.21554
 30
0.0
 10
0.37918
 20
6.22929
 30
0.0
 10
0.38597
 20
6.24632
 30
0.0
 10
0.38597
 20
6.26663
 30
0.0
 10
0.38597
 20
6.26663
 30
0.0
 10
0.38597
 20
6.28597
 30
0.0
 10
0.37966
 20
6.30197
 30
0.0
 10
0.36695
 20
6.3146
 30
0.0
 10
0.36695
 20
6.3146
 30
0.0
 10
0.35431
 20
6.32715
 30
0.0
 10
0.33824
 20
6.33347
 30
0.0
 10
0.31866
 20
6.33347
 30
0.0
 10
0.31866
 20
6.33347
 30
0.0
 10
0.31066
 20
6.33347
 30
0.0
 10
0.30075
 20
6.33187
 30
0.0
 10
0.28883
 20
6.32875
 30
0.0
 10
0.28883
 20
6.32875
 30
0.0
 10
0.28883
 20
6.32875
 30
0.0
 10
0.29355
 20
6.36569
 30
0.0
 10
0.29355
 20
6.36569
 30
0.0
 10
0.29355
 20
6.36569
 30
0.0
 10
0.29635
 20
6.36537
 30
0.0
 10
0.29867
 20
6.36521
 30
0.0
 10
0.30035
 20
6.36521
 30
0.0
 10
0.30035
 20
6.36521
 30
0.0
 10
0.31842
 20
6.36521
 30
0.0
 10
0.33457
 20
6.36992
 30
0.0
 10
0.34904
 20
6.37928
 30
0.0
 10
0.34904
 20
6.37928
 30
0.0
 10
0.36343
 20
6.38863
 30
0.0
 10
0.37062
 20
6.40302
 30
0.0
 10
0.37062
 20
6.42245
 30
0.0
 10
0.37062
 20
6.42245
 30
0.0
 10
0.37062
 20
6.43788
 30
0.0
 10
0.36535
 20
6.45068
 30
0.0
 10
0.35487
 20
6.46083
 30
0.0
 10
0.35487
 20
6.46083
 30
0.0
 10
0.3444
 20
6.47098
 30
0.0
 10
0.33089
 20
6.47602
 30
0.0
 10
0.31434
 20
6.47602
 30
0.0
 10
0.31434
 20
6.47602
 30
0.0
 10
0.29787
 20
6.47602
 30
0.0
 10
0.2842
 20
6.47082
 30
0.0
 10
0.27324
 20
6.46043
 30
0.0
 10
0.27324
 20
6.46043
 30
0.0
 10
0.26229
 20
6.45003
 30
0.0
 10
0.25525
 20
6.43444
 30
0.0
 10
0.25214
 20
6.41366
 30
0.0
 10
0.25214
 20
6.41366
 30
0.0
 10
0.25214
 20
6.41366
 30
0.0
 10
0.20992
 20
6.42133
 30
0.0
 10
0.20992
 20
6.42133
 30
0.0
 10
0.20992
 20
6.42133
 30
0.0
 10
0.21512
 20
6.44963
 30
0.0
 10
0.22679
 20
6.47162
 30
0.0
 10
0.2451
 20
6.48721
 30
0.0
 10
0.2451
 20
6.48721
 30
0.0
 10
0.26333
 20
6.5028
 30
0.0
 10
0.28611
 20
6.51056
 30
0.0
 10
0.3133
 20
6.51056
 30
0.0
 10
0.3133
 20
6.51056
 30
0.0
 10
0.33201
 20
6.51056
 30
0.0
 10
0.34928
 20
6.50656
 30
0.0
 10
0.36503
 20
6.49848
 30
0.0
 10
0.36503
 20
6.49848
 30
0.0
 10
0.38086
 20
6.49049
 30
0.0
 10
0.39293
 20
6.47954
 30
0.0
 10
0.40124
 20
6.4657
 30
0.0
 10
0.40124
 20
6.4657
 30
0.0
 10
0.40964
 20
6.45179
 30
0.0
 10
0.4138
 20
6.43708
 30
0.0
 10
0.4138
 20
6.42149
 30
0.0
 10
0.4138
 20
6.42149
 30
0.0
 10
0.4138
 20
6.4067
 30
0.0
 10
0.4098
 20
6.39327
 30
0.0
 10
0.40189
 20
6.38112
 30
0.0
 10
0.40189
 20
6.38112
 30
0.0
 10
0.39389
 20
6.36896
 30
0.0
 10
0.38206
 20
6.35929
 30
0.0
 10
0.36647
 20
6.3521
 30
0.0
 10
0.36647
 20
6.3521
 30
0.0
 10
0.38677
 20
6.34746
 30
0.0
 10
0.40252
 20
6.3377
 30
0.0
 10
0.4138
 20
6.32291
 30
0.0
 10
0.4138
 20
6.32291
 30
0.0
 10
0.42499
 20
6.3082
 30
0.0
 10
0.43059
 20
6.28965
 30
0.0
 10
0.43059
 20
6.26751
 30
0.0
 10
0.43059
 20
6.26751
 30
0.0
 10
0.43059
 20
6.23752
 30
0.0
 10
0.41963
 20
6.21202
 30
0.0
 10
0.39781
 20
6.19116
 30
0.0
 10
0.39781
 20
6.19116
 30
0.0
 10
0.3759
 20
6.17029
 30
0.0
 10
0.34824
 20
6.15989
 30
0.0
 10
0.31482
 20
6.15989
 30
0.0
 10
0.31482
 20
6.15989
 30
0.0
 10
0.28468
 20
6.15989
 30
0.0
 10
0.25965
 20
6.16893
 30
0.0
 10
0.23975
 20
6.18692
 30
0.0
 10
0.23975
 20
6.18692
 30
0.0
 10
0.21976
 20
6.2049
 30
0.0
 10
0.2084
 20
6.22817
 30
0.0
 10
0.20561
 20
6.25679
 30
0.0
  0
SPLINE
  5
63
330
1F
100
AcDbEntity
  8
layer 2
 62
     1
100
AcDbSpline
210
0.0
220
0.0
230
1.0
 70
    11
 71
     3
 72
    52
 73
    48
 74
     0
 42
0.0000000001
 43
0.0000000001
 12
1.0
 22
0.0
 32
0.0
 13
1.0
 23
0.0
 33
0.0
 40
0.0
 40
0.0
 40
0.0
 40
0.0
 40
0.0769230769230769
 40
0.0769230769230769
 40
0.0769230769230769
 40
0.0769230769230769
 40
0.1538461538461539
 40
0.1538461538461539
 40
0.1538461538461539
 40
0.1538461538461539
 40
0.2307692307692308
 40
0.2307692307692308
 40
0.2307692307692308
 40
0.2307692307692308
 40
0.3076923076923077
 40
0.3076923076923077
 40
0.3076923076923077
 40
0.3076923076923077
 40
0.3846153846153846
 40
0.3846153846153846
 40
0.3846153846153846
 40
0.3846153846153846
 40
0.4615384615384616
 40
0.4615384615384616
 40
0.4615384615384616
 40
0.4615384615384616
 40
0.5384615384615384
 40
0.5384615384615384
 40
0.5384615384615384
 40
0.5384615384615384
 40
0.6153846153846154
 40
0.6153846153846154
 40
0.6153846153846154
 40
0.6153846153846154
 40
0.6923076923076923
 40
0.6923076923076923
 40
0.6923076923076923
 40
0.6923076923076923
 40
0.7692307692307693
 40
0.7692307692307693
 40
0.7692307692307693
 40
0.7692307692307693
 40
0.8461538461538461
 40
0.8461538461538461
 40
0.8461538461538461
 40
0.8461538461538461
 40
1.0
 40
1.0
 40
1.0
 40
1.0
 10
0.4724
 20
6.33514
 30
0.0
 10
0.4724
 20
6.37568
 30
0.0
 10
0.47656
 20
6.40846
 30
0.0
 10
0.48487
 20
6.43324
 30
0.0
 10
0.48487
 20
6.43324
 30
0.0
 10
0.49327
 20
6.45811
 30
0.0
 10
0.50566
 20
6.47722
 30
0.0
 10
0.52213
 20
6.49057
 30
0.0
 10
0.52213
 20
6.49057
 30
0.0
 10
0.53852
 20
6.50392
 30
0.0
 10
0.55923
 20
6.51056
 30
0.0
 10
0.58417
 20
6.51056
 30
0.0
 10
0.58417
 20
6.51056
 30
0.0
 10
0.60256
 20
6.51056
 30
0.0
 10
0.61871
 20
6.50688
 30
0.0
 10
0.6327
 20
6.49944
 30
0.0
 10
0.6327
 20
6.49944
 30
0.0
 10
0.64662
 20
6.49201
 30
0.0
 10
0.65813
 20
6.4813
 30
0.0
 10
0.66708
 20
6.4673
 30
0.0
 10
0.66708
 20
6.4673
 30
0.0
 10
0.67604
 20
6.45339
 30
0.0
 10
0.68307
 20
6.43636
 30
0.0
 10
0.68819
 20
6.4163
 30
0.0
 10
0.68819
 20
6.4163
 30
0.0
 10
0.69339
 20
6.39623
 30
0.0
 10
0.69594
 20
6.36913
 30
0.0
 10
0.69594
 20
6.33514
 30
0.0
 10
0.69594
 20
6.33514
 30
0.0
 10
0.69594
 20
6.29485
 30
0.0
 10
0.69179
 20
6.26223
 30
0.0
 10
0.68355
 20
6.23745
 30
0.0
 10
0.68355
 20
6.23745
 30
0.0
 10
0.67532
 20
6.21258
 30
0.0
 10
0.66293
 20
6.19347
 30
0.0
 10
0.64645
 20
6.18004
 30
0.0
 10
0.64645
 20
6.18004
 30
0.0
 10
0.63007
 20
6.16661
 30
0.0
 10
0.60928
 20
6.15989
 30
0.0
 10
0.58417
 20
6.15989
 30
0.0
 10
0.58417
 20
6.15989
 30
0.0
 10
0.55115
 20
6.15989
 30
0.0
 10
0.52517
 20
6.17165
 30
0.0
 10
0.5063
 20
6.19523
 30
0.0
 10
0.5063
 20
6.19523
 30
0.0
 10
0.48367
 20
6.22401
 30
0.0
 10
0.4724
 20
6.27062
 30
0.0
 10
0.4724
 20
6.33514
 30
0.0
  0
SPLINE
  5
64
330
1F
100
AcDbEntity
  8
layer 2
 62
     1
100
AcDbSpline
210
0.0
220
0.0
230
1.0
 70
    11
 71
     3
 72
    36
 73
    32
 74
     0
 42
0.0000000001
 43
0.0000000001
 12
1.0
 22
0.0
 32
0.0
 13
1.0
 23
0.0
 33
0.0
 40
0.0
 40
0.0
 40
0.0
 40
0.0
 40
0.1111111111111111
 40
0.1111111111111111
 40
0.1111111111111111
 40
0.1111111111111111
 40
0.2222222222222222
 40
0.2222222222222222
 40
0.2222222222222222
 40
0.2222222222222222
 40
0.3333333333333333
 40
0.3333333333333333
 40
0.3333333333333333
 40
0.3333333333333333
 40
0.4444444444444444
 40
0.4444444444444444
 40
0.4444444444444444
 40
0.4444444444444444
 40
0.5555555555555556
 40
0.5555555555555556
 40
0.5555555555555556
 40
0.5555555555555556
 40
0.6666666666666666
 40
0.6666666666666666
 40
0.6666666666666666
 40
0.6666666666666666
 40
0.7777777777777778
 40
0.7777777777777778
 40
0.7777777777777778
 40
0.7777777777777778
 40
1.0
 40
1.0
 40
1.0
 40
1.0
 10
0.51558
 20
6.33499
 30
0.0
 10
0.51558
 20
6.27846
 30
0.0
 10
0.52213
 20
6.24088
 30
0.0
 10
0.53532
 20
6.22234
 30
0.0
 10
0.53532
 20
6.22234
 30
0.0
 10
0.54852
 20
6.20371
 30
0.0
 10
0.56483
 20
6.19443
 30
0.0
 10
0.58417
 20
6.19443
 30
0.0
 10
0.58417
 20
6.19443
 30
0.0
 10
0.60352
 20
6.19443
 30
0.0
 10
0.61983
 20
6.20379
 30
0.0
 10
0.63302
 20
6.22241
 30
0.0
 10
0.63302
 20
6.22241
 30
0.0
 10
0.64621
 20
6.24112
 30
0.0
 10
0.65277
 20
6.27862
 30
0.0
 10
0.65277
 20
6.33499
 30
0.0
 10
0.65277
 20
6.33499
 30
0.0
 10
0.65277
 20
6.39151
 30
0.0
 10
0.64621
 20
6.42909
 30
0.0
 10
0.63302
 20
6.44764
 30
0.0
 10
0.63302
 20
6.44764
 30
0.0
 10
0.61991
 20
6.46627
 30
0.0
 10
0.60344
 20
6.47554
 30
0.0
 10
0.58369
 20
6.47554
 30
0.0
 10
0.58369
 20
6.47554
 30
0.0
 10
0.56435
 20
6.47554
 30
0.0
 10
0.54883
 20
6.4673
 30
0.0
 10
0.53724
 20
6.45091
 30
0.0
 10
0.53724
 20
6.45091
 30
0.0
 10
0.52277
 20
6.43005
 30
0.0
 10
0.51558
 20
6.39135
 30
0.0
 10
0.51558
 20
6.33499
 30
0.0
  0
SPLINE
  5
65
330
1F
100
AcDbEntity
  8
layer 2
 62
     1
100
AcDbSpline
210
0.0
220
0.0
230
1.0
 70
    11
 71
     3
 72
    28
 73
    24
 74
     0
 42
0.0000000001
 43
0.0000000001
 12
1.0
 22
0.0
 32
0.0
 13
1.0
 23
0.0
 33
0.0
 40
0.0
 40
0.0
 40
0.0
 40
0.0
 40
0.1428571428571428
 40
0.1428571428571428
 40
0.1428571428571428
 40
0.1428571428571428
 40
0.2857142857142857
 40
0.2857142857142857
 40
0.2857142857142857
 40
0.2857142857142857
 40
0.4285714285714285
 40
0.4285714285714285
 40
0.4285714285714285
 40
0.4285714285714285
 40
0.5714285714285714
 40
0.5714285714285714
 40
0.5714285714285714
 40
0.5714285714285714
 40
0.7142857142857143
 40
0.7142857142857143
 40
0.7142857142857143
 40
0.7142857142857143
 40
1.0
 40
1.0
 40
1.0
 40
1.0
 10
0.75279
 20
6.38775
 30
0.0
 10
0.75279
 20
6.38775
 30
0.0
 10
0.74112
 20
6.45299
 30
0.0
 10
0.74112
 20
6.45299
 30
0.0
 10
0.74112
 20
6.45299
 30
0.0
 10
0.74112
 20
6.45299
 30
0.0
 10
0.74112
 20
6.50912
 30
0.0
 10
0.74112
 20
6.50912
 30
0.0
 10
0.74112
 20
6.50912
 30
0.0
 10
0.74112
 20
6.50912
 30
0.0
 10
0.78909
 20
6.50912
 30
0.0
 10
0.78909
 20
6.50912
 30
0.0
 10
0.78909
 20
6.50912
 30
0.0
 10
0.78909
 20
6.50912
 30
0.0
 10
0.78909
 20
6.45299
 30
0.0
 10
0.78909
 20
6.45299
 30
0.0
 10
0.78909
 20
6.45299
 30
0.0
 10
0.78909
 20
6.45299
 30
0.0
 10
0.77853
 20
6.38775
 30
0.0
 10
0.77853
 20
6.38775
 30
0.0
 10
0.77853
 20
6.38775
 30
0.0
 10
0.77853
 20
6.38775
 30
0.0
 10
0.75279
 20
6.38775
 30
0.0
 10
0.75279
 20
6.38775
 30
0.0
  0
SPLINE
  5
66
330
1F
100
AcDbEntity
  8
layer 2
 62
     1
100
AcDbSpline
210
0.0
220
0.0
230
1.0
 70
    11
 71
     3
 72
    28
 73
    24
 74
     0
 42
0.0000000001
 43
0.0000000001
 12
1.0
 22
0.0
 32
0.0
 13
1.0
 23
0.0
 33
0.0
 40
0.0
 40
0.0
 40
0.0
 40
0.0
 40
0.1428571428571428
 40
0.1428571428571428
 40
0.1428571428571428
 40
0.1428571428571428
 40
0.2857142857142857
 40
0.2857142857142857
 40
0.2857142857142857
 40
0.2857142857142857
 40
0.4285714285714285
 40
0.4285714285714285
 40
0.4285714285714285
 40
0.4285714285714285
 40
0.5714285714285714
 40
0.5714285714285714
 40
0.5714285714285714
 40
0.5714285714285714
 40
0.7142857142857143
 40
0.7142857142857143
 40
0.7142857142857143
 40
0.7142857142857143
 40
1.0
 40
1.0
 40
1.0
 40
1.0
 10
0.83026
 20
6.38775
 30
0.0
 10
0.83026
 20
6.38775
 30
0.0
 10
0.81883
 20
6.45299
 30
0.0
 10
0.81883
 20
6.45299
 30
0.0
 10
0.81883
 20
6.45299
 30
0.0
 10
0.81883
 20
6.45299
 30
0.0
 10
0.81883
 20
6.50912
 30
0.0
 10
0.81883
 20
6.50912
 30
0.0
 10
0.81883
 20
6.50912
 30
0.0
 10
0.81883
 20
6.50912
 30
0.0
 10
0.8668
 20
6.50912
 30
0.0
 10
0.8668
 20
6.50912
 30
0.0
 10
0.8668
 20
6.50912
 30
0.0
 10
0.8668
 20
6.50912
 30
0.0
 10
0.8668
 20
6.45299
 30
0.0
 10
0.8668
 20
6.45299
 30
0.0
 10
0.8668
 20
6.45299
 30
0.0
 10
0.8668
 20
6.45299
 30
0.0
 10
0.85553
 20
6.38775
 30
0.0
 10
0.85553
 20
6.38775
 30
0.0
 10
0.85553
 20
6.38775
 30
0.0
 10
0.85553
 20
6.38775
 30
0.0
 10
0.83026
 20
6.38775
 30
0.0
 10
0.83026
 20
6.38775
 30
0.0
  0
SPLINE
  5
67
330
1F
100
AcDbEntity
  8
layer 2
 62
     1
370
     0
100
AcDbSpline
210
0.0
220
0.0
230
1.0
 70
    24
 71
     3
 72
     8
 73
     4
 74
     0
 42
0.0000000001
 43
0.0000000001
 12
1.0
 22
0.0
 32
0.0
 13
1.0
 23
0.0
 33
0.0
 40
0.0
 40
0.0
 40
0.0
 40
0.0
 40
1.0
 40
1.0
 40
1.0
 40
1.0
 10
10.34005
 20
4.97983
 30
0.0
 10
10.34005
 20
4.97983
 30
0.0
 10
12.11138
 20
4.97983
 30
0.0
 10
12.11138
 20
4.97983
 30
0.0
  0
SPLINE
  5
68
330
1F
100
AcDbEntity
  8
layer 2
 62
     1
370
     0
100
AcDbSpline
210
0.0
220
0.0
230
1.0
 70
    24
 71
     3
 72
     8
 73
     4
 74
     0
 42
0.0000000001
 43
0.0000000001
 12
1.0
 22
0.0
 32
0.0
 13
1.0
 23
0.0
 33
0.0
 40
0.0
 40
0.0
 40
0.0
 40
0.0
 40
1.0
 40
1.0
 40
1.0
 40
1.0
 10
10.34005
 20
-5.61537
 30
0.0
 10
10.34005
 20
-5.61537
 30
0.0
 10
12.11138
 20
-5.61537
 30
0.0
 10
12.11138
 20
-5.61537
 30
0.0
  0
SPLINE
  5
69
330
1F
100
AcDbEntity
  8
layer 2
 62
     1
370
     0
100
AcDbSpline
210
0.0
220
0.0
230
1.0
 70
    24
 71
     3
 72
     8
 73
     4
 74
     0
 42
0.0000000001
 43
0.0000000001
 12
1.0
 22
0.0
 32
0.0
 13
1.0
 23
0.0
 33
0.0
 40
0.0
 40
0.0
 40
0.0
 40
0.0
 40
1.0
 40
1.0
 40
1.0
 40
1.0
 10
11.85067
 20
4.45842
 30
0.0
 10
11.85067
 20
4.45842
 30
0.0
 10
11.85067
 20
-5.09395
 30
0.0
 10
11.85067
 20
-5.09395
 30
0.0
  0
SPLINE
  5
6A
330
1F
100
AcDbEntity
  8
layer 2
 62
     1
100
AcDbSpline
210
0.0
220
0.0
230
1.0
 70
    27
 71
     3
 72
    12
 73
     8
 74
     0
 42
0.0000000001
 43
0.0000000001
 12
1.0
 22
0.0
 32
0.0
 13
1.0
 23
0.0
 33
0.0
 40
0.0
 40
0.0
 40
0.0
 40
0.0
 40
0.3333333333333333
 40
0.3333333333333333
 40
0.3333333333333333
 40
0.3333333333333333
 40
1.0
 40
1.0
 40
1.0
 40
1.0
 10
11.76377
 20
4.45842
 30
0.0
 10
11.76377
 20
4.45842
 30
0.0
 10
11.85067
 20
4.97983
 30
0.0
 10
11.85067
 20
4.97983
 30
0.0
 10
11.85067
 20
4.97983
 30
0.0
 10
11.85067
 20
4.97983
 30
0.0
 10
11.76377
 20
4.45842
 30
0.0
 10
11.76377
 20
4.45842
 30
0.0
  0
SPLINE
  5
6B
330
1F
100
AcDbEntity
  8
layer 2
 62
     1
100
AcDbSpline
210
0.0
220
0.0
230
1.0
 70
     8
 71
     3
 72
    12
 73
     8
 74
     0
 42
0.0000000001
 43
0.0000000001
 12
1.0
 22
0.0
 32
0.0
 13
1.0
 23
0.0
 33
0.0
 40
0.0
 40
0.0
 40
0.0
 40
0.0
 40
0.3333333333333333
 40
0.3333333333333333
 40
0.3333333333333333
 40
0.3333333333333333
 40
1.0
 40
1.0
 40
1.0
 40
1.0
 10
11.85067
 20
4.97983
 30
0.0
 10
11.85067
 20
4.97983
 30
0.0
 10
11.93757
 20
4.45842
 30
0.0
 10
11.93757
 20
4.45842
 30
0.0
 10
11.93757
 20
4.45842
 30
0.0
 10
11.93757
 20
4.45842
 30
0.0
 10
11.76377
 20
4.45842
 30
0.0
 10
11.76377
 20
4.45842
 30
0.0
  0
SPLINE
  5
6C
330
1F
100
AcDbEntity
  8
layer 2
 62
     1
370
     9
100
AcDbSpline
210
0.0
220
0.0
230
1.0
 70
    24
 71
     3
 72
     8
 73
     4
 74
     0
 42
0.0000000001
 43
0.0000000001
 12
1.0
 22
0.0
 32
0.0
 13
1.0
 23
0.0
 33
0.0
 40
0.0
 40
0.0
 40
0.0
 40
0.0
 40
1.0
 40
1.0
 40
1.0
 40
1.0
 10
11.76377
 20
4.45842
 30
0.0
 10
11.76377
 20
4.45842
 30
0.0
 10
11.85067
 20
4.97983
 30
0.0
 10
11.85067
 20
4.97983
 30
0.0
  0
SPLINE
  5
6D
330
1F
100
AcDbEntity
  8
layer 2
 62
     1
370
     9
100
AcDbSpline
210
0.0
220
0.0
230
1.0
 70
     8
 71
     3
 72
    12
 73
     8
 74
     0
 42
0.0000000001
 43
0.0000000001
 12
1.0
 22
0.0
 32
0.0
 13
1.0
 23
0.0
 33
0.0
 40
0.0
 40
0.0
 40
0.0
 40
0.0
 40
0.3333333333333333
 40
0.3333333333333333
 40
0.3333333333333333
 40
0.3333333333333333
 40
1.0
 40
1.0
 40
1.0
 40
1.0
 10
11.85067
 20
4.97983
 30
0.0
 10
11.85067
 20
4.97983
 30
0.0
 10
11.93757
 20
4.45842
 30
0.0
 10
11.93757
 20
4.45842
 30
0.0
 10
11.93757
 20
4.45842
 30
0.0
 10
11.93757
 20
4.45842
 30
0.0
 10
11.76377
 20
4.45842
 30
0.0
 10
11.76377
 20
4.45842
 30
0.0
  0
SPLINE
  5
6E
330
1F
100
AcDbEntity
  8
layer 2
 62
     1
100
AcDbSpline
210
0.0
220
0.0
230
1.0
 70
    27
 71
     3
 72
    12
 73
     8
 74
     0
 42
0.0000000001
 43
0.0000000001
 12
1.0
 22
0.0
 32
0.0
 13
1.0
 23
0.0
 33
0.0
 40
0.0
 40
0.0
 40
0.0
 40
0.0
 40
0.3333333333333333
 40
0.3333333333333333
 40
0.3333333333333333
 40
0.3333333333333333
 40
1.0
 40
1.0
 40
1.0
 40
1.0
 10
11.76377
 20
-5.09395
 30
0.0
 10
11.76377
 20
-5.09395
 30
0.0
 10
11.85067
 20
-5.61537
 30
0.0
 10
11.85067
 20
-5.61537
 30
0.0
 10
11.85067
 20
-5.61537
 30
0.0
 10
11.85067
 20
-5.61537
 30
0.0
 10
11.76377
 20
-5.09395
 30
0.0
 10
11.76377
 20
-5.09395
 30
0.0
  0
SPLINE
  5
6F
330
1F
100
AcDbEntity
  8
layer 2
 62
     1
100
AcDbSpline
210
0.0
220
0.0
230
1.0
 70
     8
 71
     3
 72
    12
 73
     8
 74
     0
 42
0.0000000001
 43
0.0000000001
 12
1.0
 22
0.0
 32
0.0
 13
1.0
 23
0.0
 33
0.0
 40
0.0
 40
0.0
 40
0.0
 40
0.0
 40
0.3333333333333333
 40
0.3333333333333333
 40
0.3333333333333333
 40
0.3333333333333333
 40
1.0
 40
1.0
 40
1.0
 40
1.0
 10
11.85067
 20
-5.61537
 30
0.0
 10
11.85067
 20
-5.61537
 30
0.0
 10
11.93757
 20
-5.09395
 30
0.0
 10
11.93757
 20
-5.09395
 30
0.0
 10
11.93757
 20
-5.09395
 30
0.0
 10
11.93757
 20
-5.09395
 30
0.0
 10
11.76377
 20
-5.09395
 30
0.0
 10
11.76377
 20
-5.09395
 30
0.0
  0
SPLINE
  5
70
330
1F
100
AcDbEntity
  8
layer 2
 62
     1
370
     9
100
AcDbSpline
210
0.0
220
0.0
230
1.0
 70
    24
 71
     3
 72
     8
 73
     4
 74
     0
 42
0.0000000001
 43
0.0000000001
 12
1.0
 22
0.0
 32
0.0
 13
1.0
 23
0.0
 33
0.0
 40
0.0
 40
0.0
 40
0.0
 40
0.0
 40
1.0
 40
1.0
 40
1.0
 40
1.0
 10
11.76377
 20
-5.09395
 30
0.0
 10
11.76377
 20
-5.09395
 30
0.0
 10
11.85067
 20
-5.61537
 30
0.0
 10
11.85067
 20
-5.61537
 30
0.0
  0
SPLINE
  5
71
330
1F
100
AcDbEntity
  8
layer 2
 62
     1
370
     9
100
AcDbSpline
210
0.0
220
0.0
230
1.0
 70
     8
 71
     3
 72
    12
 73
     8
 74
     0
 42
0.0000000001
 43
0.0000000001
 12
1.0
 22
0.0
 32
0.0
 13
1.0
 23
0.0
 33
0.0
 40
0.0
 40
0.0
 40
0.0
 40
0.0
 40
0.3333333333333333
 40
0.3333333333333333
 40
0.3333333333333333
 40
0.3333333333333333
 40
1.0
 40
1.0
 40
1.0
 40
1.0
 10
11.85067
 20
-5.61537
 30
0.0
 10
11.85067
 20
-5.61537
 30
0.0
 10
11.93757
 20
-5.09395
 30
0.0
 10
11.93757
 20
-5.09395
 30
0.0
 10
11.93757
 20
-5.09395
 30
0.0
 10
11.93757
 20
-5.09395
 30
0.0
 10
11.76377
 20
-5.09395
 30
0.0
 10
11.76377
 20
-5.09395
 30
0.0
  0
SPLINE
  5
72
330
1F
100
AcDbEntity
  8
layer 2
 62
     1
100
AcDbSpline
210
0.0
220
0.0
230
1.0
 70
    11
 71
     3
 72
    40
 73
    36
 74
     0
 42
0.0000000001
 43
0.0000000001
 12
1.0
 22
0.0
 32
0.0
 13
1.0
 23
0.0
 33
0.0
 40
0.0
 40
0.0
 40
0.0
 40
0.0
 40
0.1
 40
0.1
 40
0.1
 40
0.1
 40
0.2
 40
0.2
 40
0.2
 40
0.2
 40
0.3
 40
0.3
 40
0.3
 40
0.3
 40
0.4
 40
0.4
 40
0.4
 40
0.4
 40
0.5
 40
0.5
 40
0.5
 40
0.5
 40
0.6
 40
0.6
 40
0.6
 40
0.6
 40
0.7
 40
0.7
 40
0.7
 40
0.7
 40
0.8
 40
0.8
 40
0.8
 40
0.8
 40
1.0
 40
1.0
 40
1.0
 40
1.0
 10
11.62777
 20
0.55952
 30
0.0
 10
11.62777
 20
0.55952
 30
0.0
 10
11.62777
 20
0.51731
 30
0.0
 10
11.62777
 20
0.51731
 30
0.0
 10
11.62777
 20
0.51731
 30
0.0
 10
11.62777
 20
0.51731
 30
0.0
 10
11.35897
 20
0.51731
 30
0.0
 10
11.35897
 20
0.51731
 30
0.0
 10
11.35897
 20
0.51731
 30
0.0
 10
11.36873
 20
0.50715
 30
0.0
 10
11.3784
 20
0.4938
 30
0.0
 10
11.38807
 20
0.47733
 30
0.0
 10
11.38807
 20
0.47733
 30
0.0
 10
11.39775
 20
0.46086
 30
0.0
 10
11.40502
 20
0.44599
 30
0.0
 10
11.40982
 20
0.43288
 30
0.0
 10
11.40982
 20
0.43288
 30
0.0
 10
11.40982
 20
0.43288
 30
0.0
 10
11.36905
 20
0.43288
 30
0.0
 10
11.36905
 20
0.43288
 30
0.0
 10
11.36905
 20
0.43288
 30
0.0
 10
11.35801
 20
0.45646
 30
0.0
 10
11.34458
 20
0.47709
 30
0.0
 10
11.32875
 20
0.49476
 30
0.0
 10
11.32875
 20
0.49476
 30
0.0
 10
11.313
 20
0.51243
 30
0.0
 10
11.29773
 20
0.52498
 30
0.0
 10
11.28286
 20
0.53234
 30
0.0
 10
11.28286
 20
0.53234
 30
0.0
 10
11.28286
 20
0.53234
 30
0.0
 10
11.28286
 20
0.55952
 30
0.0
 10
11.28286
 20
0.55952
 30
0.0
 10
11.28286
 20
0.55952
 30
0.0
 10
11.28286
 20
0.55952
 30
0.0
 10
11.62777
 20
0.55952
 30
0.0
 10
11.62777
 20
0.55952
 30
0.0
  0
SPLINE
  5
73
330
1F
100
AcDbEntity
  8
layer 2
 62
     1
100
AcDbSpline
210
0.0
220
0.0
230
1.0
 70
    11
 71
     3
 72
    80
 73
    76
 74
     0
 42
0.0000000001
 43
0.0000000001
 12
1.0
 22
0.0
 32
0.0
 13
1.0
 23
0.0
 33
0.0
 40
0.0
 40
0.0
 40
0.0
 40
0.0
 40
0.05
 40
0.05
 40
0.05
 40
0.05
 40
0.1
 40
0.1
 40
0.1
 40
0.1
 40
0.15
 40
0.15
 40
0.15
 40
0.15
 40
0.2
 40
0.2
 40
0.2
 40
0.2
 40
0.25
 40
0.25
 40
0.25
 40
0.25
 40
0.3
 40
0.3
 40
0.3
 40
0.3
 40
0.35
 40
0.35
 40
0.35
 40
0.35
 40
0.4
 40
0.4
 40
0.4
 40
0.4
 40
0.45
 40
0.45
 40
0.45
 40
0.45
 40
0.5
 40
0.5
 40
0.5
 40
0.5
 40
0.55
 40
0.55
 40
0.55
 40
0.55
 40
0.6
 40
0.6
 40
0.6
 40
0.6
 40
0.65
 40
0.65
 40
0.65
 40
0.65
 40
0.7
 40
0.7
 40
0.7
 40
0.7
 40
0.75
 40
0.75
 40
0.75
 40
0.75
 40
0.8
 40
0.8
 40
0.8
 40
0.8
 40
0.85
 40
0.85
 40
0.85
 40
0.85
 40
0.9
 40
0.9
 40
0.9
 40
0.9
 40
1.0
 40
1.0
 40
1.0
 40
1.0
 10
11.36825
 20
0.88724
 30
0.0
 10
11.36825
 20
0.88724
 30
0.0
 10
11.3716
 20
0.8455
 30
0.0
 10
11.3716
 20
0.8455
 30
0.0
 10
11.3716
 20
0.8455
 30
0.0
 10
11.35505
 20
0.84175
 30
0.0
 10
11.34298
 20
0.83639
 30
0.0
 10
11.33547
 20
0.82943
 30
0.0
 10
11.33547
 20
0.82943
 30
0.0
 10
11.32339
 20
0.818
 30
0.0
 10
11.3174
 20
0.80385
 30
0.0
 10
11.3174
 20
0.78706
 30
0.0
 10
11.3174
 20
0.78706
 30
0.0
 10
11.3174
 20
0.77355
 30
0.0
 10
11.32115
 20
0.76156
 30
0.0
 10
11.32867
 20
0.75124
 30
0.0
 10
11.32867
 20
0.75124
 30
0.0
 10
11.33835
 20
0.73797
 30
0.0
 10
11.35242
 20
0.72758
 30
0.0
 10
11.37096
 20
0.71982
 30
0.0
 10
11.37096
 20
0.71982
 30
0.0
 10
11.38959
 20
0.71215
 30
0.0
 10
11.41606
 20
0.70815
 30
0.0
 10
11.45036
 20
0.70783
 30
0.0
 10
11.45036
 20
0.70783
 30
0.0
 10
11.43492
 20
0.71798
 30
0.0
 10
11.42341
 20
0.73046
 30
0.0
 10
11.41598
 20
0.74517
 30
0.0
 10
11.41598
 20
0.74517
 30
0.0
 10
11.40846
 20
0.75988
 30
0.0
 10
11.4047
 20
0.77523
 30
0.0
 10
11.4047
 20
0.79138
 30
0.0
 10
11.4047
 20
0.79138
 30
0.0
 10
11.4047
 20
0.81952
 30
0.0
 10
11.4151
 20
0.8435
 30
0.0
 10
11.4358
 20
0.86333
 30
0.0
 10
11.4358
 20
0.86333
 30
0.0
 10
11.45651
 20
0.88308
 30
0.0
 10
11.48322
 20
0.89299
 30
0.0
 10
11.51608
 20
0.89299
 30
0.0
 10
11.51608
 20
0.89299
 30
0.0
 10
11.53766
 20
0.89299
 30
0.0
 10
11.55765
 20
0.88836
 30
0.0
 10
11.5762
 20
0.87908
 30
0.0
 10
11.5762
 20
0.87908
 30
0.0
 10
11.59475
 20
0.86973
 30
0.0
 10
11.6089
 20
0.85702
 30
0.0
 10
11.61873
 20
0.84071
 30
0.0
 10
11.61873
 20
0.84071
 30
0.0
 10
11.62857
 20
0.82448
 30
0.0
 10
11.63352
 20
0.80601
 30
0.0
 10
11.63352
 20
0.78538
 30
0.0
 10
11.63352
 20
0.78538
 30
0.0
 10
11.63352
 20
0.75028
 30
0.0
 10
11.62057
 20
0.72158
 30
0.0
 10
11.59475
 20
0.69935
 30
0.0
 10
11.59475
 20
0.69935
 30
0.0
 10
11.56892
 20
0.67721
 30
0.0
 10
11.52631
 20
0.66609
 30
0.0
 10
11.46698
 20
0.66609
 30
0.0
 10
11.46698
 20
0.66609
 30
0.0
 10
11.40063
 20
0.66609
 30
0.0
 10
11.35233
 20
0.67841
 30
0.0
 10
11.32219
 20
0.70295
 30
0.0
 10
11.32219
 20
0.70295
 30
0.0
 10
11.29597
 20
0.72438
 30
0.0
 10
11.28286
 20
0.75324
 30
0.0
 10
11.28286
 20
0.78962
 30
0.0
 10
11.28286
 20
0.78962
 30
0.0
 10
11.28286
 20
0.81664
 30
0.0
 10
11.29045
 20
0.83887
 30
0.0
 10
11.30556
 20
0.85614
 30
0.0
 10
11.30556
 20
0.85614
 30
0.0
 10
11.32067
 20
0.87341
 30
0.0
 10
11.34154
 20
0.8838
 30
0.0
 10
11.36825
 20
0.88724
 30
0.0
  0
SPLINE
  5
74
330
1F
100
AcDbEntity
  8
layer 2
 62
     1
100
AcDbSpline
210
0.0
220
0.0
230
1.0
 70
    11
 71
     3
 72
    40
 73
    36
 74
     0
 42
0.0000000001
 43
0.0000000001
 12
1.0
 22
0.0
 32
0.0
 13
1.0
 23
0.0
 33
0.0
 40
0.0
 40
0.0
 40
0.0
 40
0.0
 40
0.1
 40
0.1
 40
0.1
 40
0.1
 40
0.2
 40
0.2
 40
0.2
 40
0.2
 40
0.3
 40
0.3
 40
0.3
 40
0.3
 40
0.4
 40
0.4
 40
0.4
 40
0.4
 40
0.5
 40
0.5
 40
0.5
 40
0.5
 40
0.6
 40
0.6
 40
0.6
 40
0.6
 40
0.7
 40
0.7
 40
0.7
 40
0.7
 40
0.8
 40
0.8
 40
0.8
 40
0.8
 40
1.0
 40
1.0
 40
1.0
 40
1.0
 10
11.51647
 20
0.71454
 30
0.0
 10
11.53102
 20
0.71454
 30
0.0
 10
11.54494
 20
0.71766
 30
0.0
 10
11.55821
 20
0.72382
 30
0.0
 10
11.55821
 20
0.72382
 30
0.0
 10
11.57148
 20
0.72998
 30
0.0
 10
11.58155
 20
0.73861
 30
0.0
 10
11.58851
 20
0.74956
 30
0.0
 10
11.58851
 20
0.74956
 30
0.0
 10
11.59547
 20
0.7606
 30
0.0
 10
11.59898
 20
0.77227
 30
0.0
 10
11.59898
 20
0.78466
 30
0.0
 10
11.59898
 20
0.78466
 30
0.0
 10
11.59898
 20
0.80265
 30
0.0
 10
11.59179
 20
0.818
 30
0.0
 10
11.5774
 20
0.83071
 30
0.0
 10
11.5774
 20
0.83071
 30
0.0
 10
11.56301
 20
0.84343
 30
0.0
 10
11.5435
 20
0.84982
 30
0.0
 10
11.51879
 20
0.84982
 30
0.0
 10
11.51879
 20
0.84982
 30
0.0
 10
11.49505
 20
0.84982
 30
0.0
 10
11.47634
 20
0.8435
 30
0.0
 10
11.46267
 20
0.83095
 30
0.0
 10
11.46267
 20
0.83095
 30
0.0
 10
11.44899
 20
0.8184
 30
0.0
 10
11.44212
 20
0.80241
 30
0.0
 10
11.44212
 20
0.78298
 30
0.0
 10
11.44212
 20
0.78298
 30
0.0
 10
11.44212
 20
0.76395
 30
0.0
 10
11.44899
 20
0.74773
 30
0.0
 10
11.46267
 20
0.73445
 30
0.0
 10
11.46267
 20
0.73445
 30
0.0
 10
11.47634
 20
0.72118
 30
0.0
 10
11.49425
 20
0.71454
 30
0.0
 10
11.51647
 20
0.71454
 30
0.0
  0
SPLINE
  5
75
330
1F
100
AcDbEntity
  8
layer 2
 62
     1
100
AcDbSpline
210
0.0
220
0.0
230
1.0
 70
    11
 71
     3
 72
    28
 73
    24
 74
     0
 42
0.0000000001
 43
0.0000000001
 12
1.0
 22
0.0
 32
0.0
 13
1.0
 23
0.0
 33
0.0
 40
0.0
 40
0.0
 40
0.0
 40
0.0
 40
0.1428571428571428
 40
0.1428571428571428
 40
0.1428571428571428
 40
0.1428571428571428
 40
0.2857142857142857
 40
0.2857142857142857
 40
0.2857142857142857
 40
0.2857142857142857
 40
0.4285714285714285
 40
0.4285714285714285
 40
0.4285714285714285
 40
0.4285714285714285
 40
0.5714285714285714
 40
0.5714285714285714
 40
0.5714285714285714
 40
0.5714285714285714
 40
0.7142857142857143
 40
0.7142857142857143
 40
0.7142857142857143
 40
0.7142857142857143
 40
1.0
 40
1.0
 40
1.0
 40
1.0
 10
11.40566
 20
0.9484
 30
0.0
 10
11.40566
 20
0.9484
 30
0.0
 10
11.34042
 20
0.93673
 30
0.0
 10
11.34042
 20
0.93673
 30
0.0
 10
11.34042
 20
0.93673
 30
0.0
 10
11.34042
 20
0.93673
 30
0.0
 10
11.2843
 20
0.93673
 30
0.0
 10
11.2843
 20
0.93673
 30
0.0
 10
11.2843
 20
0.93673
 30
0.0
 10
11.2843
 20
0.93673
 30
0.0
 10
11.2843
 20
0.9847
 30
0.0
 10
11.2843
 20
0.9847
 30
0.0
 10
11.2843
 20
0.9847
 30
0.0
 10
11.2843
 20
0.9847
 30
0.0
 10
11.34042
 20
0.9847
 30
0.0
 10
11.34042
 20
0.9847
 30
0.0
 10
11.34042
 20
0.9847
 30
0.0
 10
11.34042
 20
0.9847
 30
0.0
 10
11.40566
 20
0.97415
 30
0.0
 10
11.40566
 20
0.97415
 30
0.0
 10
11.40566
 20
0.97415
 30
0.0
 10
11.40566
 20
0.97415
 30
0.0
 10
11.40566
 20
0.9484
 30
0.0
 10
11.40566
 20
0.9484
 30
0.0
  0
SPLINE
  5
76
330
1F
100
AcDbEntity
  8
layer 2
 62
     1
100
AcDbSpline
210
0.0
220
0.0
230
1.0
 70
    11
 71
     3
 72
    28
 73
    24
 74
     0
 42
0.0000000001
 43
0.0000000001
 12
1.0
 22
0.0
 32
0.0
 13
1.0
 23
0.0
 33
0.0
 40
0.0
 40
0.0
 40
0.0
 40
0.0
 40
0.1428571428571428
 40
0.1428571428571428
 40
0.1428571428571428
 40
0.1428571428571428
 40
0.2857142857142857
 40
0.2857142857142857
 40
0.2857142857142857
 40
0.2857142857142857
 40
0.4285714285714285
 40
0.4285714285714285
 40
0.4285714285714285
 40
0.4285714285714285
 40
0.5714285714285714
 40
0.5714285714285714
 40
0.5714285714285714
 40
0.5714285714285714
 40
0.7142857142857143
 40
0.7142857142857143
 40
0.7142857142857143
 40
0.7142857142857143
 40
1.0
 40
1.0
 40
1.0
 40
1.0
 10
11.40566
 20
1.02587
 30
0.0
 10
11.40566
 20
1.02587
 30
0.0
 10
11.34042
 20
1.01444
 30
0.0
 10
11.34042
 20
1.01444
 30
0.0
 10
11.34042
 20
1.01444
 30
0.0
 10
11.34042
 20
1.01444
 30
0.0
 10
11.2843
 20
1.01444
 30
0.0
 10
11.2843
 20
1.01444
 30
0.0
 10
11.2843
 20
1.01444
 30
0.0
 10
11.2843
 20
1.01444
 30
0.0
 10
11.2843
 20
1.06241
 30
0.0
 10
11.2843
 20
1.06241
 30
0.0
 10
11.2843
 20
1.06241
 30
0.0
 10
11.2843
 20
1.06241
 30
0.0
 10
11.34042
 20
1.06241
 30
0.0
 10
11.34042
 20
1.06241
 30
0.0
 10
11.34042
 20
1.06241
 30
0.0
 10
11.34042
 20
1.06241
 30
0.0
 10
11.40566
 20
1.05114
 30
0.0
 10
11.40566
 20
1.05114
 30
0.0
 10
11.40566
 20
1.05114
 30
0.0
 10
11.40566
 20
1.05114
 30
0.0
 10
11.40566
 20
1.02587
 30
0.0
 10
11.40566
 20
1.02587
 30
0.0
  0
SPLINE
  5
77
330
1F
100
AcDbEntity
  8
layer 2
 62
     1
370
     0
100
AcDbSpline
210
0.0
220
0.0
230
1.0
 70
    24
 71
     3
 72
     8
 73
     4
 74
     0
 42
0.0000000001
 43
0.0000000001
 12
1.0
 22
0.0
 32
0.0
 13
1.0
 23
0.0
 33
0.0
 40
0.0
 40
0.0
 40
0.0
 40
0.0
 40
1.0
 40
1.0
 40
1.0
 40
1.0
 10
-10.89718
 20
-6.95522
 30
0.0
 10
-10.89718
 20
-6.95522
 30
0.0
 10
-9.55947
 20
-5.74028
 30
0.0
 10
-9.55947
 20
-5.74028
 30
0.0
  0
SPLINE
  5
78
330
1F
100
AcDbEntity
  8
layer 2
 62
     1
100
AcDbSpline
210
0.0
220
0.0
230
1.0
 70
    11
 71
     3
 72
    80
 73
    76
 74
     0
 42
0.0000000001
 43
0.0000000001
 12
1.0
 22
0.0
 32
0.0
 13
1.0
 23
0.0
 33
0.0
 40
0.0
 40
0.0
 40
0.0
 40
0.0
 40
0.05
 40
0.05
 40
0.05
 40
0.05
 40
0.1
 40
0.1
 40
0.1
 40
0.1
 40
0.15
 40
0.15
 40
0.15
 40
0.15
 40
0.2
 40
0.2
 40
0.2
 40
0.2
 40
0.25
 40
0.25
 40
0.25
 40
0.25
 40
0.3
 40
0.3
 40
0.3
 40
0.3
 40
0.35
 40
0.35
 40
0.35
 40
0.35
 40
0.4
 40
0.4
 40
0.4
 40
0.4
 40
0.45
 40
0.45
 40
0.45
 40
0.45
 40
0.5
 40
0.5
 40
0.5
 40
0.5
 40
0.55
 40
0.55
 40
0.55
 40
0.55
 40
0.6
 40
0.6
 40
0.6
 40
0.6
 40
0.65
 40
0.65
 40
0.65
 40
0.65
 40
0.7
 40
0.7
 40
0.7
 40
0.7
 40
0.75
 40
0.75
 40
0.75
 40
0.75
 40
0.8
 40
0.8
 40
0.8
 40
0.8
 40
0.85
 40
0.85
 40
0.85
 40
0.85
 40
0.9
 40
0.9
 40
0.9
 40
0.9
 40
1.0
 40
1.0
 40
1.0
 40
1.0
 10
-10.76094
 20
-5.76133
 30
0.0
 10
-10.76094
 20
-5.76133
 30
0.0
 10
-10.99186
 20
-5.50707
 30
0.0
 10
-10.99186
 20
-5.50707
 30
0.0
 10
-10.99186
 20
-5.50707
 30
0.0
 10
-10.99186
 20
-5.50707
 30
0.0
 10
-10.87917
 20
-5.40473
 30
0.0
 10
-10.87917
 20
-5.40473
 30
0.0
 10
-10.87917
 20
-5.40473
 30
0.0
 10
-10.8565
 20
-5.38414
 30
0.0
 10
-10.83718
 20
-5.3708
 30
0.0
 10
-10.82127
 20
-5.36466
 30
0.0
 10
-10.82127
 20
-5.36466
 30
0.0
 10
-10.80535
 20
-5.35853
 30
0.0
 10
-10.78863
 20
-5.35803
 30
0.0
 10
-10.77111
 20
-5.36317
 30
0.0
 10
-10.77111
 20
-5.36317
 30
0.0
 10
-10.75358
 20
-5.36832
 30
0.0
 10
-10.73848
 20
-5.37793
 30
0.0
 10
-10.72579
 20
-5.3919
 30
0.0
 10
-10.72579
 20
-5.3919
 30
0.0
 10
-10.7094
 20
-5.40995
 30
0.0
 10
-10.70144
 20
-5.43048
 30
0.0
 10
-10.70187
 20
-5.45344
 30
0.0
 10
-10.70187
 20
-5.45344
 30
0.0
 10
-10.70229
 20
-5.4764
 30
0.0
 10
-10.71319
 20
-5.50055
 30
0.0
 10
-10.73451
 20
-5.52607
 30
0.0
 10
-10.73451
 20
-5.52607
 30
0.0
 10
-10.7217
 20
-5.52221
 30
0.0
 10
-10.71108
 20
-5.52035
 30
0.0
 10
-10.70271
 20
-5.5203
 30
0.0
 10
-10.70271
 20
-5.5203
 30
0.0
 10
-10.68471
 20
-5.52037
 30
0.0
 10
-10.66516
 20
-5.52324
 30
0.0
 10
-10.64415
 20
-5.52889
 30
0.0
 10
-10.64415
 20
-5.52889
 30
0.0
 10
-10.64415
 20
-5.52889
 30
0.0
 10
-10.53728
 20
-5.5582
 30
0.0
 10
-10.53728
 20
-5.5582
 30
0.0
 10
-10.53728
 20
-5.5582
 30
0.0
 10
-10.53728
 20
-5.5582
 30
0.0
 10
-10.5793
 20
-5.59636
 30
0.0
 10
-10.5793
 20
-5.59636
 30
0.0
 10
-10.5793
 20
-5.59636
 30
0.0
 10
-10.5793
 20
-5.59636
 30
0.0
 10
-10.66097
 20
-5.57398
 30
0.0
 10
-10.66097
 20
-5.57398
 30
0.0
 10
-10.66097
 20
-5.57398
 30
0.0
 10
-10.68466
 20
-5.56752
 30
0.0
 10
-10.70336
 20
-5.56323
 30
0.0
 10
-10.71705
 20
-5.56087
 30
0.0
 10
-10.71705
 20
-5.56087
 30
0.0
 10
-10.73081
 20
-5.55856
 30
0.0
 10
-10.7416
 20
-5.5581
 30
0.0
 10
-10.74959
 20
-5.55942
 30
0.0
 10
-10.74959
 20
-5.55942
 30
0.0
 10
-10.75746
 20
-5.56074
 30
0.0
 10
-10.76465
 20
-5.56317
 30
0.0
 10
-10.77104
 20
-5.56659
 30
0.0
 10
-10.77104
 20
-5.56659
 30
0.0
 10
-10.77553
 20
-5.56926
 30
0.0
 10
-10.78212
 20
-5.57449
 30
0.0
 10
-10.79082
 20
-5.5824
 30
0.0
 10
-10.79082
 20
-5.5824
 30
0.0
 10
-10.79082
 20
-5.5824
 30
0.0
 10
-10.82976
 20
-5.61776
 30
0.0
 10
-10.82976
 20
-5.61776
 30
0.0
 10
-10.82976
 20
-5.61776
 30
0.0
 10
-10.82976
 20
-5.61776
 30
0.0
 10
-10.7272
 20
-5.73069
 30
0.0
 10
-10.7272
 20
-5.73069
 30
0.0
 10
-10.7272
 20
-5.73069
 30
0.0
 10
-10.7272
 20
-5.73069
 30
0.0
 10
-10.76094
 20
-5.76133
 30
0.0
 10
-10.76094
 20
-5.76133
 30
0.0
  0
SPLINE
  5
79
330
1F
100
AcDbEntity
  8
layer 2
 62
     1
100
AcDbSpline
210
0.0
220
0.0
230
1.0
 70
    11
 71
     3
 72
    36
 73
    32
 74
     0
 42
0.0000000001
 43
0.0000000001
 12
1.0
 22
0.0
 32
0.0
 13
1.0
 23
0.0
 33
0.0
 40
0.0
 40
0.0
 40
0.0
 40
0.0
 40
0.1111111111111111
 40
0.1111111111111111
 40
0.1111111111111111
 40
0.1111111111111111
 40
0.2222222222222222
 40
0.2222222222222222
 40
0.2222222222222222
 40
0.2222222222222222
 40
0.3333333333333333
 40
0.3333333333333333
 40
0.3333333333333333
 40
0.3333333333333333
 40
0.4444444444444444
 40
0.4444444444444444
 40
0.4444444444444444
 40
0.4444444444444444
 40
0.5555555555555556
 40
0.5555555555555556
 40
0.5555555555555556
 40
0.5555555555555556
 40
0.6666666666666666
 40
0.6666666666666666
 40
0.6666666666666666
 40
0.6666666666666666
 40
0.7777777777777778
 40
0.7777777777777778
 40
0.7777777777777778
 40
0.7777777777777778
 40
1.0
 40
1.0
 40
1.0
 40
1.0
 10
-10.85621
 20
-5.58864
 30
0.0
 10
-10.85621
 20
-5.58864
 30
0.0
 10
-10.784
 20
-5.52307
 30
0.0
 10
-10.784
 20
-5.52307
 30
0.0
 10
-10.784
 20
-5.52307
 30
0.0
 10
-10.76862
 20
-5.50909
 30
0.0
 10
-10.75811
 20
-5.49664
 30
0.0
 10
-10.75237
 20
-5.48559
 30
0.0
 10
-10.75237
 20
-5.48559
 30
0.0
 10
-10.74658
 20
-5.47461
 30
0.0
 10
-10.74464
 20
-5.46355
 30
0.0
 10
-10.74659
 20
-5.45248
 30
0.0
 10
-10.74659
 20
-5.45248
 30
0.0
 10
-10.74844
 20
-5.44141
 30
0.0
 10
-10.75307
 20
-5.43179
 30
0.0
 10
-10.76054
 20
-5.42356
 30
0.0
 10
-10.76054
 20
-5.42356
 30
0.0
 10
-10.77145
 20
-5.41155
 30
0.0
 10
-10.7848
 20
-5.40553
 30
0.0
 10
-10.80054
 20
-5.40568
 30
0.0
 10
-10.80054
 20
-5.40568
 30
0.0
 10
-10.81629
 20
-5.40583
 30
0.0
 10
-10.83351
 20
-5.41445
 30
0.0
 10
-10.85227
 20
-5.43149
 30
0.0
 10
-10.85227
 20
-5.43149
 30
0.0
 10
-10.85227
 20
-5.43149
 30
0.0
 10
-10.93265
 20
-5.50449
 30
0.0
 10
-10.93265
 20
-5.50449
 30
0.0
 10
-10.93265
 20
-5.50449
 30
0.0
 10
-10.93265
 20
-5.50449
 30
0.0
 10
-10.85621
 20
-5.58864
 30
0.0
 10
-10.85621
 20
-5.58864
 30
0.0
  0
SPLINE
  5
7A
330
1F
100
AcDbEntity
  8
layer 2
 62
     1
100
AcDbSpline
210
0.0
220
0.0
230
1.0
 70
    11
 71
     3
 72
    40
 73
    36
 74
     0
 42
0.0000000001
 43
0.0000000001
 12
1.0
 22
0.0
 32
0.0
 13
1.0
 23
0.0
 33
0.0
 40
0.0
 40
0.0
 40
0.0
 40
0.0
 40
0.1
 40
0.1
 40
0.1
 40
0.1
 40
0.2
 40
0.2
 40
0.2
 40
0.2
 40
0.3
 40
0.3
 40
0.3
 40
0.3
 40
0.4
 40
0.4
 40
0.4
 40
0.4
 40
0.5
 40
0.5
 40
0.5
 40
0.5
 40
0.6
 40
0.6
 40
0.6
 40
0.6
 40
0.7
 40
0.7
 40
0.7
 40
0.7
 40
0.8
 40
0.8
 40
0.8
 40
0.8
 40
1.0
 40
1.0
 40
1.0
 40
1.0
 10
-10.40045
 20
-5.43392
 30
0.0
 10
-10.40045
 20
-5.43392
 30
0.0
 10
-10.43169
 20
-5.4623
 30
0.0
 10
-10.43169
 20
-5.4623
 30
0.0
 10
-10.43169
 20
-5.4623
 30
0.0
 10
-10.43169
 20
-5.4623
 30
0.0
 10
-10.61241
 20
-5.26332
 30
0.0
 10
-10.61241
 20
-5.26332
 30
0.0
 10
-10.61241
 20
-5.26332
 30
0.0
 10
-10.61337
 20
-5.27737
 30
0.0
 10
-10.61675
 20
-5.29351
 30
0.0
 10
-10.62244
 20
-5.31174
 30
0.0
 10
-10.62244
 20
-5.31174
 30
0.0
 10
-10.62812
 20
-5.32998
 30
0.0
 10
-10.63424
 20
-5.34536
 30
0.0
 10
-10.64072
 20
-5.35773
 30
0.0
 10
-10.64072
 20
-5.35773
 30
0.0
 10
-10.64072
 20
-5.35773
 30
0.0
 10
-10.66814
 20
-5.32754
 30
0.0
 10
-10.66814
 20
-5.32754
 30
0.0
 10
-10.66814
 20
-5.32754
 30
0.0
 10
-10.65809
 20
-5.30352
 30
0.0
 10
-10.65185
 20
-5.27971
 30
0.0
 10
-10.64942
 20
-5.25611
 30
0.0
 10
-10.64942
 20
-5.25611
 30
0.0
 10
-10.64693
 20
-5.23257
 30
0.0
 10
-10.6479
 20
-5.21283
 30
0.0
 10
-10.65246
 20
-5.19688
 30
0.0
 10
-10.65246
 20
-5.19688
 30
0.0
 10
-10.65246
 20
-5.19688
 30
0.0
 10
-10.63234
 20
-5.1786
 30
0.0
 10
-10.63234
 20
-5.1786
 30
0.0
 10
-10.63234
 20
-5.1786
 30
0.0
 10
-10.63234
 20
-5.1786
 30
0.0
 10
-10.40045
 20
-5.43392
 30
0.0
 10
-10.40045
 20
-5.43392
 30
0.0
  0
SPLINE
  5
7B
330
1F
100
AcDbEntity
  8
layer 2
 62
     1
100
AcDbSpline
210
0.0
220
0.0
230
1.0
 70
    11
 71
     3
 72
    52
 73
    48
 74
     0
 42
0.0000000001
 43
0.0000000001
 12
1.0
 22
0.0
 32
0.0
 13
1.0
 23
0.0
 33
0.0
 40
0.0
 40
0.0
 40
0.0
 40
0.0
 40
0.0769230769230769
 40
0.0769230769230769
 40
0.0769230769230769
 40
0.0769230769230769
 40
0.1538461538461539
 40
0.1538461538461539
 40
0.1538461538461539
 40
0.1538461538461539
 40
0.2307692307692308
 40
0.2307692307692308
 40
0.2307692307692308
 40
0.2307692307692308
 40
0.3076923076923077
 40
0.3076923076923077
 40
0.3076923076923077
 40
0.3076923076923077
 40
0.3846153846153846
 40
0.3846153846153846
 40
0.3846153846153846
 40
0.3846153846153846
 40
0.4615384615384616
 40
0.4615384615384616
 40
0.4615384615384616
 40
0.4615384615384616
 40
0.5384615384615384
 40
0.5384615384615384
 40
0.5384615384615384
 40
0.5384615384615384
 40
0.6153846153846154
 40
0.6153846153846154
 40
0.6153846153846154
 40
0.6153846153846154
 40
0.6923076923076923
 40
0.6923076923076923
 40
0.6923076923076923
 40
0.6923076923076923
 40
0.7692307692307693
 40
0.7692307692307693
 40
0.7692307692307693
 40
0.7692307692307693
 40
0.8461538461538461
 40
0.8461538461538461
 40
0.8461538461538461
 40
0.8461538461538461
 40
1.0
 40
1.0
 40
1.0
 40
1.0
 10
-10.43409
 20
-5.23551
 30
0.0
 10
-10.46134
 20
-5.2055
 30
0.0
 10
-10.4803
 20
-5.17844
 30
0.0
 10
-10.49081
 20
-5.1545
 30
0.0
 10
-10.49081
 20
-5.1545
 30
0.0
 10
-10.50131
 20
-5.13045
 30
0.0
 10
-10.50499
 20
-5.10797
 30
0.0
 10
-10.50177
 20
-5.08702
 30
0.0
 10
-10.50177
 20
-5.08702
 30
0.0
 10
-10.49861
 20
-5.06611
 30
0.0
 10
-10.48775
 20
-5.04728
 30
0.0
 10
-10.46928
 20
-5.03051
 30
0.0
 10
-10.46928
 20
-5.03051
 30
0.0
 10
-10.45567
 20
-5.01815
 30
0.0
 10
-10.44124
 20
-5.01001
 30
0.0
 10
-10.42588
 20
-5.00611
 30
0.0
 10
-10.42588
 20
-5.00611
 30
0.0
 10
-10.41059
 20
-5.00226
 30
0.0
 10
-10.39486
 20
-5.00245
 30
0.0
 10
-10.37883
 20
-5.00679
 30
0.0
 10
-10.37883
 20
-5.00679
 30
0.0
 10
-10.36285
 20
-5.01107
 30
0.0
 10
-10.34619
 20
-5.01894
 30
0.0
 10
-10.32891
 20
-5.03036
 30
0.0
 10
-10.32891
 20
-5.03036
 30
0.0
 10
-10.31157
 20
-5.04171
 30
0.0
 10
-10.29145
 20
-5.06006
 30
0.0
 10
-10.26861
 20
-5.08521
 30
0.0
 10
-10.26861
 20
-5.08521
 30
0.0
 10
-10.24152
 20
-5.11504
 30
0.0
 10
-10.22266
 20
-5.14199
 30
0.0
 10
-10.2121
 20
-5.16587
 30
0.0
 10
-10.2121
 20
-5.16587
 30
0.0
 10
-10.20147
 20
-5.18981
 30
0.0
 10
-10.1978
 20
-5.21229
 30
0.0
 10
-10.20096
 20
-5.2333
 30
0.0
 10
-10.20096
 20
-5.2333
 30
0.0
 10
-10.20407
 20
-5.25427
 30
0.0
 10
-10.21494
 20
-5.27321
 30
0.0
 10
-10.23352
 20
-5.29009
 30
0.0
 10
-10.23352
 20
-5.29009
 30
0.0
 10
-10.25797
 20
-5.31229
 30
0.0
 10
-10.2851
 20
-5.32106
 30
0.0
 10
-10.31493
 20
-5.31629
 30
0.0
 10
-10.31493
 20
-5.31629
 30
0.0
 10
-10.35103
 20
-5.31019
 30
0.0
 10
-10.39071
 20
-5.28327
 30
0.0
 10
-10.43409
 20
-5.23551
 30
0.0
  0
SPLINE
  5
7C
330
1F
100
AcDbEntity
  8
layer 2
 62
     1
100
AcDbSpline
210
0.0
220
0.0
230
1.0
 70
    11
 71
     3
 72
    36
 73
    32
 74
     0
 42
0.0000000001
 43
0.0000000001
 12
1.0
 22
0.0
 32
0.0
 13
1.0
 23
0.0
 33
0.0
 40
0.0
 40
0.0
 40
0.0
 40
0.0
 40
0.1111111111111111
 40
0.1111111111111111
 40
0.1111111111111111
 40
0.1111111111111111
 40
0.2222222222222222
 40
0.2222222222222222
 40
0.2222222222222222
 40
0.2222222222222222
 40
0.3333333333333333
 40
0.3333333333333333
 40
0.3333333333333333
 40
0.3333333333333333
 40
0.4444444444444444
 40
0.4444444444444444
 40
0.4444444444444444
 40
0.4444444444444444
 40
0.5555555555555556
 40
0.5555555555555556
 40
0.5555555555555556
 40
0.5555555555555556
 40
0.6666666666666666
 40
0.6666666666666666
 40
0.6666666666666666
 40
0.6666666666666666
 40
0.7777777777777778
 40
0.7777777777777778
 40
0.7777777777777778
 40
0.7777777777777778
 40
1.0
 40
1.0
 40
1.0
 40
1.0
 10
-10.40202
 20
-5.2066
 30
0.0
 10
-10.36402
 20
-5.24844
 30
0.0
 10
-10.3339
 20
-5.27185
 30
0.0
 10
-10.31166
 20
-5.27671
 30
0.0
 10
-10.31166
 20
-5.27671
 30
0.0
 10
-10.28937
 20
-5.28163
 30
0.0
 10
-10.27107
 20
-5.27753
 30
0.0
 10
-10.25674
 20
-5.26452
 30
0.0
 10
-10.25674
 20
-5.26452
 30
0.0
 10
-10.24242
 20
-5.25152
 30
0.0
 10
-10.23664
 20
-5.23363
 30
0.0
 10
-10.23939
 20
-5.21097
 30
0.0
 10
-10.23939
 20
-5.21097
 30
0.0
 10
-10.24221
 20
-5.18825
 30
0.0
 10
-10.26256
 20
-5.15608
 30
0.0
 10
-10.30046
 20
-5.11436
 30
0.0
 10
-10.30046
 20
-5.11436
 30
0.0
 10
-10.33846
 20
-5.07251
 30
0.0
 10
-10.36858
 20
-5.04911
 30
0.0
 10
-10.39082
 20
-5.04425
 30
0.0
 10
-10.39082
 20
-5.04425
 30
0.0
 10
-10.41305
 20
-5.03927
 30
0.0
 10
-10.43147
 20
-5.04348
 30
0.0
 10
-10.44609
 20
-5.05675
 30
0.0
 10
-10.44609
 20
-5.05675
 30
0.0
 10
-10.46041
 20
-5.06976
 30
0.0
 10
-10.46636
 20
-5.08629
 30
0.0
 10
-10.46392
 20
-5.10621
 30
0.0
 10
-10.46392
 20
-5.10621
 30
0.0
 10
-10.46061
 20
-5.13139
 30
0.0
 10
-10.43992
 20
-5.16487
 30
0.0
 10
-10.40202
 20
-5.2066
 30
0.0
  0
SPLINE
  5
7D
330
1F
100
AcDbEntity
  8
layer 2
 62
     1
370
     0
100
AcDbSpline
210
0.0
220
0.0
230
1.0
 70
    24
 71
     3
 72
     8
 73
     4
 74
     0
 42
0.0000000001
 43
0.0000000001
 12
1.0
 22
0.0
 32
0.0
 13
1.0
 23
0.0
 33
0.0
 40
0.0
 40
0.0
 40
0.0
 40
0.0
 40
1.0
 40
1.0
 40
1.0
 40
1.0
 10
-9.13489
 20
-5.35466
 30
0.0
 10
-9.13489
 20
-5.35466
 30
0.0
 10
-9.32788
 20
-5.52994
 30
0.0
 10
-9.32788
 20
-5.52994
 30
0.0
  0
SPLINE
  5
7E
330
1F
100
AcDbEntity
  8
layer 2
 62
     1
100
AcDbSpline
210
0.0
220
0.0
230
1.0
 70
    27
 71
     3
 72
    12
 73
     8
 74
     0
 42
0.0000000001
 43
0.0000000001
 12
1.0
 22
0.0
 32
0.0
 13
1.0
 23
0.0
 33
0.0
 40
0.0
 40
0.0
 40
0.0
 40
0.0
 40
0.3333333333333333
 40
0.3333333333333333
 40
0.3333333333333333
 40
0.3333333333333333
 40
1.0
 40
1.0
 40
1.0
 40
1.0
 10
-9.59453
 20
-5.70168
 30
0.0
 10
-9.59453
 20
-5.70168
 30
0.0
 10
-9.32788
 20
-5.52994
 30
0.0
 10
-9.32788
 20
-5.52994
 30
0.0
 10
-9.32788
 20
-5.52994
 30
0.0
 10
-9.32788
 20
-5.52994
 30
0.0
 10
-9.59453
 20
-5.70168
 30
0.0
 10
-9.59453
 20
-5.70168
 30
0.0
  0
SPLINE
  5
7F
330
1F
100
AcDbEntity
  8
layer 2
 62
     1
100
AcDbSpline
210
0.0
220
0.0
230
1.0
 70
     8
 71
     3
 72
    12
 73
     8
 74
     0
 42
0.0000000001
 43
0.0000000001
 12
1.0
 22
0.0
 32
0.0
 13
1.0
 23
0.0
 33
0.0
 40
0.0
 40
0.0
 40
0.0
 40
0.0
 40
0.3333333333333333
 40
0.3333333333333333
 40
0.3333333333333333
 40
0.3333333333333333
 40
1.0
 40
1.0
 40
1.0
 40
1.0
 10
-9.32788
 20
-5.52994
 30
0.0
 10
-9.32788
 20
-5.52994
 30
0.0
 10
-9.52441
 20
-5.77887
 30
0.0
 10
-9.52441
 20
-5.77887
 30
0.0
 10
-9.52441
 20
-5.77887
 30
0.0
 10
-9.52441
 20
-5.77887
 30
0.0
 10
-9.59453
 20
-5.70168
 30
0.0
 10
-9.59453
 20
-5.70168
 30
0.0
  0
SPLINE
  5
80
330
1F
100
AcDbEntity
  8
layer 2
 62
     1
370
     9
100
AcDbSpline
210
0.0
220
0.0
230
1.0
 70
    24
 71
     3
 72
     8
 73
     4
 74
     0
 42
0.0000000001
 43
0.0000000001
 12
1.0
 22
0.0
 32
0.0
 13
1.0
 23
0.0
 33
0.0
 40
0.0
 40
0.0
 40
0.0
 40
0.0
 40
1.0
 40
1.0
 40
1.0
 40
1.0
 10
-9.59453
 20
-5.70168
 30
0.0
 10
-9.59453
 20
-5.70168
 30
0.0
 10
-9.32788
 20
-5.52994
 30
0.0
 10
-9.32788
 20
-5.52994
 30
0.0
  0
SPLINE
  5
81
330
1F
100
AcDbEntity
  8
layer 2
 62
     1
370
     9
100
AcDbSpline
210
0.0
220
0.0
230
1.0
 70
     8
 71
     3
 72
    12
 73
     8
 74
     0
 42
0.0000000001
 43
0.0000000001
 12
1.0
 22
0.0
 32
0.0
 13
1.0
 23
0.0
 33
0.0
 40
0.0
 40
0.0
 40
0.0
 40
0.0
 40
0.3333333333333333
 40
0.3333333333333333
 40
0.3333333333333333
 40
0.3333333333333333
 40
1.0
 40
1.0
 40
1.0
 40
1.0
 10
-9.32788
 20
-5.52994
 30
0.0
 10
-9.32788
 20
-5.52994
 30
0.0
 10
-9.52441
 20
-5.77887
 30
0.0
 10
-9.52441
 20
-5.77887
 30
0.0
 10
-9.52441
 20
-5.77887
 30
0.0
 10
-9.52441
 20
-5.77887
 30
0.0
 10
-9.59453
 20
-5.70168
 30
0.0
 10
-9.59453
 20
-5.70168
 30
0.0
  0
ENDSEC
  0
SECTION
  2
OBJECTS
  0
DICTIONARY
  5
C
330
0
100
AcDbDictionary
281
     1
  3
ACAD_GROUP
350
D
  3
ACAD_LAYOUT
350
1A
  3
ACAD_MATERIAL
350
3B
  3
ACAD_MLEADERSTYLE
350
A3
  3
ACAD_MLINESTYLE
350
17
  3
ACAD_PLOTSETTINGS
350
19
  3
ACAD_PLOTSTYLENAME
350
E
  3
ACAD_TABLESTYLE
350
A2
  3
ACAD_VISUALSTYLE
350
2A
  0
DICTIONARY
  5
D
102
{ACAD_REACTORS
330
C
102
}
330
C
100
AcDbDictionary
281
     1
  0
DICTIONARY
  5
1A
102
{ACAD_REACTORS
330
C
102
}
330
C
100
AcDbDictionary
281
     1
  3
Layout1
350
1E
  3
Layout2
350
26
  3
Model
350
22
  0
DICTIONARY
  5
3B
102
{ACAD_REACTORS
330
C
102
}
330
C
100
AcDbDictionary
281
     1
  3
ByBlock
350
3D
  3
ByLayer
350
3C
  3
Global
350
3E
  0
DICTIONARY
  5
A3
102
{ACAD_REACTORS
330
C
102
}
330
C
100
AcDbDictionary
281
     1
  0
DICTIONARY
  5
17
102
{ACAD_REACTORS
330
C
102
}
330
C
100
AcDbDictionary
281
     1
  3
Standard
350
18
  0
DICTIONARY
  5
19
102
{ACAD_REACTORS
330
C
102
}
330
C
100
AcDbDictionary
281
     1
  0
ACDBDICTIONARYWDFLT
  5
E
102
{ACAD_REACTORS
330
C
102
}
330
C
100
AcDbDictionary
281
     1
  3
Normal
350
F
100
AcDbDictionaryWithDefault
340
F
  0
DICTIONARY
  5
A2
102
{ACAD_REACTORS
330
C
102
}
330
C
100
AcDbDictionary
281
     1
  0
DICTIONARY
  5
2A
102
{ACAD_REACTORS
330
C
102
}
330
C
100
AcDbDictionary
281
     1
  3
2dWireframe
350
2F
  3
3D Hidden
350
31
  3
3dWireframe
350
30
  3
Basic
350
32
  3
Brighten
350
36
  3
ColorChange
350
3A
  3
Conceptual
350
34
  3
Dim
350
35
  3
Facepattern
350
39
  3
Flat
350
2B
  3
FlatWithEdges
350
2C
  3
Gouraud
350
2D
  3
GouraudWithEdges
350
2E
  3
Linepattern
350
38
  3
Realistic
350
33
  3
Thicken
350
37
  0
LAYOUT
  5
1E
102
{ACAD_REACTORS
330
1A
102
}
330
1A
100
AcDbPlotSettings
  1

  2
none_device
  4

  6

 40
0.0
 41
0.0
 42
0.0
 43
0.0
 44
0.0
 45
0.0
 46
0.0
 47
0.0
 48
0.0
 49
0.0
140
0.0
141
0.0
142
1.0
143
1.0
 70
   688
 72
     0
 73
     0
 74
     5
  7

 75
    16
 76
     0
 77
     2
 78
   300
147
1.0
148
0.0
149
0.0
100
AcDbLayout
  1
Layout1
 70
     1
 71
     1
 10
0.0
 20
0.0
 11
12.0
 21
9.0
 12
0.0
 22
0.0
 32
0.0
 14
1.000000000000000E+20
 24
1.000000000000000E+20
 34
1.000000000000000E+20
 15
-1.000000000000000E+20
 25
-1.000000000000000E+20
 35
-1.000000000000000E+20
146
0.0
 13
0.0
 23
0.0
 33
0.0
 16
1.0
 26
0.0
 36
0.0
 17
0.0
 27
1.0
 37
0.0
 76
     0
330
1B
  0
LAYOUT
  5
26
102
{ACAD_REACTORS
330
1A
102
}
330
1A
100
AcDbPlotSettings
  1

  2
none_device
  4

  6

 40
0.0
 41
0.0
 42
0.0
 43
0.0
 44
0.0
 45
0.0
 46
0.0
 47
0.0
 48
0.0
 49
0.0
140
0.0
141
0.0
142
1.0
143
1.0
 70
   688
 72
     0
 73
     0
 74
     5
  7

 75
    16
 76
     0
 77
     2
 78
   300
147
1.0
148
0.0
149
0.0
100
AcDbLayout
  1
Layout2
 70
     1
 71
     2
 10
0.0
 20
0.0
 11
0.0
 21
0.0
 12
0.0
 22
0.0
 32
0.0
 14
0.0
 24
0.0
 34
0.0
 15
0.0
 25
0.0
 35
0.0
146
0.0
 13
0.0
 23
0.0
 33
0.0
 16
1.0
 26
0.0
 36
0.0
 17
0.0
 27
1.0
 37
0.0
 76
     0
330
23
  0
LAYOUT
  5
22
102
{ACAD_REACTORS
330
1A
102
}
330
1A
100
AcDbPlotSettings
  1

  2
none_device
  4

  6

 40
0.0
 41
0.0
 42
0.0
 43
0.0
 44
0.0
 45
0.0
 46
0.0
 47
0.0
 48
0.0
 49
0.0
140
0.0
141
0.0
142
1.0
143
1.0
 70
  1712
 72
     0
 73
     0
 74
     0
  7

 75
     0
 76
     0
 77
     2
 78
   300
147
1.0
148
0.0
149
0.0
100
AcDbLayout
  1
Model
 70
     1
 71
     0
 10
0.0
 20
0.0
 11
12.0
 21
9.0
 12
0.0
 22
0.0
 32
0.0
 14
-10.99186
 24
-8.00527
 34
0.0
 15
12.11138
 25
6.51056
 35
0.0
146
0.0
 13
0.0
 23
0.0
 33
0.0
 16
1.0
 26
0.0
 36
0.0
 17
0.0
 27
1.0
 37
0.0
 76
     0
330
1F
331
29
  0
MATERIAL
  5
3D
102
{ACAD_REACTORS
330
3B
102
}
330
3B
100
AcDbMaterial
  1
ByBlock
 72
     1
 94
      127
  0
MATERIAL
  5
3C
102
{ACAD_REACTORS
330
3B
102
}
330
3B
100
AcDbMaterial
  1
ByLayer
 72
     1
 94
      127
  0
MATERIAL
  5
3E
102
{ACAD_REACTORS
330
3B
102
}
330
3B
100
AcDbMaterial
  1
Global
 72
     1
 94
      127
  0
MLINESTYLE
  5
18
102
{ACAD_REACTORS
330
17
102
}
330
17
100
AcDbMlineStyle
  2
Standard
 70
     0
  3

 62
   256
 51
90.0
 52
90.0
 71
     2
 49
0.5
 62
   256
  6
BYLAYER
 49
-0.5
 62
   256
  6
BYLAYER
  0
ACDBPLACEHOLDER
  5
F
102
{ACAD_REACTORS
330
E
102
}
330
E
  0
VISUALSTYLE
  5
2F
102
{ACAD_REACTORS
330
2A
102
}
102
{ACAD_XDICTIONARY
360
8A
102
}
330
2A
100
AcDbVisualStyle
  2
2dWireframe
 70
     4
 71
     0
 72
     2
 73
     0
 90
        0
 40
-0.6
 41
-30.0
 62
     5
 63
     7
421
 16777215
 74
     1
 91
        4
 64
     7
 65
   257
 75
     1
175
     1
 42
1.0
 92
        0
 66
   257
 43
1.0
 76
     1
 77
     6
 78
     2
 67
     7
 79
     5
170
     0
171
     0
290
     0
174
     0
 93
        1
 44
0.0
173
     0
291
     0
 45
0.0
  0
VISUALSTYLE
  5
31
102
{ACAD_REACTORS
330
2A
102
}
102
{ACAD_XDICTIONARY
360
8E
102
}
330
2A
100
AcDbVisualStyle
  2
3D Hidden
 70
     6
 71
     1
 72
     2
 73
     2
 90
        0
 40
-0.6
 41
-30.0
 62
     5
 63
     7
421
 16777215
 74
     2
 91
        2
 64
     7
 65
   257
 75
     2
175
     1
 42
40.0
 92
        0
 66
   257
 43
1.0
 76
     1
 77
     6
 78
     2
 67
     7
 79
     3
170
     0
171
     0
290
     0
174
     0
 93
        1
 44
0.0
173
     0
291
     0
 45
0.0
  0
VISUALSTYLE
  5
30
102
{ACAD_REACTORS
330
2A
102
}
102
{ACAD_XDICTIONARY
360
8C
102
}
330
2A
100
AcDbVisualStyle
  2
3dWireframe
 70
     5
 71
     0
 72
     2
 73
     0
 90
        0
 40
-0.6
 41
-30.0
 62
     5
 63
     7
421
 16777215
 74
     1
 91
        4
 64
     7
 65
   257
 75
     1
175
     1
 42
1.0
 92
        0
 66
   257
 43
1.0
 76
     1
 77
     6
 78
     2
 67
     7
 79
     5
170
     0
171
     0
290
     0
174
     0
 93
        1
 44
0.0
173
     0
291
     0
 45
0.0
  0
VISUALSTYLE
  5
32
102
{ACAD_REACTORS
330
2A
102
}
102
{ACAD_XDICTIONARY
360
90
102
}
330
2A
100
AcDbVisualStyle
  2
Basic
 70
     7
 71
     1
 72
     0
 73
     1
 90
        0
 40
-0.6
 41
-30.0
 62
     5
 63
     7
421
 16777215
 74
     0
 91
        4
 64
     7
 65
   257
 75
     1
175
     1
 42
1.0
 92
        8
 66
     7
 43
1.0
 76
     1
 77
     6
 78
     2
 67
     7
 79
     5
170
     0
171
     0
290
     0
174
     0
 93
        1
 44
0.0
173
     0
291
     1
 45
0.0
  0
VISUALSTYLE
  5
36
102
{ACAD_REACTORS
330
2A
102
}
102
{ACAD_XDICTIONARY
360
98
102
}
330
2A
100
AcDbVisualStyle
  2
Brighten
 70
    12
 71
     2
 72
     2
 73
     0
 90
        0
 40
-0.6
 41
-30.0
 62
     5
 63
     7
421
 16777215
 74
     1
 91
        4
 64
     7
 65
   257
 75
     1
175
     1
 42
1.0
 92
        8
 66
     7
 43
1.0
 76
     1
 77
     6
 78
     2
 67
     7
 79
     5
170
     0
171
     0
290
     0
174
     0
 93
        1
 44
50.0
173
     0
291
     1
 45
0.0
  0
VISUALSTYLE
  5
3A
102
{ACAD_REACTORS
330
2A
102
}
102
{ACAD_XDICTIONARY
360
A0
102
}
330
2A
100
AcDbVisualStyle
  2
ColorChange
 70
    16
 71
     2
 72
     2
 73
     3
 90
        0
 40
-0.6
 41
-30.0
 62
     5
 63
     8
421
  8421504
 74
     1
 91
        4
 64
     7
 65
   257
 75
     1
175
     1
 42
1.0
 92
        8
 66
     8
424
  8421504
 43
1.0
 76
     1
 77
     6
 78
     2
 67
     7
 79
     5
170
     0
171
     0
290
     0
174
     0
 93
        1
 44
0.0
173
     0
291
     1
 45
0.0
  0
VISUALSTYLE
  5
34
102
{ACAD_REACTORS
330
2A
102
}
102
{ACAD_XDICTIONARY
360
94
102
}
330
2A
100
AcDbVisualStyle
  2
Conceptual
 70
     9
 71
     3
 72
     2
 73
     0
 90
        0
 40
-0.6
 41
-30.0
 62
     5
 63
     7
421
 16777215
 74
     2
 91
        2
 64
     7
 65
   257
 75
     1
175
     1
 42
40.0
 92
        8
 66
     7
 43
1.0
 76
     1
 77
     6
 78
     2
 67
     7
 79
     3
170
     0
171
     0
290
     0
174
     0
 93
        1
 44
0.0
173
     0
291
     0
 45
0.0
  0
VISUALSTYLE
  5
35
102
{ACAD_REACTORS
330
2A
102
}
102
{ACAD_XDICTIONARY
360
96
102
}
330
2A
100
AcDbVisualStyle
  2
Dim
 70
    11
 71
     2
 72
     2
 73
     0
 90
        0
 40
-0.6
 41
-30.0
 62
     5
 63
     7
421
 16777215
 74
     1
 91
        4
 64
     7
 65
   257
 75
     1
175
     1
 42
1.0
 92
        8
 66
     7
 43
1.0
 76
     1
 77
     6
 78
     2
 67
     7
 79
     5
170
     0
171
     0
290
     0
174
     0
 93
        1
 44
-50.0
173
     0
291
     1
 45
0.0
  0
VISUALSTYLE
  5
39
102
{ACAD_REACTORS
330
2A
102
}
102
{ACAD_XDICTIONARY
360
9E
102
}
330
2A
100
AcDbVisualStyle
  2
Facepattern
 70
    15
 71
     2
 72
     2
 73
     0
 90
        0
 40
-0.6
 41
-30.0
 62
     5
 63
     7
421
 16777215
 74
     1
 91
        4
 64
     7
 65
   257
 75
     1
175
     1
 42
1.0
 92
        8
 66
     7
 43
1.0
 76
     1
 77
     6
 78
     2
 67
     7
 79
     5
170
     0
171
     0
290
     0
174
     0
 93
        1
 44
0.0
173
     0
291
     1
 45
0.0
  0
VISUALSTYLE
  5
2B
102
{ACAD_REACTORS
330
2A
102
}
102
{ACAD_XDICTIONARY
360
82
102
}
330
2A
100
AcDbVisualStyle
  2
Flat
 70
     0
 71
     2
 72
     1
 73
     1
 90
        2
 40
-0.6
 41
30.0
 62
     5
 63
     7
421
 16777215
 74
     0
 91
        4
 64
     7
 65
   257
 75
     1
175
     1
 42
1.0
 92
        8
 66
     7
 43
1.0
 76
     1
 77
     6
 78
     2
 67
     7
 79
     5
170
     0
171
     0
290
     0
174
     0
 93
       13
 44
0.0
173
     0
291
     1
 45
0.0
  0
VISUALSTYLE
  5
2C
102
{ACAD_REACTORS
330
2A
102
}
102
{ACAD_XDICTIONARY
360
84
102
}
330
2A
100
AcDbVisualStyle
  2
FlatWithEdges
 70
     1
 71
     2
 72
     1
 73
     1
 90
        2
 40
-0.6
 41
30.0
 62
     5
 63
     7
421
 16777215
 74
     1
 91
        4
 64
     7
 65
   257
 75
     1
175
     1
 42
1.0
 92
        0
 66
   257
 43
1.0
 76
     1
 77
     6
 78
     2
 67
     7
 79
     5
170
     0
171
     0
290
     0
174
     0
 93
       13
 44
0.0
173
     0
291
     1
 45
0.0
  0
VISUALSTYLE
  5
2D
102
{ACAD_REACTORS
330
2A
102
}
102
{ACAD_XDICTIONARY
360
86
102
}
330
2A
100
AcDbVisualStyle
  2
Gouraud
 70
     2
 71
     2
 72
     2
 73
     1
 90
        2
 40
-0.6
 41
30.0
 62
     5
 63
     7
421
 16777215
 74
     0
 91
        4
 64
     7
 65
   257
 75
     1
175
     1
 42
1.0
 92
        0
 66
     7
 43
1.0
 76
     1
 77
     6
 78
     2
 67
     7
 79
     5
170
     0
171
     0
290
     0
174
     0
 93
       13
 44
0.0
173
     0
291
     1
 45
0.0
  0
VISUALSTYLE
  5
2E
102
{ACAD_REACTORS
330
2A
102
}
102
{ACAD_XDICTIONARY
360
88
102
}
330
2A
100
AcDbVisualStyle
  2
GouraudWithEdges
 70
     3
 71
     2
 72
     2
 73
     1
 90
        2
 40
-0.6
 41
30.0
 62
     5
 63
     7
421
 16777215
 74
     1
 91
        4
 64
     7
 65
   257
 75
     1
175
     1
 42
1.0
 92
        0
 66
   257
 43
1.0
 76
     1
 77
     6
 78
     2
 67
     7
 79
     5
170
     0
171
     0
290
     0
174
     0
 93
       13
 44
0.0
173
     0
291
     1
 45
0.0
  0
VISUALSTYLE
  5
38
102
{ACAD_REACTORS
330
2A
102
}
102
{ACAD_XDICTIONARY
360
9C
102
}
330
2A
100
AcDbVisualStyle
  2
Linepattern
 70
    14
 71
     2
 72
     2
 73
     0
 90
        0
 40
-0.6
 41
-30.0
 62
     5
 63
     7
421
 16777215
 74
     1
 91
        4
 64
     7
 65
   257
 75
     7
175
     7
 42
1.0
 92
        8
 66
     7
 43
1.0
 76
     1
 77
     6
 78
     2
 67
     7
 79
     5
170
     0
171
     0
290
     0
174
     0
 93
        1
 44
0.0
173
     0
291
     1
 45
0.0
  0
VISUALSTYLE
  5
33
102
{ACAD_REACTORS
330
2A
102
}
102
{ACAD_XDICTIONARY
360
92
102
}
330
2A
100
AcDbVisualStyle
  2
Realistic
 70
     8
 71
     2
 72
     2
 73
     0
 90
        0
 40
-0.6
 41
-30.0
 62
     5
 63
     7
421
 16777215
 74
     1
 91
        0
 64
     7
 65
   257
 75
     1
175
     1
 42
1.0
 92
        8
 66
     8
424
  7895160
 43
1.0
 76
     1
 77
     6
 78
     2
 67
     7
 79
     5
170
     0
171
     0
290
     0
174
     0
 93
       13
 44
0.0
173
     0
291
     0
 45
0.0
  0
VISUALSTYLE
  5
37
102
{ACAD_REACTORS
330
2A
102
}
102
{ACAD_XDICTIONARY
360
9A
102
}
330
2A
100
AcDbVisualStyle
  2
Thicken
 70
    13
 71
     2
 72
     2
 73
     0
 90
        0
 40
-0.6
 41
-30.0
 62
     5
 63
     7
421
 16777215
 74
     1
 91
        4
 64
     7
 65
   257
 75
     1
175
     1
 42
1.0
 92
       12
 66
     7
 43
1.0
 76
     1
 77
     6
 78
     2
 67
     7
 79
     5
170
     0
171
     0
290
     0
174
     0
 93
        1
 44
0.0
173
     0
291
     1
 45
0.0
  0
DICTIONARY
  5
8A
330
2F
100
AcDbDictionary
280
     1
281
     1
  3
ACAD_XREC_ROUNDTRIP
360
8B
  0
DICTIONARY
  5
8E
330
31
100
AcDbDictionary
280
     1
281
     1
  3
ACAD_XREC_ROUNDTRIP
360
8F
  0
DICTIONARY
  5
8C
330
30
100
AcDbDictionary
280
     1
281
     1
  3
ACAD_XREC_ROUNDTRIP
360
8D
  0
DICTIONARY
  5
90
330
32
100
AcDbDictionary
280
     1
281
     1
  3
ACAD_XREC_ROUNDTRIP
360
91
  0
DICTIONARY
  5
98
330
36
100
AcDbDictionary
280
     1
281
     1
  3
ACAD_XREC_ROUNDTRIP
360
99
  0
DICTIONARY
  5
A0
330
3A
100
AcDbDictionary
280
     1
281
     1
  3
ACAD_XREC_ROUNDTRIP
360
A1
  0
DICTIONARY
  5
94
330
34
100
AcDbDictionary
280
     1
281
     1
  3
ACAD_XREC_ROUNDTRIP
360
95
  0
DICTIONARY
  5
96
330
35
100
AcDbDictionary
280
     1
281
     1
  3
ACAD_XREC_ROUNDTRIP
360
97
  0
DICTIONARY
  5
9E
330
39
100
AcDbDictionary
280
     1
281
     1
  3
ACAD_XREC_ROUNDTRIP
360
9F
  0
DICTIONARY
  5
82
330
2B
100
AcDbDictionary
280
     1
281
     1
  3
ACAD_XREC_ROUNDTRIP
360
83
  0
DICTIONARY
  5
84
330
2C
100
AcDbDictionary
280
     1
281
     1
  3
ACAD_XREC_ROUNDTRIP
360
85
  0
DICTIONARY
  5
86
330
2D
100
AcDbDictionary
280
     1
281
     1
  3
ACAD_XREC_ROUNDTRIP
360
87
  0
DICTIONARY
  5
88
330
2E
100
AcDbDictionary
280
     1
281
     1
  3
ACAD_XREC_ROUNDTRIP
360
89
  0
DICTIONARY
  5
9C
330
38
100
AcDbDictionary
280
     1
281
     1
  3
ACAD_XREC_ROUNDTRIP
360
9D
  0
DICTIONARY
  5
92
330
33
100
AcDbDictionary
280
     1
281
     1
  3
ACAD_XREC_ROUNDTRIP
360
93
  0
DICTIONARY
  5
9A
330
37
100
AcDbDictionary
280
     1
281
     1
  3
ACAD_XREC_ROUNDTRIP
360
9B
  0
XRECORD
  5
8B
102
{ACAD_REACTORS
330
8A
102
}
330
8A
100
AcDbXrecord
280
     1
102
RTVSPropertyOp0
 70
     1
102
RTVSPropertyOp1
 70
     1
102
RTVSPropertyOp2
 70
     1
102
RTVSPropertyOp3
 70
     1
102
RTVSPropertyOp4
 70
     1
102
RTVSPropertyOp5
 70
     1
102
RTVSPropertyOp6
 70
     1
102
RTVSPropertyOp7
 70
     1
102
RTVSPropertyOp8
 70
     1
102
RTVSPropertyOp9
 70
     1
102
RTVSPropertyOp10
 70
     1
102
RTVSPropertyOp11
 70
     1
102
RTVSPropertyOp12
 70
     1
102
RTVSPropertyOp13
 70
     1
102
RTVSPropertyOp14
 70
     1
102
RTVSPropertyOp15
 70
     1
102
RTVSPropertyOp16
 70
     1
102
RTVSPropertyOp17
 70
     1
102
RTVSPropertyOp18
 70
     1
102
RTVSPropertyOp19
 70
     1
102
RTVSPropertyOp20
 70
     1
102
RTVSPropertyOp21
 70
     1
102
RTVSPropertyOp22
 70
     1
102
RTVSPropertyOp23
 70
     1
102
RTVSPropertyOp24
 70
     1
102
RTVSPropertyOp25
 70
     1
102
RTVSPropertyOp26
 70
     1
102
RTVSPropertyOp27
 70
     1
102
RTVSPropertyOp28
 70
     1
102
RTVSPropertyOp29
 70
     1
102
RTVSPropertyOp30
 70
     1
102
RTVSPropertyOp31
 70
     1
102
RTVSPropertyOp32
 70
     1
  0
XRECORD
  5
8F
102
{ACAD_REACTORS
330
8E
102
}
330
8E
100
AcDbXrecord
280
     1
102
RTVSPropertyOp0
 70
     1
102
RTVSPropertyOp1
 70
     1
102
RTVSPropertyOp2
 70
     1
102
RTVSPropertyOp3
 70
     1
102
RTVSPropertyOp4
 70
     1
102
RTVSPropertyOp5
 70
     1
102
RTVSPropertyOp6
 70
     1
102
RTVSPropertyOp7
 70
     1
102
RTVSPropertyOp8
 70
     1
102
RTVSPropertyOp9
 70
     1
102
RTVSPropertyOp10
 70
     1
102
RTVSPropertyOp11
 70
     1
102
RTVSPropertyOp12
 70
     1
102
RTVSPropertyOp13
 70
     1
102
RTVSPropertyOp14
 70
     1
102
RTVSPropertyOp15
 70
     1
102
RTVSPropertyOp16
 70
     1
102
RTVSPropertyOp17
 70
     1
102
RTVSPropertyOp18
 70
     1
102
RTVSPropertyOp19
 70
     1
102
RTVSPropertyOp20
 70
     1
102
RTVSPropertyOp21
 70
     1
102
RTVSPropertyOp22
 70
     1
102
RTVSPropertyOp23
 70
     1
102
RTVSPropertyOp24
 70
     1
102
RTVSPropertyOp25
 70
     1
102
RTVSPropertyOp26
 70
     1
102
RTVSPropertyOp27
 70
     1
102
RTVSPropertyOp28
 70
     1
102
RTVSPropertyOp29
 70
     1
102
RTVSPropertyOp30
 70
     1
102
RTVSPropertyOp31
 70
     1
102
RTVSPropertyOp32
 70
     1
  0
XRECORD
  5
8D
102
{ACAD_REACTORS
330
8C
102
}
330
8C
100
AcDbXrecord
280
     1
102
RTVSPropertyOp0
 70
     1
102
RTVSPropertyOp1
 70
     1
102
RTVSPropertyOp2
 70
     1
102
RTVSPropertyOp3
 70
     1
102
RTVSPropertyOp4
 70
     1
102
RTVSPropertyOp5
 70
     1
102
RTVSPropertyOp6
 70
     1
102
RTVSPropertyOp7
 70
     1
102
RTVSPropertyOp8
 70
     1
102
RTVSPropertyOp9
 70
     1
102
RTVSPropertyOp10
 70
     1
102
RTVSPropertyOp11
 70
     1
102
RTVSPropertyOp12
 70
     1
102
RTVSPropertyOp13
 70
     1
102
RTVSPropertyOp14
 70
     1
102
RTVSPropertyOp15
 70
     1
102
RTVSPropertyOp16
 70
     1
102
RTVSPropertyOp17
 70
     1
102
RTVSPropertyOp18
 70
     1
102
RTVSPropertyOp19
 70
     1
102
RTVSPropertyOp20
 70
     1
102
RTVSPropertyOp21
 70
     1
102
RTVSPropertyOp22
 70
     1
102
RTVSPropertyOp23
 70
     1
102
RTVSPropertyOp24
 70
     1
102
RTVSPropertyOp25
 70
     1
102
RTVSPropertyOp26
 70
     1
102
RTVSPropertyOp27
 70
     1
102
RTVSPropertyOp28
 70
     1
102
RTVSPropertyOp29
 70
     1
102
RTVSPropertyOp30
 70
     1
102
RTVSPropertyOp31
 70
     1
102
RTVSPropertyOp32
 70
     1
  0
XRECORD
  5
91
102
{ACAD_REACTORS
330
90
102
}
330
90
100
AcDbXrecord
280
     1
102
RTVSPropertyOp0
 70
     1
102
RTVSPropertyOp1
 70
     1
102
RTVSPropertyOp2
 70
     1
102
RTVSPropertyOp3
 70
     1
102
RTVSPropertyOp4
 70
     1
102
RTVSPropertyOp5
 70
     1
102
RTVSPropertyOp6
 70
     1
102
RTVSPropertyOp7
 70
     1
102
RTVSPropertyOp8
 70
     1
102
RTVSPropertyOp9
 70
     1
102
RTVSPropertyOp10
 70
     1
102
RTVSPropertyOp11
 70
     1
102
RTVSPropertyOp12
 70
     1
102
RTVSPropertyOp13
 70
     1
102
RTVSPropertyOp14
 70
     1
102
RTVSPropertyOp15
 70
     1
102
RTVSPropertyOp16
 70
     1
102
RTVSPropertyOp17
 70
     1
102
RTVSPropertyOp18
 70
     1
102
RTVSPropertyOp19
 70
     1
102
RTVSPropertyOp20
 70
     1
102
RTVSPropertyOp21
 70
     1
102
RTVSPropertyOp22
 70
     1
102
RTVSPropertyOp23
 70
     1
102
RTVSPropertyOp24
 70
     1
102
RTVSPropertyOp25
 70
     1
102
RTVSPropertyOp26
 70
     1
102
RTVSPropertyOp27
 70
     1
102
RTVSPropertyOp28
 70
     1
102
RTVSPropertyOp29
 70
     1
102
RTVSPropertyOp30
 70
     1
102
RTVSPropertyOp31
 70
     1
102
RTVSPropertyOp32
 70
     1
  0
XRECORD
  5
99
102
{ACAD_REACTORS
330
98
102
}
330
98
100
AcDbXrecord
280
     1
102
RTVSPropertyOp0
 70
     1
102
RTVSPropertyOp1
 70
     1
102
RTVSPropertyOp2
 70
     1
102
RTVSPropertyOp3
 70
     1
102
RTVSPropertyOp4
 70
     1
102
RTVSPropertyOp5
 70
     1
102
RTVSPropertyOp6
 70
     1
102
RTVSPropertyOp7
 70
     1
102
RTVSPropertyOp8
 70
     1
102
RTVSPropertyOp9
 70
     1
102
RTVSPropertyOp10
 70
     1
102
RTVSPropertyOp11
 70
     1
102
RTVSPropertyOp12
 70
     1
102
RTVSPropertyOp13
 70
     1
102
RTVSPropertyOp14
 70
     1
102
RTVSPropertyOp15
 70
     1
102
RTVSPropertyOp16
 70
     1
102
RTVSPropertyOp17
 70
     1
102
RTVSPropertyOp18
 70
     1
102
RTVSPropertyOp19
 70
     1
102
RTVSPropertyOp20
 70
     1
102
RTVSPropertyOp21
 70
     1
102
RTVSPropertyOp22
 70
     1
102
RTVSPropertyOp23
 70
     1
102
RTVSPropertyOp24
 70
     1
102
RTVSPropertyOp25
 70
     1
102
RTVSPropertyOp26
 70
     1
102
RTVSPropertyOp27
 70
     1
102
RTVSPropertyOp28
 70
     1
102
RTVSPropertyOp29
 70
     1
102
RTVSPropertyOp30
 70
     1
102
RTVSPropertyOp31
 70
     1
102
RTVSPropertyOp32
 70
     1
  0
XRECORD
  5
A1
102
{ACAD_REACTORS
330
A0
102
}
330
A0
100
AcDbXrecord
280
     1
102
RTVSPropertyOp0
 70
     1
102
RTVSPropertyOp1
 70
     1
102
RTVSPropertyOp2
 70
     1
102
RTVSPropertyOp3
 70
     1
102
RTVSPropertyOp4
 70
     1
102
RTVSPropertyOp5
 70
     1
102
RTVSPropertyOp6
 70
     1
102
RTVSPropertyOp7
 70
     1
102
RTVSPropertyOp8
 70
     1
102
RTVSPropertyOp9
 70
     1
102
RTVSPropertyOp10
 70
     1
102
RTVSPropertyOp11
 70
     1
102
RTVSPropertyOp12
 70
     1
102
RTVSPropertyOp13
 70
     1
102
RTVSPropertyOp14
 70
     1
102
RTVSPropertyOp15
 70
     1
102
RTVSPropertyOp16
 70
     1
102
RTVSPropertyOp17
 70
     1
102
RTVSPropertyOp18
 70
     1
102
RTVSPropertyOp19
 70
     1
102
RTVSPropertyOp20
 70
     1
102
RTVSPropertyOp21
 70
     1
102
RTVSPropertyOp22
 70
     1
102
RTVSPropertyOp23
 70
     1
102
RTVSPropertyOp24
 70
     1
102
RTVSPropertyOp25
 70
     1
102
RTVSPropertyOp26
 70
     1
102
RTVSPropertyOp27
 70
     1
102
RTVSPropertyOp28
 70
     1
102
RTVSPropertyOp29
 70
     1
102
RTVSPropertyOp30
 70
     1
102
RTVSPropertyOp31
 70
     1
102
RTVSPropertyOp32
 70
     1
  0
XRECORD
  5
95
102
{ACAD_REACTORS
330
94
102
}
330
94
100
AcDbXrecord
280
     1
102
RTVSPropertyOp0
 70
     1
102
RTVSPropertyOp1
 70
     1
102
RTVSPropertyOp2
 70
     1
102
RTVSPropertyOp3
 70
     1
102
RTVSPropertyOp4
 70
     1
102
RTVSPropertyOp5
 70
     1
102
RTVSPropertyOp6
 70
     1
102
RTVSPropertyOp7
 70
     1
102
RTVSPropertyOp8
 70
     1
102
RTVSPropertyOp9
 70
     1
102
RTVSPropertyOp10
 70
     1
102
RTVSPropertyOp11
 70
     1
102
RTVSPropertyOp12
 70
     1
102
RTVSPropertyOp13
 70
     1
102
RTVSPropertyOp14
 70
     1
102
RTVSPropertyOp15
 70
     1
102
RTVSPropertyOp16
 70
     1
102
RTVSPropertyOp17
 70
     1
102
RTVSPropertyOp18
 70
     1
102
RTVSPropertyOp19
 70
     1
102
RTVSPropertyOp20
 70
     1
102
RTVSPropertyOp21
 70
     1
102
RTVSPropertyOp22
 70
     1
102
RTVSPropertyOp23
 70
     1
102
RTVSPropertyOp24
 70
     1
102
RTVSPropertyOp25
 70
     1
102
RTVSPropertyOp26
 70
     1
102
RTVSPropertyOp27
 70
     1
102
RTVSPropertyOp28
 70
     1
102
RTVSPropertyOp29
 70
     1
102
RTVSPropertyOp30
 70
     1
102
RTVSPropertyOp31
 70
     1
102
RTVSPropertyOp32
 70
     1
  0
XRECORD
  5
97
102
{ACAD_REACTORS
330
96
102
}
330
96
100
AcDbXrecord
280
     1
102
RTVSPropertyOp0
 70
     1
102
RTVSPropertyOp1
 70
     1
102
RTVSPropertyOp2
 70
     1
102
RTVSPropertyOp3
 70
     1
102
RTVSPropertyOp4
 70
     1
102
RTVSPropertyOp5
 70
     1
102
RTVSPropertyOp6
 70
     1
102
RTVSPropertyOp7
 70
     1
102
RTVSPropertyOp8
 70
     1
102
RTVSPropertyOp9
 70
     1
102
RTVSPropertyOp10
 70
     1
102
RTVSPropertyOp11
 70
     1
102
RTVSPropertyOp12
 70
     1
102
RTVSPropertyOp13
 70
     1
102
RTVSPropertyOp14
 70
     1
102
RTVSPropertyOp15
 70
     1
102
RTVSPropertyOp16
 70
     1
102
RTVSPropertyOp17
 70
     1
102
RTVSPropertyOp18
 70
     1
102
RTVSPropertyOp19
 70
     1
102
RTVSPropertyOp20
 70
     1
102
RTVSPropertyOp21
 70
     1
102
RTVSPropertyOp22
 70
     1
102
RTVSPropertyOp23
 70
     1
102
RTVSPropertyOp24
 70
     1
102
RTVSPropertyOp25
 70
     1
102
RTVSPropertyOp26
 70
     1
102
RTVSPropertyOp27
 70
     1
102
RTVSPropertyOp28
 70
     1
102
RTVSPropertyOp29
 70
     1
102
RTVSPropertyOp30
 70
     1
102
RTVSPropertyOp31
 70
     1
102
RTVSPropertyOp32
 70
     1
  0
XRECORD
  5
9F
102
{ACAD_REACTORS
330
9E
102
}
330
9E
100
AcDbXrecord
280
     1
102
RTVSPropertyOp0
 70
     1
102
RTVSPropertyOp1
 70
     1
102
RTVSPropertyOp2
 70
     1
102
RTVSPropertyOp3
 70
     1
102
RTVSPropertyOp4
 70
     1
102
RTVSPropertyOp5
 70
     1
102
RTVSPropertyOp6
 70
     1
102
RTVSPropertyOp7
 70
     1
102
RTVSPropertyOp8
 70
     1
102
RTVSPropertyOp9
 70
     1
102
RTVSPropertyOp10
 70
     1
102
RTVSPropertyOp11
 70
     1
102
RTVSPropertyOp12
 70
     1
102
RTVSPropertyOp13
 70
     1
102
RTVSPropertyOp14
 70
     1
102
RTVSPropertyOp15
 70
     1
102
RTVSPropertyOp16
 70
     1
102
RTVSPropertyOp17
 70
     1
102
RTVSPropertyOp18
 70
     1
102
RTVSPropertyOp19
 70
     1
102
RTVSPropertyOp20
 70
     1
102
RTVSPropertyOp21
 70
     1
102
RTVSPropertyOp22
 70
     1
102
RTVSPropertyOp23
 70
     1
102
RTVSPropertyOp24
 70
     1
102
RTVSPropertyOp25
 70
     1
102
RTVSPropertyOp26
 70
     1
102
RTVSPropertyOp27
 70
     1
102
RTVSPropertyOp28
 70
     1
102
RTVSPropertyOp29
 70
     1
102
RTVSPropertyOp30
 70
     1
102
RTVSPropertyOp31
 70
     1
102
RTVSPropertyOp32
 70
     1
  0
XRECORD
  5
83
102
{ACAD_REACTORS
330
82
102
}
330
82
100
AcDbXrecord
280
     1
102
RTVSPropertyOp0
 70
     1
102
RTVSPropertyOp1
 70
     1
102
RTVSPropertyOp2
 70
     1
102
RTVSPropertyOp3
 70
     1
102
RTVSPropertyOp4
 70
     1
102
RTVSPropertyOp5
 70
     1
102
RTVSPropertyOp6
 70
     1
102
RTVSPropertyOp7
 70
     1
102
RTVSPropertyOp8
 70
     1
102
RTVSPropertyOp9
 70
     1
102
RTVSPropertyOp10
 70
     1
102
RTVSPropertyOp11
 70
     1
102
RTVSPropertyOp12
 70
     1
102
RTVSPropertyOp13
 70
     1
102
RTVSPropertyOp14
 70
     1
102
RTVSPropertyOp15
 70
     1
102
RTVSPropertyOp16
 70
     1
102
RTVSPropertyOp17
 70
     1
102
RTVSPropertyOp18
 70
     1
102
RTVSPropertyOp19
 70
     1
102
RTVSPropertyOp20
 70
     1
102
RTVSPropertyOp21
 70
     1
102
RTVSPropertyOp22
 70
     1
102
RTVSPropertyOp23
 70
     1
102
RTVSPropertyOp24
 70
     1
102
RTVSPropertyOp25
 70
     1
102
RTVSPropertyOp26
 70
     1
102
RTVSPropertyOp27
 70
     1
102
RTVSPropertyOp28
 70
     1
102
RTVSPropertyOp29
 70
     1
102
RTVSPropertyOp30
 70
     1
102
RTVSPropertyOp31
 70
     1
102
RTVSPropertyOp32
 70
     1
  0
XRECORD
  5
85
102
{ACAD_REACTORS
330
84
102
}
330
84
100
AcDbXrecord
280
     1
102
RTVSPropertyOp0
 70
     1
102
RTVSPropertyOp1
 70
     1
102
RTVSPropertyOp2
 70
     1
102
RTVSPropertyOp3
 70
     1
102
RTVSPropertyOp4
 70
     1
102
RTVSPropertyOp5
 70
     1
102
RTVSPropertyOp6
 70
     1
102
RTVSPropertyOp7
 70
     1
102
RTVSPropertyOp8
 70
     1
102
RTVSPropertyOp9
 70
     1
102
RTVSPropertyOp10
 70
     1
102
RTVSPropertyOp11
 70
     1
102
RTVSPropertyOp12
 70
     1
102
RTVSPropertyOp13
 70
     1
102
RTVSPropertyOp14
 70
     1
102
RTVSPropertyOp15
 70
     1
102
RTVSPropertyOp16
 70
     1
102
RTVSPropertyOp17
 70
     1
102
RTVSPropertyOp18
 70
     1
102
RTVSPropertyOp19
 70
     1
102
RTVSPropertyOp20
 70
     1
102
RTVSPropertyOp21
 70
     1
102
RTVSPropertyOp22
 70
     1
102
RTVSPropertyOp23
 70
     1
102
RTVSPropertyOp24
 70
     1
102
RTVSPropertyOp25
 70
     1
102
RTVSPropertyOp26
 70
     1
102
RTVSPropertyOp27
 70
     1
102
RTVSPropertyOp28
 70
     1
102
RTVSPropertyOp29
 70
     1
102
RTVSPropertyOp30
 70
     1
102
RTVSPropertyOp31
 70
     1
102
RTVSPropertyOp32
 70
     1
  0
XRECORD
  5
87
102
{ACAD_REACTORS
330
86
102
}
330
86
100
AcDbXrecord
280
     1
102
RTVSPropertyOp0
 70
     1
102
RTVSPropertyOp1
 70
     1
102
RTVSPropertyOp2
 70
     1
102
RTVSPropertyOp3
 70
     1
102
RTVSPropertyOp4
 70
     1
102
RTVSPropertyOp5
 70
     1
102
RTVSPropertyOp6
 70
     1
102
RTVSPropertyOp7
 70
     1
102
RTVSPropertyOp8
 70
     1
102
RTVSPropertyOp9
 70
     1
102
RTVSPropertyOp10
 70
     1
102
RTVSPropertyOp11
 70
     1
102
RTVSPropertyOp12
 70
     1
102
RTVSPropertyOp13
 70
     1
102
RTVSPropertyOp14
 70
     1
102
RTVSPropertyOp15
 70
     1
102
RTVSPropertyOp16
 70
     1
102
RTVSPropertyOp17
 70
     1
102
RTVSPropertyOp18
 70
     1
102
RTVSPropertyOp19
 70
     1
102
RTVSPropertyOp20
 70
     1
102
RTVSPropertyOp21
 70
     1
102
RTVSPropertyOp22
 70
     1
102
RTVSPropertyOp23
 70
     1
102
RTVSPropertyOp24
 70
     1
102
RTVSPropertyOp25
 70
     1
102
RTVSPropertyOp26
 70
     1
102
RTVSPropertyOp27
 70
     1
102
RTVSPropertyOp28
 70
     1
102
RTVSPropertyOp29
 70
     1
102
RTVSPropertyOp30
 70
     1
102
RTVSPropertyOp31
 70
     1
102
RTVSPropertyOp32
 70
     1
  0
XRECORD
  5
89
102
{ACAD_REACTORS
330
88
102
}
330
88
100
AcDbXrecord
280
     1
102
RTVSPropertyOp0
 70
     1
102
RTVSPropertyOp1
 70
     1
102
RTVSPropertyOp2
 70
     1
102
RTVSPropertyOp3
 70
     1
102
RTVSPropertyOp4
 70
     1
102
RTVSPropertyOp5
 70
     1
102
RTVSPropertyOp6
 70
     1
102
RTVSPropertyOp7
 70
     1
102
RTVSPropertyOp8
 70
     1
102
RTVSPropertyOp9
 70
     1
102
RTVSPropertyOp10
 70
     1
102
RTVSPropertyOp11
 70
     1
102
RTVSPropertyOp12
 70
     1
102
RTVSPropertyOp13
 70
     1
102
RTVSPropertyOp14
 70
     1
102
RTVSPropertyOp15
 70
     1
102
RTVSPropertyOp16
 70
     1
102
RTVSPropertyOp17
 70
     1
102
RTVSPropertyOp18
 70
     1
102
RTVSPropertyOp19
 70
     1
102
RTVSPropertyOp20
 70
     1
102
RTVSPropertyOp21
 70
     1
102
RTVSPropertyOp22
 70
     1
102
RTVSPropertyOp23
 70
     1
102
RTVSPropertyOp24
 70
     1
102
RTVSPropertyOp25
 70
     1
102
RTVSPropertyOp26
 70
     1
102
RTVSPropertyOp27
 70
     1
102
RTVSPropertyOp28
 70
     1
102
RTVSPropertyOp29
 70
     1
102
RTVSPropertyOp30
 70
     1
102
RTVSPropertyOp31
 70
     1
102
RTVSPropertyOp32
 70
     1
  0
XRECORD
  5
9D
102
{ACAD_REACTORS
330
9C
102
}
330
9C
100
AcDbXrecord
280
     1
102
RTVSPropertyOp0
 70
     1
102
RTVSPropertyOp1
 70
     1
102
RTVSPropertyOp2
 70
     1
102
RTVSPropertyOp3
 70
     1
102
RTVSPropertyOp4
 70
     1
102
RTVSPropertyOp5
 70
     1
102
RTVSPropertyOp6
 70
     1
102
RTVSPropertyOp7
 70
     1
102
RTVSPropertyOp8
 70
     1
102
RTVSPropertyOp9
 70
     1
102
RTVSPropertyOp10
 70
     1
102
RTVSPropertyOp11
 70
     1
102
RTVSPropertyOp12
 70
     1
102
RTVSPropertyOp13
 70
     1
102
RTVSPropertyOp14
 70
     1
102
RTVSPropertyOp15
 70
     1
102
RTVSPropertyOp16
 70
     1
102
RTVSPropertyOp17
 70
     1
102
RTVSPropertyOp18
 70
     1
102
RTVSPropertyOp19
 70
     1
102
RTVSPropertyOp20
 70
     1
102
RTVSPropertyOp21
 70
     1
102
RTVSPropertyOp22
 70
     1
102
RTVSPropertyOp23
 70
     1
102
RTVSPropertyOp24
 70
     1
102
RTVSPropertyOp25
 70
     1
102
RTVSPropertyOp26
 70
     1
102
RTVSPropertyOp27
 70
     1
102
RTVSPropertyOp28
 70
     1
102
RTVSPropertyOp29
 70
     1
102
RTVSPropertyOp30
 70
     1
102
RTVSPropertyOp31
 70
     1
102
RTVSPropertyOp32
 70
     1
  0
XRECORD
  5
93
102
{ACAD_REACTORS
330
92
102
}
330
92
100
AcDbXrecord
280
     1
102
RTVSPropertyOp0
 70
     1
102
RTVSPropertyOp1
 70
     1
102
RTVSPropertyOp2
 70
     1
102
RTVSPropertyOp3
 70
     1
102
RTVSPropertyOp4
 70
     1
102
RTVSPropertyOp5
 70
     1
102
RTVSPropertyOp6
 70
     1
102
RTVSPropertyOp7
 70
     1
102
RTVSPropertyOp8
 70
     1
102
RTVSPropertyOp9
 70
     1
102
RTVSPropertyOp10
 70
     1
102
RTVSPropertyOp11
 70
     1
102
RTVSPropertyOp12
 70
     1
102
RTVSPropertyOp13
 70
     1
102
RTVSPropertyOp14
 70
     1
102
RTVSPropertyOp15
 70
     1
102
RTVSPropertyOp16
 70
     1
102
RTVSPropertyOp17
 70
     1
102
RTVSPropertyOp18
 70
     1
102
RTVSPropertyOp19
 70
     1
102
RTVSPropertyOp20
 70
     1
102
RTVSPropertyOp21
 70
     1
102
RTVSPropertyOp22
 70
     1
102
RTVSPropertyOp23
 70
     1
102
RTVSPropertyOp24
 70
     1
102
RTVSPropertyOp25
 70
     1
102
RTVSPropertyOp26
 70
     1
102
RTVSPropertyOp27
 70
     1
102
RTVSPropertyOp28
 70
     1
102
RTVSPropertyOp29
 70
     1
102
RTVSPropertyOp30
 70
     1
102
RTVSPropertyOp31
 70
     1
102
RTVSPropertyOp32
 70
     1
  0
XRECORD
  5
9B
102
{ACAD_REACTORS
330
9A
102
}
330
9A
100
AcDbXrecord
280
     1
102
RTVSPropertyOp0
 70
     1
102
RTVSPropertyOp1
 70
     1
102
RTVSPropertyOp2
 70
     1
102
RTVSPropertyOp3
 70
     1
102
RTVSPropertyOp4
 70
     1
102
RTVSPropertyOp5
 70
     1
102
RTVSPropertyOp6
 70
     1
102
RTVSPropertyOp7
 70
     1
102
RTVSPropertyOp8
 70
     1
102
RTVSPropertyOp9
 70
     1
102
RTVSPropertyOp10
 70
     1
102
RTVSPropertyOp11
 70
     1
102
RTVSPropertyOp12
 70
     1
102
RTVSPropertyOp13
 70
     1
102
RTVSPropertyOp14
 70
     1
102
RTVSPropertyOp15
 70
     1
102
RTVSPropertyOp16
 70
     1
102
RTVSPropertyOp17
 70
     1
102
RTVSPropertyOp18
 70
     1
102
RTVSPropertyOp19
 70
     1
102
RTVSPropertyOp20
 70
     1
102
RTVSPropertyOp21
 70
     1
102
RTVSPropertyOp22
 70
     1
102
RTVSPropertyOp23
 70
     1
102
RTVSPropertyOp24
 70
     1
102
RTVSPropertyOp25
 70
     1
102
RTVSPropertyOp26
 70
     1
102
RTVSPropertyOp27
 70
     1
102
RTVSPropertyOp28
 70
     1
102
RTVSPropertyOp29
 70
     1
102
RTVSPropertyOp30
 70
     1
102
RTVSPropertyOp31
 70
     1
102
RTVSPropertyOp32
 70
     1
  0
ENDSEC
  0
EOF
