  0
SECTION
  2
HEADER
  9
$ACADVER
  1
AC1021
  9
$ACADMAINTVER
 70
    25
  9
$DWGCODEPAGE
  3
ANSI_1252
  9
$INSBASE
 10
0.0
 20
0.0
 30
0.0
  9
$EXTMIN
 10
-12.54232
 20
-7.30388
 30
0.0
  9
$EXTMAX
 10
11.47497
 20
7.86862
 30
0.0
  9
$LIMMIN
 10
0.0
 20
0.0
  9
$LIMMAX
 10
12.0
 20
9.0
  9
$ORTHOMODE
 70
     0
  9
$REGENMODE
 70
     1
  9
$FILLMODE
 70
     1
  9
$QTEXTMODE
 70
     0
  9
$MIRRTEXT
 70
     1
  9
$LTSCALE
 40
1.0
  9
$ATTMODE
 70
     1
  9
$TEXTSIZE
 40
0.2
  9
$TRACEWID
 40
0.05
  9
$TEXTSTYLE
  7
Standard
  9
$CLAYER
  8
0
  9
$CELTYPE
  6
ByLayer
  9
$CECOLOR
 62
   256
  9
$CELTSCALE
 40
1.0
  9
$DISPSILH
 70
     0
  9
$DIMSCALE
 40
1.0
  9
$DIMASZ
 40
0.18
  9
$DIMEXO
 40
0.0625
  9
$DIMDLI
 40
0.38
  9
$DIMRND
 40
0.0
  9
$DIMDLE
 40
0.0
  9
$DIMEXE
 40
0.18
  9
$DIMTP
 40
0.0
  9
$DIMTM
 40
0.0
  9
$DIMTXT
 40
0.18
  9
$DIMCEN
 40
0.09
  9
$DIMTSZ
 40
0.0
  9
$DIMTOL
 70
     0
  9
$DIMLIM
 70
     0
  9
$DIMTIH
 70
     1
  9
$DIMTOH
 70
     1
  9
$DIMSE1
 70
     0
  9
$DIMSE2
 70
     0
  9
$DIMTAD
 70
     0
  9
$DIMZIN
 70
     0
  9
$DIMBLK
  1

  9
$DIMASO
 70
     1
  9
$DIMSHO
 70
     1
  9
$DIMPOST
  1

  9
$DIMAPOST
  1

  9
$DIMALT
 70
     0
  9
$DIMALTD
 70
     2
  9
$DIMALTF
 40
25.4
  9
$DIMLFAC
 40
1.0
  9
$DIMTOFL
 70
     0
  9
$DIMTVP
 40
0.0
  9
$DIMTIX
 70
     0
  9
$DIMSOXD
 70
     0
  9
$DIMSAH
 70
     0
  9
$DIMBLK1
  1

  9
$DIMBLK2
  1

  9
$DIMSTYLE
  2
Standard
  9
$DIMCLRD
 70
     0
  9
$DIMCLRE
 70
     0
  9
$DIMCLRT
 70
     0
  9
$DIMTFAC
 40
1.0
  9
$DIMGAP
 40
0.09
  9
$DIMJUST
 70
     0
  9
$DIMSD1
 70
     0
  9
$DIMSD2
 70
     0
  9
$DIMTOLJ
 70
     1
  9
$DIMTZIN
 70
     0
  9
$DIMALTZ
 70
     0
  9
$DIMALTTZ
 70
     0
  9
$DIMUPT
 70
     0
  9
$DIMDEC
 70
     4
  9
$DIMTDEC
 70
     4
  9
$DIMALTU
 70
     2
  9
$DIMALTTD
 70
     2
  9
$DIMTXSTY
  7
Standard
  9
$DIMAUNIT
 70
     0
  9
$DIMADEC
 70
     0
  9
$DIMALTRND
 40
0.0
  9
$DIMAZIN
 70
     0
  9
$DIMDSEP
 70
    46
  9
$DIMATFIT
 70
     3
  9
$DIMFRAC
 70
     0
  9
$DIMLDRBLK
  1

  9
$DIMLUNIT
 70
     2
  9
$DIMLWD
 70
    -2
  9
$DIMLWE
 70
    -2
  9
$DIMTMOVE
 70
     0
  9
$DIMFXL
 40
1.0
  9
$DIMFXLON
 70
     0
  9
$DIMJOGANG
 40
0.7853981633974483
  9
$DIMTFILL
 70
     0
  9
$DIMTFILLCLR
 70
     0
  9
$DIMARCSYM
 70
     0
  9
$DIMLTYPE
  6

  9
$DIMLTEX1
  6

  9
$DIMLTEX2
  6

  9
$LUNITS
 70
     2
  9
$LUPREC
 70
     4
  9
$SKETCHINC
 40
0.1
  9
$FILLETRAD
 40
0.5
  9
$AUNITS
 70
     0
  9
$AUPREC
 70
     0
  9
$MENU
  1
.
  9
$ELEVATION
 40
0.0
  9
$PELEVATION
 40
0.0
  9
$THICKNESS
 40
0.0
  9
$LIMCHECK
 70
     0
  9
$CHAMFERA
 40
0.5
  9
$CHAMFERB
 40
0.5
  9
$CHAMFERC
 40
1.0
  9
$CHAMFERD
 40
0.0
  9
$SKPOLY
 70
     0
  9
$TDCREATE
 40
2456231.951544791
  9
$TDUCREATE
 40
2456232.118211458
  9
$TDUPDATE
 40
2456231.95154485
  9
$TDUUPDATE
 40
2456232.118211516
  9
$TDINDWG
 40
0.0000000116
  9
$TDUSRTIMER
 40
0.0000000116
  9
$USRTIMER
 70
     1
  9
$ANGBASE
 50
0.0
  9
$ANGDIR
 70
     0
  9
$PDMODE
 70
     0
  9
$PDSIZE
 40
0.0
  9
$PLINEWID
 40
0.0
  9
$SPLFRAME
 70
     0
  9
$SPLINETYPE
 70
     6
  9
$SPLINESEGS
 70
     8
  9
$HANDSEED
  5
A2
  9
$SURFTAB1
 70
     6
  9
$SURFTAB2
 70
     6
  9
$SURFTYPE
 70
     6
  9
$SURFU
 70
     6
  9
$SURFV
 70
     6
  9
$UCSBASE
  2

  9
$UCSNAME
  2

  9
$UCSORG
 10
0.0
 20
0.0
 30
0.0
  9
$UCSXDIR
 10
1.0
 20
0.0
 30
0.0
  9
$UCSYDIR
 10
0.0
 20
1.0
 30
0.0
  9
$UCSORTHOREF
  2

  9
$UCSORTHOVIEW
 70
     0
  9
$UCSORGTOP
 10
0.0
 20
0.0
 30
0.0
  9
$UCSORGBOTTOM
 10
0.0
 20
0.0
 30
0.0
  9
$UCSORGLEFT
 10
0.0
 20
0.0
 30
0.0
  9
$UCSORGRIGHT
 10
0.0
 20
0.0
 30
0.0
  9
$UCSORGFRONT
 10
0.0
 20
0.0
 30
0.0
  9
$UCSORGBACK
 10
0.0
 20
0.0
 30
0.0
  9
$PUCSBASE
  2

  9
$PUCSNAME
  2

  9
$PUCSORG
 10
0.0
 20
0.0
 30
0.0
  9
$PUCSXDIR
 10
1.0
 20
0.0
 30
0.0
  9
$PUCSYDIR
 10
0.0
 20
1.0
 30
0.0
  9
$PUCSORTHOREF
  2

  9
$PUCSORTHOVIEW
 70
     0
  9
$PUCSORGTOP
 10
0.0
 20
0.0
 30
0.0
  9
$PUCSORGBOTTOM
 10
0.0
 20
0.0
 30
0.0
  9
$PUCSORGLEFT
 10
0.0
 20
0.0
 30
0.0
  9
$PUCSORGRIGHT
 10
0.0
 20
0.0
 30
0.0
  9
$PUCSORGFRONT
 10
0.0
 20
0.0
 30
0.0
  9
$PUCSORGBACK
 10
0.0
 20
0.0
 30
0.0
  9
$USERI1
 70
     0
  9
$USERI2
 70
     0
  9
$USERI3
 70
     0
  9
$USERI4
 70
     0
  9
$USERI5
 70
     0
  9
$USERR1
 40
0.0
  9
$USERR2
 40
0.0
  9
$USERR3
 40
0.0
  9
$USERR4
 40
0.0
  9
$USERR5
 40
0.0
  9
$WORLDVIEW
 70
     1
  9
$SHADEDGE
 70
     3
  9
$SHADEDIF
 70
    70
  9
$TILEMODE
 70
     1
  9
$MAXACTVP
 70
    64
  9
$PINSBASE
 10
0.0
 20
0.0
 30
0.0
  9
$PLIMCHECK
 70
     0
  9
$PEXTMIN
 10
1.000000000000000E+20
 20
1.000000000000000E+20
 30
1.000000000000000E+20
  9
$PEXTMAX
 10
-1.000000000000000E+20
 20
-1.000000000000000E+20
 30
-1.000000000000000E+20
  9
$PLIMMIN
 10
0.0
 20
0.0
  9
$PLIMMAX
 10
12.0
 20
9.0
  9
$UNITMODE
 70
     0
  9
$VISRETAIN
 70
     1
  9
$PLINEGEN
 70
     0
  9
$PSLTSCALE
 70
     1
  9
$TREEDEPTH
 70
  3020
  9
$CMLSTYLE
  2
Standard
  9
$CMLJUST
 70
     0
  9
$CMLSCALE
 40
1.0
  9
$PROXYGRAPHICS
 70
     1
  9
$MEASUREMENT
 70
     0
  9
$CELWEIGHT
370
    -1
  9
$ENDCAPS
280
     0
  9
$JOINSTYLE
280
     0
  9
$LWDISPLAY
290
     0
  9
$INSUNITS
 70
     5
  9
$HYPERLINKBASE
  1

  9
$STYLESHEET
  1

  9
$XEDIT
290
     1
  9
$CEPSNTYPE
380
     0
  9
$PSTYLEMODE
290
     1
  9
$FINGERPRINTGUID
  2
{BDDB3F40-AB5A-4555-9F3E-3375D8B2B12A}
  9
$VERSIONGUID
  2
{FAEB1C32-E019-11D5-929B-00C0DF256EC4}
  9
$EXTNAMES
290
     1
  9
$PSVPSCALE
 40
0.0
  9
$OLESTARTUP
290
     0
  9
$SORTENTS
280
   127
  9
$INDEXCTL
280
     0
  9
$HIDETEXT
280
     1
  9
$XCLIPFRAME
290
     0
  9
$HALOGAP
280
     0
  9
$OBSCOLOR
 70
   257
  9
$OBSLTYPE
280
     0
  9
$INTERSECTIONDISPLAY
280
     0
  9
$INTERSECTIONCOLOR
 70
   257
  9
$DIMASSOC
280
     2
  9
$PROJECTNAME
  1

  9
$CAMERADISPLAY
290
     0
  9
$LENSLENGTH
 40
50.0
  9
$CAMERAHEIGHT
 40
0.0
  9
$STEPSPERSEC
 40
2.0
  9
$STEPSIZE
 40
6.0
  9
$3DDWFPREC
 40
2.0
  9
$PSOLWIDTH
 40
0.25
  9
$PSOLHEIGHT
 40
4.0
  9
$LOFTANG1
 40
1.570796326794897
  9
$LOFTANG2
 40
1.570796326794897
  9
$LOFTMAG1
 40
0.0
  9
$LOFTMAG2
 40
0.0
  9
$LOFTPARAM
 70
     7
  9
$LOFTNORMALS
280
     1
  9
$LATITUDE
 40
37.795
  9
$LONGITUDE
 40
-122.394
  9
$NORTHDIRECTION
 40
0.0
  9
$TIMEZONE
 70
 -8000
  9
$LIGHTGLYPHDISPLAY
280
     1
  9
$TILEMODELIGHTSYNCH
280
     1
  9
$SOLIDHIST
280
     1
  9
$SHOWHIST
280
     1
  9
$DWFFRAME
280
     2
  9
$DGNFRAME
280
     2
  9
$REALWORLDSCALE
290
     1
  9
$INTERFERECOLOR
 62
   256
  9
$CSHADOW
280
     0
  9
$SHADOWPLANELOCATION
 40
0.0
  0
ENDSEC
  0
SECTION
  2
CLASSES
  0
CLASS
  1
ACDBDICTIONARYWDFLT
  2
AcDbDictionaryWithDefault
  3
ObjectDBX Classes
 90
        0
 91
        4
280
     0
281
     0
  0
CLASS
  1
VISUALSTYLE
  2
AcDbVisualStyle
  3
ObjectDBX Classes
 90
     4095
 91
        4
280
     0
281
     0
  0
CLASS
  1
MATERIAL
  2
AcDbMaterial
  3
ObjectDBX Classes
 90
     1153
 91
        4
280
     0
281
     0
  0
ENDSEC
  0
SECTION
  2
TABLES
  0
TABLE
  2
VPORT
  5
8
330
0
100
AcDbSymbolTable
 70
     1
  0
VPORT
  5
29
330
8
100
AcDbSymbolTableRecord
100
AcDbViewportTableRecord
  2
*Active
 70
     0
 10
0.0
 20
0.0
 11
1.0
 21
1.0
 12
10.42990654205607
 22
4.5
 13
0.0
 23
0.0
 14
0.5
 24
0.5
 15
0.5
 25
0.5
 16
0.0
 26
0.0
 36
1.0
 17
0.0
 27
0.0
 37
0.0
 40
9.0
 41
1.972972972850329
 42
50.0
 43
0.0
 44
0.0
 50
0.0
 51
0.0
 71
     0
 72
   100
 73
     1
 74
     3
 75
     0
 76
     0
 77
     0
 78
     0
281
     0
 65
     1
110
0.0
120
0.0
130
0.0
111
1.0
121
0.0
131
0.0
112
0.0
122
1.0
132
0.0
 79
     0
146
0.0
 60
     3
 61
     5
292
     1
282
     1
141
0.0
142
0.0
 63
   250
  0
ENDTAB
  0
TABLE
  2
LTYPE
  5
5
330
0
100
AcDbSymbolTable
 70
     1
  0
LTYPE
  5
14
330
5
100
AcDbSymbolTableRecord
100
AcDbLinetypeTableRecord
  2
ByBlock
 70
     0
  3

 72
    65
 73
     0
 40
0.0
  0
LTYPE
  5
15
330
5
100
AcDbSymbolTableRecord
100
AcDbLinetypeTableRecord
  2
ByLayer
 70
     0
  3

 72
    65
 73
     0
 40
0.0
  0
LTYPE
  5
16
330
5
100
AcDbSymbolTableRecord
100
AcDbLinetypeTableRecord
  2
Continuous
 70
     0
  3
Solid line
 72
    65
 73
     0
 40
0.0
  0
ENDTAB
  0
TABLE
  2
LAYER
  5
2
330
0
100
AcDbSymbolTable
 70
     3
  0
LAYER
  5
10
330
2
100
AcDbSymbolTableRecord
100
AcDbLayerTableRecord
  2
0
 70
     0
 62
     7
  6
Continuous
370
    -3
390
F
347
3E
  0
LAYER
  5
40
330
2
100
AcDbSymbolTableRecord
100
AcDbLayerTableRecord
  2
Layer 1
 70
     0
 62
     7
  6
Continuous
370
    -3
390
F
347
3E
  0
LAYER
  5
55
330
2
100
AcDbSymbolTableRecord
100
AcDbLayerTableRecord
  2
layer 2
 70
     0
 62
     7
  6
Continuous
370
    -3
390
F
347
3E
  0
ENDTAB
  0
TABLE
  2
STYLE
  5
3
330
0
100
AcDbSymbolTable
 70
     1
  0
STYLE
  5
11
330
3
100
AcDbSymbolTableRecord
100
AcDbTextStyleTableRecord
  2
Standard
 70
     0
 40
0.0
 41
1.0
 50
0.0
 71
     0
 42
0.2
  3
txt
  4

  0
ENDTAB
  0
TABLE
  2
VIEW
  5
6
330
0
100
AcDbSymbolTable
 70
     0
  0
ENDTAB
  0
TABLE
  2
UCS
  5
7
330
0
100
AcDbSymbolTable
 70
     0
  0
ENDTAB
  0
TABLE
  2
APPID
  5
9
330
0
100
AcDbSymbolTable
 70
     2
  0
APPID
  5
12
330
9
100
AcDbSymbolTableRecord
100
AcDbRegAppTableRecord
  2
ACAD
 70
     0
  0
APPID
  5
3F
330
9
100
AcDbSymbolTableRecord
100
AcDbRegAppTableRecord
  2
ODA
 70
     0
  0
ENDTAB
  0
TABLE
  2
DIMSTYLE
  5
A
330
0
100
AcDbSymbolTable
 70
     1
100
AcDbDimStyleTable
  0
DIMSTYLE
105
27
330
A
100
AcDbSymbolTableRecord
100
AcDbDimStyleTableRecord
  2
Standard
 70
     0
178
     0
340
11
  0
ENDTAB
  0
TABLE
  2
BLOCK_RECORD
  5
1
330
0
100
AcDbSymbolTable
 70
     1
  0
BLOCK_RECORD
  5
1F
330
1
100
AcDbSymbolTableRecord
100
AcDbBlockTableRecord
  2
*Model_Space
340
22
 70
     0
280
     1
281
     0
  0
BLOCK_RECORD
  5
1B
330
1
100
AcDbSymbolTableRecord
100
AcDbBlockTableRecord
  2
*Paper_Space
340
1E
 70
     0
280
     1
281
     0
  0
BLOCK_RECORD
  5
23
330
1
100
AcDbSymbolTableRecord
100
AcDbBlockTableRecord
  2
*Paper_Space0
340
26
 70
     0
280
     1
281
     0
  0
ENDTAB
  0
ENDSEC
  0
SECTION
  2
BLOCKS
  0
BLOCK
  5
20
330
1F
100
AcDbEntity
  8
0
100
AcDbBlockBegin
  2
*Model_Space
 70
     0
 10
0.0
 20
0.0
 30
0.0
  3
*Model_Space
  1

  0
ENDBLK
  5
21
330
1F
100
AcDbEntity
  8
0
100
AcDbBlockEnd
  0
BLOCK
  5
1C
330
1B
100
AcDbEntity
 67
     1
  8
0
100
AcDbBlockBegin
  2
*Paper_Space
 70
     0
 10
0.0
 20
0.0
 30
0.0
  3
*Paper_Space
  1

  0
ENDBLK
  5
1D
330
1B
100
AcDbEntity
 67
     1
  8
0
100
AcDbBlockEnd
  0
BLOCK
  5
24
330
23
100
AcDbEntity
  8
0
100
AcDbBlockBegin
  2
*Paper_Space0
 70
     0
 10
0.0
 20
0.0
 30
0.0
  3
*Paper_Space0
  1

  0
ENDBLK
  5
25
330
23
100
AcDbEntity
  8
0
100
AcDbBlockEnd
  0
ENDSEC
  0
SECTION
  2
ENTITIES
  0
SPLINE
  5
41
330
1F
100
AcDbEntity
  8
Layer 1
 62
   250
100
AcDbSpline
210
0.0
220
0.0
230
1.0
 70
    11
 71
     3
 72
    92
 73
    88
 74
     0
 42
0.0000000001
 43
0.0000000001
 12
1.0
 22
0.0
 32
0.0
 13
1.0
 23
0.0
 33
0.0
 40
0.0
 40
0.0
 40
0.0
 40
0.0
 40
0.0434782608695652
 40
0.0434782608695652
 40
0.0434782608695652
 40
0.0434782608695652
 40
0.0869565217391304
 40
0.0869565217391304
 40
0.0869565217391304
 40
0.0869565217391304
 40
0.1304347826086956
 40
0.1304347826086956
 40
0.1304347826086956
 40
0.1304347826086956
 40
0.1739130434782609
 40
0.1739130434782609
 40
0.1739130434782609
 40
0.1739130434782609
 40
0.2173913043478261
 40
0.2173913043478261
 40
0.2173913043478261
 40
0.2173913043478261
 40
0.2608695652173913
 40
0.2608695652173913
 40
0.2608695652173913
 40
0.2608695652173913
 40
0.3043478260869565
 40
0.3043478260869565
 40
0.3043478260869565
 40
0.3043478260869565
 40
0.3478260869565217
 40
0.3478260869565217
 40
0.3478260869565217
 40
0.3478260869565217
 40
0.391304347826087
 40
0.391304347826087
 40
0.391304347826087
 40
0.391304347826087
 40
0.4347826086956522
 40
0.4347826086956522
 40
0.4347826086956522
 40
0.4347826086956522
 40
0.4782608695652174
 40
0.4782608695652174
 40
0.4782608695652174
 40
0.4782608695652174
 40
0.5217391304347826
 40
0.5217391304347826
 40
0.5217391304347826
 40
0.5217391304347826
 40
0.5652173913043478
 40
0.5652173913043478
 40
0.5652173913043478
 40
0.5652173913043478
 40
0.6086956521739131
 40
0.6086956521739131
 40
0.6086956521739131
 40
0.6086956521739131
 40
0.6521739130434783
 40
0.6521739130434783
 40
0.6521739130434783
 40
0.6521739130434783
 40
0.6956521739130435
 40
0.6956521739130435
 40
0.6956521739130435
 40
0.6956521739130435
 40
0.7391304347826086
 40
0.7391304347826086
 40
0.7391304347826086
 40
0.7391304347826086
 40
0.782608695652174
 40
0.782608695652174
 40
0.782608695652174
 40
0.782608695652174
 40
0.8260869565217391
 40
0.8260869565217391
 40
0.8260869565217391
 40
0.8260869565217391
 40
0.8695652173913043
 40
0.8695652173913043
 40
0.8695652173913043
 40
0.8695652173913043
 40
0.9130434782608695
 40
0.9130434782608695
 40
0.9130434782608695
 40
0.9130434782608695
 40
1.0
 40
1.0
 40
1.0
 40
1.0
 10
-2.70321
 20
-7.2226
 30
0.0
 10
-2.70321
 20
-7.2226
 30
0.0
 10
-2.70321
 20
-7.29372
 30
0.0
 10
-2.70321
 20
-7.29372
 30
0.0
 10
-2.70321
 20
-7.29372
 30
0.0
 10
-2.70321
 20
-7.29372
 30
0.0
 10
-3.10454
 20
-7.29372
 30
0.0
 10
-3.10454
 20
-7.29372
 30
0.0
 10
-3.10454
 20
-7.29372
 30
0.0
 10
-3.1051
 20
-7.2758
 30
0.0
 10
-3.10214
 20
-7.25858
 30
0.0
 10
-3.09579
 20
-7.24193
 30
0.0
 10
-3.09579
 20
-7.24193
 30
0.0
 10
-3.08549
 20
-7.2147
 30
0.0
 10
-3.06898
 20
-7.18775
 30
0.0
 10
-3.04626
 20
-7.16136
 30
0.0
 10
-3.04626
 20
-7.16136
 30
0.0
 10
-3.02354
 20
-7.13497
 30
0.0
 10
-2.99108
 20
-7.10449
 30
0.0
 10
-2.94889
 20
-7.06992
 30
0.0
 10
-2.94889
 20
-7.06992
 30
0.0
 10
-2.88327
 20
-7.01587
 30
0.0
 10
-2.83868
 20
-6.97311
 30
0.0
 10
-2.8154
 20
-6.94151
 30
0.0
 10
-2.8154
 20
-6.94151
 30
0.0
 10
-2.79197
 20
-6.9099
 30
0.0
 10
-2.78026
 20
-6.87998
 30
0.0
 10
-2.78026
 20
-6.85176
 30
0.0
 10
-2.78026
 20
-6.85176
 30
0.0
 10
-2.78026
 20
-6.82227
 30
0.0
 10
-2.79085
 20
-6.79743
 30
0.0
 10
-2.81201
 20
-6.77711
 30
0.0
 10
-2.81201
 20
-6.77711
 30
0.0
 10
-2.83318
 20
-6.75693
 30
0.0
 10
-2.86084
 20
-6.74677
 30
0.0
 10
-2.89484
 20
-6.74677
 30
0.0
 10
-2.89484
 20
-6.74677
 30
0.0
 10
-2.93083
 20
-6.74677
 30
0.0
 10
-2.95961
 20
-6.7575
 30
0.0
 10
-2.9812
 20
-6.77894
 30
0.0
 10
-2.9812
 20
-6.77894
 30
0.0
 10
-3.0028
 20
-6.80025
 30
0.0
 10
-3.01366
 20
-6.82989
 30
0.0
 10
-3.01394
 20
-6.86784
 30
0.0
 10
-3.01394
 20
-6.86784
 30
0.0
 10
-3.01394
 20
-6.86784
 30
0.0
 10
-3.09014
 20
-6.86022
 30
0.0
 10
-3.09014
 20
-6.86022
 30
0.0
 10
-3.09014
 20
-6.86022
 30
0.0
 10
-3.08492
 20
-6.80322
 30
0.0
 10
-3.06517
 20
-6.75975
 30
0.0
 10
-3.03102
 20
-6.72984
 30
0.0
 10
-3.03102
 20
-6.72984
 30
0.0
 10
-2.99673
 20
-6.69992
 30
0.0
 10
-2.95087
 20
-6.68496
 30
0.0
 10
-2.89315
 20
-6.68496
 30
0.0
 10
-2.89315
 20
-6.68496
 30
0.0
 10
-2.83501
 20
-6.68496
 30
0.0
 10
-2.78887
 20
-6.70105
 30
0.0
 10
-2.755
 20
-6.73337
 30
0.0
 10
-2.755
 20
-6.73337
 30
0.0
 10
-2.721
 20
-6.76568
 30
0.0
 10
-2.70406
 20
-6.80576
 30
0.0
 10
-2.70406
 20
-6.85345
 30
0.0
 10
-2.70406
 20
-6.85345
 30
0.0
 10
-2.70406
 20
-6.87772
 30
0.0
 10
-2.709
 20
-6.90157
 30
0.0
 10
-2.71902
 20
-6.925
 30
0.0
 10
-2.71902
 20
-6.925
 30
0.0
 10
-2.7289
 20
-6.94856
 30
0.0
 10
-2.74541
 20
-6.97326
 30
0.0
 10
-2.76841
 20
-6.99922
 30
0.0
 10
-2.76841
 20
-6.99922
 30
0.0
 10
-2.79155
 20
-7.02504
 30
0.0
 10
-2.82979
 20
-7.06074
 30
0.0
 10
-2.88313
 20
-7.1059
 30
0.0
 10
-2.88313
 20
-7.1059
 30
0.0
 10
-2.92786
 20
-7.14344
 30
0.0
 10
-2.95665
 20
-7.16884
 30
0.0
 10
-2.96935
 20
-7.18224
 30
0.0
 10
-2.96935
 20
-7.18224
 30
0.0
 10
-2.98205
 20
-7.19565
 30
0.0
 10
-2.99249
 20
-7.20905
 30
0.0
 10
-3.00082
 20
-7.2226
 30
0.0
 10
-3.00082
 20
-7.2226
 30
0.0
 10
-3.00082
 20
-7.2226
 30
0.0
 10
-2.70321
 20
-7.2226
 30
0.0
 10
-2.70321
 20
-7.2226
 30
0.0
  0
SPLINE
  5
42
330
1F
100
AcDbEntity
  8
Layer 1
 62
   250
100
AcDbSpline
210
0.0
220
0.0
230
1.0
 70
    11
 71
     3
 72
    52
 73
    48
 74
     0
 42
0.0000000001
 43
0.0000000001
 12
1.0
 22
0.0
 32
0.0
 13
1.0
 23
0.0
 33
0.0
 40
0.0
 40
0.0
 40
0.0
 40
0.0
 40
0.0769230769230769
 40
0.0769230769230769
 40
0.0769230769230769
 40
0.0769230769230769
 40
0.1538461538461539
 40
0.1538461538461539
 40
0.1538461538461539
 40
0.1538461538461539
 40
0.2307692307692308
 40
0.2307692307692308
 40
0.2307692307692308
 40
0.2307692307692308
 40
0.3076923076923077
 40
0.3076923076923077
 40
0.3076923076923077
 40
0.3076923076923077
 40
0.3846153846153846
 40
0.3846153846153846
 40
0.3846153846153846
 40
0.3846153846153846
 40
0.4615384615384616
 40
0.4615384615384616
 40
0.4615384615384616
 40
0.4615384615384616
 40
0.5384615384615384
 40
0.5384615384615384
 40
0.5384615384615384
 40
0.5384615384615384
 40
0.6153846153846154
 40
0.6153846153846154
 40
0.6153846153846154
 40
0.6153846153846154
 40
0.6923076923076923
 40
0.6923076923076923
 40
0.6923076923076923
 40
0.6923076923076923
 40
0.7692307692307693
 40
0.7692307692307693
 40
0.7692307692307693
 40
0.7692307692307693
 40
0.8461538461538461
 40
0.8461538461538461
 40
0.8461538461538461
 40
0.8461538461538461
 40
1.0
 40
1.0
 40
1.0
 40
1.0
 10
-2.62264
 20
-6.99456
 30
0.0
 10
-2.62264
 20
-6.92302
 30
0.0
 10
-2.6153
 20
-6.86516
 30
0.0
 10
-2.60063
 20
-6.82142
 30
0.0
 10
-2.60063
 20
-6.82142
 30
0.0
 10
-2.58581
 20
-6.77753
 30
0.0
 10
-2.56394
 20
-6.74381
 30
0.0
 10
-2.53487
 20
-6.72024
 30
0.0
 10
-2.53487
 20
-6.72024
 30
0.0
 10
-2.50594
 20
-6.69668
 30
0.0
 10
-2.46939
 20
-6.68496
 30
0.0
 10
-2.42537
 20
-6.68496
 30
0.0
 10
-2.42537
 20
-6.68496
 30
0.0
 10
-2.39291
 20
-6.68496
 30
0.0
 10
-2.36441
 20
-6.69146
 30
0.0
 10
-2.33971
 20
-6.70458
 30
0.0
 10
-2.33971
 20
-6.70458
 30
0.0
 10
-2.31516
 20
-6.7177
 30
0.0
 10
-2.29484
 20
-6.73661
 30
0.0
 10
-2.27903
 20
-6.76131
 30
0.0
 10
-2.27903
 20
-6.76131
 30
0.0
 10
-2.26323
 20
-6.78586
 30
0.0
 10
-2.25081
 20
-6.81592
 30
0.0
 10
-2.24178
 20
-6.85133
 30
0.0
 10
-2.24178
 20
-6.85133
 30
0.0
 10
-2.23261
 20
-6.88675
 30
0.0
 10
-2.22809
 20
-6.93459
 30
0.0
 10
-2.22809
 20
-6.99456
 30
0.0
 10
-2.22809
 20
-6.99456
 30
0.0
 10
-2.22809
 20
-7.06568
 30
0.0
 10
-2.23543
 20
-7.12326
 30
0.0
 10
-2.24996
 20
-7.167
 30
0.0
 10
-2.24996
 20
-7.167
 30
0.0
 10
-2.2645
 20
-7.21089
 30
0.0
 10
-2.28637
 20
-7.24461
 30
0.0
 10
-2.31544
 20
-7.26832
 30
0.0
 10
-2.31544
 20
-7.26832
 30
0.0
 10
-2.34437
 20
-7.29203
 30
0.0
 10
-2.38106
 20
-7.30388
 30
0.0
 10
-2.42537
 20
-7.30388
 30
0.0
 10
-2.42537
 20
-7.30388
 30
0.0
 10
-2.48364
 20
-7.30388
 30
0.0
 10
-2.52951
 20
-7.28314
 30
0.0
 10
-2.56281
 20
-7.24151
 30
0.0
 10
-2.56281
 20
-7.24151
 30
0.0
 10
-2.60274
 20
-7.19071
 30
0.0
 10
-2.62264
 20
-7.10844
 30
0.0
 10
-2.62264
 20
-6.99456
 30
0.0
  0
SPLINE
  5
43
330
1F
100
AcDbEntity
  8
Layer 1
 62
   250
100
AcDbSpline
210
0.0
220
0.0
230
1.0
 70
    11
 71
     3
 72
    36
 73
    32
 74
     0
 42
0.0000000001
 43
0.0000000001
 12
1.0
 22
0.0
 32
0.0
 13
1.0
 23
0.0
 33
0.0
 40
0.0
 40
0.0
 40
0.0
 40
0.0
 40
0.1111111111111111
 40
0.1111111111111111
 40
0.1111111111111111
 40
0.1111111111111111
 40
0.2222222222222222
 40
0.2222222222222222
 40
0.2222222222222222
 40
0.2222222222222222
 40
0.3333333333333333
 40
0.3333333333333333
 40
0.3333333333333333
 40
0.3333333333333333
 40
0.4444444444444444
 40
0.4444444444444444
 40
0.4444444444444444
 40
0.4444444444444444
 40
0.5555555555555556
 40
0.5555555555555556
 40
0.5555555555555556
 40
0.5555555555555556
 40
0.6666666666666666
 40
0.6666666666666666
 40
0.6666666666666666
 40
0.6666666666666666
 40
0.7777777777777778
 40
0.7777777777777778
 40
0.7777777777777778
 40
0.7777777777777778
 40
1.0
 40
1.0
 40
1.0
 40
1.0
 10
-2.54644
 20
-6.99485
 30
0.0
 10
-2.54644
 20
-7.09461
 30
0.0
 10
-2.53487
 20
-7.16093
 30
0.0
 10
-2.51158
 20
-7.19367
 30
0.0
 10
-2.51158
 20
-7.19367
 30
0.0
 10
-2.4883
 20
-7.22655
 30
0.0
 10
-2.45951
 20
-7.24292
 30
0.0
 10
-2.42537
 20
-7.24292
 30
0.0
 10
-2.42537
 20
-7.24292
 30
0.0
 10
-2.39122
 20
-7.24292
 30
0.0
 10
-2.36243
 20
-7.22641
 30
0.0
 10
-2.33915
 20
-7.19353
 30
0.0
 10
-2.33915
 20
-7.19353
 30
0.0
 10
-2.31586
 20
-7.16051
 30
0.0
 10
-2.30429
 20
-7.09433
 30
0.0
 10
-2.30429
 20
-6.99485
 30
0.0
 10
-2.30429
 20
-6.99485
 30
0.0
 10
-2.30429
 20
-6.89508
 30
0.0
 10
-2.31586
 20
-6.82876
 30
0.0
 10
-2.33915
 20
-6.79602
 30
0.0
 10
-2.33915
 20
-6.79602
 30
0.0
 10
-2.36229
 20
-6.76314
 30
0.0
 10
-2.39136
 20
-6.74677
 30
0.0
 10
-2.42621
 20
-6.74677
 30
0.0
 10
-2.42621
 20
-6.74677
 30
0.0
 10
-2.46036
 20
-6.74677
 30
0.0
 10
-2.48774
 20
-6.76131
 30
0.0
 10
-2.5082
 20
-6.79023
 30
0.0
 10
-2.5082
 20
-6.79023
 30
0.0
 10
-2.53374
 20
-6.82706
 30
0.0
 10
-2.54644
 20
-6.89536
 30
0.0
 10
-2.54644
 20
-6.99485
 30
0.0
  0
SPLINE
  5
44
330
1F
100
AcDbEntity
  8
Layer 1
 62
   250
100
AcDbSpline
210
0.0
220
0.0
230
1.0
 70
    11
 71
     3
 72
   124
 73
   120
 74
     0
 42
0.0000000001
 43
0.0000000001
 12
1.0
 22
0.0
 32
0.0
 13
1.0
 23
0.0
 33
0.0
 40
0.0
 40
0.0
 40
0.0
 40
0.0
 40
0.032258064516129
 40
0.032258064516129
 40
0.032258064516129
 40
0.032258064516129
 40
0.0645161290322581
 40
0.0645161290322581
 40
0.0645161290322581
 40
0.0645161290322581
 40
0.0967741935483871
 40
0.0967741935483871
 40
0.0967741935483871
 40
0.0967741935483871
 40
0.1290322580645161
 40
0.1290322580645161
 40
0.1290322580645161
 40
0.1290322580645161
 40
0.1612903225806452
 40
0.1612903225806452
 40
0.1612903225806452
 40
0.1612903225806452
 40
0.1935483870967742
 40
0.1935483870967742
 40
0.1935483870967742
 40
0.1935483870967742
 40
0.2258064516129032
 40
0.2258064516129032
 40
0.2258064516129032
 40
0.2258064516129032
 40
0.2580645161290323
 40
0.2580645161290323
 40
0.2580645161290323
 40
0.2580645161290323
 40
0.2903225806451613
 40
0.2903225806451613
 40
0.2903225806451613
 40
0.2903225806451613
 40
0.3225806451612903
 40
0.3225806451612903
 40
0.3225806451612903
 40
0.3225806451612903
 40
0.3548387096774194
 40
0.3548387096774194
 40
0.3548387096774194
 40
0.3548387096774194
 40
0.3870967741935484
 40
0.3870967741935484
 40
0.3870967741935484
 40
0.3870967741935484
 40
0.4193548387096774
 40
0.4193548387096774
 40
0.4193548387096774
 40
0.4193548387096774
 40
0.4516129032258064
 40
0.4516129032258064
 40
0.4516129032258064
 40
0.4516129032258064
 40
0.4838709677419355
 40
0.4838709677419355
 40
0.4838709677419355
 40
0.4838709677419355
 40
0.5161290322580645
 40
0.5161290322580645
 40
0.5161290322580645
 40
0.5161290322580645
 40
0.5483870967741935
 40
0.5483870967741935
 40
0.5483870967741935
 40
0.5483870967741935
 40
0.5806451612903226
 40
0.5806451612903226
 40
0.5806451612903226
 40
0.5806451612903226
 40
0.6129032258064516
 40
0.6129032258064516
 40
0.6129032258064516
 40
0.6129032258064516
 40
0.6451612903225806
 40
0.6451612903225806
 40
0.6451612903225806
 40
0.6451612903225806
 40
0.6774193548387096
 40
0.6774193548387096
 40
0.6774193548387096
 40
0.6774193548387096
 40
0.7096774193548387
 40
0.7096774193548387
 40
0.7096774193548387
 40
0.7096774193548387
 40
0.7419354838709677
 40
0.7419354838709677
 40
0.7419354838709677
 40
0.7419354838709677
 40
0.7741935483870968
 40
0.7741935483870968
 40
0.7741935483870968
 40
0.7741935483870968
 40
0.8064516129032258
 40
0.8064516129032258
 40
0.8064516129032258
 40
0.8064516129032258
 40
0.8387096774193549
 40
0.8387096774193549
 40
0.8387096774193549
 40
0.8387096774193549
 40
0.8709677419354839
 40
0.8709677419354839
 40
0.8709677419354839
 40
0.8709677419354839
 40
0.9032258064516129
 40
0.9032258064516129
 40
0.9032258064516129
 40
0.9032258064516129
 40
0.9354838709677419
 40
0.9354838709677419
 40
0.9354838709677419
 40
0.9354838709677419
 40
1.0
 40
1.0
 40
1.0
 40
1.0
 10
-2.15175
 20
-7.13285
 30
0.0
 10
-2.15175
 20
-7.13285
 30
0.0
 10
-2.07724
 20
-7.12269
 30
0.0
 10
-2.07724
 20
-7.12269
 30
0.0
 10
-2.07724
 20
-7.12269
 30
0.0
 10
-2.06864
 20
-7.16503
 30
0.0
 10
-2.05424
 20
-7.19551
 30
0.0
 10
-2.03378
 20
-7.21413
 30
0.0
 10
-2.03378
 20
-7.21413
 30
0.0
 10
-2.01332
 20
-7.23276
 30
0.0
 10
-1.9882
 20
-7.24207
 30
0.0
 10
-1.95843
 20
-7.24207
 30
0.0
 10
-1.95843
 20
-7.24207
 30
0.0
 10
-1.92315
 20
-7.24207
 30
0.0
 10
-1.89337
 20
-7.22994
 30
0.0
 10
-1.86939
 20
-7.20567
 30
0.0
 10
-1.86939
 20
-7.20567
 30
0.0
 10
-1.8454
 20
-7.1814
 30
0.0
 10
-1.8334
 20
-7.15134
 30
0.0
 10
-1.8334
 20
-7.1155
 30
0.0
 10
-1.8334
 20
-7.1155
 30
0.0
 10
-1.8334
 20
-7.08135
 30
0.0
 10
-1.84455
 20
-7.05312
 30
0.0
 10
-1.86699
 20
-7.03083
 30
0.0
 10
-1.86699
 20
-7.03083
 30
0.0
 10
-1.88928
 20
-7.00867
 30
0.0
 10
-1.91765
 20
-6.99753
 30
0.0
 10
-1.95222
 20
-6.99753
 30
0.0
 10
-1.95222
 20
-6.99753
 30
0.0
 10
-1.96633
 20
-6.99753
 30
0.0
 10
-1.98383
 20
-7.00035
 30
0.0
 10
-2.00485
 20
-7.00585
 30
0.0
 10
-2.00485
 20
-7.00585
 30
0.0
 10
-2.00485
 20
-7.00585
 30
0.0
 10
-1.99653
 20
-6.94066
 30
0.0
 10
-1.99653
 20
-6.94066
 30
0.0
 10
-1.99653
 20
-6.94066
 30
0.0
 10
-1.99159
 20
-6.94122
 30
0.0
 10
-1.9875
 20
-6.94151
 30
0.0
 10
-1.98453
 20
-6.94151
 30
0.0
 10
-1.98453
 20
-6.94151
 30
0.0
 10
-1.95264
 20
-6.94151
 30
0.0
 10
-1.92414
 20
-6.93318
 30
0.0
 10
-1.8986
 20
-6.91667
 30
0.0
 10
-1.8986
 20
-6.91667
 30
0.0
 10
-1.8732
 20
-6.90016
 30
0.0
 10
-1.8605
 20
-6.87476
 30
0.0
 10
-1.8605
 20
-6.84047
 30
0.0
 10
-1.8605
 20
-6.84047
 30
0.0
 10
-1.8605
 20
-6.81323
 30
0.0
 10
-1.86981
 20
-6.79066
 30
0.0
 10
-1.88829
 20
-6.77274
 30
0.0
 10
-1.88829
 20
-6.77274
 30
0.0
 10
-1.90678
 20
-6.75481
 30
0.0
 10
-1.93063
 20
-6.74592
 30
0.0
 10
-1.95984
 20
-6.74592
 30
0.0
 10
-1.95984
 20
-6.74592
 30
0.0
 10
-1.98891
 20
-6.74592
 30
0.0
 10
-2.01304
 20
-6.7551
 30
0.0
 10
-2.03237
 20
-6.77344
 30
0.0
 10
-2.03237
 20
-6.77344
 30
0.0
 10
-2.0517
 20
-6.79179
 30
0.0
 10
-2.06412
 20
-6.8193
 30
0.0
 10
-2.06962
 20
-6.85599
 30
0.0
 10
-2.06962
 20
-6.85599
 30
0.0
 10
-2.06962
 20
-6.85599
 30
0.0
 10
-2.14413
 20
-6.84244
 30
0.0
 10
-2.14413
 20
-6.84244
 30
0.0
 10
-2.14413
 20
-6.84244
 30
0.0
 10
-2.13496
 20
-6.79249
 30
0.0
 10
-2.11436
 20
-6.75369
 30
0.0
 10
-2.08204
 20
-6.72617
 30
0.0
 10
-2.08204
 20
-6.72617
 30
0.0
 10
-2.04987
 20
-6.69865
 30
0.0
 10
-2.00965
 20
-6.68496
 30
0.0
 10
-1.96167
 20
-6.68496
 30
0.0
 10
-1.96167
 20
-6.68496
 30
0.0
 10
-1.92865
 20
-6.68496
 30
0.0
 10
-1.89817
 20
-6.69202
 30
0.0
 10
-1.87037
 20
-6.70627
 30
0.0
 10
-1.87037
 20
-6.70627
 30
0.0
 10
-1.84243
 20
-6.72038
 30
0.0
 10
-1.82113
 20
-6.73972
 30
0.0
 10
-1.80645
 20
-6.76413
 30
0.0
 10
-1.80645
 20
-6.76413
 30
0.0
 10
-1.79163
 20
-6.78868
 30
0.0
 10
-1.7843
 20
-6.81465
 30
0.0
 10
-1.7843
 20
-6.84216
 30
0.0
 10
-1.7843
 20
-6.84216
 30
0.0
 10
-1.7843
 20
-6.86827
 30
0.0
 10
-1.79135
 20
-6.89198
 30
0.0
 10
-1.80532
 20
-6.91342
 30
0.0
 10
-1.80532
 20
-6.91342
 30
0.0
 10
-1.81943
 20
-6.93487
 30
0.0
 10
-1.84032
 20
-6.95195
 30
0.0
 10
-1.86783
 20
-6.96465
 30
0.0
 10
-1.86783
 20
-6.96465
 30
0.0
 10
-1.83199
 20
-6.97283
 30
0.0
 10
-1.80419
 20
-6.99005
 30
0.0
 10
-1.7843
 20
-7.01615
 30
0.0
 10
-1.7843
 20
-7.01615
 30
0.0
 10
-1.76454
 20
-7.04212
 30
0.0
 10
-1.75466
 20
-7.07486
 30
0.0
 10
-1.75466
 20
-7.11394
 30
0.0
 10
-1.75466
 20
-7.11394
 30
0.0
 10
-1.75466
 20
-7.16686
 30
0.0
 10
-1.77399
 20
-7.21188
 30
0.0
 10
-1.81252
 20
-7.24871
 30
0.0
 10
-1.81252
 20
-7.24871
 30
0.0
 10
-1.85118
 20
-7.28554
 30
0.0
 10
-1.90001
 20
-7.30388
 30
0.0
 10
-1.95899
 20
-7.30388
 30
0.0
 10
-1.95899
 20
-7.30388
 30
0.0
 10
-2.01219
 20
-7.30388
 30
0.0
 10
-2.05636
 20
-7.28793
 30
0.0
 10
-2.0915
 20
-7.25618
 30
0.0
 10
-2.0915
 20
-7.25618
 30
0.0
 10
-2.12677
 20
-7.22443
 30
0.0
 10
-2.14681
 20
-7.18337
 30
0.0
 10
-2.15175
 20
-7.13285
 30
0.0
  0
SPLINE
  5
45
330
1F
100
AcDbEntity
  8
Layer 1
 62
   250
100
AcDbSpline
210
0.0
220
0.0
230
1.0
 70
    11
 71
     3
 72
   124
 73
   120
 74
     0
 42
0.0000000001
 43
0.0000000001
 12
1.0
 22
0.0
 32
0.0
 13
1.0
 23
0.0
 33
0.0
 40
0.0
 40
0.0
 40
0.0
 40
0.0
 40
0.032258064516129
 40
0.032258064516129
 40
0.032258064516129
 40
0.032258064516129
 40
0.0645161290322581
 40
0.0645161290322581
 40
0.0645161290322581
 40
0.0645161290322581
 40
0.0967741935483871
 40
0.0967741935483871
 40
0.0967741935483871
 40
0.0967741935483871
 40
0.1290322580645161
 40
0.1290322580645161
 40
0.1290322580645161
 40
0.1290322580645161
 40
0.1612903225806452
 40
0.1612903225806452
 40
0.1612903225806452
 40
0.1612903225806452
 40
0.1935483870967742
 40
0.1935483870967742
 40
0.1935483870967742
 40
0.1935483870967742
 40
0.2258064516129032
 40
0.2258064516129032
 40
0.2258064516129032
 40
0.2258064516129032
 40
0.2580645161290323
 40
0.2580645161290323
 40
0.2580645161290323
 40
0.2580645161290323
 40
0.2903225806451613
 40
0.2903225806451613
 40
0.2903225806451613
 40
0.2903225806451613
 40
0.3225806451612903
 40
0.3225806451612903
 40
0.3225806451612903
 40
0.3225806451612903
 40
0.3548387096774194
 40
0.3548387096774194
 40
0.3548387096774194
 40
0.3548387096774194
 40
0.3870967741935484
 40
0.3870967741935484
 40
0.3870967741935484
 40
0.3870967741935484
 40
0.4193548387096774
 40
0.4193548387096774
 40
0.4193548387096774
 40
0.4193548387096774
 40
0.4516129032258064
 40
0.4516129032258064
 40
0.4516129032258064
 40
0.4516129032258064
 40
0.4838709677419355
 40
0.4838709677419355
 40
0.4838709677419355
 40
0.4838709677419355
 40
0.5161290322580645
 40
0.5161290322580645
 40
0.5161290322580645
 40
0.5161290322580645
 40
0.5483870967741935
 40
0.5483870967741935
 40
0.5483870967741935
 40
0.5483870967741935
 40
0.5806451612903226
 40
0.5806451612903226
 40
0.5806451612903226
 40
0.5806451612903226
 40
0.6129032258064516
 40
0.6129032258064516
 40
0.6129032258064516
 40
0.6129032258064516
 40
0.6451612903225806
 40
0.6451612903225806
 40
0.6451612903225806
 40
0.6451612903225806
 40
0.6774193548387096
 40
0.6774193548387096
 40
0.6774193548387096
 40
0.6774193548387096
 40
0.7096774193548387
 40
0.7096774193548387
 40
0.7096774193548387
 40
0.7096774193548387
 40
0.7419354838709677
 40
0.7419354838709677
 40
0.7419354838709677
 40
0.7419354838709677
 40
0.7741935483870968
 40
0.7741935483870968
 40
0.7741935483870968
 40
0.7741935483870968
 40
0.8064516129032258
 40
0.8064516129032258
 40
0.8064516129032258
 40
0.8064516129032258
 40
0.8387096774193549
 40
0.8387096774193549
 40
0.8387096774193549
 40
0.8387096774193549
 40
0.8709677419354839
 40
0.8709677419354839
 40
0.8709677419354839
 40
0.8709677419354839
 40
0.9032258064516129
 40
0.9032258064516129
 40
0.9032258064516129
 40
0.9032258064516129
 40
0.9354838709677419
 40
0.9354838709677419
 40
0.9354838709677419
 40
0.9354838709677419
 40
1.0
 40
1.0
 40
1.0
 40
1.0
 10
-1.68086
 20
-7.13285
 30
0.0
 10
-1.68086
 20
-7.13285
 30
0.0
 10
-1.60635
 20
-7.12269
 30
0.0
 10
-1.60635
 20
-7.12269
 30
0.0
 10
-1.60635
 20
-7.12269
 30
0.0
 10
-1.59775
 20
-7.16503
 30
0.0
 10
-1.58335
 20
-7.19551
 30
0.0
 10
-1.56289
 20
-7.21413
 30
0.0
 10
-1.56289
 20
-7.21413
 30
0.0
 10
-1.54243
 20
-7.23276
 30
0.0
 10
-1.51731
 20
-7.24207
 30
0.0
 10
-1.48754
 20
-7.24207
 30
0.0
 10
-1.48754
 20
-7.24207
 30
0.0
 10
-1.45226
 20
-7.24207
 30
0.0
 10
-1.42248
 20
-7.22994
 30
0.0
 10
-1.3985
 20
-7.20567
 30
0.0
 10
-1.3985
 20
-7.20567
 30
0.0
 10
-1.37451
 20
-7.1814
 30
0.0
 10
-1.36251
 20
-7.15134
 30
0.0
 10
-1.36251
 20
-7.1155
 30
0.0
 10
-1.36251
 20
-7.1155
 30
0.0
 10
-1.36251
 20
-7.08135
 30
0.0
 10
-1.37366
 20
-7.05312
 30
0.0
 10
-1.3961
 20
-7.03083
 30
0.0
 10
-1.3961
 20
-7.03083
 30
0.0
 10
-1.41839
 20
-7.00867
 30
0.0
 10
-1.44676
 20
-6.99753
 30
0.0
 10
-1.48133
 20
-6.99753
 30
0.0
 10
-1.48133
 20
-6.99753
 30
0.0
 10
-1.49544
 20
-6.99753
 30
0.0
 10
-1.51294
 20
-7.00035
 30
0.0
 10
-1.53396
 20
-7.00585
 30
0.0
 10
-1.53396
 20
-7.00585
 30
0.0
 10
-1.53396
 20
-7.00585
 30
0.0
 10
-1.52564
 20
-6.94066
 30
0.0
 10
-1.52564
 20
-6.94066
 30
0.0
 10
-1.52564
 20
-6.94066
 30
0.0
 10
-1.5207
 20
-6.94122
 30
0.0
 10
-1.51661
 20
-6.94151
 30
0.0
 10
-1.51364
 20
-6.94151
 30
0.0
 10
-1.51364
 20
-6.94151
 30
0.0
 10
-1.48175
 20
-6.94151
 30
0.0
 10
-1.45325
 20
-6.93318
 30
0.0
 10
-1.42771
 20
-6.91667
 30
0.0
 10
-1.42771
 20
-6.91667
 30
0.0
 10
-1.40231
 20
-6.90016
 30
0.0
 10
-1.38961
 20
-6.87476
 30
0.0
 10
-1.38961
 20
-6.84047
 30
0.0
 10
-1.38961
 20
-6.84047
 30
0.0
 10
-1.38961
 20
-6.81323
 30
0.0
 10
-1.39892
 20
-6.79066
 30
0.0
 10
-1.4174
 20
-6.77274
 30
0.0
 10
-1.4174
 20
-6.77274
 30
0.0
 10
-1.43589
 20
-6.75481
 30
0.0
 10
-1.45974
 20
-6.74592
 30
0.0
 10
-1.48895
 20
-6.74592
 30
0.0
 10
-1.48895
 20
-6.74592
 30
0.0
 10
-1.51802
 20
-6.74592
 30
0.0
 10
-1.54215
 20
-6.7551
 30
0.0
 10
-1.56148
 20
-6.77344
 30
0.0
 10
-1.56148
 20
-6.77344
 30
0.0
 10
-1.58081
 20
-6.79179
 30
0.0
 10
-1.59323
 20
-6.8193
 30
0.0
 10
-1.59873
 20
-6.85599
 30
0.0
 10
-1.59873
 20
-6.85599
 30
0.0
 10
-1.59873
 20
-6.85599
 30
0.0
 10
-1.67324
 20
-6.84244
 30
0.0
 10
-1.67324
 20
-6.84244
 30
0.0
 10
-1.67324
 20
-6.84244
 30
0.0
 10
-1.66407
 20
-6.79249
 30
0.0
 10
-1.64347
 20
-6.75369
 30
0.0
 10
-1.61115
 20
-6.72617
 30
0.0
 10
-1.61115
 20
-6.72617
 30
0.0
 10
-1.57898
 20
-6.69865
 30
0.0
 10
-1.53876
 20
-6.68496
 30
0.0
 10
-1.49078
 20
-6.68496
 30
0.0
 10
-1.49078
 20
-6.68496
 30
0.0
 10
-1.45776
 20
-6.68496
 30
0.0
 10
-1.42728
 20
-6.69202
 30
0.0
 10
-1.39948
 20
-6.70627
 30
0.0
 10
-1.39948
 20
-6.70627
 30
0.0
 10
-1.37154
 20
-6.72038
 30
0.0
 10
-1.35024
 20
-6.73972
 30
0.0
 10
-1.33556
 20
-6.76413
 30
0.0
 10
-1.33556
 20
-6.76413
 30
0.0
 10
-1.32074
 20
-6.78868
 30
0.0
 10
-1.31341
 20
-6.81465
 30
0.0
 10
-1.31341
 20
-6.84216
 30
0.0
 10
-1.31341
 20
-6.84216
 30
0.0
 10
-1.31341
 20
-6.86827
 30
0.0
 10
-1.32046
 20
-6.89198
 30
0.0
 10
-1.33443
 20
-6.91342
 30
0.0
 10
-1.33443
 20
-6.91342
 30
0.0
 10
-1.34854
 20
-6.93487
 30
0.0
 10
-1.36943
 20
-6.95195
 30
0.0
 10
-1.39694
 20
-6.96465
 30
0.0
 10
-1.39694
 20
-6.96465
 30
0.0
 10
-1.3611
 20
-6.97283
 30
0.0
 10
-1.3333
 20
-6.99005
 30
0.0
 10
-1.31341
 20
-7.01615
 30
0.0
 10
-1.31341
 20
-7.01615
 30
0.0
 10
-1.29365
 20
-7.04212
 30
0.0
 10
-1.28377
 20
-7.07486
 30
0.0
 10
-1.28377
 20
-7.11394
 30
0.0
 10
-1.28377
 20
-7.11394
 30
0.0
 10
-1.28377
 20
-7.16686
 30
0.0
 10
-1.3031
 20
-7.21188
 30
0.0
 10
-1.34163
 20
-7.24871
 30
0.0
 10
-1.34163
 20
-7.24871
 30
0.0
 10
-1.38029
 20
-7.28554
 30
0.0
 10
-1.42912
 20
-7.30388
 30
0.0
 10
-1.4881
 20
-7.30388
 30
0.0
 10
-1.4881
 20
-7.30388
 30
0.0
 10
-1.5413
 20
-7.30388
 30
0.0
 10
-1.58547
 20
-7.28793
 30
0.0
 10
-1.62061
 20
-7.25618
 30
0.0
 10
-1.62061
 20
-7.25618
 30
0.0
 10
-1.65588
 20
-7.22443
 30
0.0
 10
-1.67592
 20
-7.18337
 30
0.0
 10
-1.68086
 20
-7.13285
 30
0.0
  0
SPLINE
  5
46
330
1F
100
AcDbEntity
  8
Layer 1
 62
   250
100
AcDbSpline
210
0.0
220
0.0
230
1.0
 70
    11
 71
     3
 72
    92
 73
    88
 74
     0
 42
0.0000000001
 43
0.0000000001
 12
1.0
 22
0.0
 32
0.0
 13
1.0
 23
0.0
 33
0.0
 40
0.0
 40
0.0
 40
0.0
 40
0.0
 40
0.0434782608695652
 40
0.0434782608695652
 40
0.0434782608695652
 40
0.0434782608695652
 40
0.0869565217391304
 40
0.0869565217391304
 40
0.0869565217391304
 40
0.0869565217391304
 40
0.1304347826086956
 40
0.1304347826086956
 40
0.1304347826086956
 40
0.1304347826086956
 40
0.1739130434782609
 40
0.1739130434782609
 40
0.1739130434782609
 40
0.1739130434782609
 40
0.2173913043478261
 40
0.2173913043478261
 40
0.2173913043478261
 40
0.2173913043478261
 40
0.2608695652173913
 40
0.2608695652173913
 40
0.2608695652173913
 40
0.2608695652173913
 40
0.3043478260869565
 40
0.3043478260869565
 40
0.3043478260869565
 40
0.3043478260869565
 40
0.3478260869565217
 40
0.3478260869565217
 40
0.3478260869565217
 40
0.3478260869565217
 40
0.391304347826087
 40
0.391304347826087
 40
0.391304347826087
 40
0.391304347826087
 40
0.4347826086956522
 40
0.4347826086956522
 40
0.4347826086956522
 40
0.4347826086956522
 40
0.4782608695652174
 40
0.4782608695652174
 40
0.4782608695652174
 40
0.4782608695652174
 40
0.5217391304347826
 40
0.5217391304347826
 40
0.5217391304347826
 40
0.5217391304347826
 40
0.5652173913043478
 40
0.5652173913043478
 40
0.5652173913043478
 40
0.5652173913043478
 40
0.6086956521739131
 40
0.6086956521739131
 40
0.6086956521739131
 40
0.6086956521739131
 40
0.6521739130434783
 40
0.6521739130434783
 40
0.6521739130434783
 40
0.6521739130434783
 40
0.6956521739130435
 40
0.6956521739130435
 40
0.6956521739130435
 40
0.6956521739130435
 40
0.7391304347826086
 40
0.7391304347826086
 40
0.7391304347826086
 40
0.7391304347826086
 40
0.782608695652174
 40
0.782608695652174
 40
0.782608695652174
 40
0.782608695652174
 40
0.8260869565217391
 40
0.8260869565217391
 40
0.8260869565217391
 40
0.8260869565217391
 40
0.8695652173913043
 40
0.8695652173913043
 40
0.8695652173913043
 40
0.8695652173913043
 40
0.9130434782608695
 40
0.9130434782608695
 40
0.9130434782608695
 40
0.9130434782608695
 40
1.0
 40
1.0
 40
1.0
 40
1.0
 10
-0.81965
 20
-7.2226
 30
0.0
 10
-0.81965
 20
-7.2226
 30
0.0
 10
-0.81965
 20
-7.29372
 30
0.0
 10
-0.81965
 20
-7.29372
 30
0.0
 10
-0.81965
 20
-7.29372
 30
0.0
 10
-0.81965
 20
-7.29372
 30
0.0
 10
-1.22098
 20
-7.29372
 30
0.0
 10
-1.22098
 20
-7.29372
 30
0.0
 10
-1.22098
 20
-7.29372
 30
0.0
 10
-1.22154
 20
-7.2758
 30
0.0
 10
-1.21858
 20
-7.25858
 30
0.0
 10
-1.21223
 20
-7.24193
 30
0.0
 10
-1.21223
 20
-7.24193
 30
0.0
 10
-1.20193
 20
-7.2147
 30
0.0
 10
-1.18542
 20
-7.18775
 30
0.0
 10
-1.1627
 20
-7.16136
 30
0.0
 10
-1.1627
 20
-7.16136
 30
0.0
 10
-1.13998
 20
-7.13497
 30
0.0
 10
-1.10752
 20
-7.10449
 30
0.0
 10
-1.06533
 20
-7.06992
 30
0.0
 10
-1.06533
 20
-7.06992
 30
0.0
 10
-0.99971
 20
-7.01587
 30
0.0
 10
-0.95512
 20
-6.97311
 30
0.0
 10
-0.93184
 20
-6.94151
 30
0.0
 10
-0.93184
 20
-6.94151
 30
0.0
 10
-0.90841
 20
-6.9099
 30
0.0
 10
-0.8967
 20
-6.87998
 30
0.0
 10
-0.8967
 20
-6.85176
 30
0.0
 10
-0.8967
 20
-6.85176
 30
0.0
 10
-0.8967
 20
-6.82227
 30
0.0
 10
-0.90729
 20
-6.79743
 30
0.0
 10
-0.92845
 20
-6.77711
 30
0.0
 10
-0.92845
 20
-6.77711
 30
0.0
 10
-0.94962
 20
-6.75693
 30
0.0
 10
-0.97728
 20
-6.74677
 30
0.0
 10
-1.01128
 20
-6.74677
 30
0.0
 10
-1.01128
 20
-6.74677
 30
0.0
 10
-1.04727
 20
-6.74677
 30
0.0
 10
-1.07605
 20
-6.7575
 30
0.0
 10
-1.09764
 20
-6.77894
 30
0.0
 10
-1.09764
 20
-6.77894
 30
0.0
 10
-1.11924
 20
-6.80025
 30
0.0
 10
-1.1301
 20
-6.82989
 30
0.0
 10
-1.13038
 20
-6.86784
 30
0.0
 10
-1.13038
 20
-6.86784
 30
0.0
 10
-1.13038
 20
-6.86784
 30
0.0
 10
-1.20658
 20
-6.86022
 30
0.0
 10
-1.20658
 20
-6.86022
 30
0.0
 10
-1.20658
 20
-6.86022
 30
0.0
 10
-1.20136
 20
-6.80322
 30
0.0
 10
-1.18161
 20
-6.75975
 30
0.0
 10
-1.14746
 20
-6.72984
 30
0.0
 10
-1.14746
 20
-6.72984
 30
0.0
 10
-1.11317
 20
-6.69992
 30
0.0
 10
-1.06731
 20
-6.68496
 30
0.0
 10
-1.00959
 20
-6.68496
 30
0.0
 10
-1.00959
 20
-6.68496
 30
0.0
 10
-0.95145
 20
-6.68496
 30
0.0
 10
-0.90531
 20
-6.70105
 30
0.0
 10
-0.87144
 20
-6.73337
 30
0.0
 10
-0.87144
 20
-6.73337
 30
0.0
 10
-0.83744
 20
-6.76568
 30
0.0
 10
-0.8205
 20
-6.80576
 30
0.0
 10
-0.8205
 20
-6.85345
 30
0.0
 10
-0.8205
 20
-6.85345
 30
0.0
 10
-0.8205
 20
-6.87772
 30
0.0
 10
-0.82544
 20
-6.90157
 30
0.0
 10
-0.83546
 20
-6.925
 30
0.0
 10
-0.83546
 20
-6.925
 30
0.0
 10
-0.84534
 20
-6.94856
 30
0.0
 10
-0.86185
 20
-6.97326
 30
0.0
 10
-0.88485
 20
-6.99922
 30
0.0
 10
-0.88485
 20
-6.99922
 30
0.0
 10
-0.90799
 20
-7.02504
 30
0.0
 10
-0.94623
 20
-7.06074
 30
0.0
 10
-0.99957
 20
-7.1059
 30
0.0
 10
-0.99957
 20
-7.1059
 30
0.0
 10
-1.0443
 20
-7.14344
 30
0.0
 10
-1.07309
 20
-7.16884
 30
0.0
 10
-1.08579
 20
-7.18224
 30
0.0
 10
-1.08579
 20
-7.18224
 30
0.0
 10
-1.09849
 20
-7.19565
 30
0.0
 10
-1.10893
 20
-7.20905
 30
0.0
 10
-1.11726
 20
-7.2226
 30
0.0
 10
-1.11726
 20
-7.2226
 30
0.0
 10
-1.11726
 20
-7.2226
 30
0.0
 10
-0.81965
 20
-7.2226
 30
0.0
 10
-0.81965
 20
-7.2226
 30
0.0
  0
SPLINE
  5
47
330
1F
100
AcDbEntity
  8
Layer 1
 62
   250
100
AcDbSpline
210
0.0
220
0.0
230
1.0
 70
    11
 71
     3
 72
    92
 73
    88
 74
     0
 42
0.0000000001
 43
0.0000000001
 12
1.0
 22
0.0
 32
0.0
 13
1.0
 23
0.0
 33
0.0
 40
0.0
 40
0.0
 40
0.0
 40
0.0
 40
0.0434782608695652
 40
0.0434782608695652
 40
0.0434782608695652
 40
0.0434782608695652
 40
0.0869565217391304
 40
0.0869565217391304
 40
0.0869565217391304
 40
0.0869565217391304
 40
0.1304347826086956
 40
0.1304347826086956
 40
0.1304347826086956
 40
0.1304347826086956
 40
0.1739130434782609
 40
0.1739130434782609
 40
0.1739130434782609
 40
0.1739130434782609
 40
0.2173913043478261
 40
0.2173913043478261
 40
0.2173913043478261
 40
0.2173913043478261
 40
0.2608695652173913
 40
0.2608695652173913
 40
0.2608695652173913
 40
0.2608695652173913
 40
0.3043478260869565
 40
0.3043478260869565
 40
0.3043478260869565
 40
0.3043478260869565
 40
0.3478260869565217
 40
0.3478260869565217
 40
0.3478260869565217
 40
0.3478260869565217
 40
0.391304347826087
 40
0.391304347826087
 40
0.391304347826087
 40
0.391304347826087
 40
0.4347826086956522
 40
0.4347826086956522
 40
0.4347826086956522
 40
0.4347826086956522
 40
0.4782608695652174
 40
0.4782608695652174
 40
0.4782608695652174
 40
0.4782608695652174
 40
0.5217391304347826
 40
0.5217391304347826
 40
0.5217391304347826
 40
0.5217391304347826
 40
0.5652173913043478
 40
0.5652173913043478
 40
0.5652173913043478
 40
0.5652173913043478
 40
0.6086956521739131
 40
0.6086956521739131
 40
0.6086956521739131
 40
0.6086956521739131
 40
0.6521739130434783
 40
0.6521739130434783
 40
0.6521739130434783
 40
0.6521739130434783
 40
0.6956521739130435
 40
0.6956521739130435
 40
0.6956521739130435
 40
0.6956521739130435
 40
0.7391304347826086
 40
0.7391304347826086
 40
0.7391304347826086
 40
0.7391304347826086
 40
0.782608695652174
 40
0.782608695652174
 40
0.782608695652174
 40
0.782608695652174
 40
0.8260869565217391
 40
0.8260869565217391
 40
0.8260869565217391
 40
0.8260869565217391
 40
0.8695652173913043
 40
0.8695652173913043
 40
0.8695652173913043
 40
0.8695652173913043
 40
0.9130434782608695
 40
0.9130434782608695
 40
0.9130434782608695
 40
0.9130434782608695
 40
1.0
 40
1.0
 40
1.0
 40
1.0
 10
-0.34876
 20
-7.2226
 30
0.0
 10
-0.34876
 20
-7.2226
 30
0.0
 10
-0.34876
 20
-7.29372
 30
0.0
 10
-0.34876
 20
-7.29372
 30
0.0
 10
-0.34876
 20
-7.29372
 30
0.0
 10
-0.34876
 20
-7.29372
 30
0.0
 10
-0.75009
 20
-7.29372
 30
0.0
 10
-0.75009
 20
-7.29372
 30
0.0
 10
-0.75009
 20
-7.29372
 30
0.0
 10
-0.75065
 20
-7.2758
 30
0.0
 10
-0.74769
 20
-7.25858
 30
0.0
 10
-0.74134
 20
-7.24193
 30
0.0
 10
-0.74134
 20
-7.24193
 30
0.0
 10
-0.73104
 20
-7.2147
 30
0.0
 10
-0.71453
 20
-7.18775
 30
0.0
 10
-0.69181
 20
-7.16136
 30
0.0
 10
-0.69181
 20
-7.16136
 30
0.0
 10
-0.66909
 20
-7.13497
 30
0.0
 10
-0.63663
 20
-7.10449
 30
0.0
 10
-0.59444
 20
-7.06992
 30
0.0
 10
-0.59444
 20
-7.06992
 30
0.0
 10
-0.52882
 20
-7.01587
 30
0.0
 10
-0.48423
 20
-6.97311
 30
0.0
 10
-0.46095
 20
-6.94151
 30
0.0
 10
-0.46095
 20
-6.94151
 30
0.0
 10
-0.43752
 20
-6.9099
 30
0.0
 10
-0.42581
 20
-6.87998
 30
0.0
 10
-0.42581
 20
-6.85176
 30
0.0
 10
-0.42581
 20
-6.85176
 30
0.0
 10
-0.42581
 20
-6.82227
 30
0.0
 10
-0.4364
 20
-6.79743
 30
0.0
 10
-0.45756
 20
-6.77711
 30
0.0
 10
-0.45756
 20
-6.77711
 30
0.0
 10
-0.47873
 20
-6.75693
 30
0.0
 10
-0.50639
 20
-6.74677
 30
0.0
 10
-0.54039
 20
-6.74677
 30
0.0
 10
-0.54039
 20
-6.74677
 30
0.0
 10
-0.57638
 20
-6.74677
 30
0.0
 10
-0.60516
 20
-6.7575
 30
0.0
 10
-0.62675
 20
-6.77894
 30
0.0
 10
-0.62675
 20
-6.77894
 30
0.0
 10
-0.64835
 20
-6.80025
 30
0.0
 10
-0.65921
 20
-6.82989
 30
0.0
 10
-0.65949
 20
-6.86784
 30
0.0
 10
-0.65949
 20
-6.86784
 30
0.0
 10
-0.65949
 20
-6.86784
 30
0.0
 10
-0.73569
 20
-6.86022
 30
0.0
 10
-0.73569
 20
-6.86022
 30
0.0
 10
-0.73569
 20
-6.86022
 30
0.0
 10
-0.73047
 20
-6.80322
 30
0.0
 10
-0.71072
 20
-6.75975
 30
0.0
 10
-0.67657
 20
-6.72984
 30
0.0
 10
-0.67657
 20
-6.72984
 30
0.0
 10
-0.64228
 20
-6.69992
 30
0.0
 10
-0.59642
 20
-6.68496
 30
0.0
 10
-0.5387
 20
-6.68496
 30
0.0
 10
-0.5387
 20
-6.68496
 30
0.0
 10
-0.48056
 20
-6.68496
 30
0.0
 10
-0.43442
 20
-6.70105
 30
0.0
 10
-0.40055
 20
-6.73337
 30
0.0
 10
-0.40055
 20
-6.73337
 30
0.0
 10
-0.36655
 20
-6.76568
 30
0.0
 10
-0.34961
 20
-6.80576
 30
0.0
 10
-0.34961
 20
-6.85345
 30
0.0
 10
-0.34961
 20
-6.85345
 30
0.0
 10
-0.34961
 20
-6.87772
 30
0.0
 10
-0.35455
 20
-6.90157
 30
0.0
 10
-0.36457
 20
-6.925
 30
0.0
 10
-0.36457
 20
-6.925
 30
0.0
 10
-0.37445
 20
-6.94856
 30
0.0
 10
-0.39096
 20
-6.97326
 30
0.0
 10
-0.41396
 20
-6.99922
 30
0.0
 10
-0.41396
 20
-6.99922
 30
0.0
 10
-0.4371
 20
-7.02504
 30
0.0
 10
-0.47534
 20
-7.06074
 30
0.0
 10
-0.52868
 20
-7.1059
 30
0.0
 10
-0.52868
 20
-7.1059
 30
0.0
 10
-0.57341
 20
-7.14344
 30
0.0
 10
-0.6022
 20
-7.16884
 30
0.0
 10
-0.6149
 20
-7.18224
 30
0.0
 10
-0.6149
 20
-7.18224
 30
0.0
 10
-0.6276
 20
-7.19565
 30
0.0
 10
-0.63804
 20
-7.20905
 30
0.0
 10
-0.64637
 20
-7.2226
 30
0.0
 10
-0.64637
 20
-7.2226
 30
0.0
 10
-0.64637
 20
-7.2226
 30
0.0
 10
-0.34876
 20
-7.2226
 30
0.0
 10
-0.34876
 20
-7.2226
 30
0.0
  0
SPLINE
  5
48
330
1F
100
AcDbEntity
  8
Layer 1
 62
   250
100
AcDbSpline
210
0.0
220
0.0
230
1.0
 70
    11
 71
     3
 72
    64
 73
    60
 74
     0
 42
0.0000000001
 43
0.0000000001
 12
1.0
 22
0.0
 32
0.0
 13
1.0
 23
0.0
 33
0.0
 40
0.0
 40
0.0
 40
0.0
 40
0.0
 40
0.0625
 40
0.0625
 40
0.0625
 40
0.0625
 40
0.125
 40
0.125
 40
0.125
 40
0.125
 40
0.1875
 40
0.1875
 40
0.1875
 40
0.1875
 40
0.25
 40
0.25
 40
0.25
 40
0.25
 40
0.3125
 40
0.3125
 40
0.3125
 40
0.3125
 40
0.375
 40
0.375
 40
0.375
 40
0.375
 40
0.4375
 40
0.4375
 40
0.4375
 40
0.4375
 40
0.5
 40
0.5
 40
0.5
 40
0.5
 40
0.5625
 40
0.5625
 40
0.5625
 40
0.5625
 40
0.625
 40
0.625
 40
0.625
 40
0.625
 40
0.6875
 40
0.6875
 40
0.6875
 40
0.6875
 40
0.75
 40
0.75
 40
0.75
 40
0.75
 40
0.8125
 40
0.8125
 40
0.8125
 40
0.8125
 40
0.875
 40
0.875
 40
0.875
 40
0.875
 40
1.0
 40
1.0
 40
1.0
 40
1.0
 10
-0.24025
 20
-7.29372
 30
0.0
 10
-0.24025
 20
-7.29372
 30
0.0
 10
-0.24025
 20
-6.6875
 30
0.0
 10
-0.24025
 20
-6.6875
 30
0.0
 10
-0.24025
 20
-6.6875
 30
0.0
 10
-0.24025
 20
-6.6875
 30
0.0
 10
-0.12002
 20
-6.6875
 30
0.0
 10
-0.12002
 20
-6.6875
 30
0.0
 10
-0.12002
 20
-6.6875
 30
0.0
 10
-0.12002
 20
-6.6875
 30
0.0
 10
0.02335
 20
-7.11662
 30
0.0
 10
0.02335
 20
-7.11662
 30
0.0
 10
0.02335
 20
-7.11662
 30
0.0
 10
0.03661
 20
-7.15656
 30
0.0
 10
0.04621
 20
-7.18648
 30
0.0
 10
0.05227
 20
-7.20637
 30
0.0
 10
0.05227
 20
-7.20637
 30
0.0
 10
0.05919
 20
-7.18436
 30
0.0
 10
0.07005
 20
-7.1519
 30
0.0
 10
0.08473
 20
-7.10915
 30
0.0
 10
0.08473
 20
-7.10915
 30
0.0
 10
0.08473
 20
-7.10915
 30
0.0
 10
0.23064
 20
-6.6875
 30
0.0
 10
0.23064
 20
-6.6875
 30
0.0
 10
0.23064
 20
-6.6875
 30
0.0
 10
0.23064
 20
-6.6875
 30
0.0
 10
0.33803
 20
-6.6875
 30
0.0
 10
0.33803
 20
-6.6875
 30
0.0
 10
0.33803
 20
-6.6875
 30
0.0
 10
0.33803
 20
-6.6875
 30
0.0
 10
0.33803
 20
-7.29372
 30
0.0
 10
0.33803
 20
-7.29372
 30
0.0
 10
0.33803
 20
-7.29372
 30
0.0
 10
0.33803
 20
-7.29372
 30
0.0
 10
0.26098
 20
-7.29372
 30
0.0
 10
0.26098
 20
-7.29372
 30
0.0
 10
0.26098
 20
-7.29372
 30
0.0
 10
0.26098
 20
-7.29372
 30
0.0
 10
0.26098
 20
-6.78656
 30
0.0
 10
0.26098
 20
-6.78656
 30
0.0
 10
0.26098
 20
-6.78656
 30
0.0
 10
0.26098
 20
-6.78656
 30
0.0
 10
0.08402
 20
-7.29372
 30
0.0
 10
0.08402
 20
-7.29372
 30
0.0
 10
0.08402
 20
-7.29372
 30
0.0
 10
0.08402
 20
-7.29372
 30
0.0
 10
0.01178
 20
-7.29372
 30
0.0
 10
0.01178
 20
-7.29372
 30
0.0
 10
0.01178
 20
-7.29372
 30
0.0
 10
0.01178
 20
-7.29372
 30
0.0
 10
-0.1632
 20
-6.77725
 30
0.0
 10
-0.1632
 20
-6.77725
 30
0.0
 10
-0.1632
 20
-6.77725
 30
0.0
 10
-0.1632
 20
-6.77725
 30
0.0
 10
-0.1632
 20
-7.29372
 30
0.0
 10
-0.1632
 20
-7.29372
 30
0.0
 10
-0.1632
 20
-7.29372
 30
0.0
 10
-0.1632
 20
-7.29372
 30
0.0
 10
-0.24025
 20
-7.29372
 30
0.0
 10
-0.24025
 20
-7.29372
 30
0.0
  0
SPLINE
  5
49
330
1F
100
AcDbEntity
  8
Layer 1
 62
   250
100
AcDbSpline
210
0.0
220
0.0
230
1.0
 70
    11
 71
     3
 72
    36
 73
    32
 74
     0
 42
0.0000000001
 43
0.0000000001
 12
1.0
 22
0.0
 32
0.0
 13
1.0
 23
0.0
 33
0.0
 40
0.0
 40
0.0
 40
0.0
 40
0.0
 40
0.1111111111111111
 40
0.1111111111111111
 40
0.1111111111111111
 40
0.1111111111111111
 40
0.2222222222222222
 40
0.2222222222222222
 40
0.2222222222222222
 40
0.2222222222222222
 40
0.3333333333333333
 40
0.3333333333333333
 40
0.3333333333333333
 40
0.3333333333333333
 40
0.4444444444444444
 40
0.4444444444444444
 40
0.4444444444444444
 40
0.4444444444444444
 40
0.5555555555555556
 40
0.5555555555555556
 40
0.5555555555555556
 40
0.5555555555555556
 40
0.6666666666666666
 40
0.6666666666666666
 40
0.6666666666666666
 40
0.6666666666666666
 40
0.7777777777777778
 40
0.7777777777777778
 40
0.7777777777777778
 40
0.7777777777777778
 40
1.0
 40
1.0
 40
1.0
 40
1.0
 10
0.84081
 20
-7.29372
 30
0.0
 10
0.84081
 20
-7.29372
 30
0.0
 10
0.84081
 20
-6.75862
 30
0.0
 10
0.84081
 20
-6.75862
 30
0.0
 10
0.84081
 20
-6.75862
 30
0.0
 10
0.84081
 20
-6.75862
 30
0.0
 10
0.64099
 20
-6.75862
 30
0.0
 10
0.64099
 20
-6.75862
 30
0.0
 10
0.64099
 20
-6.75862
 30
0.0
 10
0.64099
 20
-6.75862
 30
0.0
 10
0.64099
 20
-6.6875
 30
0.0
 10
0.64099
 20
-6.6875
 30
0.0
 10
0.64099
 20
-6.6875
 30
0.0
 10
0.64099
 20
-6.6875
 30
0.0
 10
1.12106
 20
-6.6875
 30
0.0
 10
1.12106
 20
-6.6875
 30
0.0
 10
1.12106
 20
-6.6875
 30
0.0
 10
1.12106
 20
-6.6875
 30
0.0
 10
1.12106
 20
-6.75862
 30
0.0
 10
1.12106
 20
-6.75862
 30
0.0
 10
1.12106
 20
-6.75862
 30
0.0
 10
1.12106
 20
-6.75862
 30
0.0
 10
0.92124
 20
-6.75862
 30
0.0
 10
0.92124
 20
-6.75862
 30
0.0
 10
0.92124
 20
-6.75862
 30
0.0
 10
0.92124
 20
-6.75862
 30
0.0
 10
0.92124
 20
-7.29372
 30
0.0
 10
0.92124
 20
-7.29372
 30
0.0
 10
0.92124
 20
-7.29372
 30
0.0
 10
0.92124
 20
-7.29372
 30
0.0
 10
0.84081
 20
-7.29372
 30
0.0
 10
0.84081
 20
-7.29372
 30
0.0
  0
SPLINE
  5
4A
330
1F
100
AcDbEntity
  8
Layer 1
 62
   250
100
AcDbSpline
210
0.0
220
0.0
230
1.0
 70
    11
 71
     3
 72
    52
 73
    48
 74
     0
 42
0.0000000001
 43
0.0000000001
 12
1.0
 22
0.0
 32
0.0
 13
1.0
 23
0.0
 33
0.0
 40
0.0
 40
0.0
 40
0.0
 40
0.0
 40
0.0769230769230769
 40
0.0769230769230769
 40
0.0769230769230769
 40
0.0769230769230769
 40
0.1538461538461539
 40
0.1538461538461539
 40
0.1538461538461539
 40
0.1538461538461539
 40
0.2307692307692308
 40
0.2307692307692308
 40
0.2307692307692308
 40
0.2307692307692308
 40
0.3076923076923077
 40
0.3076923076923077
 40
0.3076923076923077
 40
0.3076923076923077
 40
0.3846153846153846
 40
0.3846153846153846
 40
0.3846153846153846
 40
0.3846153846153846
 40
0.4615384615384616
 40
0.4615384615384616
 40
0.4615384615384616
 40
0.4615384615384616
 40
0.5384615384615384
 40
0.5384615384615384
 40
0.5384615384615384
 40
0.5384615384615384
 40
0.6153846153846154
 40
0.6153846153846154
 40
0.6153846153846154
 40
0.6153846153846154
 40
0.6923076923076923
 40
0.6923076923076923
 40
0.6923076923076923
 40
0.6923076923076923
 40
0.7692307692307693
 40
0.7692307692307693
 40
0.7692307692307693
 40
0.7692307692307693
 40
0.8461538461538461
 40
0.8461538461538461
 40
0.8461538461538461
 40
0.8461538461538461
 40
1.0
 40
1.0
 40
1.0
 40
1.0
 10
1.20558
 20
-7.29372
 30
0.0
 10
1.20558
 20
-7.29372
 30
0.0
 10
1.20558
 20
-6.6875
 30
0.0
 10
1.20558
 20
-6.6875
 30
0.0
 10
1.20558
 20
-6.6875
 30
0.0
 10
1.20558
 20
-6.6875
 30
0.0
 10
1.64331
 20
-6.6875
 30
0.0
 10
1.64331
 20
-6.6875
 30
0.0
 10
1.64331
 20
-6.6875
 30
0.0
 10
1.64331
 20
-6.6875
 30
0.0
 10
1.64331
 20
-6.75862
 30
0.0
 10
1.64331
 20
-6.75862
 30
0.0
 10
1.64331
 20
-6.75862
 30
0.0
 10
1.64331
 20
-6.75862
 30
0.0
 10
1.28601
 20
-6.75862
 30
0.0
 10
1.28601
 20
-6.75862
 30
0.0
 10
1.28601
 20
-6.75862
 30
0.0
 10
1.28601
 20
-6.75862
 30
0.0
 10
1.28601
 20
-6.94489
 30
0.0
 10
1.28601
 20
-6.94489
 30
0.0
 10
1.28601
 20
-6.94489
 30
0.0
 10
1.28601
 20
-6.94489
 30
0.0
 10
1.62045
 20
-6.94489
 30
0.0
 10
1.62045
 20
-6.94489
 30
0.0
 10
1.62045
 20
-6.94489
 30
0.0
 10
1.62045
 20
-6.94489
 30
0.0
 10
1.62045
 20
-7.01601
 30
0.0
 10
1.62045
 20
-7.01601
 30
0.0
 10
1.62045
 20
-7.01601
 30
0.0
 10
1.62045
 20
-7.01601
 30
0.0
 10
1.28601
 20
-7.01601
 30
0.0
 10
1.28601
 20
-7.01601
 30
0.0
 10
1.28601
 20
-7.01601
 30
0.0
 10
1.28601
 20
-7.01601
 30
0.0
 10
1.28601
 20
-7.2226
 30
0.0
 10
1.28601
 20
-7.2226
 30
0.0
 10
1.28601
 20
-7.2226
 30
0.0
 10
1.28601
 20
-7.2226
 30
0.0
 10
1.6577
 20
-7.2226
 30
0.0
 10
1.6577
 20
-7.2226
 30
0.0
 10
1.6577
 20
-7.2226
 30
0.0
 10
1.6577
 20
-7.2226
 30
0.0
 10
1.6577
 20
-7.29372
 30
0.0
 10
1.6577
 20
-7.29372
 30
0.0
 10
1.6577
 20
-7.29372
 30
0.0
 10
1.6577
 20
-7.29372
 30
0.0
 10
1.20558
 20
-7.29372
 30
0.0
 10
1.20558
 20
-7.29372
 30
0.0
  0
SPLINE
  5
4B
330
1F
100
AcDbEntity
  8
Layer 1
 62
   250
100
AcDbSpline
210
0.0
220
0.0
230
1.0
 70
    11
 71
     3
 72
    64
 73
    60
 74
     0
 42
0.0000000001
 43
0.0000000001
 12
1.0
 22
0.0
 32
0.0
 13
1.0
 23
0.0
 33
0.0
 40
0.0
 40
0.0
 40
0.0
 40
0.0
 40
0.0625
 40
0.0625
 40
0.0625
 40
0.0625
 40
0.125
 40
0.125
 40
0.125
 40
0.125
 40
0.1875
 40
0.1875
 40
0.1875
 40
0.1875
 40
0.25
 40
0.25
 40
0.25
 40
0.25
 40
0.3125
 40
0.3125
 40
0.3125
 40
0.3125
 40
0.375
 40
0.375
 40
0.375
 40
0.375
 40
0.4375
 40
0.4375
 40
0.4375
 40
0.4375
 40
0.5
 40
0.5
 40
0.5
 40
0.5
 40
0.5625
 40
0.5625
 40
0.5625
 40
0.5625
 40
0.625
 40
0.625
 40
0.625
 40
0.625
 40
0.6875
 40
0.6875
 40
0.6875
 40
0.6875
 40
0.75
 40
0.75
 40
0.75
 40
0.75
 40
0.8125
 40
0.8125
 40
0.8125
 40
0.8125
 40
0.875
 40
0.875
 40
0.875
 40
0.875
 40
1.0
 40
1.0
 40
1.0
 40
1.0
 10
1.76692
 20
-7.29372
 30
0.0
 10
1.76692
 20
-7.29372
 30
0.0
 10
1.76692
 20
-6.6875
 30
0.0
 10
1.76692
 20
-6.6875
 30
0.0
 10
1.76692
 20
-6.6875
 30
0.0
 10
1.76692
 20
-6.6875
 30
0.0
 10
1.88715
 20
-6.6875
 30
0.0
 10
1.88715
 20
-6.6875
 30
0.0
 10
1.88715
 20
-6.6875
 30
0.0
 10
1.88715
 20
-6.6875
 30
0.0
 10
2.03052
 20
-7.11662
 30
0.0
 10
2.03052
 20
-7.11662
 30
0.0
 10
2.03052
 20
-7.11662
 30
0.0
 10
2.04378
 20
-7.15656
 30
0.0
 10
2.05338
 20
-7.18648
 30
0.0
 10
2.05944
 20
-7.20637
 30
0.0
 10
2.05944
 20
-7.20637
 30
0.0
 10
2.06636
 20
-7.18436
 30
0.0
 10
2.07722
 20
-7.1519
 30
0.0
 10
2.0919
 20
-7.10915
 30
0.0
 10
2.0919
 20
-7.10915
 30
0.0
 10
2.0919
 20
-7.10915
 30
0.0
 10
2.23781
 20
-6.6875
 30
0.0
 10
2.23781
 20
-6.6875
 30
0.0
 10
2.23781
 20
-6.6875
 30
0.0
 10
2.23781
 20
-6.6875
 30
0.0
 10
2.3452
 20
-6.6875
 30
0.0
 10
2.3452
 20
-6.6875
 30
0.0
 10
2.3452
 20
-6.6875
 30
0.0
 10
2.3452
 20
-6.6875
 30
0.0
 10
2.3452
 20
-7.29372
 30
0.0
 10
2.3452
 20
-7.29372
 30
0.0
 10
2.3452
 20
-7.29372
 30
0.0
 10
2.3452
 20
-7.29372
 30
0.0
 10
2.26815
 20
-7.29372
 30
0.0
 10
2.26815
 20
-7.29372
 30
0.0
 10
2.26815
 20
-7.29372
 30
0.0
 10
2.26815
 20
-7.29372
 30
0.0
 10
2.26815
 20
-6.78656
 30
0.0
 10
2.26815
 20
-6.78656
 30
0.0
 10
2.26815
 20
-6.78656
 30
0.0
 10
2.26815
 20
-6.78656
 30
0.0
 10
2.09119
 20
-7.29372
 30
0.0
 10
2.09119
 20
-7.29372
 30
0.0
 10
2.09119
 20
-7.29372
 30
0.0
 10
2.09119
 20
-7.29372
 30
0.0
 10
2.01895
 20
-7.29372
 30
0.0
 10
2.01895
 20
-7.29372
 30
0.0
 10
2.01895
 20
-7.29372
 30
0.0
 10
2.01895
 20
-7.29372
 30
0.0
 10
1.84397
 20
-6.77725
 30
0.0
 10
1.84397
 20
-6.77725
 30
0.0
 10
1.84397
 20
-6.77725
 30
0.0
 10
1.84397
 20
-6.77725
 30
0.0
 10
1.84397
 20
-7.29372
 30
0.0
 10
1.84397
 20
-7.29372
 30
0.0
 10
1.84397
 20
-7.29372
 30
0.0
 10
1.84397
 20
-7.29372
 30
0.0
 10
1.76692
 20
-7.29372
 30
0.0
 10
1.76692
 20
-7.29372
 30
0.0
  0
SPLINE
  5
4C
330
1F
100
AcDbEntity
  8
Layer 1
 62
   250
100
AcDbSpline
210
0.0
220
0.0
230
1.0
 70
    11
 71
     3
 72
    48
 73
    44
 74
     0
 42
0.0000000001
 43
0.0000000001
 12
1.0
 22
0.0
 32
0.0
 13
1.0
 23
0.0
 33
0.0
 40
0.0
 40
0.0
 40
0.0
 40
0.0
 40
0.0833333333333333
 40
0.0833333333333333
 40
0.0833333333333333
 40
0.0833333333333333
 40
0.1666666666666667
 40
0.1666666666666667
 40
0.1666666666666667
 40
0.1666666666666667
 40
0.25
 40
0.25
 40
0.25
 40
0.25
 40
0.3333333333333333
 40
0.3333333333333333
 40
0.3333333333333333
 40
0.3333333333333333
 40
0.4166666666666667
 40
0.4166666666666667
 40
0.4166666666666667
 40
0.4166666666666667
 40
0.5
 40
0.5
 40
0.5
 40
0.5
 40
0.5833333333333334
 40
0.5833333333333334
 40
0.5833333333333334
 40
0.5833333333333334
 40
0.6666666666666666
 40
0.6666666666666666
 40
0.6666666666666666
 40
0.6666666666666666
 40
0.75
 40
0.75
 40
0.75
 40
0.75
 40
0.8333333333333334
 40
0.8333333333333334
 40
0.8333333333333334
 40
0.8333333333333334
 40
1.0
 40
1.0
 40
1.0
 40
1.0
 10
2.47389
 20
-7.29372
 30
0.0
 10
2.47389
 20
-7.29372
 30
0.0
 10
2.47389
 20
-6.6875
 30
0.0
 10
2.47389
 20
-6.6875
 30
0.0
 10
2.47389
 20
-6.6875
 30
0.0
 10
2.47389
 20
-6.6875
 30
0.0
 10
2.70278
 20
-6.6875
 30
0.0
 10
2.70278
 20
-6.6875
 30
0.0
 10
2.70278
 20
-6.6875
 30
0.0
 10
2.74299
 20
-6.6875
 30
0.0
 10
2.77376
 20
-6.68948
 30
0.0
 10
2.79506
 20
-6.69329
 30
0.0
 10
2.79506
 20
-6.69329
 30
0.0
 10
2.82484
 20
-6.69823
 30
0.0
 10
2.84982
 20
-6.70768
 30
0.0
 10
2.86999
 20
-6.72151
 30
0.0
 10
2.86999
 20
-6.72151
 30
0.0
 10
2.89017
 20
-6.73548
 30
0.0
 10
2.9064
 20
-6.75496
 30
0.0
 10
2.91868
 20
-6.77993
 30
0.0
 10
2.91868
 20
-6.77993
 30
0.0
 10
2.93095
 20
-6.80491
 30
0.0
 10
2.93702
 20
-6.83243
 30
0.0
 10
2.93702
 20
-6.86248
 30
0.0
 10
2.93702
 20
-6.86248
 30
0.0
 10
2.93702
 20
-6.91385
 30
0.0
 10
2.92065
 20
-6.95745
 30
0.0
 10
2.88777
 20
-6.99301
 30
0.0
 10
2.88777
 20
-6.99301
 30
0.0
 10
2.85504
 20
-7.02871
 30
0.0
 10
2.79563
 20
-7.04649
 30
0.0
 10
2.70983
 20
-7.04649
 30
0.0
 10
2.70983
 20
-7.04649
 30
0.0
 10
2.70983
 20
-7.04649
 30
0.0
 10
2.55433
 20
-7.04649
 30
0.0
 10
2.55433
 20
-7.04649
 30
0.0
 10
2.55433
 20
-7.04649
 30
0.0
 10
2.55433
 20
-7.04649
 30
0.0
 10
2.55433
 20
-7.29372
 30
0.0
 10
2.55433
 20
-7.29372
 30
0.0
 10
2.55433
 20
-7.29372
 30
0.0
 10
2.55433
 20
-7.29372
 30
0.0
 10
2.47389
 20
-7.29372
 30
0.0
 10
2.47389
 20
-7.29372
 30
0.0
  0
SPLINE
  5
4D
330
1F
100
AcDbEntity
  8
Layer 1
 62
   250
100
AcDbSpline
210
0.0
220
0.0
230
1.0
 70
    11
 71
     3
 72
    36
 73
    32
 74
     0
 42
0.0000000001
 43
0.0000000001
 12
1.0
 22
0.0
 32
0.0
 13
1.0
 23
0.0
 33
0.0
 40
0.0
 40
0.0
 40
0.0
 40
0.0
 40
0.1111111111111111
 40
0.1111111111111111
 40
0.1111111111111111
 40
0.1111111111111111
 40
0.2222222222222222
 40
0.2222222222222222
 40
0.2222222222222222
 40
0.2222222222222222
 40
0.3333333333333333
 40
0.3333333333333333
 40
0.3333333333333333
 40
0.3333333333333333
 40
0.4444444444444444
 40
0.4444444444444444
 40
0.4444444444444444
 40
0.4444444444444444
 40
0.5555555555555556
 40
0.5555555555555556
 40
0.5555555555555556
 40
0.5555555555555556
 40
0.6666666666666666
 40
0.6666666666666666
 40
0.6666666666666666
 40
0.6666666666666666
 40
0.7777777777777778
 40
0.7777777777777778
 40
0.7777777777777778
 40
0.7777777777777778
 40
1.0
 40
1.0
 40
1.0
 40
1.0
 10
2.55433
 20
-6.97537
 30
0.0
 10
2.55433
 20
-6.97537
 30
0.0
 10
2.71096
 20
-6.97537
 30
0.0
 10
2.71096
 20
-6.97537
 30
0.0
 10
2.71096
 20
-6.97537
 30
0.0
 10
2.76289
 20
-6.97537
 30
0.0
 10
2.79958
 20
-6.96578
 30
0.0
 10
2.82145
 20
-6.94644
 30
0.0
 10
2.82145
 20
-6.94644
 30
0.0
 10
2.84318
 20
-6.92711
 30
0.0
 10
2.85405
 20
-6.90002
 30
0.0
 10
2.85405
 20
-6.86488
 30
0.0
 10
2.85405
 20
-6.86488
 30
0.0
 10
2.85405
 20
-6.83962
 30
0.0
 10
2.8477
 20
-6.81789
 30
0.0
 10
2.83486
 20
-6.79983
 30
0.0
 10
2.83486
 20
-6.79983
 30
0.0
 10
2.82202
 20
-6.78177
 30
0.0
 10
2.80508
 20
-6.76977
 30
0.0
 10
2.7842
 20
-6.76399
 30
0.0
 10
2.7842
 20
-6.76399
 30
0.0
 10
2.77065
 20
-6.76046
 30
0.0
 10
2.74567
 20
-6.75862
 30
0.0
 10
2.70941
 20
-6.75862
 30
0.0
 10
2.70941
 20
-6.75862
 30
0.0
 10
2.70941
 20
-6.75862
 30
0.0
 10
2.55433
 20
-6.75862
 30
0.0
 10
2.55433
 20
-6.75862
 30
0.0
 10
2.55433
 20
-6.75862
 30
0.0
 10
2.55433
 20
-6.75862
 30
0.0
 10
2.55433
 20
-6.97537
 30
0.0
 10
2.55433
 20
-6.97537
 30
0.0
  0
SPLINE
  5
4E
330
1F
100
AcDbEntity
  8
Layer 1
 62
   250
100
AcDbSpline
210
0.0
220
0.0
230
1.0
 70
    11
 71
     3
 72
    28
 73
    24
 74
     0
 42
0.0000000001
 43
0.0000000001
 12
1.0
 22
0.0
 32
0.0
 13
1.0
 23
0.0
 33
0.0
 40
0.0
 40
0.0
 40
0.0
 40
0.0
 40
0.1428571428571428
 40
0.1428571428571428
 40
0.1428571428571428
 40
0.1428571428571428
 40
0.2857142857142857
 40
0.2857142857142857
 40
0.2857142857142857
 40
0.2857142857142857
 40
0.4285714285714285
 40
0.4285714285714285
 40
0.4285714285714285
 40
0.4285714285714285
 40
0.5714285714285714
 40
0.5714285714285714
 40
0.5714285714285714
 40
0.5714285714285714
 40
0.7142857142857143
 40
0.7142857142857143
 40
0.7142857142857143
 40
0.7142857142857143
 40
1.0
 40
1.0
 40
1.0
 40
1.0
 10
3.03524
 20
-7.29372
 30
0.0
 10
3.03524
 20
-7.29372
 30
0.0
 10
3.03524
 20
-6.6875
 30
0.0
 10
3.03524
 20
-6.6875
 30
0.0
 10
3.03524
 20
-6.6875
 30
0.0
 10
3.03524
 20
-6.6875
 30
0.0
 10
3.11567
 20
-6.6875
 30
0.0
 10
3.11567
 20
-6.6875
 30
0.0
 10
3.11567
 20
-6.6875
 30
0.0
 10
3.11567
 20
-6.6875
 30
0.0
 10
3.11567
 20
-7.2226
 30
0.0
 10
3.11567
 20
-7.2226
 30
0.0
 10
3.11567
 20
-7.2226
 30
0.0
 10
3.11567
 20
-7.2226
 30
0.0
 10
3.4137
 20
-7.2226
 30
0.0
 10
3.4137
 20
-7.2226
 30
0.0
 10
3.4137
 20
-7.2226
 30
0.0
 10
3.4137
 20
-7.2226
 30
0.0
 10
3.4137
 20
-7.29372
 30
0.0
 10
3.4137
 20
-7.29372
 30
0.0
 10
3.4137
 20
-7.29372
 30
0.0
 10
3.4137
 20
-7.29372
 30
0.0
 10
3.03524
 20
-7.29372
 30
0.0
 10
3.03524
 20
-7.29372
 30
0.0
  0
SPLINE
  5
4F
330
1F
100
AcDbEntity
  8
Layer 1
 62
   250
100
AcDbSpline
210
0.0
220
0.0
230
1.0
 70
    11
 71
     3
 72
    36
 73
    32
 74
     0
 42
0.0000000001
 43
0.0000000001
 12
1.0
 22
0.0
 32
0.0
 13
1.0
 23
0.0
 33
0.0
 40
0.0
 40
0.0
 40
0.0
 40
0.0
 40
0.1111111111111111
 40
0.1111111111111111
 40
0.1111111111111111
 40
0.1111111111111111
 40
0.2222222222222222
 40
0.2222222222222222
 40
0.2222222222222222
 40
0.2222222222222222
 40
0.3333333333333333
 40
0.3333333333333333
 40
0.3333333333333333
 40
0.3333333333333333
 40
0.4444444444444444
 40
0.4444444444444444
 40
0.4444444444444444
 40
0.4444444444444444
 40
0.5555555555555556
 40
0.5555555555555556
 40
0.5555555555555556
 40
0.5555555555555556
 40
0.6666666666666666
 40
0.6666666666666666
 40
0.6666666666666666
 40
0.6666666666666666
 40
0.7777777777777778
 40
0.7777777777777778
 40
0.7777777777777778
 40
0.7777777777777778
 40
1.0
 40
1.0
 40
1.0
 40
1.0
 10
3.44305
 20
-7.29372
 30
0.0
 10
3.44305
 20
-7.29372
 30
0.0
 10
3.6756
 20
-6.6875
 30
0.0
 10
3.6756
 20
-6.6875
 30
0.0
 10
3.6756
 20
-6.6875
 30
0.0
 10
3.6756
 20
-6.6875
 30
0.0
 10
3.7638
 20
-6.6875
 30
0.0
 10
3.7638
 20
-6.6875
 30
0.0
 10
3.7638
 20
-6.6875
 30
0.0
 10
3.7638
 20
-6.6875
 30
0.0
 10
4.0106
 20
-7.29372
 30
0.0
 10
4.0106
 20
-7.29372
 30
0.0
 10
4.0106
 20
-7.29372
 30
0.0
 10
4.0106
 20
-7.29372
 30
0.0
 10
3.9193
 20
-7.29372
 30
0.0
 10
3.9193
 20
-7.29372
 30
0.0
 10
3.9193
 20
-7.29372
 30
0.0
 10
3.9193
 20
-7.29372
 30
0.0
 10
3.84917
 20
-7.10999
 30
0.0
 10
3.84917
 20
-7.10999
 30
0.0
 10
3.84917
 20
-7.10999
 30
0.0
 10
3.84917
 20
-7.10999
 30
0.0
 10
3.5939
 20
-7.10999
 30
0.0
 10
3.5939
 20
-7.10999
 30
0.0
 10
3.5939
 20
-7.10999
 30
0.0
 10
3.5939
 20
-7.10999
 30
0.0
 10
3.52814
 20
-7.29372
 30
0.0
 10
3.52814
 20
-7.29372
 30
0.0
 10
3.52814
 20
-7.29372
 30
0.0
 10
3.52814
 20
-7.29372
 30
0.0
 10
3.44305
 20
-7.29372
 30
0.0
 10
3.44305
 20
-7.29372
 30
0.0
  0
SPLINE
  5
50
330
1F
100
AcDbEntity
  8
Layer 1
 62
   250
100
AcDbSpline
210
0.0
220
0.0
230
1.0
 70
    11
 71
     3
 72
    24
 73
    20
 74
     0
 42
0.0000000001
 43
0.0000000001
 12
1.0
 22
0.0
 32
0.0
 13
1.0
 23
0.0
 33
0.0
 40
0.0
 40
0.0
 40
0.0
 40
0.0
 40
0.1666666666666667
 40
0.1666666666666667
 40
0.1666666666666667
 40
0.1666666666666667
 40
0.3333333333333333
 40
0.3333333333333333
 40
0.3333333333333333
 40
0.3333333333333333
 40
0.5
 40
0.5
 40
0.5
 40
0.5
 40
0.6666666666666666
 40
0.6666666666666666
 40
0.6666666666666666
 40
0.6666666666666666
 40
1.0
 40
1.0
 40
1.0
 40
1.0
 10
3.61746
 20
-7.0448
 30
0.0
 10
3.61746
 20
-7.0448
 30
0.0
 10
3.82405
 20
-7.0448
 30
0.0
 10
3.82405
 20
-7.0448
 30
0.0
 10
3.82405
 20
-7.0448
 30
0.0
 10
3.82405
 20
-7.0448
 30
0.0
 10
3.76083
 20
-6.87674
 30
0.0
 10
3.76083
 20
-6.87674
 30
0.0
 10
3.76083
 20
-6.87674
 30
0.0
 10
3.74178
 20
-6.82565
 30
0.0
 10
3.72739
 20
-6.78346
 30
0.0
 10
3.71737
 20
-6.75016
 30
0.0
 10
3.71737
 20
-6.75016
 30
0.0
 10
3.70905
 20
-6.78967
 30
0.0
 10
3.6979
 20
-6.82847
 30
0.0
 10
3.68393
 20
-6.86686
 30
0.0
 10
3.68393
 20
-6.86686
 30
0.0
 10
3.68393
 20
-6.86686
 30
0.0
 10
3.61746
 20
-7.0448
 30
0.0
 10
3.61746
 20
-7.0448
 30
0.0
  0
SPLINE
  5
51
330
1F
100
AcDbEntity
  8
Layer 1
 62
   250
100
AcDbSpline
210
0.0
220
0.0
230
1.0
 70
    11
 71
     3
 72
    36
 73
    32
 74
     0
 42
0.0000000001
 43
0.0000000001
 12
1.0
 22
0.0
 32
0.0
 13
1.0
 23
0.0
 33
0.0
 40
0.0
 40
0.0
 40
0.0
 40
0.0
 40
0.1111111111111111
 40
0.1111111111111111
 40
0.1111111111111111
 40
0.1111111111111111
 40
0.2222222222222222
 40
0.2222222222222222
 40
0.2222222222222222
 40
0.2222222222222222
 40
0.3333333333333333
 40
0.3333333333333333
 40
0.3333333333333333
 40
0.3333333333333333
 40
0.4444444444444444
 40
0.4444444444444444
 40
0.4444444444444444
 40
0.4444444444444444
 40
0.5555555555555556
 40
0.5555555555555556
 40
0.5555555555555556
 40
0.5555555555555556
 40
0.6666666666666666
 40
0.6666666666666666
 40
0.6666666666666666
 40
0.6666666666666666
 40
0.7777777777777778
 40
0.7777777777777778
 40
0.7777777777777778
 40
0.7777777777777778
 40
1.0
 40
1.0
 40
1.0
 40
1.0
 10
4.16555
 20
-7.29372
 30
0.0
 10
4.16555
 20
-7.29372
 30
0.0
 10
4.16555
 20
-6.75862
 30
0.0
 10
4.16555
 20
-6.75862
 30
0.0
 10
4.16555
 20
-6.75862
 30
0.0
 10
4.16555
 20
-6.75862
 30
0.0
 10
3.96573
 20
-6.75862
 30
0.0
 10
3.96573
 20
-6.75862
 30
0.0
 10
3.96573
 20
-6.75862
 30
0.0
 10
3.96573
 20
-6.75862
 30
0.0
 10
3.96573
 20
-6.6875
 30
0.0
 10
3.96573
 20
-6.6875
 30
0.0
 10
3.96573
 20
-6.6875
 30
0.0
 10
3.96573
 20
-6.6875
 30
0.0
 10
4.4458
 20
-6.6875
 30
0.0
 10
4.4458
 20
-6.6875
 30
0.0
 10
4.4458
 20
-6.6875
 30
0.0
 10
4.4458
 20
-6.6875
 30
0.0
 10
4.4458
 20
-6.75862
 30
0.0
 10
4.4458
 20
-6.75862
 30
0.0
 10
4.4458
 20
-6.75862
 30
0.0
 10
4.4458
 20
-6.75862
 30
0.0
 10
4.24598
 20
-6.75862
 30
0.0
 10
4.24598
 20
-6.75862
 30
0.0
 10
4.24598
 20
-6.75862
 30
0.0
 10
4.24598
 20
-6.75862
 30
0.0
 10
4.24598
 20
-7.29372
 30
0.0
 10
4.24598
 20
-7.29372
 30
0.0
 10
4.24598
 20
-7.29372
 30
0.0
 10
4.24598
 20
-7.29372
 30
0.0
 10
4.16555
 20
-7.29372
 30
0.0
 10
4.16555
 20
-7.29372
 30
0.0
  0
SPLINE
  5
52
330
1F
100
AcDbEntity
  8
Layer 1
 62
   250
100
AcDbSpline
210
0.0
220
0.0
230
1.0
 70
    11
 71
     3
 72
    52
 73
    48
 74
     0
 42
0.0000000001
 43
0.0000000001
 12
1.0
 22
0.0
 32
0.0
 13
1.0
 23
0.0
 33
0.0
 40
0.0
 40
0.0
 40
0.0
 40
0.0
 40
0.0769230769230769
 40
0.0769230769230769
 40
0.0769230769230769
 40
0.0769230769230769
 40
0.1538461538461539
 40
0.1538461538461539
 40
0.1538461538461539
 40
0.1538461538461539
 40
0.2307692307692308
 40
0.2307692307692308
 40
0.2307692307692308
 40
0.2307692307692308
 40
0.3076923076923077
 40
0.3076923076923077
 40
0.3076923076923077
 40
0.3076923076923077
 40
0.3846153846153846
 40
0.3846153846153846
 40
0.3846153846153846
 40
0.3846153846153846
 40
0.4615384615384616
 40
0.4615384615384616
 40
0.4615384615384616
 40
0.4615384615384616
 40
0.5384615384615384
 40
0.5384615384615384
 40
0.5384615384615384
 40
0.5384615384615384
 40
0.6153846153846154
 40
0.6153846153846154
 40
0.6153846153846154
 40
0.6153846153846154
 40
0.6923076923076923
 40
0.6923076923076923
 40
0.6923076923076923
 40
0.6923076923076923
 40
0.7692307692307693
 40
0.7692307692307693
 40
0.7692307692307693
 40
0.7692307692307693
 40
0.8461538461538461
 40
0.8461538461538461
 40
0.8461538461538461
 40
0.8461538461538461
 40
1.0
 40
1.0
 40
1.0
 40
1.0
 10
4.53032
 20
-7.29372
 30
0.0
 10
4.53032
 20
-7.29372
 30
0.0
 10
4.53032
 20
-6.6875
 30
0.0
 10
4.53032
 20
-6.6875
 30
0.0
 10
4.53032
 20
-6.6875
 30
0.0
 10
4.53032
 20
-6.6875
 30
0.0
 10
4.96805
 20
-6.6875
 30
0.0
 10
4.96805
 20
-6.6875
 30
0.0
 10
4.96805
 20
-6.6875
 30
0.0
 10
4.96805
 20
-6.6875
 30
0.0
 10
4.96805
 20
-6.75862
 30
0.0
 10
4.96805
 20
-6.75862
 30
0.0
 10
4.96805
 20
-6.75862
 30
0.0
 10
4.96805
 20
-6.75862
 30
0.0
 10
4.61075
 20
-6.75862
 30
0.0
 10
4.61075
 20
-6.75862
 30
0.0
 10
4.61075
 20
-6.75862
 30
0.0
 10
4.61075
 20
-6.75862
 30
0.0
 10
4.61075
 20
-6.94489
 30
0.0
 10
4.61075
 20
-6.94489
 30
0.0
 10
4.61075
 20
-6.94489
 30
0.0
 10
4.61075
 20
-6.94489
 30
0.0
 10
4.94519
 20
-6.94489
 30
0.0
 10
4.94519
 20
-6.94489
 30
0.0
 10
4.94519
 20
-6.94489
 30
0.0
 10
4.94519
 20
-6.94489
 30
0.0
 10
4.94519
 20
-7.01601
 30
0.0
 10
4.94519
 20
-7.01601
 30
0.0
 10
4.94519
 20
-7.01601
 30
0.0
 10
4.94519
 20
-7.01601
 30
0.0
 10
4.61075
 20
-7.01601
 30
0.0
 10
4.61075
 20
-7.01601
 30
0.0
 10
4.61075
 20
-7.01601
 30
0.0
 10
4.61075
 20
-7.01601
 30
0.0
 10
4.61075
 20
-7.2226
 30
0.0
 10
4.61075
 20
-7.2226
 30
0.0
 10
4.61075
 20
-7.2226
 30
0.0
 10
4.61075
 20
-7.2226
 30
0.0
 10
4.98244
 20
-7.2226
 30
0.0
 10
4.98244
 20
-7.2226
 30
0.0
 10
4.98244
 20
-7.2226
 30
0.0
 10
4.98244
 20
-7.2226
 30
0.0
 10
4.98244
 20
-7.29372
 30
0.0
 10
4.98244
 20
-7.29372
 30
0.0
 10
4.98244
 20
-7.29372
 30
0.0
 10
4.98244
 20
-7.29372
 30
0.0
 10
4.53032
 20
-7.29372
 30
0.0
 10
4.53032
 20
-7.29372
 30
0.0
  0
SPLINE
  5
53
330
1F
100
AcDbEntity
  8
Layer 1
 62
     3
370
     9
100
AcDbSpline
210
0.0
220
0.0
230
1.0
 70
     8
 71
     3
 72
    32
 73
    28
 74
     0
 42
0.0000000001
 43
0.0000000001
 12
1.0
 22
0.0
 32
0.0
 13
1.0
 23
0.0
 33
0.0
 40
0.0
 40
0.0
 40
0.0
 40
0.0
 40
0.125
 40
0.125
 40
0.125
 40
0.125
 40
0.25
 40
0.25
 40
0.25
 40
0.25
 40
0.375
 40
0.375
 40
0.375
 40
0.375
 40
0.5
 40
0.5
 40
0.5
 40
0.5
 40
0.625
 40
0.625
 40
0.625
 40
0.625
 40
0.75
 40
0.75
 40
0.75
 40
0.75
 40
1.0
 40
1.0
 40
1.0
 40
1.0
 10
1.59603
 20
6.38222
 30
0.0
 10
1.59603
 20
6.38222
 30
0.0
 10
-10.63491
 20
6.38222
 30
0.0
 10
-10.63491
 20
6.38222
 30
0.0
 10
-10.63491
 20
6.38222
 30
0.0
 10
-10.70549
 20
6.38217
 30
0.0
 10
-10.77317
 20
6.35409
 30
0.0
 10
-10.82305
 20
6.30415
 30
0.0
 10
-10.82305
 20
6.30415
 30
0.0
 10
-10.87293
 20
6.2542
 30
0.0
 10
-10.90092
 20
6.18683
 30
0.0
 10
-10.90088
 20
6.11625
 30
0.0
 10
-10.90088
 20
6.11625
 30
0.0
 10
-10.90088
 20
6.11625
 30
0.0
 10
-10.90088
 20
-4.16063
 30
0.0
 10
-10.90088
 20
-4.16063
 30
0.0
 10
-10.90088
 20
-4.16063
 30
0.0
 10
-10.90083
 20
-4.23121
 30
0.0
 10
-10.87276
 20
-4.29889
 30
0.0
 10
-10.82281
 20
-4.34876
 30
0.0
 10
-10.82281
 20
-4.34876
 30
0.0
 10
-10.77287
 20
-4.39865
 30
0.0
 10
-10.70549
 20
-4.42664
 30
0.0
 10
-10.63491
 20
-4.42659
 30
0.0
 10
-10.63491
 20
-4.42659
 30
0.0
 10
-10.63491
 20
-4.42659
 30
0.0
 10
1.59603
 20
-4.42659
 30
0.0
 10
1.59603
 20
-4.42659
 30
0.0
  0
SPLINE
  5
54
330
1F
100
AcDbEntity
  8
Layer 1
 62
     3
370
     9
100
AcDbSpline
210
0.0
220
0.0
230
1.0
 70
     8
 71
     3
 72
    32
 73
    28
 74
     0
 42
0.0000000001
 43
0.0000000001
 12
1.0
 22
0.0
 32
0.0
 13
1.0
 23
0.0
 33
0.0
 40
0.0
 40
0.0
 40
0.0
 40
0.0
 40
0.125
 40
0.125
 40
0.125
 40
0.125
 40
0.25
 40
0.25
 40
0.25
 40
0.25
 40
0.375
 40
0.375
 40
0.375
 40
0.375
 40
0.5
 40
0.5
 40
0.5
 40
0.5
 40
0.625
 40
0.625
 40
0.625
 40
0.625
 40
0.75
 40
0.75
 40
0.75
 40
0.75
 40
1.0
 40
1.0
 40
1.0
 40
1.0
 10
1.59603
 20
6.38222
 30
0.0
 10
1.59603
 20
6.38222
 30
0.0
 10
9.77522
 20
6.38222
 30
0.0
 10
9.77522
 20
6.38222
 30
0.0
 10
9.77522
 20
6.38222
 30
0.0
 10
9.84572
 20
6.38226
 30
0.0
 10
9.91334
 20
6.3543
 30
0.0
 10
9.96322
 20
6.30449
 30
0.0
 10
9.96322
 20
6.30449
 30
0.0
 10
10.0131
 20
6.25467
 30
0.0
 10
10.04114
 20
6.18675
 30
0.0
 10
10.04119
 20
6.11625
 30
0.0
 10
10.04119
 20
6.11625
 30
0.0
 10
10.04119
 20
6.11625
 30
0.0
 10
10.04119
 20
-4.16063
 30
0.0
 10
10.04119
 20
-4.16063
 30
0.0
 10
10.04119
 20
-4.16063
 30
0.0
 10
10.04124
 20
-4.23112
 30
0.0
 10
10.01328
 20
-4.29875
 30
0.0
 10
9.96346
 20
-4.34862
 30
0.0
 10
9.96346
 20
-4.34862
 30
0.0
 10
9.91364
 20
-4.39851
 30
0.0
 10
9.84572
 20
-4.42655
 30
0.0
 10
9.77522
 20
-4.42659
 30
0.0
 10
9.77522
 20
-4.42659
 30
0.0
 10
9.77522
 20
-4.42659
 30
0.0
 10
1.59603
 20
-4.42659
 30
0.0
 10
1.59603
 20
-4.42659
 30
0.0
  0
SPLINE
  5
56
330
1F
100
AcDbEntity
  8
layer 2
 62
     1
370
     0
100
AcDbSpline
210
0.0
220
0.0
230
1.0
 70
    24
 71
     3
 72
     8
 73
     4
 74
     0
 42
0.0000000001
 43
0.0000000001
 12
1.0
 22
0.0
 32
0.0
 13
1.0
 23
0.0
 33
0.0
 40
0.0
 40
0.0
 40
0.0
 40
0.0
 40
1.0
 40
1.0
 40
1.0
 40
1.0
 10
-10.90088
 20
6.24923
 30
0.0
 10
-10.90088
 20
6.24923
 30
0.0
 10
-10.90088
 20
7.55533
 30
0.0
 10
-10.90088
 20
7.55533
 30
0.0
  0
SPLINE
  5
57
330
1F
100
AcDbEntity
  8
layer 2
 62
     1
370
     0
100
AcDbSpline
210
0.0
220
0.0
230
1.0
 70
    24
 71
     3
 72
     8
 73
     4
 74
     0
 42
0.0000000001
 43
0.0000000001
 12
1.0
 22
0.0
 32
0.0
 13
1.0
 23
0.0
 33
0.0
 40
0.0
 40
0.0
 40
0.0
 40
0.0
 40
1.0
 40
1.0
 40
1.0
 40
1.0
 10
10.04119
 20
6.24923
 30
0.0
 10
10.04119
 20
6.24923
 30
0.0
 10
10.04119
 20
7.55533
 30
0.0
 10
10.04119
 20
7.55533
 30
0.0
  0
SPLINE
  5
58
330
1F
100
AcDbEntity
  8
layer 2
 62
     1
370
     0
100
AcDbSpline
210
0.0
220
0.0
230
1.0
 70
    24
 71
     3
 72
     8
 73
     4
 74
     0
 42
0.0000000001
 43
0.0000000001
 12
1.0
 22
0.0
 32
0.0
 13
1.0
 23
0.0
 33
0.0
 40
0.0
 40
0.0
 40
0.0
 40
0.0
 40
1.0
 40
1.0
 40
1.0
 40
1.0
 10
-10.36895
 20
7.28936
 30
0.0
 10
-10.36895
 20
7.28936
 30
0.0
 10
9.50926
 20
7.28936
 30
0.0
 10
9.50926
 20
7.28936
 30
0.0
  0
SPLINE
  5
59
330
1F
100
AcDbEntity
  8
layer 2
 62
     1
100
AcDbSpline
210
0.0
220
0.0
230
1.0
 70
    27
 71
     3
 72
    12
 73
     8
 74
     0
 42
0.0000000001
 43
0.0000000001
 12
1.0
 22
0.0
 32
0.0
 13
1.0
 23
0.0
 33
0.0
 40
0.0
 40
0.0
 40
0.0
 40
0.0
 40
0.3333333333333333
 40
0.3333333333333333
 40
0.3333333333333333
 40
0.3333333333333333
 40
1.0
 40
1.0
 40
1.0
 40
1.0
 10
-10.36895
 20
7.37802
 30
0.0
 10
-10.36895
 20
7.37802
 30
0.0
 10
-10.90088
 20
7.28936
 30
0.0
 10
-10.90088
 20
7.28936
 30
0.0
 10
-10.90088
 20
7.28936
 30
0.0
 10
-10.90088
 20
7.28936
 30
0.0
 10
-10.36895
 20
7.37802
 30
0.0
 10
-10.36895
 20
7.37802
 30
0.0
  0
SPLINE
  5
5A
330
1F
100
AcDbEntity
  8
layer 2
 62
     1
100
AcDbSpline
210
0.0
220
0.0
230
1.0
 70
     8
 71
     3
 72
    12
 73
     8
 74
     0
 42
0.0000000001
 43
0.0000000001
 12
1.0
 22
0.0
 32
0.0
 13
1.0
 23
0.0
 33
0.0
 40
0.0
 40
0.0
 40
0.0
 40
0.0
 40
0.3333333333333333
 40
0.3333333333333333
 40
0.3333333333333333
 40
0.3333333333333333
 40
1.0
 40
1.0
 40
1.0
 40
1.0
 10
-10.90088
 20
7.28936
 30
0.0
 10
-10.90088
 20
7.28936
 30
0.0
 10
-10.36895
 20
7.20071
 30
0.0
 10
-10.36895
 20
7.20071
 30
0.0
 10
-10.36895
 20
7.20071
 30
0.0
 10
-10.36895
 20
7.20071
 30
0.0
 10
-10.36895
 20
7.37802
 30
0.0
 10
-10.36895
 20
7.37802
 30
0.0
  0
SPLINE
  5
5B
330
1F
100
AcDbEntity
  8
layer 2
 62
     1
370
     9
100
AcDbSpline
210
0.0
220
0.0
230
1.0
 70
    24
 71
     3
 72
     8
 73
     4
 74
     0
 42
0.0000000001
 43
0.0000000001
 12
1.0
 22
0.0
 32
0.0
 13
1.0
 23
0.0
 33
0.0
 40
0.0
 40
0.0
 40
0.0
 40
0.0
 40
1.0
 40
1.0
 40
1.0
 40
1.0
 10
-10.36895
 20
7.37802
 30
0.0
 10
-10.36895
 20
7.37802
 30
0.0
 10
-10.90088
 20
7.28936
 30
0.0
 10
-10.90088
 20
7.28936
 30
0.0
  0
SPLINE
  5
5C
330
1F
100
AcDbEntity
  8
layer 2
 62
     1
370
     9
100
AcDbSpline
210
0.0
220
0.0
230
1.0
 70
     8
 71
     3
 72
    12
 73
     8
 74
     0
 42
0.0000000001
 43
0.0000000001
 12
1.0
 22
0.0
 32
0.0
 13
1.0
 23
0.0
 33
0.0
 40
0.0
 40
0.0
 40
0.0
 40
0.0
 40
0.3333333333333333
 40
0.3333333333333333
 40
0.3333333333333333
 40
0.3333333333333333
 40
1.0
 40
1.0
 40
1.0
 40
1.0
 10
-10.90088
 20
7.28936
 30
0.0
 10
-10.90088
 20
7.28936
 30
0.0
 10
-10.36895
 20
7.20071
 30
0.0
 10
-10.36895
 20
7.20071
 30
0.0
 10
-10.36895
 20
7.20071
 30
0.0
 10
-10.36895
 20
7.20071
 30
0.0
 10
-10.36895
 20
7.37802
 30
0.0
 10
-10.36895
 20
7.37802
 30
0.0
  0
SPLINE
  5
5D
330
1F
100
AcDbEntity
  8
layer 2
 62
     1
100
AcDbSpline
210
0.0
220
0.0
230
1.0
 70
    27
 71
     3
 72
    12
 73
     8
 74
     0
 42
0.0000000001
 43
0.0000000001
 12
1.0
 22
0.0
 32
0.0
 13
1.0
 23
0.0
 33
0.0
 40
0.0
 40
0.0
 40
0.0
 40
0.0
 40
0.3333333333333333
 40
0.3333333333333333
 40
0.3333333333333333
 40
0.3333333333333333
 40
1.0
 40
1.0
 40
1.0
 40
1.0
 10
9.50926
 20
7.37802
 30
0.0
 10
9.50926
 20
7.37802
 30
0.0
 10
10.04119
 20
7.28936
 30
0.0
 10
10.04119
 20
7.28936
 30
0.0
 10
10.04119
 20
7.28936
 30
0.0
 10
10.04119
 20
7.28936
 30
0.0
 10
9.50926
 20
7.37802
 30
0.0
 10
9.50926
 20
7.37802
 30
0.0
  0
SPLINE
  5
5E
330
1F
100
AcDbEntity
  8
layer 2
 62
     1
100
AcDbSpline
210
0.0
220
0.0
230
1.0
 70
     8
 71
     3
 72
    12
 73
     8
 74
     0
 42
0.0000000001
 43
0.0000000001
 12
1.0
 22
0.0
 32
0.0
 13
1.0
 23
0.0
 33
0.0
 40
0.0
 40
0.0
 40
0.0
 40
0.0
 40
0.3333333333333333
 40
0.3333333333333333
 40
0.3333333333333333
 40
0.3333333333333333
 40
1.0
 40
1.0
 40
1.0
 40
1.0
 10
10.04119
 20
7.28936
 30
0.0
 10
10.04119
 20
7.28936
 30
0.0
 10
9.50926
 20
7.20071
 30
0.0
 10
9.50926
 20
7.20071
 30
0.0
 10
9.50926
 20
7.20071
 30
0.0
 10
9.50926
 20
7.20071
 30
0.0
 10
9.50926
 20
7.37802
 30
0.0
 10
9.50926
 20
7.37802
 30
0.0
  0
SPLINE
  5
5F
330
1F
100
AcDbEntity
  8
layer 2
 62
     1
370
     9
100
AcDbSpline
210
0.0
220
0.0
230
1.0
 70
    24
 71
     3
 72
     8
 73
     4
 74
     0
 42
0.0000000001
 43
0.0000000001
 12
1.0
 22
0.0
 32
0.0
 13
1.0
 23
0.0
 33
0.0
 40
0.0
 40
0.0
 40
0.0
 40
0.0
 40
1.0
 40
1.0
 40
1.0
 40
1.0
 10
9.50926
 20
7.37802
 30
0.0
 10
9.50926
 20
7.37802
 30
0.0
 10
10.04119
 20
7.28936
 30
0.0
 10
10.04119
 20
7.28936
 30
0.0
  0
SPLINE
  5
60
330
1F
100
AcDbEntity
  8
layer 2
 62
     1
370
     9
100
AcDbSpline
210
0.0
220
0.0
230
1.0
 70
     8
 71
     3
 72
    12
 73
     8
 74
     0
 42
0.0000000001
 43
0.0000000001
 12
1.0
 22
0.0
 32
0.0
 13
1.0
 23
0.0
 33
0.0
 40
0.0
 40
0.0
 40
0.0
 40
0.0
 40
0.3333333333333333
 40
0.3333333333333333
 40
0.3333333333333333
 40
0.3333333333333333
 40
1.0
 40
1.0
 40
1.0
 40
1.0
 10
10.04119
 20
7.28936
 30
0.0
 10
10.04119
 20
7.28936
 30
0.0
 10
9.50926
 20
7.20071
 30
0.0
 10
9.50926
 20
7.20071
 30
0.0
 10
9.50926
 20
7.20071
 30
0.0
 10
9.50926
 20
7.20071
 30
0.0
 10
9.50926
 20
7.37802
 30
0.0
 10
9.50926
 20
7.37802
 30
0.0
  0
SPLINE
  5
61
330
1F
100
AcDbEntity
  8
layer 2
 62
     1
100
AcDbSpline
210
0.0
220
0.0
230
1.0
 70
    11
 71
     3
 72
   124
 73
   120
 74
     0
 42
0.0000000001
 43
0.0000000001
 12
1.0
 22
0.0
 32
0.0
 13
1.0
 23
0.0
 33
0.0
 40
0.0
 40
0.0
 40
0.0
 40
0.0
 40
0.032258064516129
 40
0.032258064516129
 40
0.032258064516129
 40
0.032258064516129
 40
0.0645161290322581
 40
0.0645161290322581
 40
0.0645161290322581
 40
0.0645161290322581
 40
0.0967741935483871
 40
0.0967741935483871
 40
0.0967741935483871
 40
0.0967741935483871
 40
0.1290322580645161
 40
0.1290322580645161
 40
0.1290322580645161
 40
0.1290322580645161
 40
0.1612903225806452
 40
0.1612903225806452
 40
0.1612903225806452
 40
0.1612903225806452
 40
0.1935483870967742
 40
0.1935483870967742
 40
0.1935483870967742
 40
0.1935483870967742
 40
0.2258064516129032
 40
0.2258064516129032
 40
0.2258064516129032
 40
0.2258064516129032
 40
0.2580645161290323
 40
0.2580645161290323
 40
0.2580645161290323
 40
0.2580645161290323
 40
0.2903225806451613
 40
0.2903225806451613
 40
0.2903225806451613
 40
0.2903225806451613
 40
0.3225806451612903
 40
0.3225806451612903
 40
0.3225806451612903
 40
0.3225806451612903
 40
0.3548387096774194
 40
0.3548387096774194
 40
0.3548387096774194
 40
0.3548387096774194
 40
0.3870967741935484
 40
0.3870967741935484
 40
0.3870967741935484
 40
0.3870967741935484
 40
0.4193548387096774
 40
0.4193548387096774
 40
0.4193548387096774
 40
0.4193548387096774
 40
0.4516129032258064
 40
0.4516129032258064
 40
0.4516129032258064
 40
0.4516129032258064
 40
0.4838709677419355
 40
0.4838709677419355
 40
0.4838709677419355
 40
0.4838709677419355
 40
0.5161290322580645
 40
0.5161290322580645
 40
0.5161290322580645
 40
0.5161290322580645
 40
0.5483870967741935
 40
0.5483870967741935
 40
0.5483870967741935
 40
0.5483870967741935
 40
0.5806451612903226
 40
0.5806451612903226
 40
0.5806451612903226
 40
0.5806451612903226
 40
0.6129032258064516
 40
0.6129032258064516
 40
0.6129032258064516
 40
0.6129032258064516
 40
0.6451612903225806
 40
0.6451612903225806
 40
0.6451612903225806
 40
0.6451612903225806
 40
0.6774193548387096
 40
0.6774193548387096
 40
0.6774193548387096
 40
0.6774193548387096
 40
0.7096774193548387
 40
0.7096774193548387
 40
0.7096774193548387
 40
0.7096774193548387
 40
0.7419354838709677
 40
0.7419354838709677
 40
0.7419354838709677
 40
0.7419354838709677
 40
0.7741935483870968
 40
0.7741935483870968
 40
0.7741935483870968
 40
0.7741935483870968
 40
0.8064516129032258
 40
0.8064516129032258
 40
0.8064516129032258
 40
0.8064516129032258
 40
0.8387096774193549
 40
0.8387096774193549
 40
0.8387096774193549
 40
0.8387096774193549
 40
0.8709677419354839
 40
0.8709677419354839
 40
0.8709677419354839
 40
0.8709677419354839
 40
0.9032258064516129
 40
0.9032258064516129
 40
0.9032258064516129
 40
0.9032258064516129
 40
0.9354838709677419
 40
0.9354838709677419
 40
0.9354838709677419
 40
0.9354838709677419
 40
1.0
 40
1.0
 40
1.0
 40
1.0
 10
-0.76833
 20
7.60974
 30
0.0
 10
-0.76833
 20
7.60974
 30
0.0
 10
-0.72527
 20
7.61562
 30
0.0
 10
-0.72527
 20
7.61562
 30
0.0
 10
-0.72527
 20
7.61562
 30
0.0
 10
-0.72029
 20
7.59114
 30
0.0
 10
-0.71197
 20
7.57353
 30
0.0
 10
-0.70015
 20
7.56276
 30
0.0
 10
-0.70015
 20
7.56276
 30
0.0
 10
-0.68832
 20
7.55199
 30
0.0
 10
-0.6738
 20
7.54661
 30
0.0
 10
-0.6566
 20
7.54661
 30
0.0
 10
-0.6566
 20
7.54661
 30
0.0
 10
-0.6362
 20
7.54661
 30
0.0
 10
-0.61899
 20
7.55363
 30
0.0
 10
-0.60513
 20
7.56765
 30
0.0
 10
-0.60513
 20
7.56765
 30
0.0
 10
-0.59126
 20
7.58169
 30
0.0
 10
-0.58433
 20
7.59906
 30
0.0
 10
-0.58433
 20
7.61978
 30
0.0
 10
-0.58433
 20
7.61978
 30
0.0
 10
-0.58433
 20
7.63951
 30
0.0
 10
-0.59077
 20
7.65582
 30
0.0
 10
-0.60374
 20
7.66871
 30
0.0
 10
-0.60374
 20
7.66871
 30
0.0
 10
-0.61663
 20
7.68152
 30
0.0
 10
-0.63302
 20
7.68796
 30
0.0
 10
-0.653
 20
7.68796
 30
0.0
 10
-0.653
 20
7.68796
 30
0.0
 10
-0.66116
 20
7.68796
 30
0.0
 10
-0.67128
 20
7.68633
 30
0.0
 10
-0.68342
 20
7.68315
 30
0.0
 10
-0.68342
 20
7.68315
 30
0.0
 10
-0.68342
 20
7.68315
 30
0.0
 10
-0.67862
 20
7.72083
 30
0.0
 10
-0.67862
 20
7.72083
 30
0.0
 10
-0.67862
 20
7.72083
 30
0.0
 10
-0.67576
 20
7.7205
 30
0.0
 10
-0.67339
 20
7.72034
 30
0.0
 10
-0.67168
 20
7.72034
 30
0.0
 10
-0.67168
 20
7.72034
 30
0.0
 10
-0.65325
 20
7.72034
 30
0.0
 10
-0.63678
 20
7.72515
 30
0.0
 10
-0.62201
 20
7.7347
 30
0.0
 10
-0.62201
 20
7.7347
 30
0.0
 10
-0.60733
 20
7.74423
 30
0.0
 10
-0.59999
 20
7.75891
 30
0.0
 10
-0.59999
 20
7.77874
 30
0.0
 10
-0.59999
 20
7.77874
 30
0.0
 10
-0.59999
 20
7.79448
 30
0.0
 10
-0.60537
 20
7.80753
 30
0.0
 10
-0.61606
 20
7.81789
 30
0.0
 10
-0.61606
 20
7.81789
 30
0.0
 10
-0.62674
 20
7.82824
 30
0.0
 10
-0.64052
 20
7.83338
 30
0.0
 10
-0.65741
 20
7.83338
 30
0.0
 10
-0.65741
 20
7.83338
 30
0.0
 10
-0.67421
 20
7.83338
 30
0.0
 10
-0.68815
 20
7.82809
 30
0.0
 10
-0.69933
 20
7.81748
 30
0.0
 10
-0.69933
 20
7.81748
 30
0.0
 10
-0.7105
 20
7.80688
 30
0.0
 10
-0.71769
 20
7.79097
 30
0.0
 10
-0.72087
 20
7.76977
 30
0.0
 10
-0.72087
 20
7.76977
 30
0.0
 10
-0.72087
 20
7.76977
 30
0.0
 10
-0.76393
 20
7.7776
 30
0.0
 10
-0.76393
 20
7.7776
 30
0.0
 10
-0.76393
 20
7.7776
 30
0.0
 10
-0.75863
 20
7.80647
 30
0.0
 10
-0.74672
 20
7.8289
 30
0.0
 10
-0.72804
 20
7.8448
 30
0.0
 10
-0.72804
 20
7.8448
 30
0.0
 10
-0.70945
 20
7.86071
 30
0.0
 10
-0.6862
 20
7.86862
 30
0.0
 10
-0.65847
 20
7.86862
 30
0.0
 10
-0.65847
 20
7.86862
 30
0.0
 10
-0.63938
 20
7.86862
 30
0.0
 10
-0.62176
 20
7.86454
 30
0.0
 10
-0.6057
 20
7.8563
 30
0.0
 10
-0.6057
 20
7.8563
 30
0.0
 10
-0.58955
 20
7.84815
 30
0.0
 10
-0.57723
 20
7.83697
 30
0.0
 10
-0.56875
 20
7.82286
 30
0.0
 10
-0.56875
 20
7.82286
 30
0.0
 10
-0.56019
 20
7.80868
 30
0.0
 10
-0.55595
 20
7.79366
 30
0.0
 10
-0.55595
 20
7.77775
 30
0.0
 10
-0.55595
 20
7.77775
 30
0.0
 10
-0.55595
 20
7.76267
 30
0.0
 10
-0.56002
 20
7.74897
 30
0.0
 10
-0.56809
 20
7.73657
 30
0.0
 10
-0.56809
 20
7.73657
 30
0.0
 10
-0.57625
 20
7.72417
 30
0.0
 10
-0.58832
 20
7.7143
 30
0.0
 10
-0.60423
 20
7.70696
 30
0.0
 10
-0.60423
 20
7.70696
 30
0.0
 10
-0.58351
 20
7.70223
 30
0.0
 10
-0.56745
 20
7.69228
 30
0.0
 10
-0.55595
 20
7.6772
 30
0.0
 10
-0.55595
 20
7.6772
 30
0.0
 10
-0.54453
 20
7.66219
 30
0.0
 10
-0.53882
 20
7.64327
 30
0.0
 10
-0.53882
 20
7.62067
 30
0.0
 10
-0.53882
 20
7.62067
 30
0.0
 10
-0.53882
 20
7.59008
 30
0.0
 10
-0.54999
 20
7.56406
 30
0.0
 10
-0.57225
 20
7.54278
 30
0.0
 10
-0.57225
 20
7.54278
 30
0.0
 10
-0.59461
 20
7.52149
 30
0.0
 10
-0.62282
 20
7.51089
 30
0.0
 10
-0.65692
 20
7.51089
 30
0.0
 10
-0.65692
 20
7.51089
 30
0.0
 10
-0.68766
 20
7.51089
 30
0.0
 10
-0.7132
 20
7.5201
 30
0.0
 10
-0.7335
 20
7.53846
 30
0.0
 10
-0.7335
 20
7.53846
 30
0.0
 10
-0.75389
 20
7.55681
 30
0.0
 10
-0.76548
 20
7.58054
 30
0.0
 10
-0.76833
 20
7.60974
 30
0.0
  0
SPLINE
  5
62
330
1F
100
AcDbEntity
  8
layer 2
 62
     1
100
AcDbSpline
210
0.0
220
0.0
230
1.0
 70
    11
 71
     3
 72
    40
 73
    36
 74
     0
 42
0.0000000001
 43
0.0000000001
 12
1.0
 22
0.0
 32
0.0
 13
1.0
 23
0.0
 33
0.0
 40
0.0
 40
0.0
 40
0.0
 40
0.0
 40
0.1
 40
0.1
 40
0.1
 40
0.1
 40
0.2
 40
0.2
 40
0.2
 40
0.2
 40
0.3
 40
0.3
 40
0.3
 40
0.3
 40
0.4
 40
0.4
 40
0.4
 40
0.4
 40
0.5
 40
0.5
 40
0.5
 40
0.5
 40
0.6
 40
0.6
 40
0.6
 40
0.6
 40
0.7
 40
0.7
 40
0.7
 40
0.7
 40
0.8
 40
0.8
 40
0.8
 40
0.8
 40
1.0
 40
1.0
 40
1.0
 40
1.0
 10
-0.33466
 20
7.51676
 30
0.0
 10
-0.33466
 20
7.51676
 30
0.0
 10
-0.37773
 20
7.51676
 30
0.0
 10
-0.37773
 20
7.51676
 30
0.0
 10
-0.37773
 20
7.51676
 30
0.0
 10
-0.37773
 20
7.51676
 30
0.0
 10
-0.37773
 20
7.79097
 30
0.0
 10
-0.37773
 20
7.79097
 30
0.0
 10
-0.37773
 20
7.79097
 30
0.0
 10
-0.38809
 20
7.78102
 30
0.0
 10
-0.4017
 20
7.77115
 30
0.0
 10
-0.41851
 20
7.76128
 30
0.0
 10
-0.41851
 20
7.76128
 30
0.0
 10
-0.43531
 20
7.75141
 30
0.0
 10
-0.45048
 20
7.74399
 30
0.0
 10
-0.46386
 20
7.7391
 30
0.0
 10
-0.46386
 20
7.7391
 30
0.0
 10
-0.46386
 20
7.7391
 30
0.0
 10
-0.46386
 20
7.7807
 30
0.0
 10
-0.46386
 20
7.7807
 30
0.0
 10
-0.46386
 20
7.7807
 30
0.0
 10
-0.43979
 20
7.79195
 30
0.0
 10
-0.41875
 20
7.80565
 30
0.0
 10
-0.40073
 20
7.8218
 30
0.0
 10
-0.40073
 20
7.8218
 30
0.0
 10
-0.38271
 20
7.83787
 30
0.0
 10
-0.3699
 20
7.85345
 30
0.0
 10
-0.3624
 20
7.86862
 30
0.0
 10
-0.3624
 20
7.86862
 30
0.0
 10
-0.3624
 20
7.86862
 30
0.0
 10
-0.33466
 20
7.86862
 30
0.0
 10
-0.33466
 20
7.86862
 30
0.0
 10
-0.33466
 20
7.86862
 30
0.0
 10
-0.33466
 20
7.86862
 30
0.0
 10
-0.33466
 20
7.51676
 30
0.0
 10
-0.33466
 20
7.51676
 30
0.0
  0
SPLINE
  5
63
330
1F
100
AcDbEntity
  8
layer 2
 62
     1
100
AcDbSpline
210
0.0
220
0.0
230
1.0
 70
    11
 71
     3
 72
    28
 73
    24
 74
     0
 42
0.0000000001
 43
0.0000000001
 12
1.0
 22
0.0
 32
0.0
 13
1.0
 23
0.0
 33
0.0
 40
0.0
 40
0.0
 40
0.0
 40
0.0
 40
0.1428571428571428
 40
0.1428571428571428
 40
0.1428571428571428
 40
0.1428571428571428
 40
0.2857142857142857
 40
0.2857142857142857
 40
0.2857142857142857
 40
0.2857142857142857
 40
0.4285714285714285
 40
0.4285714285714285
 40
0.4285714285714285
 40
0.4285714285714285
 40
0.5714285714285714
 40
0.5714285714285714
 40
0.5714285714285714
 40
0.5714285714285714
 40
0.7142857142857143
 40
0.7142857142857143
 40
0.7142857142857143
 40
0.7142857142857143
 40
1.0
 40
1.0
 40
1.0
 40
1.0
 10
-0.21012
 20
7.74334
 30
0.0
 10
-0.21012
 20
7.74334
 30
0.0
 10
-0.22202
 20
7.80989
 30
0.0
 10
-0.22202
 20
7.80989
 30
0.0
 10
-0.22202
 20
7.80989
 30
0.0
 10
-0.22202
 20
7.80989
 30
0.0
 10
-0.22202
 20
7.86715
 30
0.0
 10
-0.22202
 20
7.86715
 30
0.0
 10
-0.22202
 20
7.86715
 30
0.0
 10
-0.22202
 20
7.86715
 30
0.0
 10
-0.17309
 20
7.86715
 30
0.0
 10
-0.17309
 20
7.86715
 30
0.0
 10
-0.17309
 20
7.86715
 30
0.0
 10
-0.17309
 20
7.86715
 30
0.0
 10
-0.17309
 20
7.80989
 30
0.0
 10
-0.17309
 20
7.80989
 30
0.0
 10
-0.17309
 20
7.80989
 30
0.0
 10
-0.17309
 20
7.80989
 30
0.0
 10
-0.18385
 20
7.74334
 30
0.0
 10
-0.18385
 20
7.74334
 30
0.0
 10
-0.18385
 20
7.74334
 30
0.0
 10
-0.18385
 20
7.74334
 30
0.0
 10
-0.21012
 20
7.74334
 30
0.0
 10
-0.21012
 20
7.74334
 30
0.0
  0
SPLINE
  5
64
330
1F
100
AcDbEntity
  8
layer 2
 62
     1
100
AcDbSpline
210
0.0
220
0.0
230
1.0
 70
    11
 71
     3
 72
    28
 73
    24
 74
     0
 42
0.0000000001
 43
0.0000000001
 12
1.0
 22
0.0
 32
0.0
 13
1.0
 23
0.0
 33
0.0
 40
0.0
 40
0.0
 40
0.0
 40
0.0
 40
0.1428571428571428
 40
0.1428571428571428
 40
0.1428571428571428
 40
0.1428571428571428
 40
0.2857142857142857
 40
0.2857142857142857
 40
0.2857142857142857
 40
0.2857142857142857
 40
0.4285714285714285
 40
0.4285714285714285
 40
0.4285714285714285
 40
0.4285714285714285
 40
0.5714285714285714
 40
0.5714285714285714
 40
0.5714285714285714
 40
0.5714285714285714
 40
0.7142857142857143
 40
0.7142857142857143
 40
0.7142857142857143
 40
0.7142857142857143
 40
1.0
 40
1.0
 40
1.0
 40
1.0
 10
-0.13109
 20
7.74334
 30
0.0
 10
-0.13109
 20
7.74334
 30
0.0
 10
-0.14275
 20
7.80989
 30
0.0
 10
-0.14275
 20
7.80989
 30
0.0
 10
-0.14275
 20
7.80989
 30
0.0
 10
-0.14275
 20
7.80989
 30
0.0
 10
-0.14275
 20
7.86715
 30
0.0
 10
-0.14275
 20
7.86715
 30
0.0
 10
-0.14275
 20
7.86715
 30
0.0
 10
-0.14275
 20
7.86715
 30
0.0
 10
-0.09381
 20
7.86715
 30
0.0
 10
-0.09381
 20
7.86715
 30
0.0
 10
-0.09381
 20
7.86715
 30
0.0
 10
-0.09381
 20
7.86715
 30
0.0
 10
-0.09381
 20
7.80989
 30
0.0
 10
-0.09381
 20
7.80989
 30
0.0
 10
-0.09381
 20
7.80989
 30
0.0
 10
-0.09381
 20
7.80989
 30
0.0
 10
-0.10531
 20
7.74334
 30
0.0
 10
-0.10531
 20
7.74334
 30
0.0
 10
-0.10531
 20
7.74334
 30
0.0
 10
-0.10531
 20
7.74334
 30
0.0
 10
-0.13109
 20
7.74334
 30
0.0
 10
-0.13109
 20
7.74334
 30
0.0
  0
SPLINE
  5
65
330
1F
100
AcDbEntity
  8
layer 2
 62
     1
370
     0
100
AcDbSpline
210
0.0
220
0.0
230
1.0
 70
    24
 71
     3
 72
     8
 73
     4
 74
     0
 42
0.0000000001
 43
0.0000000001
 12
1.0
 22
0.0
 32
0.0
 13
1.0
 23
0.0
 33
0.0
 40
0.0
 40
0.0
 40
0.0
 40
0.0
 40
1.0
 40
1.0
 40
1.0
 40
1.0
 10
9.90821
 20
6.38222
 30
0.0
 10
9.90821
 20
6.38222
 30
0.0
 10
11.47497
 20
6.38222
 30
0.0
 10
11.47497
 20
6.38222
 30
0.0
  0
SPLINE
  5
66
330
1F
100
AcDbEntity
  8
layer 2
 62
     1
370
     0
100
AcDbSpline
210
0.0
220
0.0
230
1.0
 70
    24
 71
     3
 72
     8
 73
     4
 74
     0
 42
0.0000000001
 43
0.0000000001
 12
1.0
 22
0.0
 32
0.0
 13
1.0
 23
0.0
 33
0.0
 40
0.0
 40
0.0
 40
0.0
 40
0.0
 40
1.0
 40
1.0
 40
1.0
 40
1.0
 10
9.90821
 20
-4.42659
 30
0.0
 10
9.90821
 20
-4.42659
 30
0.0
 10
11.47497
 20
-4.42659
 30
0.0
 10
11.47497
 20
-4.42659
 30
0.0
  0
SPLINE
  5
67
330
1F
100
AcDbEntity
  8
layer 2
 62
     1
370
     0
100
AcDbSpline
210
0.0
220
0.0
230
1.0
 70
    24
 71
     3
 72
     8
 73
     4
 74
     0
 42
0.0000000001
 43
0.0000000001
 12
1.0
 22
0.0
 32
0.0
 13
1.0
 23
0.0
 33
0.0
 40
0.0
 40
0.0
 40
0.0
 40
0.0
 40
1.0
 40
1.0
 40
1.0
 40
1.0
 10
11.20901
 20
5.85028
 30
0.0
 10
11.20901
 20
5.85028
 30
0.0
 10
11.20901
 20
-3.89466
 30
0.0
 10
11.20901
 20
-3.89466
 30
0.0
  0
SPLINE
  5
68
330
1F
100
AcDbEntity
  8
layer 2
 62
     1
100
AcDbSpline
210
0.0
220
0.0
230
1.0
 70
    27
 71
     3
 72
    12
 73
     8
 74
     0
 42
0.0000000001
 43
0.0000000001
 12
1.0
 22
0.0
 32
0.0
 13
1.0
 23
0.0
 33
0.0
 40
0.0
 40
0.0
 40
0.0
 40
0.0
 40
0.3333333333333333
 40
0.3333333333333333
 40
0.3333333333333333
 40
0.3333333333333333
 40
1.0
 40
1.0
 40
1.0
 40
1.0
 10
11.12035
 20
5.85028
 30
0.0
 10
11.12035
 20
5.85028
 30
0.0
 10
11.20901
 20
6.38222
 30
0.0
 10
11.20901
 20
6.38222
 30
0.0
 10
11.20901
 20
6.38222
 30
0.0
 10
11.20901
 20
6.38222
 30
0.0
 10
11.12035
 20
5.85028
 30
0.0
 10
11.12035
 20
5.85028
 30
0.0
  0
SPLINE
  5
69
330
1F
100
AcDbEntity
  8
layer 2
 62
     1
100
AcDbSpline
210
0.0
220
0.0
230
1.0
 70
     8
 71
     3
 72
    12
 73
     8
 74
     0
 42
0.0000000001
 43
0.0000000001
 12
1.0
 22
0.0
 32
0.0
 13
1.0
 23
0.0
 33
0.0
 40
0.0
 40
0.0
 40
0.0
 40
0.0
 40
0.3333333333333333
 40
0.3333333333333333
 40
0.3333333333333333
 40
0.3333333333333333
 40
1.0
 40
1.0
 40
1.0
 40
1.0
 10
11.20901
 20
6.38222
 30
0.0
 10
11.20901
 20
6.38222
 30
0.0
 10
11.29766
 20
5.85028
 30
0.0
 10
11.29766
 20
5.85028
 30
0.0
 10
11.29766
 20
5.85028
 30
0.0
 10
11.29766
 20
5.85028
 30
0.0
 10
11.12035
 20
5.85028
 30
0.0
 10
11.12035
 20
5.85028
 30
0.0
  0
SPLINE
  5
6A
330
1F
100
AcDbEntity
  8
layer 2
 62
     1
370
     9
100
AcDbSpline
210
0.0
220
0.0
230
1.0
 70
    24
 71
     3
 72
     8
 73
     4
 74
     0
 42
0.0000000001
 43
0.0000000001
 12
1.0
 22
0.0
 32
0.0
 13
1.0
 23
0.0
 33
0.0
 40
0.0
 40
0.0
 40
0.0
 40
0.0
 40
1.0
 40
1.0
 40
1.0
 40
1.0
 10
11.12035
 20
5.85028
 30
0.0
 10
11.12035
 20
5.85028
 30
0.0
 10
11.20901
 20
6.38222
 30
0.0
 10
11.20901
 20
6.38222
 30
0.0
  0
SPLINE
  5
6B
330
1F
100
AcDbEntity
  8
layer 2
 62
     1
370
     9
100
AcDbSpline
210
0.0
220
0.0
230
1.0
 70
     8
 71
     3
 72
    12
 73
     8
 74
     0
 42
0.0000000001
 43
0.0000000001
 12
1.0
 22
0.0
 32
0.0
 13
1.0
 23
0.0
 33
0.0
 40
0.0
 40
0.0
 40
0.0
 40
0.0
 40
0.3333333333333333
 40
0.3333333333333333
 40
0.3333333333333333
 40
0.3333333333333333
 40
1.0
 40
1.0
 40
1.0
 40
1.0
 10
11.20901
 20
6.38222
 30
0.0
 10
11.20901
 20
6.38222
 30
0.0
 10
11.29766
 20
5.85028
 30
0.0
 10
11.29766
 20
5.85028
 30
0.0
 10
11.29766
 20
5.85028
 30
0.0
 10
11.29766
 20
5.85028
 30
0.0
 10
11.12035
 20
5.85028
 30
0.0
 10
11.12035
 20
5.85028
 30
0.0
  0
SPLINE
  5
6C
330
1F
100
AcDbEntity
  8
layer 2
 62
     1
100
AcDbSpline
210
0.0
220
0.0
230
1.0
 70
    27
 71
     3
 72
    12
 73
     8
 74
     0
 42
0.0000000001
 43
0.0000000001
 12
1.0
 22
0.0
 32
0.0
 13
1.0
 23
0.0
 33
0.0
 40
0.0
 40
0.0
 40
0.0
 40
0.0
 40
0.3333333333333333
 40
0.3333333333333333
 40
0.3333333333333333
 40
0.3333333333333333
 40
1.0
 40
1.0
 40
1.0
 40
1.0
 10
11.12035
 20
-3.89466
 30
0.0
 10
11.12035
 20
-3.89466
 30
0.0
 10
11.20901
 20
-4.42659
 30
0.0
 10
11.20901
 20
-4.42659
 30
0.0
 10
11.20901
 20
-4.42659
 30
0.0
 10
11.20901
 20
-4.42659
 30
0.0
 10
11.12035
 20
-3.89466
 30
0.0
 10
11.12035
 20
-3.89466
 30
0.0
  0
SPLINE
  5
6D
330
1F
100
AcDbEntity
  8
layer 2
 62
     1
100
AcDbSpline
210
0.0
220
0.0
230
1.0
 70
     8
 71
     3
 72
    12
 73
     8
 74
     0
 42
0.0000000001
 43
0.0000000001
 12
1.0
 22
0.0
 32
0.0
 13
1.0
 23
0.0
 33
0.0
 40
0.0
 40
0.0
 40
0.0
 40
0.0
 40
0.3333333333333333
 40
0.3333333333333333
 40
0.3333333333333333
 40
0.3333333333333333
 40
1.0
 40
1.0
 40
1.0
 40
1.0
 10
11.20901
 20
-4.42659
 30
0.0
 10
11.20901
 20
-4.42659
 30
0.0
 10
11.29766
 20
-3.89466
 30
0.0
 10
11.29766
 20
-3.89466
 30
0.0
 10
11.29766
 20
-3.89466
 30
0.0
 10
11.29766
 20
-3.89466
 30
0.0
 10
11.12035
 20
-3.89466
 30
0.0
 10
11.12035
 20
-3.89466
 30
0.0
  0
SPLINE
  5
6E
330
1F
100
AcDbEntity
  8
layer 2
 62
     1
370
     9
100
AcDbSpline
210
0.0
220
0.0
230
1.0
 70
    24
 71
     3
 72
     8
 73
     4
 74
     0
 42
0.0000000001
 43
0.0000000001
 12
1.0
 22
0.0
 32
0.0
 13
1.0
 23
0.0
 33
0.0
 40
0.0
 40
0.0
 40
0.0
 40
0.0
 40
1.0
 40
1.0
 40
1.0
 40
1.0
 10
11.12035
 20
-3.89466
 30
0.0
 10
11.12035
 20
-3.89466
 30
0.0
 10
11.20901
 20
-4.42659
 30
0.0
 10
11.20901
 20
-4.42659
 30
0.0
  0
SPLINE
  5
6F
330
1F
100
AcDbEntity
  8
layer 2
 62
     1
370
     9
100
AcDbSpline
210
0.0
220
0.0
230
1.0
 70
     8
 71
     3
 72
    12
 73
     8
 74
     0
 42
0.0000000001
 43
0.0000000001
 12
1.0
 22
0.0
 32
0.0
 13
1.0
 23
0.0
 33
0.0
 40
0.0
 40
0.0
 40
0.0
 40
0.0
 40
0.3333333333333333
 40
0.3333333333333333
 40
0.3333333333333333
 40
0.3333333333333333
 40
1.0
 40
1.0
 40
1.0
 40
1.0
 10
11.20901
 20
-4.42659
 30
0.0
 10
11.20901
 20
-4.42659
 30
0.0
 10
11.29766
 20
-3.89466
 30
0.0
 10
11.29766
 20
-3.89466
 30
0.0
 10
11.29766
 20
-3.89466
 30
0.0
 10
11.29766
 20
-3.89466
 30
0.0
 10
11.12035
 20
-3.89466
 30
0.0
 10
11.12035
 20
-3.89466
 30
0.0
  0
SPLINE
  5
70
330
1F
100
AcDbEntity
  8
layer 2
 62
     1
100
AcDbSpline
210
0.0
220
0.0
230
1.0
 70
    11
 71
     3
 72
    40
 73
    36
 74
     0
 42
0.0000000001
 43
0.0000000001
 12
1.0
 22
0.0
 32
0.0
 13
1.0
 23
0.0
 33
0.0
 40
0.0
 40
0.0
 40
0.0
 40
0.0
 40
0.1
 40
0.1
 40
0.1
 40
0.1
 40
0.2
 40
0.2
 40
0.2
 40
0.2
 40
0.3
 40
0.3
 40
0.3
 40
0.3
 40
0.4
 40
0.4
 40
0.4
 40
0.4
 40
0.5
 40
0.5
 40
0.5
 40
0.5
 40
0.6
 40
0.6
 40
0.6
 40
0.6
 40
0.7
 40
0.7
 40
0.7
 40
0.7
 40
0.8
 40
0.8
 40
0.8
 40
0.8
 40
1.0
 40
1.0
 40
1.0
 40
1.0
 10
10.98162
 20
1.87278
 30
0.0
 10
10.98162
 20
1.87278
 30
0.0
 10
10.98162
 20
1.82972
 30
0.0
 10
10.98162
 20
1.82972
 30
0.0
 10
10.98162
 20
1.82972
 30
0.0
 10
10.98162
 20
1.82972
 30
0.0
 10
10.7074
 20
1.82972
 30
0.0
 10
10.7074
 20
1.82972
 30
0.0
 10
10.7074
 20
1.82972
 30
0.0
 10
10.71735
 20
1.81936
 30
0.0
 10
10.72722
 20
1.80574
 30
0.0
 10
10.73709
 20
1.78894
 30
0.0
 10
10.73709
 20
1.78894
 30
0.0
 10
10.74695
 20
1.77213
 30
0.0
 10
10.75438
 20
1.75696
 30
0.0
 10
10.75927
 20
1.74359
 30
0.0
 10
10.75927
 20
1.74359
 30
0.0
 10
10.75927
 20
1.74359
 30
0.0
 10
10.71767
 20
1.74359
 30
0.0
 10
10.71767
 20
1.74359
 30
0.0
 10
10.71767
 20
1.74359
 30
0.0
 10
10.70642
 20
1.76765
 30
0.0
 10
10.69272
 20
1.78869
 30
0.0
 10
10.67657
 20
1.80672
 30
0.0
 10
10.67657
 20
1.80672
 30
0.0
 10
10.6605
 20
1.82475
 30
0.0
 10
10.64492
 20
1.83754
 30
0.0
 10
10.62975
 20
1.84505
 30
0.0
 10
10.62975
 20
1.84505
 30
0.0
 10
10.62975
 20
1.84505
 30
0.0
 10
10.62975
 20
1.87278
 30
0.0
 10
10.62975
 20
1.87278
 30
0.0
 10
10.62975
 20
1.87278
 30
0.0
 10
10.62975
 20
1.87278
 30
0.0
 10
10.98162
 20
1.87278
 30
0.0
 10
10.98162
 20
1.87278
 30
0.0
  0
SPLINE
  5
71
330
1F
100
AcDbEntity
  8
layer 2
 62
     1
100
AcDbSpline
210
0.0
220
0.0
230
1.0
 70
    11
 71
     3
 72
    80
 73
    76
 74
     0
 42
0.0000000001
 43
0.0000000001
 12
1.0
 22
0.0
 32
0.0
 13
1.0
 23
0.0
 33
0.0
 40
0.0
 40
0.0
 40
0.0
 40
0.0
 40
0.05
 40
0.05
 40
0.05
 40
0.05
 40
0.1
 40
0.1
 40
0.1
 40
0.1
 40
0.15
 40
0.15
 40
0.15
 40
0.15
 40
0.2
 40
0.2
 40
0.2
 40
0.2
 40
0.25
 40
0.25
 40
0.25
 40
0.25
 40
0.3
 40
0.3
 40
0.3
 40
0.3
 40
0.35
 40
0.35
 40
0.35
 40
0.35
 40
0.4
 40
0.4
 40
0.4
 40
0.4
 40
0.45
 40
0.45
 40
0.45
 40
0.45
 40
0.5
 40
0.5
 40
0.5
 40
0.5
 40
0.55
 40
0.55
 40
0.55
 40
0.55
 40
0.6
 40
0.6
 40
0.6
 40
0.6
 40
0.65
 40
0.65
 40
0.65
 40
0.65
 40
0.7
 40
0.7
 40
0.7
 40
0.7
 40
0.75
 40
0.75
 40
0.75
 40
0.75
 40
0.8
 40
0.8
 40
0.8
 40
0.8
 40
0.85
 40
0.85
 40
0.85
 40
0.85
 40
0.9
 40
0.9
 40
0.9
 40
0.9
 40
1.0
 40
1.0
 40
1.0
 40
1.0
 10
10.71686
 20
2.20711
 30
0.0
 10
10.71686
 20
2.20711
 30
0.0
 10
10.72028
 20
2.16454
 30
0.0
 10
10.72028
 20
2.16454
 30
0.0
 10
10.72028
 20
2.16454
 30
0.0
 10
10.7034
 20
2.1607
 30
0.0
 10
10.69109
 20
2.15523
 30
0.0
 10
10.68342
 20
2.14814
 30
0.0
 10
10.68342
 20
2.14814
 30
0.0
 10
10.6711
 20
2.13648
 30
0.0
 10
10.66499
 20
2.12204
 30
0.0
 10
10.66499
 20
2.10491
 30
0.0
 10
10.66499
 20
2.10491
 30
0.0
 10
10.66499
 20
2.09113
 30
0.0
 10
10.66882
 20
2.07889
 30
0.0
 10
10.67649
 20
2.06837
 30
0.0
 10
10.67649
 20
2.06837
 30
0.0
 10
10.68635
 20
2.05483
 30
0.0
 10
10.70071
 20
2.04423
 30
0.0
 10
10.71964
 20
2.03632
 30
0.0
 10
10.71964
 20
2.03632
 30
0.0
 10
10.73864
 20
2.02849
 30
0.0
 10
10.76564
 20
2.02441
 30
0.0
 10
10.80063
 20
2.02408
 30
0.0
 10
10.80063
 20
2.02408
 30
0.0
 10
10.78489
 20
2.03445
 30
0.0
 10
10.77314
 20
2.04716
 30
0.0
 10
10.76556
 20
2.06217
 30
0.0
 10
10.76556
 20
2.06217
 30
0.0
 10
10.75789
 20
2.07718
 30
0.0
 10
10.75406
 20
2.09284
 30
0.0
 10
10.75406
 20
2.10932
 30
0.0
 10
10.75406
 20
2.10932
 30
0.0
 10
10.75406
 20
2.13802
 30
0.0
 10
10.76466
 20
2.16249
 30
0.0
 10
10.78578
 20
2.18272
 30
0.0
 10
10.78578
 20
2.18272
 30
0.0
 10
10.80691
 20
2.20287
 30
0.0
 10
10.83415
 20
2.21298
 30
0.0
 10
10.86767
 20
2.21298
 30
0.0
 10
10.86767
 20
2.21298
 30
0.0
 10
10.8897
 20
2.21298
 30
0.0
 10
10.91008
 20
2.20825
 30
0.0
 10
10.929
 20
2.19879
 30
0.0
 10
10.929
 20
2.19879
 30
0.0
 10
10.94792
 20
2.18925
 30
0.0
 10
10.96237
 20
2.17628
 30
0.0
 10
10.9724
 20
2.15964
 30
0.0
 10
10.9724
 20
2.15964
 30
0.0
 10
10.98242
 20
2.14308
 30
0.0
 10
10.98748
 20
2.12424
 30
0.0
 10
10.98748
 20
2.1032
 30
0.0
 10
10.98748
 20
2.1032
 30
0.0
 10
10.98748
 20
2.06739
 30
0.0
 10
10.97427
 20
2.03812
 30
0.0
 10
10.94792
 20
2.01543
 30
0.0
 10
10.94792
 20
2.01543
 30
0.0
 10
10.92158
 20
1.99284
 30
0.0
 10
10.87811
 20
1.98151
 30
0.0
 10
10.81759
 20
1.98151
 30
0.0
 10
10.81759
 20
1.98151
 30
0.0
 10
10.7499
 20
1.98151
 30
0.0
 10
10.70062
 20
1.99407
 30
0.0
 10
10.66988
 20
2.0191
 30
0.0
 10
10.66988
 20
2.0191
 30
0.0
 10
10.64312
 20
2.04097
 30
0.0
 10
10.62975
 20
2.07041
 30
0.0
 10
10.62975
 20
2.10753
 30
0.0
 10
10.62975
 20
2.10753
 30
0.0
 10
10.62975
 20
2.13509
 30
0.0
 10
10.6375
 20
2.15777
 30
0.0
 10
10.65292
 20
2.17538
 30
0.0
 10
10.65292
 20
2.17538
 30
0.0
 10
10.66833
 20
2.193
 30
0.0
 10
10.68962
 20
2.2036
 30
0.0
 10
10.71686
 20
2.20711
 30
0.0
  0
SPLINE
  5
72
330
1F
100
AcDbEntity
  8
layer 2
 62
     1
100
AcDbSpline
210
0.0
220
0.0
230
1.0
 70
    11
 71
     3
 72
    40
 73
    36
 74
     0
 42
0.0000000001
 43
0.0000000001
 12
1.0
 22
0.0
 32
0.0
 13
1.0
 23
0.0
 33
0.0
 40
0.0
 40
0.0
 40
0.0
 40
0.0
 40
0.1
 40
0.1
 40
0.1
 40
0.1
 40
0.2
 40
0.2
 40
0.2
 40
0.2
 40
0.3
 40
0.3
 40
0.3
 40
0.3
 40
0.4
 40
0.4
 40
0.4
 40
0.4
 40
0.5
 40
0.5
 40
0.5
 40
0.5
 40
0.6
 40
0.6
 40
0.6
 40
0.6
 40
0.7
 40
0.7
 40
0.7
 40
0.7
 40
0.8
 40
0.8
 40
0.8
 40
0.8
 40
1.0
 40
1.0
 40
1.0
 40
1.0
 10
10.86808
 20
2.03093
 30
0.0
 10
10.88292
 20
2.03093
 30
0.0
 10
10.89711
 20
2.03412
 30
0.0
 10
10.91065
 20
2.0404
 30
0.0
 10
10.91065
 20
2.0404
 30
0.0
 10
10.9242
 20
2.04667
 30
0.0
 10
10.93447
 20
2.05548
 30
0.0
 10
10.94157
 20
2.06666
 30
0.0
 10
10.94157
 20
2.06666
 30
0.0
 10
10.94866
 20
2.07791
 30
0.0
 10
10.95225
 20
2.08982
 30
0.0
 10
10.95225
 20
2.10247
 30
0.0
 10
10.95225
 20
2.10247
 30
0.0
 10
10.95225
 20
2.12082
 30
0.0
 10
10.94491
 20
2.13648
 30
0.0
 10
10.93023
 20
2.14945
 30
0.0
 10
10.93023
 20
2.14945
 30
0.0
 10
10.91555
 20
2.16241
 30
0.0
 10
10.89565
 20
2.16894
 30
0.0
 10
10.87044
 20
2.16894
 30
0.0
 10
10.87044
 20
2.16894
 30
0.0
 10
10.84622
 20
2.16894
 30
0.0
 10
10.82714
 20
2.16249
 30
0.0
 10
10.81318
 20
2.14969
 30
0.0
 10
10.81318
 20
2.14969
 30
0.0
 10
10.79924
 20
2.13689
 30
0.0
 10
10.79223
 20
2.12057
 30
0.0
 10
10.79223
 20
2.10075
 30
0.0
 10
10.79223
 20
2.10075
 30
0.0
 10
10.79223
 20
2.08134
 30
0.0
 10
10.79924
 20
2.06479
 30
0.0
 10
10.81318
 20
2.05124
 30
0.0
 10
10.81318
 20
2.05124
 30
0.0
 10
10.82714
 20
2.03771
 30
0.0
 10
10.8454
 20
2.03093
 30
0.0
 10
10.86808
 20
2.03093
 30
0.0
  0
SPLINE
  5
73
330
1F
100
AcDbEntity
  8
layer 2
 62
     1
100
AcDbSpline
210
0.0
220
0.0
230
1.0
 70
    11
 71
     3
 72
    28
 73
    24
 74
     0
 42
0.0000000001
 43
0.0000000001
 12
1.0
 22
0.0
 32
0.0
 13
1.0
 23
0.0
 33
0.0
 40
0.0
 40
0.0
 40
0.0
 40
0.0
 40
0.1428571428571428
 40
0.1428571428571428
 40
0.1428571428571428
 40
0.1428571428571428
 40
0.2857142857142857
 40
0.2857142857142857
 40
0.2857142857142857
 40
0.2857142857142857
 40
0.4285714285714285
 40
0.4285714285714285
 40
0.4285714285714285
 40
0.4285714285714285
 40
0.5714285714285714
 40
0.5714285714285714
 40
0.5714285714285714
 40
0.5714285714285714
 40
0.7142857142857143
 40
0.7142857142857143
 40
0.7142857142857143
 40
0.7142857142857143
 40
1.0
 40
1.0
 40
1.0
 40
1.0
 10
10.75503
 20
2.2695
 30
0.0
 10
10.75503
 20
2.2695
 30
0.0
 10
10.68848
 20
2.2576
 30
0.0
 10
10.68848
 20
2.2576
 30
0.0
 10
10.68848
 20
2.2576
 30
0.0
 10
10.68848
 20
2.2576
 30
0.0
 10
10.63122
 20
2.2576
 30
0.0
 10
10.63122
 20
2.2576
 30
0.0
 10
10.63122
 20
2.2576
 30
0.0
 10
10.63122
 20
2.2576
 30
0.0
 10
10.63122
 20
2.30654
 30
0.0
 10
10.63122
 20
2.30654
 30
0.0
 10
10.63122
 20
2.30654
 30
0.0
 10
10.63122
 20
2.30654
 30
0.0
 10
10.68848
 20
2.30654
 30
0.0
 10
10.68848
 20
2.30654
 30
0.0
 10
10.68848
 20
2.30654
 30
0.0
 10
10.68848
 20
2.30654
 30
0.0
 10
10.75503
 20
2.29577
 30
0.0
 10
10.75503
 20
2.29577
 30
0.0
 10
10.75503
 20
2.29577
 30
0.0
 10
10.75503
 20
2.29577
 30
0.0
 10
10.75503
 20
2.2695
 30
0.0
 10
10.75503
 20
2.2695
 30
0.0
  0
SPLINE
  5
74
330
1F
100
AcDbEntity
  8
layer 2
 62
     1
100
AcDbSpline
210
0.0
220
0.0
230
1.0
 70
    11
 71
     3
 72
    28
 73
    24
 74
     0
 42
0.0000000001
 43
0.0000000001
 12
1.0
 22
0.0
 32
0.0
 13
1.0
 23
0.0
 33
0.0
 40
0.0
 40
0.0
 40
0.0
 40
0.0
 40
0.1428571428571428
 40
0.1428571428571428
 40
0.1428571428571428
 40
0.1428571428571428
 40
0.2857142857142857
 40
0.2857142857142857
 40
0.2857142857142857
 40
0.2857142857142857
 40
0.4285714285714285
 40
0.4285714285714285
 40
0.4285714285714285
 40
0.4285714285714285
 40
0.5714285714285714
 40
0.5714285714285714
 40
0.5714285714285714
 40
0.5714285714285714
 40
0.7142857142857143
 40
0.7142857142857143
 40
0.7142857142857143
 40
0.7142857142857143
 40
1.0
 40
1.0
 40
1.0
 40
1.0
 10
10.75503
 20
2.34854
 30
0.0
 10
10.75503
 20
2.34854
 30
0.0
 10
10.68848
 20
2.33688
 30
0.0
 10
10.68848
 20
2.33688
 30
0.0
 10
10.68848
 20
2.33688
 30
0.0
 10
10.68848
 20
2.33688
 30
0.0
 10
10.63122
 20
2.33688
 30
0.0
 10
10.63122
 20
2.33688
 30
0.0
 10
10.63122
 20
2.33688
 30
0.0
 10
10.63122
 20
2.33688
 30
0.0
 10
10.63122
 20
2.38581
 30
0.0
 10
10.63122
 20
2.38581
 30
0.0
 10
10.63122
 20
2.38581
 30
0.0
 10
10.63122
 20
2.38581
 30
0.0
 10
10.68848
 20
2.38581
 30
0.0
 10
10.68848
 20
2.38581
 30
0.0
 10
10.68848
 20
2.38581
 30
0.0
 10
10.68848
 20
2.38581
 30
0.0
 10
10.75503
 20
2.37431
 30
0.0
 10
10.75503
 20
2.37431
 30
0.0
 10
10.75503
 20
2.37431
 30
0.0
 10
10.75503
 20
2.37431
 30
0.0
 10
10.75503
 20
2.34854
 30
0.0
 10
10.75503
 20
2.34854
 30
0.0
  0
SPLINE
  5
75
330
1F
100
AcDbEntity
  8
layer 2
 62
     1
370
     0
100
AcDbSpline
210
0.0
220
0.0
230
1.0
 70
    24
 71
     3
 72
     8
 73
     4
 74
     0
 42
0.0000000001
 43
0.0000000001
 12
1.0
 22
0.0
 32
0.0
 13
1.0
 23
0.0
 33
0.0
 40
0.0
 40
0.0
 40
0.0
 40
0.0
 40
1.0
 40
1.0
 40
1.0
 40
1.0
 10
-12.45401
 20
-5.76972
 30
0.0
 10
-12.45401
 20
-5.76972
 30
0.0
 10
-11.07318
 20
-4.5483
 30
0.0
 10
-11.07318
 20
-4.5483
 30
0.0
  0
SPLINE
  5
76
330
1F
100
AcDbEntity
  8
layer 2
 62
     1
100
AcDbSpline
210
0.0
220
0.0
230
1.0
 70
    11
 71
     3
 72
    80
 73
    76
 74
     0
 42
0.0000000001
 43
0.0000000001
 12
1.0
 22
0.0
 32
0.0
 13
1.0
 23
0.0
 33
0.0
 40
0.0
 40
0.0
 40
0.0
 40
0.0
 40
0.05
 40
0.05
 40
0.05
 40
0.05
 40
0.1
 40
0.1
 40
0.1
 40
0.1
 40
0.15
 40
0.15
 40
0.15
 40
0.15
 40
0.2
 40
0.2
 40
0.2
 40
0.2
 40
0.25
 40
0.25
 40
0.25
 40
0.25
 40
0.3
 40
0.3
 40
0.3
 40
0.3
 40
0.35
 40
0.35
 40
0.35
 40
0.35
 40
0.4
 40
0.4
 40
0.4
 40
0.4
 40
0.45
 40
0.45
 40
0.45
 40
0.45
 40
0.5
 40
0.5
 40
0.5
 40
0.5
 40
0.55
 40
0.55
 40
0.55
 40
0.55
 40
0.6
 40
0.6
 40
0.6
 40
0.6
 40
0.65
 40
0.65
 40
0.65
 40
0.65
 40
0.7
 40
0.7
 40
0.7
 40
0.7
 40
0.75
 40
0.75
 40
0.75
 40
0.75
 40
0.8
 40
0.8
 40
0.8
 40
0.8
 40
0.85
 40
0.85
 40
0.85
 40
0.85
 40
0.9
 40
0.9
 40
0.9
 40
0.9
 40
1.0
 40
1.0
 40
1.0
 40
1.0
 10
-12.31017
 20
-4.5618
 30
0.0
 10
-12.31017
 20
-4.5618
 30
0.0
 10
-12.54232
 20
-4.29935
 30
0.0
 10
-12.54232
 20
-4.29935
 30
0.0
 10
-12.54232
 20
-4.29935
 30
0.0
 10
-12.54232
 20
-4.29935
 30
0.0
 10
-12.426
 20
-4.19646
 30
0.0
 10
-12.426
 20
-4.19646
 30
0.0
 10
-12.426
 20
-4.19646
 30
0.0
 10
-12.40261
 20
-4.17576
 30
0.0
 10
-12.38272
 20
-4.16242
 30
0.0
 10
-12.3664
 20
-4.15637
 30
0.0
 10
-12.3664
 20
-4.15637
 30
0.0
 10
-12.35009
 20
-4.15032
 30
0.0
 10
-12.33302
 20
-4.15004
 30
0.0
 10
-12.31522
 20
-4.15551
 30
0.0
 10
-12.31522
 20
-4.15551
 30
0.0
 10
-12.29741
 20
-4.161
 30
0.0
 10
-12.28213
 20
-4.17101
 30
0.0
 10
-12.26937
 20
-4.18543
 30
0.0
 10
-12.26937
 20
-4.18543
 30
0.0
 10
-12.25289
 20
-4.20406
 30
0.0
 10
-12.24506
 20
-4.22511
 30
0.0
 10
-12.24579
 20
-4.24852
 30
0.0
 10
-12.24579
 20
-4.24852
 30
0.0
 10
-12.24654
 20
-4.27194
 30
0.0
 10
-12.25798
 20
-4.29643
 30
0.0
 10
-12.28006
 20
-4.32217
 30
0.0
 10
-12.28006
 20
-4.32217
 30
0.0
 10
-12.26694
 20
-4.31841
 30
0.0
 10
-12.25609
 20
-4.31666
 30
0.0
 10
-12.24754
 20
-4.31671
 30
0.0
 10
-12.24754
 20
-4.31671
 30
0.0
 10
-12.22919
 20
-4.31703
 30
0.0
 10
-12.20928
 20
-4.32021
 30
0.0
 10
-12.18792
 20
-4.32626
 30
0.0
 10
-12.18792
 20
-4.32626
 30
0.0
 10
-12.18792
 20
-4.32626
 30
0.0
 10
-12.0793
 20
-4.35759
 30
0.0
 10
-12.0793
 20
-4.35759
 30
0.0
 10
-12.0793
 20
-4.35759
 30
0.0
 10
-12.0793
 20
-4.35759
 30
0.0
 10
-12.12268
 20
-4.39596
 30
0.0
 10
-12.12268
 20
-4.39596
 30
0.0
 10
-12.12268
 20
-4.39596
 30
0.0
 10
-12.12268
 20
-4.39596
 30
0.0
 10
-12.20569
 20
-4.37203
 30
0.0
 10
-12.20569
 20
-4.37203
 30
0.0
 10
-12.20569
 20
-4.37203
 30
0.0
 10
-12.22977
 20
-4.36513
 30
0.0
 10
-12.24878
 20
-4.36049
 30
0.0
 10
-12.26272
 20
-4.35791
 30
0.0
 10
-12.26272
 20
-4.35791
 30
0.0
 10
-12.27673
 20
-4.35537
 30
0.0
 10
-12.28772
 20
-4.35476
 30
0.0
 10
-12.29589
 20
-4.35599
 30
0.0
 10
-12.29589
 20
-4.35599
 30
0.0
 10
-12.30394
 20
-4.35723
 30
0.0
 10
-12.3113
 20
-4.35961
 30
0.0
 10
-12.31787
 20
-4.36303
 30
0.0
 10
-12.31787
 20
-4.36303
 30
0.0
 10
-12.32248
 20
-4.36569
 30
0.0
 10
-12.32928
 20
-4.37094
 30
0.0
 10
-12.33826
 20
-4.37888
 30
0.0
 10
-12.33826
 20
-4.37888
 30
0.0
 10
-12.33826
 20
-4.37888
 30
0.0
 10
-12.37846
 20
-4.41444
 30
0.0
 10
-12.37846
 20
-4.41444
 30
0.0
 10
-12.37846
 20
-4.41444
 30
0.0
 10
-12.37846
 20
-4.41444
 30
0.0
 10
-12.27535
 20
-4.531
 30
0.0
 10
-12.27535
 20
-4.531
 30
0.0
 10
-12.27535
 20
-4.531
 30
0.0
 10
-12.27535
 20
-4.531
 30
0.0
 10
-12.31017
 20
-4.5618
 30
0.0
 10
-12.31017
 20
-4.5618
 30
0.0
  0
SPLINE
  5
77
330
1F
100
AcDbEntity
  8
layer 2
 62
     1
100
AcDbSpline
210
0.0
220
0.0
230
1.0
 70
    11
 71
     3
 72
    36
 73
    32
 74
     0
 42
0.0000000001
 43
0.0000000001
 12
1.0
 22
0.0
 32
0.0
 13
1.0
 23
0.0
 33
0.0
 40
0.0
 40
0.0
 40
0.0
 40
0.0
 40
0.1111111111111111
 40
0.1111111111111111
 40
0.1111111111111111
 40
0.1111111111111111
 40
0.2222222222222222
 40
0.2222222222222222
 40
0.2222222222222222
 40
0.2222222222222222
 40
0.3333333333333333
 40
0.3333333333333333
 40
0.3333333333333333
 40
0.3333333333333333
 40
0.4444444444444444
 40
0.4444444444444444
 40
0.4444444444444444
 40
0.4444444444444444
 40
0.5555555555555556
 40
0.5555555555555556
 40
0.5555555555555556
 40
0.5555555555555556
 40
0.6666666666666666
 40
0.6666666666666666
 40
0.6666666666666666
 40
0.6666666666666666
 40
0.7777777777777778
 40
0.7777777777777778
 40
0.7777777777777778
 40
0.7777777777777778
 40
1.0
 40
1.0
 40
1.0
 40
1.0
 10
-12.40505
 20
-4.38437
 30
0.0
 10
-12.40505
 20
-4.38437
 30
0.0
 10
-12.33051
 20
-4.31845
 30
0.0
 10
-12.33051
 20
-4.31845
 30
0.0
 10
-12.33051
 20
-4.31845
 30
0.0
 10
-12.31462
 20
-4.3044
 30
0.0
 10
-12.30375
 20
-4.29183
 30
0.0
 10
-12.29774
 20
-4.28064
 30
0.0
 10
-12.29774
 20
-4.28064
 30
0.0
 10
-12.29169
 20
-4.26952
 30
0.0
 10
-12.28955
 20
-4.25826
 30
0.0
 10
-12.2914
 20
-4.24694
 30
0.0
 10
-12.2914
 20
-4.24694
 30
0.0
 10
-12.29314
 20
-4.23562
 30
0.0
 10
-12.29773
 20
-4.22575
 30
0.0
 10
-12.30525
 20
-4.21726
 30
0.0
 10
-12.30525
 20
-4.21726
 30
0.0
 10
-12.31621
 20
-4.20486
 30
0.0
 10
-12.32975
 20
-4.19854
 30
0.0
 10
-12.34581
 20
-4.19848
 30
0.0
 10
-12.34581
 20
-4.19848
 30
0.0
 10
-12.36187
 20
-4.19843
 30
0.0
 10
-12.37956
 20
-4.20699
 30
0.0
 10
-12.39892
 20
-4.22412
 30
0.0
 10
-12.39892
 20
-4.22412
 30
0.0
 10
-12.39892
 20
-4.22412
 30
0.0
 10
-12.48188
 20
-4.29751
 30
0.0
 10
-12.48188
 20
-4.29751
 30
0.0
 10
-12.48188
 20
-4.29751
 30
0.0
 10
-12.48188
 20
-4.29751
 30
0.0
 10
-12.40505
 20
-4.38437
 30
0.0
 10
-12.40505
 20
-4.38437
 30
0.0
  0
SPLINE
  5
78
330
1F
100
AcDbEntity
  8
layer 2
 62
     1
100
AcDbSpline
210
0.0
220
0.0
230
1.0
 70
    11
 71
     3
 72
    40
 73
    36
 74
     0
 42
0.0000000001
 43
0.0000000001
 12
1.0
 22
0.0
 32
0.0
 13
1.0
 23
0.0
 33
0.0
 40
0.0
 40
0.0
 40
0.0
 40
0.0
 40
0.1
 40
0.1
 40
0.1
 40
0.1
 40
0.2
 40
0.2
 40
0.2
 40
0.2
 40
0.3
 40
0.3
 40
0.3
 40
0.3
 40
0.4
 40
0.4
 40
0.4
 40
0.4
 40
0.5
 40
0.5
 40
0.5
 40
0.5
 40
0.6
 40
0.6
 40
0.6
 40
0.6
 40
0.7
 40
0.7
 40
0.7
 40
0.7
 40
0.8
 40
0.8
 40
0.8
 40
0.8
 40
1.0
 40
1.0
 40
1.0
 40
1.0
 10
-11.93806
 20
-4.23265
 30
0.0
 10
-11.93806
 20
-4.23265
 30
0.0
 10
-11.97032
 20
-4.26118
 30
0.0
 10
-11.97032
 20
-4.26118
 30
0.0
 10
-11.97032
 20
-4.26118
 30
0.0
 10
-11.97032
 20
-4.26118
 30
0.0
 10
-12.15199
 20
-4.05579
 30
0.0
 10
-12.15199
 20
-4.05579
 30
0.0
 10
-12.15199
 20
-4.05579
 30
0.0
 10
-12.15316
 20
-4.07011
 30
0.0
 10
-12.15682
 20
-4.08652
 30
0.0
 10
-12.16287
 20
-4.10504
 30
0.0
 10
-12.16287
 20
-4.10504
 30
0.0
 10
-12.16892
 20
-4.12357
 30
0.0
 10
-12.17536
 20
-4.13918
 30
0.0
 10
-12.18214
 20
-4.15171
 30
0.0
 10
-12.18214
 20
-4.15171
 30
0.0
 10
-12.18214
 20
-4.15171
 30
0.0
 10
-12.2097
 20
-4.12056
 30
0.0
 10
-12.2097
 20
-4.12056
 30
0.0
 10
-12.2097
 20
-4.12056
 30
0.0
 10
-12.19914
 20
-4.09618
 30
0.0
 10
-12.19245
 20
-4.07197
 30
0.0
 10
-12.18965
 20
-4.04793
 30
0.0
 10
-12.18965
 20
-4.04793
 30
0.0
 10
-12.18679
 20
-4.02396
 30
0.0
 10
-12.18752
 20
-4.00381
 30
0.0
 10
-12.19196
 20
-3.98747
 30
0.0
 10
-12.19196
 20
-3.98747
 30
0.0
 10
-12.19196
 20
-3.98747
 30
0.0
 10
-12.17118
 20
-3.9691
 30
0.0
 10
-12.17118
 20
-3.9691
 30
0.0
 10
-12.17118
 20
-3.9691
 30
0.0
 10
-12.17118
 20
-3.9691
 30
0.0
 10
-11.93806
 20
-4.23265
 30
0.0
 10
-11.93806
 20
-4.23265
 30
0.0
  0
SPLINE
  5
79
330
1F
100
AcDbEntity
  8
layer 2
 62
     1
100
AcDbSpline
210
0.0
220
0.0
230
1.0
 70
    11
 71
     3
 72
    52
 73
    48
 74
     0
 42
0.0000000001
 43
0.0000000001
 12
1.0
 22
0.0
 32
0.0
 13
1.0
 23
0.0
 33
0.0
 40
0.0
 40
0.0
 40
0.0
 40
0.0
 40
0.0769230769230769
 40
0.0769230769230769
 40
0.0769230769230769
 40
0.0769230769230769
 40
0.1538461538461539
 40
0.1538461538461539
 40
0.1538461538461539
 40
0.1538461538461539
 40
0.2307692307692308
 40
0.2307692307692308
 40
0.2307692307692308
 40
0.2307692307692308
 40
0.3076923076923077
 40
0.3076923076923077
 40
0.3076923076923077
 40
0.3076923076923077
 40
0.3846153846153846
 40
0.3846153846153846
 40
0.3846153846153846
 40
0.3846153846153846
 40
0.4615384615384616
 40
0.4615384615384616
 40
0.4615384615384616
 40
0.4615384615384616
 40
0.5384615384615384
 40
0.5384615384615384
 40
0.5384615384615384
 40
0.5384615384615384
 40
0.6153846153846154
 40
0.6153846153846154
 40
0.6153846153846154
 40
0.6153846153846154
 40
0.6923076923076923
 40
0.6923076923076923
 40
0.6923076923076923
 40
0.6923076923076923
 40
0.7692307692307693
 40
0.7692307692307693
 40
0.7692307692307693
 40
0.7692307692307693
 40
0.8461538461538461
 40
0.8461538461538461
 40
0.8461538461538461
 40
0.8461538461538461
 40
1.0
 40
1.0
 40
1.0
 40
1.0
 10
-11.96972
 20
-4.02981
 30
0.0
 10
-11.99712
 20
-3.99883
 30
0.0
 10
-12.0161
 20
-3.97097
 30
0.0
 10
-12.02649
 20
-3.94641
 30
0.0
 10
-12.02649
 20
-3.94641
 30
0.0
 10
-12.03689
 20
-3.92173
 30
0.0
 10
-12.04033
 20
-3.89876
 30
0.0
 10
-12.03677
 20
-3.87743
 30
0.0
 10
-12.03677
 20
-3.87743
 30
0.0
 10
-12.03327
 20
-3.85614
 30
0.0
 10
-12.02193
 20
-3.83708
 30
0.0
 10
-12.00287
 20
-3.82022
 30
0.0
 10
-12.00287
 20
-3.82022
 30
0.0
 10
-11.98882
 20
-3.80779
 30
0.0
 10
-11.974
 20
-3.79969
 30
0.0
 10
-11.95828
 20
-3.79591
 30
0.0
 10
-11.95828
 20
-3.79591
 30
0.0
 10
-11.94263
 20
-3.79219
 30
0.0
 10
-11.92659
 20
-3.79259
 30
0.0
 10
-11.91029
 20
-3.79723
 30
0.0
 10
-11.91029
 20
-3.79723
 30
0.0
 10
-11.89404
 20
-3.80181
 30
0.0
 10
-11.87716
 20
-3.81007
 30
0.0
 10
-11.85968
 20
-3.82194
 30
0.0
 10
-11.85968
 20
-3.82194
 30
0.0
 10
-11.84215
 20
-3.83376
 30
0.0
 10
-11.82188
 20
-3.85274
 30
0.0
 10
-11.7989
 20
-3.87871
 30
0.0
 10
-11.7989
 20
-3.87871
 30
0.0
 10
-11.77167
 20
-3.9095
 30
0.0
 10
-11.7528
 20
-3.93723
 30
0.0
 10
-11.74234
 20
-3.96174
 30
0.0
 10
-11.74234
 20
-3.96174
 30
0.0
 10
-11.73183
 20
-3.98631
 30
0.0
 10
-11.72838
 20
-4.00928
 30
0.0
 10
-11.73189
 20
-4.03068
 30
0.0
 10
-11.73189
 20
-4.03068
 30
0.0
 10
-11.73533
 20
-4.05202
 30
0.0
 10
-11.74668
 20
-4.0712
 30
0.0
 10
-11.76586
 20
-4.08816
 30
0.0
 10
-11.76586
 20
-4.08816
 30
0.0
 10
-11.79109
 20
-4.11049
 30
0.0
 10
-11.81889
 20
-4.11907
 30
0.0
 10
-11.84925
 20
-4.1138
 30
0.0
 10
-11.84925
 20
-4.1138
 30
0.0
 10
-11.88599
 20
-4.1071
 30
0.0
 10
-11.92611
 20
-4.0791
 30
0.0
 10
-11.96972
 20
-4.02981
 30
0.0
  0
SPLINE
  5
7A
330
1F
100
AcDbEntity
  8
layer 2
 62
     1
100
AcDbSpline
210
0.0
220
0.0
230
1.0
 70
    11
 71
     3
 72
    36
 73
    32
 74
     0
 42
0.0000000001
 43
0.0000000001
 12
1.0
 22
0.0
 32
0.0
 13
1.0
 23
0.0
 33
0.0
 40
0.0
 40
0.0
 40
0.0
 40
0.0
 40
0.1111111111111111
 40
0.1111111111111111
 40
0.1111111111111111
 40
0.1111111111111111
 40
0.2222222222222222
 40
0.2222222222222222
 40
0.2222222222222222
 40
0.2222222222222222
 40
0.3333333333333333
 40
0.3333333333333333
 40
0.3333333333333333
 40
0.3333333333333333
 40
0.4444444444444444
 40
0.4444444444444444
 40
0.4444444444444444
 40
0.4444444444444444
 40
0.5555555555555556
 40
0.5555555555555556
 40
0.5555555555555556
 40
0.5555555555555556
 40
0.6666666666666666
 40
0.6666666666666666
 40
0.6666666666666666
 40
0.6666666666666666
 40
0.7777777777777778
 40
0.7777777777777778
 40
0.7777777777777778
 40
0.7777777777777778
 40
1.0
 40
1.0
 40
1.0
 40
1.0
 10
-11.93662
 20
-4.00074
 30
0.0
 10
-11.89841
 20
-4.04394
 30
0.0
 10
-11.86801
 20
-4.06822
 30
0.0
 10
-11.84539
 20
-4.07348
 30
0.0
 10
-11.84539
 20
-4.07348
 30
0.0
 10
-11.82272
 20
-4.07879
 30
0.0
 10
-11.80399
 20
-4.07485
 30
0.0
 10
-11.78921
 20
-4.06177
 30
0.0
 10
-11.78921
 20
-4.06177
 30
0.0
 10
-11.77442
 20
-4.0487
 30
0.0
 10
-11.76828
 20
-4.03052
 30
0.0
 10
-11.77079
 20
-4.00738
 30
0.0
 10
-11.77079
 20
-4.00738
 30
0.0
 10
-11.77336
 20
-3.98416
 30
0.0
 10
-11.79369
 20
-3.95108
 30
0.0
 10
-11.83179
 20
-3.90801
 30
0.0
 10
-11.83179
 20
-3.90801
 30
0.0
 10
-11.87
 20
-3.86482
 30
0.0
 10
-11.9004
 20
-3.84054
 30
0.0
 10
-11.92302
 20
-3.83528
 30
0.0
 10
-11.92302
 20
-3.83528
 30
0.0
 10
-11.94563
 20
-3.8299
 30
0.0
 10
-11.96448
 20
-3.83395
 30
0.0
 10
-11.97957
 20
-3.84731
 30
0.0
 10
-11.97957
 20
-3.84731
 30
0.0
 10
-11.99436
 20
-3.86038
 30
0.0
 10
-12.00064
 20
-3.87716
 30
0.0
 10
-11.99842
 20
-3.89752
 30
0.0
 10
-11.99842
 20
-3.89752
 30
0.0
 10
-11.99538
 20
-3.92324
 30
0.0
 10
-11.97472
 20
-3.95767
 30
0.0
 10
-11.93662
 20
-4.00074
 30
0.0
  0
SPLINE
  5
7B
330
1F
100
AcDbEntity
  8
layer 2
 62
     1
370
     0
100
AcDbSpline
210
0.0
220
0.0
230
1.0
 70
    24
 71
     3
 72
     8
 73
     4
 74
     0
 42
0.0000000001
 43
0.0000000001
 12
1.0
 22
0.0
 32
0.0
 13
1.0
 23
0.0
 33
0.0
 40
0.0
 40
0.0
 40
0.0
 40
0.0
 40
1.0
 40
1.0
 40
1.0
 40
1.0
 10
-10.63491
 20
-4.16063
 30
0.0
 10
-10.63491
 20
-4.16063
 30
0.0
 10
-10.83413
 20
-4.33685
 30
0.0
 10
-10.83413
 20
-4.33685
 30
0.0
  0
SPLINE
  5
7C
330
1F
100
AcDbEntity
  8
layer 2
 62
     1
100
AcDbSpline
210
0.0
220
0.0
230
1.0
 70
    27
 71
     3
 72
    12
 73
     8
 74
     0
 42
0.0000000001
 43
0.0000000001
 12
1.0
 22
0.0
 32
0.0
 13
1.0
 23
0.0
 33
0.0
 40
0.0
 40
0.0
 40
0.0
 40
0.0
 40
0.3333333333333333
 40
0.3333333333333333
 40
0.3333333333333333
 40
0.3333333333333333
 40
1.0
 40
1.0
 40
1.0
 40
1.0
 10
-11.10842
 20
-4.50846
 30
0.0
 10
-11.10842
 20
-4.50846
 30
0.0
 10
-10.83413
 20
-4.33685
 30
0.0
 10
-10.83413
 20
-4.33685
 30
0.0
 10
-10.83413
 20
-4.33685
 30
0.0
 10
-10.83413
 20
-4.33685
 30
0.0
 10
-11.10842
 20
-4.50846
 30
0.0
 10
-11.10842
 20
-4.50846
 30
0.0
  0
SPLINE
  5
7D
330
1F
100
AcDbEntity
  8
layer 2
 62
     1
100
AcDbSpline
210
0.0
220
0.0
230
1.0
 70
     8
 71
     3
 72
    12
 73
     8
 74
     0
 42
0.0000000001
 43
0.0000000001
 12
1.0
 22
0.0
 32
0.0
 13
1.0
 23
0.0
 33
0.0
 40
0.0
 40
0.0
 40
0.0
 40
0.0
 40
0.3333333333333333
 40
0.3333333333333333
 40
0.3333333333333333
 40
0.3333333333333333
 40
1.0
 40
1.0
 40
1.0
 40
1.0
 10
-10.83413
 20
-4.33685
 30
0.0
 10
-10.83413
 20
-4.33685
 30
0.0
 10
-11.03794
 20
-4.58814
 30
0.0
 10
-11.03794
 20
-4.58814
 30
0.0
 10
-11.03794
 20
-4.58814
 30
0.0
 10
-11.03794
 20
-4.58814
 30
0.0
 10
-11.10842
 20
-4.50846
 30
0.0
 10
-11.10842
 20
-4.50846
 30
0.0
  0
SPLINE
  5
7E
330
1F
100
AcDbEntity
  8
layer 2
 62
     1
370
     9
100
AcDbSpline
210
0.0
220
0.0
230
1.0
 70
    24
 71
     3
 72
     8
 73
     4
 74
     0
 42
0.0000000001
 43
0.0000000001
 12
1.0
 22
0.0
 32
0.0
 13
1.0
 23
0.0
 33
0.0
 40
0.0
 40
0.0
 40
0.0
 40
0.0
 40
1.0
 40
1.0
 40
1.0
 40
1.0
 10
-11.10842
 20
-4.50846
 30
0.0
 10
-11.10842
 20
-4.50846
 30
0.0
 10
-10.83413
 20
-4.33685
 30
0.0
 10
-10.83413
 20
-4.33685
 30
0.0
  0
SPLINE
  5
7F
330
1F
100
AcDbEntity
  8
layer 2
 62
     1
370
     9
100
AcDbSpline
210
0.0
220
0.0
230
1.0
 70
     8
 71
     3
 72
    12
 73
     8
 74
     0
 42
0.0000000001
 43
0.0000000001
 12
1.0
 22
0.0
 32
0.0
 13
1.0
 23
0.0
 33
0.0
 40
0.0
 40
0.0
 40
0.0
 40
0.0
 40
0.3333333333333333
 40
0.3333333333333333
 40
0.3333333333333333
 40
0.3333333333333333
 40
1.0
 40
1.0
 40
1.0
 40
1.0
 10
-10.83413
 20
-4.33685
 30
0.0
 10
-10.83413
 20
-4.33685
 30
0.0
 10
-11.03794
 20
-4.58814
 30
0.0
 10
-11.03794
 20
-4.58814
 30
0.0
 10
-11.03794
 20
-4.58814
 30
0.0
 10
-11.03794
 20
-4.58814
 30
0.0
 10
-11.10842
 20
-4.50846
 30
0.0
 10
-11.10842
 20
-4.50846
 30
0.0
  0
ENDSEC
  0
SECTION
  2
OBJECTS
  0
DICTIONARY
  5
C
330
0
100
AcDbDictionary
281
     1
  3
ACAD_GROUP
350
D
  3
ACAD_LAYOUT
350
1A
  3
ACAD_MATERIAL
350
3B
  3
ACAD_MLEADERSTYLE
350
A1
  3
ACAD_MLINESTYLE
350
17
  3
ACAD_PLOTSETTINGS
350
19
  3
ACAD_PLOTSTYLENAME
350
E
  3
ACAD_TABLESTYLE
350
A0
  3
ACAD_VISUALSTYLE
350
2A
  0
DICTIONARY
  5
D
102
{ACAD_REACTORS
330
C
102
}
330
C
100
AcDbDictionary
281
     1
  0
DICTIONARY
  5
1A
102
{ACAD_REACTORS
330
C
102
}
330
C
100
AcDbDictionary
281
     1
  3
Layout1
350
1E
  3
Layout2
350
26
  3
Model
350
22
  0
DICTIONARY
  5
3B
102
{ACAD_REACTORS
330
C
102
}
330
C
100
AcDbDictionary
281
     1
  3
ByBlock
350
3D
  3
ByLayer
350
3C
  3
Global
350
3E
  0
DICTIONARY
  5
A1
102
{ACAD_REACTORS
330
C
102
}
330
C
100
AcDbDictionary
281
     1
  0
DICTIONARY
  5
17
102
{ACAD_REACTORS
330
C
102
}
330
C
100
AcDbDictionary
281
     1
  3
Standard
350
18
  0
DICTIONARY
  5
19
102
{ACAD_REACTORS
330
C
102
}
330
C
100
AcDbDictionary
281
     1
  0
ACDBDICTIONARYWDFLT
  5
E
102
{ACAD_REACTORS
330
C
102
}
330
C
100
AcDbDictionary
281
     1
  3
Normal
350
F
100
AcDbDictionaryWithDefault
340
F
  0
DICTIONARY
  5
A0
102
{ACAD_REACTORS
330
C
102
}
330
C
100
AcDbDictionary
281
     1
  0
DICTIONARY
  5
2A
102
{ACAD_REACTORS
330
C
102
}
330
C
100
AcDbDictionary
281
     1
  3
2dWireframe
350
2F
  3
3D Hidden
350
31
  3
3dWireframe
350
30
  3
Basic
350
32
  3
Brighten
350
36
  3
ColorChange
350
3A
  3
Conceptual
350
34
  3
Dim
350
35
  3
Facepattern
350
39
  3
Flat
350
2B
  3
FlatWithEdges
350
2C
  3
Gouraud
350
2D
  3
GouraudWithEdges
350
2E
  3
Linepattern
350
38
  3
Realistic
350
33
  3
Thicken
350
37
  0
LAYOUT
  5
1E
102
{ACAD_REACTORS
330
1A
102
}
330
1A
100
AcDbPlotSettings
  1

  2
none_device
  4

  6

 40
0.0
 41
0.0
 42
0.0
 43
0.0
 44
0.0
 45
0.0
 46
0.0
 47
0.0
 48
0.0
 49
0.0
140
0.0
141
0.0
142
1.0
143
1.0
 70
   688
 72
     0
 73
     0
 74
     5
  7

 75
    16
 76
     0
 77
     2
 78
   300
147
1.0
148
0.0
149
0.0
100
AcDbLayout
  1
Layout1
 70
     1
 71
     1
 10
0.0
 20
0.0
 11
12.0
 21
9.0
 12
0.0
 22
0.0
 32
0.0
 14
1.000000000000000E+20
 24
1.000000000000000E+20
 34
1.000000000000000E+20
 15
-1.000000000000000E+20
 25
-1.000000000000000E+20
 35
-1.000000000000000E+20
146
0.0
 13
0.0
 23
0.0
 33
0.0
 16
1.0
 26
0.0
 36
0.0
 17
0.0
 27
1.0
 37
0.0
 76
     0
330
1B
  0
LAYOUT
  5
26
102
{ACAD_REACTORS
330
1A
102
}
330
1A
100
AcDbPlotSettings
  1

  2
none_device
  4

  6

 40
0.0
 41
0.0
 42
0.0
 43
0.0
 44
0.0
 45
0.0
 46
0.0
 47
0.0
 48
0.0
 49
0.0
140
0.0
141
0.0
142
1.0
143
1.0
 70
   688
 72
     0
 73
     0
 74
     5
  7

 75
    16
 76
     0
 77
     2
 78
   300
147
1.0
148
0.0
149
0.0
100
AcDbLayout
  1
Layout2
 70
     1
 71
     2
 10
0.0
 20
0.0
 11
0.0
 21
0.0
 12
0.0
 22
0.0
 32
0.0
 14
0.0
 24
0.0
 34
0.0
 15
0.0
 25
0.0
 35
0.0
146
0.0
 13
0.0
 23
0.0
 33
0.0
 16
1.0
 26
0.0
 36
0.0
 17
0.0
 27
1.0
 37
0.0
 76
     0
330
23
  0
LAYOUT
  5
22
102
{ACAD_REACTORS
330
1A
102
}
330
1A
100
AcDbPlotSettings
  1

  2
none_device
  4

  6

 40
0.0
 41
0.0
 42
0.0
 43
0.0
 44
0.0
 45
0.0
 46
0.0
 47
0.0
 48
0.0
 49
0.0
140
0.0
141
0.0
142
1.0
143
1.0
 70
  1712
 72
     0
 73
     0
 74
     0
  7

 75
     0
 76
     0
 77
     2
 78
   300
147
1.0
148
0.0
149
0.0
100
AcDbLayout
  1
Model
 70
     1
 71
     0
 10
0.0
 20
0.0
 11
12.0
 21
9.0
 12
0.0
 22
0.0
 32
0.0
 14
-12.54232
 24
-7.30388
 34
0.0
 15
11.47497
 25
7.86862
 35
0.0
146
0.0
 13
0.0
 23
0.0
 33
0.0
 16
1.0
 26
0.0
 36
0.0
 17
0.0
 27
1.0
 37
0.0
 76
     0
330
1F
331
29
  0
MATERIAL
  5
3D
102
{ACAD_REACTORS
330
3B
102
}
330
3B
100
AcDbMaterial
  1
ByBlock
 72
     1
 94
      127
  0
MATERIAL
  5
3C
102
{ACAD_REACTORS
330
3B
102
}
330
3B
100
AcDbMaterial
  1
ByLayer
 72
     1
 94
      127
  0
MATERIAL
  5
3E
102
{ACAD_REACTORS
330
3B
102
}
330
3B
100
AcDbMaterial
  1
Global
 72
     1
 94
      127
  0
MLINESTYLE
  5
18
102
{ACAD_REACTORS
330
17
102
}
330
17
100
AcDbMlineStyle
  2
Standard
 70
     0
  3

 62
   256
 51
90.0
 52
90.0
 71
     2
 49
0.5
 62
   256
  6
BYLAYER
 49
-0.5
 62
   256
  6
BYLAYER
  0
ACDBPLACEHOLDER
  5
F
102
{ACAD_REACTORS
330
E
102
}
330
E
  0
VISUALSTYLE
  5
2F
102
{ACAD_REACTORS
330
2A
102
}
102
{ACAD_XDICTIONARY
360
88
102
}
330
2A
100
AcDbVisualStyle
  2
2dWireframe
 70
     4
 71
     0
 72
     2
 73
     0
 90
        0
 40
-0.6
 41
-30.0
 62
     5
 63
     7
421
 16777215
 74
     1
 91
        4
 64
     7
 65
   257
 75
     1
175
     1
 42
1.0
 92
        0
 66
   257
 43
1.0
 76
     1
 77
     6
 78
     2
 67
     7
 79
     5
170
     0
171
     0
290
     0
174
     0
 93
        1
 44
0.0
173
     0
291
     0
 45
0.0
  0
VISUALSTYLE
  5
31
102
{ACAD_REACTORS
330
2A
102
}
102
{ACAD_XDICTIONARY
360
8C
102
}
330
2A
100
AcDbVisualStyle
  2
3D Hidden
 70
     6
 71
     1
 72
     2
 73
     2
 90
        0
 40
-0.6
 41
-30.0
 62
     5
 63
     7
421
 16777215
 74
     2
 91
        2
 64
     7
 65
   257
 75
     2
175
     1
 42
40.0
 92
        0
 66
   257
 43
1.0
 76
     1
 77
     6
 78
     2
 67
     7
 79
     3
170
     0
171
     0
290
     0
174
     0
 93
        1
 44
0.0
173
     0
291
     0
 45
0.0
  0
VISUALSTYLE
  5
30
102
{ACAD_REACTORS
330
2A
102
}
102
{ACAD_XDICTIONARY
360
8A
102
}
330
2A
100
AcDbVisualStyle
  2
3dWireframe
 70
     5
 71
     0
 72
     2
 73
     0
 90
        0
 40
-0.6
 41
-30.0
 62
     5
 63
     7
421
 16777215
 74
     1
 91
        4
 64
     7
 65
   257
 75
     1
175
     1
 42
1.0
 92
        0
 66
   257
 43
1.0
 76
     1
 77
     6
 78
     2
 67
     7
 79
     5
170
     0
171
     0
290
     0
174
     0
 93
        1
 44
0.0
173
     0
291
     0
 45
0.0
  0
VISUALSTYLE
  5
32
102
{ACAD_REACTORS
330
2A
102
}
102
{ACAD_XDICTIONARY
360
8E
102
}
330
2A
100
AcDbVisualStyle
  2
Basic
 70
     7
 71
     1
 72
     0
 73
     1
 90
        0
 40
-0.6
 41
-30.0
 62
     5
 63
     7
421
 16777215
 74
     0
 91
        4
 64
     7
 65
   257
 75
     1
175
     1
 42
1.0
 92
        8
 66
     7
 43
1.0
 76
     1
 77
     6
 78
     2
 67
     7
 79
     5
170
     0
171
     0
290
     0
174
     0
 93
        1
 44
0.0
173
     0
291
     1
 45
0.0
  0
VISUALSTYLE
  5
36
102
{ACAD_REACTORS
330
2A
102
}
102
{ACAD_XDICTIONARY
360
96
102
}
330
2A
100
AcDbVisualStyle
  2
Brighten
 70
    12
 71
     2
 72
     2
 73
     0
 90
        0
 40
-0.6
 41
-30.0
 62
     5
 63
     7
421
 16777215
 74
     1
 91
        4
 64
     7
 65
   257
 75
     1
175
     1
 42
1.0
 92
        8
 66
     7
 43
1.0
 76
     1
 77
     6
 78
     2
 67
     7
 79
     5
170
     0
171
     0
290
     0
174
     0
 93
        1
 44
50.0
173
     0
291
     1
 45
0.0
  0
VISUALSTYLE
  5
3A
102
{ACAD_REACTORS
330
2A
102
}
102
{ACAD_XDICTIONARY
360
9E
102
}
330
2A
100
AcDbVisualStyle
  2
ColorChange
 70
    16
 71
     2
 72
     2
 73
     3
 90
        0
 40
-0.6
 41
-30.0
 62
     5
 63
     8
421
  8421504
 74
     1
 91
        4
 64
     7
 65
   257
 75
     1
175
     1
 42
1.0
 92
        8
 66
     8
424
  8421504
 43
1.0
 76
     1
 77
     6
 78
     2
 67
     7
 79
     5
170
     0
171
     0
290
     0
174
     0
 93
        1
 44
0.0
173
     0
291
     1
 45
0.0
  0
VISUALSTYLE
  5
34
102
{ACAD_REACTORS
330
2A
102
}
102
{ACAD_XDICTIONARY
360
92
102
}
330
2A
100
AcDbVisualStyle
  2
Conceptual
 70
     9
 71
     3
 72
     2
 73
     0
 90
        0
 40
-0.6
 41
-30.0
 62
     5
 63
     7
421
 16777215
 74
     2
 91
        2
 64
     7
 65
   257
 75
     1
175
     1
 42
40.0
 92
        8
 66
     7
 43
1.0
 76
     1
 77
     6
 78
     2
 67
     7
 79
     3
170
     0
171
     0
290
     0
174
     0
 93
        1
 44
0.0
173
     0
291
     0
 45
0.0
  0
VISUALSTYLE
  5
35
102
{ACAD_REACTORS
330
2A
102
}
102
{ACAD_XDICTIONARY
360
94
102
}
330
2A
100
AcDbVisualStyle
  2
Dim
 70
    11
 71
     2
 72
     2
 73
     0
 90
        0
 40
-0.6
 41
-30.0
 62
     5
 63
     7
421
 16777215
 74
     1
 91
        4
 64
     7
 65
   257
 75
     1
175
     1
 42
1.0
 92
        8
 66
     7
 43
1.0
 76
     1
 77
     6
 78
     2
 67
     7
 79
     5
170
     0
171
     0
290
     0
174
     0
 93
        1
 44
-50.0
173
     0
291
     1
 45
0.0
  0
VISUALSTYLE
  5
39
102
{ACAD_REACTORS
330
2A
102
}
102
{ACAD_XDICTIONARY
360
9C
102
}
330
2A
100
AcDbVisualStyle
  2
Facepattern
 70
    15
 71
     2
 72
     2
 73
     0
 90
        0
 40
-0.6
 41
-30.0
 62
     5
 63
     7
421
 16777215
 74
     1
 91
        4
 64
     7
 65
   257
 75
     1
175
     1
 42
1.0
 92
        8
 66
     7
 43
1.0
 76
     1
 77
     6
 78
     2
 67
     7
 79
     5
170
     0
171
     0
290
     0
174
     0
 93
        1
 44
0.0
173
     0
291
     1
 45
0.0
  0
VISUALSTYLE
  5
2B
102
{ACAD_REACTORS
330
2A
102
}
102
{ACAD_XDICTIONARY
360
80
102
}
330
2A
100
AcDbVisualStyle
  2
Flat
 70
     0
 71
     2
 72
     1
 73
     1
 90
        2
 40
-0.6
 41
30.0
 62
     5
 63
     7
421
 16777215
 74
     0
 91
        4
 64
     7
 65
   257
 75
     1
175
     1
 42
1.0
 92
        8
 66
     7
 43
1.0
 76
     1
 77
     6
 78
     2
 67
     7
 79
     5
170
     0
171
     0
290
     0
174
     0
 93
       13
 44
0.0
173
     0
291
     1
 45
0.0
  0
VISUALSTYLE
  5
2C
102
{ACAD_REACTORS
330
2A
102
}
102
{ACAD_XDICTIONARY
360
82
102
}
330
2A
100
AcDbVisualStyle
  2
FlatWithEdges
 70
     1
 71
     2
 72
     1
 73
     1
 90
        2
 40
-0.6
 41
30.0
 62
     5
 63
     7
421
 16777215
 74
     1
 91
        4
 64
     7
 65
   257
 75
     1
175
     1
 42
1.0
 92
        0
 66
   257
 43
1.0
 76
     1
 77
     6
 78
     2
 67
     7
 79
     5
170
     0
171
     0
290
     0
174
     0
 93
       13
 44
0.0
173
     0
291
     1
 45
0.0
  0
VISUALSTYLE
  5
2D
102
{ACAD_REACTORS
330
2A
102
}
102
{ACAD_XDICTIONARY
360
84
102
}
330
2A
100
AcDbVisualStyle
  2
Gouraud
 70
     2
 71
     2
 72
     2
 73
     1
 90
        2
 40
-0.6
 41
30.0
 62
     5
 63
     7
421
 16777215
 74
     0
 91
        4
 64
     7
 65
   257
 75
     1
175
     1
 42
1.0
 92
        0
 66
     7
 43
1.0
 76
     1
 77
     6
 78
     2
 67
     7
 79
     5
170
     0
171
     0
290
     0
174
     0
 93
       13
 44
0.0
173
     0
291
     1
 45
0.0
  0
VISUALSTYLE
  5
2E
102
{ACAD_REACTORS
330
2A
102
}
102
{ACAD_XDICTIONARY
360
86
102
}
330
2A
100
AcDbVisualStyle
  2
GouraudWithEdges
 70
     3
 71
     2
 72
     2
 73
     1
 90
        2
 40
-0.6
 41
30.0
 62
     5
 63
     7
421
 16777215
 74
     1
 91
        4
 64
     7
 65
   257
 75
     1
175
     1
 42
1.0
 92
        0
 66
   257
 43
1.0
 76
     1
 77
     6
 78
     2
 67
     7
 79
     5
170
     0
171
     0
290
     0
174
     0
 93
       13
 44
0.0
173
     0
291
     1
 45
0.0
  0
VISUALSTYLE
  5
38
102
{ACAD_REACTORS
330
2A
102
}
102
{ACAD_XDICTIONARY
360
9A
102
}
330
2A
100
AcDbVisualStyle
  2
Linepattern
 70
    14
 71
     2
 72
     2
 73
     0
 90
        0
 40
-0.6
 41
-30.0
 62
     5
 63
     7
421
 16777215
 74
     1
 91
        4
 64
     7
 65
   257
 75
     7
175
     7
 42
1.0
 92
        8
 66
     7
 43
1.0
 76
     1
 77
     6
 78
     2
 67
     7
 79
     5
170
     0
171
     0
290
     0
174
     0
 93
        1
 44
0.0
173
     0
291
     1
 45
0.0
  0
VISUALSTYLE
  5
33
102
{ACAD_REACTORS
330
2A
102
}
102
{ACAD_XDICTIONARY
360
90
102
}
330
2A
100
AcDbVisualStyle
  2
Realistic
 70
     8
 71
     2
 72
     2
 73
     0
 90
        0
 40
-0.6
 41
-30.0
 62
     5
 63
     7
421
 16777215
 74
     1
 91
        0
 64
     7
 65
   257
 75
     1
175
     1
 42
1.0
 92
        8
 66
     8
424
  7895160
 43
1.0
 76
     1
 77
     6
 78
     2
 67
     7
 79
     5
170
     0
171
     0
290
     0
174
     0
 93
       13
 44
0.0
173
     0
291
     0
 45
0.0
  0
VISUALSTYLE
  5
37
102
{ACAD_REACTORS
330
2A
102
}
102
{ACAD_XDICTIONARY
360
98
102
}
330
2A
100
AcDbVisualStyle
  2
Thicken
 70
    13
 71
     2
 72
     2
 73
     0
 90
        0
 40
-0.6
 41
-30.0
 62
     5
 63
     7
421
 16777215
 74
     1
 91
        4
 64
     7
 65
   257
 75
     1
175
     1
 42
1.0
 92
       12
 66
     7
 43
1.0
 76
     1
 77
     6
 78
     2
 67
     7
 79
     5
170
     0
171
     0
290
     0
174
     0
 93
        1
 44
0.0
173
     0
291
     1
 45
0.0
  0
DICTIONARY
  5
88
330
2F
100
AcDbDictionary
280
     1
281
     1
  3
ACAD_XREC_ROUNDTRIP
360
89
  0
DICTIONARY
  5
8C
330
31
100
AcDbDictionary
280
     1
281
     1
  3
ACAD_XREC_ROUNDTRIP
360
8D
  0
DICTIONARY
  5
8A
330
30
100
AcDbDictionary
280
     1
281
     1
  3
ACAD_XREC_ROUNDTRIP
360
8B
  0
DICTIONARY
  5
8E
330
32
100
AcDbDictionary
280
     1
281
     1
  3
ACAD_XREC_ROUNDTRIP
360
8F
  0
DICTIONARY
  5
96
330
36
100
AcDbDictionary
280
     1
281
     1
  3
ACAD_XREC_ROUNDTRIP
360
97
  0
DICTIONARY
  5
9E
330
3A
100
AcDbDictionary
280
     1
281
     1
  3
ACAD_XREC_ROUNDTRIP
360
9F
  0
DICTIONARY
  5
92
330
34
100
AcDbDictionary
280
     1
281
     1
  3
ACAD_XREC_ROUNDTRIP
360
93
  0
DICTIONARY
  5
94
330
35
100
AcDbDictionary
280
     1
281
     1
  3
ACAD_XREC_ROUNDTRIP
360
95
  0
DICTIONARY
  5
9C
330
39
100
AcDbDictionary
280
     1
281
     1
  3
ACAD_XREC_ROUNDTRIP
360
9D
  0
DICTIONARY
  5
80
330
2B
100
AcDbDictionary
280
     1
281
     1
  3
ACAD_XREC_ROUNDTRIP
360
81
  0
DICTIONARY
  5
82
330
2C
100
AcDbDictionary
280
     1
281
     1
  3
ACAD_XREC_ROUNDTRIP
360
83
  0
DICTIONARY
  5
84
330
2D
100
AcDbDictionary
280
     1
281
     1
  3
ACAD_XREC_ROUNDTRIP
360
85
  0
DICTIONARY
  5
86
330
2E
100
AcDbDictionary
280
     1
281
     1
  3
ACAD_XREC_ROUNDTRIP
360
87
  0
DICTIONARY
  5
9A
330
38
100
AcDbDictionary
280
     1
281
     1
  3
ACAD_XREC_ROUNDTRIP
360
9B
  0
DICTIONARY
  5
90
330
33
100
AcDbDictionary
280
     1
281
     1
  3
ACAD_XREC_ROUNDTRIP
360
91
  0
DICTIONARY
  5
98
330
37
100
AcDbDictionary
280
     1
281
     1
  3
ACAD_XREC_ROUNDTRIP
360
99
  0
XRECORD
  5
89
102
{ACAD_REACTORS
330
88
102
}
330
88
100
AcDbXrecord
280
     1
102
RTVSPropertyOp0
 70
     1
102
RTVSPropertyOp1
 70
     1
102
RTVSPropertyOp2
 70
     1
102
RTVSPropertyOp3
 70
     1
102
RTVSPropertyOp4
 70
     1
102
RTVSPropertyOp5
 70
     1
102
RTVSPropertyOp6
 70
     1
102
RTVSPropertyOp7
 70
     1
102
RTVSPropertyOp8
 70
     1
102
RTVSPropertyOp9
 70
     1
102
RTVSPropertyOp10
 70
     1
102
RTVSPropertyOp11
 70
     1
102
RTVSPropertyOp12
 70
     1
102
RTVSPropertyOp13
 70
     1
102
RTVSPropertyOp14
 70
     1
102
RTVSPropertyOp15
 70
     1
102
RTVSPropertyOp16
 70
     1
102
RTVSPropertyOp17
 70
     1
102
RTVSPropertyOp18
 70
     1
102
RTVSPropertyOp19
 70
     1
102
RTVSPropertyOp20
 70
     1
102
RTVSPropertyOp21
 70
     1
102
RTVSPropertyOp22
 70
     1
102
RTVSPropertyOp23
 70
     1
102
RTVSPropertyOp24
 70
     1
102
RTVSPropertyOp25
 70
     1
102
RTVSPropertyOp26
 70
     1
102
RTVSPropertyOp27
 70
     1
102
RTVSPropertyOp28
 70
     1
102
RTVSPropertyOp29
 70
     1
102
RTVSPropertyOp30
 70
     1
102
RTVSPropertyOp31
 70
     1
102
RTVSPropertyOp32
 70
     1
  0
XRECORD
  5
8D
102
{ACAD_REACTORS
330
8C
102
}
330
8C
100
AcDbXrecord
280
     1
102
RTVSPropertyOp0
 70
     1
102
RTVSPropertyOp1
 70
     1
102
RTVSPropertyOp2
 70
     1
102
RTVSPropertyOp3
 70
     1
102
RTVSPropertyOp4
 70
     1
102
RTVSPropertyOp5
 70
     1
102
RTVSPropertyOp6
 70
     1
102
RTVSPropertyOp7
 70
     1
102
RTVSPropertyOp8
 70
     1
102
RTVSPropertyOp9
 70
     1
102
RTVSPropertyOp10
 70
     1
102
RTVSPropertyOp11
 70
     1
102
RTVSPropertyOp12
 70
     1
102
RTVSPropertyOp13
 70
     1
102
RTVSPropertyOp14
 70
     1
102
RTVSPropertyOp15
 70
     1
102
RTVSPropertyOp16
 70
     1
102
RTVSPropertyOp17
 70
     1
102
RTVSPropertyOp18
 70
     1
102
RTVSPropertyOp19
 70
     1
102
RTVSPropertyOp20
 70
     1
102
RTVSPropertyOp21
 70
     1
102
RTVSPropertyOp22
 70
     1
102
RTVSPropertyOp23
 70
     1
102
RTVSPropertyOp24
 70
     1
102
RTVSPropertyOp25
 70
     1
102
RTVSPropertyOp26
 70
     1
102
RTVSPropertyOp27
 70
     1
102
RTVSPropertyOp28
 70
     1
102
RTVSPropertyOp29
 70
     1
102
RTVSPropertyOp30
 70
     1
102
RTVSPropertyOp31
 70
     1
102
RTVSPropertyOp32
 70
     1
  0
XRECORD
  5
8B
102
{ACAD_REACTORS
330
8A
102
}
330
8A
100
AcDbXrecord
280
     1
102
RTVSPropertyOp0
 70
     1
102
RTVSPropertyOp1
 70
     1
102
RTVSPropertyOp2
 70
     1
102
RTVSPropertyOp3
 70
     1
102
RTVSPropertyOp4
 70
     1
102
RTVSPropertyOp5
 70
     1
102
RTVSPropertyOp6
 70
     1
102
RTVSPropertyOp7
 70
     1
102
RTVSPropertyOp8
 70
     1
102
RTVSPropertyOp9
 70
     1
102
RTVSPropertyOp10
 70
     1
102
RTVSPropertyOp11
 70
     1
102
RTVSPropertyOp12
 70
     1
102
RTVSPropertyOp13
 70
     1
102
RTVSPropertyOp14
 70
     1
102
RTVSPropertyOp15
 70
     1
102
RTVSPropertyOp16
 70
     1
102
RTVSPropertyOp17
 70
     1
102
RTVSPropertyOp18
 70
     1
102
RTVSPropertyOp19
 70
     1
102
RTVSPropertyOp20
 70
     1
102
RTVSPropertyOp21
 70
     1
102
RTVSPropertyOp22
 70
     1
102
RTVSPropertyOp23
 70
     1
102
RTVSPropertyOp24
 70
     1
102
RTVSPropertyOp25
 70
     1
102
RTVSPropertyOp26
 70
     1
102
RTVSPropertyOp27
 70
     1
102
RTVSPropertyOp28
 70
     1
102
RTVSPropertyOp29
 70
     1
102
RTVSPropertyOp30
 70
     1
102
RTVSPropertyOp31
 70
     1
102
RTVSPropertyOp32
 70
     1
  0
XRECORD
  5
8F
102
{ACAD_REACTORS
330
8E
102
}
330
8E
100
AcDbXrecord
280
     1
102
RTVSPropertyOp0
 70
     1
102
RTVSPropertyOp1
 70
     1
102
RTVSPropertyOp2
 70
     1
102
RTVSPropertyOp3
 70
     1
102
RTVSPropertyOp4
 70
     1
102
RTVSPropertyOp5
 70
     1
102
RTVSPropertyOp6
 70
     1
102
RTVSPropertyOp7
 70
     1
102
RTVSPropertyOp8
 70
     1
102
RTVSPropertyOp9
 70
     1
102
RTVSPropertyOp10
 70
     1
102
RTVSPropertyOp11
 70
     1
102
RTVSPropertyOp12
 70
     1
102
RTVSPropertyOp13
 70
     1
102
RTVSPropertyOp14
 70
     1
102
RTVSPropertyOp15
 70
     1
102
RTVSPropertyOp16
 70
     1
102
RTVSPropertyOp17
 70
     1
102
RTVSPropertyOp18
 70
     1
102
RTVSPropertyOp19
 70
     1
102
RTVSPropertyOp20
 70
     1
102
RTVSPropertyOp21
 70
     1
102
RTVSPropertyOp22
 70
     1
102
RTVSPropertyOp23
 70
     1
102
RTVSPropertyOp24
 70
     1
102
RTVSPropertyOp25
 70
     1
102
RTVSPropertyOp26
 70
     1
102
RTVSPropertyOp27
 70
     1
102
RTVSPropertyOp28
 70
     1
102
RTVSPropertyOp29
 70
     1
102
RTVSPropertyOp30
 70
     1
102
RTVSPropertyOp31
 70
     1
102
RTVSPropertyOp32
 70
     1
  0
XRECORD
  5
97
102
{ACAD_REACTORS
330
96
102
}
330
96
100
AcDbXrecord
280
     1
102
RTVSPropertyOp0
 70
     1
102
RTVSPropertyOp1
 70
     1
102
RTVSPropertyOp2
 70
     1
102
RTVSPropertyOp3
 70
     1
102
RTVSPropertyOp4
 70
     1
102
RTVSPropertyOp5
 70
     1
102
RTVSPropertyOp6
 70
     1
102
RTVSPropertyOp7
 70
     1
102
RTVSPropertyOp8
 70
     1
102
RTVSPropertyOp9
 70
     1
102
RTVSPropertyOp10
 70
     1
102
RTVSPropertyOp11
 70
     1
102
RTVSPropertyOp12
 70
     1
102
RTVSPropertyOp13
 70
     1
102
RTVSPropertyOp14
 70
     1
102
RTVSPropertyOp15
 70
     1
102
RTVSPropertyOp16
 70
     1
102
RTVSPropertyOp17
 70
     1
102
RTVSPropertyOp18
 70
     1
102
RTVSPropertyOp19
 70
     1
102
RTVSPropertyOp20
 70
     1
102
RTVSPropertyOp21
 70
     1
102
RTVSPropertyOp22
 70
     1
102
RTVSPropertyOp23
 70
     1
102
RTVSPropertyOp24
 70
     1
102
RTVSPropertyOp25
 70
     1
102
RTVSPropertyOp26
 70
     1
102
RTVSPropertyOp27
 70
     1
102
RTVSPropertyOp28
 70
     1
102
RTVSPropertyOp29
 70
     1
102
RTVSPropertyOp30
 70
     1
102
RTVSPropertyOp31
 70
     1
102
RTVSPropertyOp32
 70
     1
  0
XRECORD
  5
9F
102
{ACAD_REACTORS
330
9E
102
}
330
9E
100
AcDbXrecord
280
     1
102
RTVSPropertyOp0
 70
     1
102
RTVSPropertyOp1
 70
     1
102
RTVSPropertyOp2
 70
     1
102
RTVSPropertyOp3
 70
     1
102
RTVSPropertyOp4
 70
     1
102
RTVSPropertyOp5
 70
     1
102
RTVSPropertyOp6
 70
     1
102
RTVSPropertyOp7
 70
     1
102
RTVSPropertyOp8
 70
     1
102
RTVSPropertyOp9
 70
     1
102
RTVSPropertyOp10
 70
     1
102
RTVSPropertyOp11
 70
     1
102
RTVSPropertyOp12
 70
     1
102
RTVSPropertyOp13
 70
     1
102
RTVSPropertyOp14
 70
     1
102
RTVSPropertyOp15
 70
     1
102
RTVSPropertyOp16
 70
     1
102
RTVSPropertyOp17
 70
     1
102
RTVSPropertyOp18
 70
     1
102
RTVSPropertyOp19
 70
     1
102
RTVSPropertyOp20
 70
     1
102
RTVSPropertyOp21
 70
     1
102
RTVSPropertyOp22
 70
     1
102
RTVSPropertyOp23
 70
     1
102
RTVSPropertyOp24
 70
     1
102
RTVSPropertyOp25
 70
     1
102
RTVSPropertyOp26
 70
     1
102
RTVSPropertyOp27
 70
     1
102
RTVSPropertyOp28
 70
     1
102
RTVSPropertyOp29
 70
     1
102
RTVSPropertyOp30
 70
     1
102
RTVSPropertyOp31
 70
     1
102
RTVSPropertyOp32
 70
     1
  0
XRECORD
  5
93
102
{ACAD_REACTORS
330
92
102
}
330
92
100
AcDbXrecord
280
     1
102
RTVSPropertyOp0
 70
     1
102
RTVSPropertyOp1
 70
     1
102
RTVSPropertyOp2
 70
     1
102
RTVSPropertyOp3
 70
     1
102
RTVSPropertyOp4
 70
     1
102
RTVSPropertyOp5
 70
     1
102
RTVSPropertyOp6
 70
     1
102
RTVSPropertyOp7
 70
     1
102
RTVSPropertyOp8
 70
     1
102
RTVSPropertyOp9
 70
     1
102
RTVSPropertyOp10
 70
     1
102
RTVSPropertyOp11
 70
     1
102
RTVSPropertyOp12
 70
     1
102
RTVSPropertyOp13
 70
     1
102
RTVSPropertyOp14
 70
     1
102
RTVSPropertyOp15
 70
     1
102
RTVSPropertyOp16
 70
     1
102
RTVSPropertyOp17
 70
     1
102
RTVSPropertyOp18
 70
     1
102
RTVSPropertyOp19
 70
     1
102
RTVSPropertyOp20
 70
     1
102
RTVSPropertyOp21
 70
     1
102
RTVSPropertyOp22
 70
     1
102
RTVSPropertyOp23
 70
     1
102
RTVSPropertyOp24
 70
     1
102
RTVSPropertyOp25
 70
     1
102
RTVSPropertyOp26
 70
     1
102
RTVSPropertyOp27
 70
     1
102
RTVSPropertyOp28
 70
     1
102
RTVSPropertyOp29
 70
     1
102
RTVSPropertyOp30
 70
     1
102
RTVSPropertyOp31
 70
     1
102
RTVSPropertyOp32
 70
     1
  0
XRECORD
  5
95
102
{ACAD_REACTORS
330
94
102
}
330
94
100
AcDbXrecord
280
     1
102
RTVSPropertyOp0
 70
     1
102
RTVSPropertyOp1
 70
     1
102
RTVSPropertyOp2
 70
     1
102
RTVSPropertyOp3
 70
     1
102
RTVSPropertyOp4
 70
     1
102
RTVSPropertyOp5
 70
     1
102
RTVSPropertyOp6
 70
     1
102
RTVSPropertyOp7
 70
     1
102
RTVSPropertyOp8
 70
     1
102
RTVSPropertyOp9
 70
     1
102
RTVSPropertyOp10
 70
     1
102
RTVSPropertyOp11
 70
     1
102
RTVSPropertyOp12
 70
     1
102
RTVSPropertyOp13
 70
     1
102
RTVSPropertyOp14
 70
     1
102
RTVSPropertyOp15
 70
     1
102
RTVSPropertyOp16
 70
     1
102
RTVSPropertyOp17
 70
     1
102
RTVSPropertyOp18
 70
     1
102
RTVSPropertyOp19
 70
     1
102
RTVSPropertyOp20
 70
     1
102
RTVSPropertyOp21
 70
     1
102
RTVSPropertyOp22
 70
     1
102
RTVSPropertyOp23
 70
     1
102
RTVSPropertyOp24
 70
     1
102
RTVSPropertyOp25
 70
     1
102
RTVSPropertyOp26
 70
     1
102
RTVSPropertyOp27
 70
     1
102
RTVSPropertyOp28
 70
     1
102
RTVSPropertyOp29
 70
     1
102
RTVSPropertyOp30
 70
     1
102
RTVSPropertyOp31
 70
     1
102
RTVSPropertyOp32
 70
     1
  0
XRECORD
  5
9D
102
{ACAD_REACTORS
330
9C
102
}
330
9C
100
AcDbXrecord
280
     1
102
RTVSPropertyOp0
 70
     1
102
RTVSPropertyOp1
 70
     1
102
RTVSPropertyOp2
 70
     1
102
RTVSPropertyOp3
 70
     1
102
RTVSPropertyOp4
 70
     1
102
RTVSPropertyOp5
 70
     1
102
RTVSPropertyOp6
 70
     1
102
RTVSPropertyOp7
 70
     1
102
RTVSPropertyOp8
 70
     1
102
RTVSPropertyOp9
 70
     1
102
RTVSPropertyOp10
 70
     1
102
RTVSPropertyOp11
 70
     1
102
RTVSPropertyOp12
 70
     1
102
RTVSPropertyOp13
 70
     1
102
RTVSPropertyOp14
 70
     1
102
RTVSPropertyOp15
 70
     1
102
RTVSPropertyOp16
 70
     1
102
RTVSPropertyOp17
 70
     1
102
RTVSPropertyOp18
 70
     1
102
RTVSPropertyOp19
 70
     1
102
RTVSPropertyOp20
 70
     1
102
RTVSPropertyOp21
 70
     1
102
RTVSPropertyOp22
 70
     1
102
RTVSPropertyOp23
 70
     1
102
RTVSPropertyOp24
 70
     1
102
RTVSPropertyOp25
 70
     1
102
RTVSPropertyOp26
 70
     1
102
RTVSPropertyOp27
 70
     1
102
RTVSPropertyOp28
 70
     1
102
RTVSPropertyOp29
 70
     1
102
RTVSPropertyOp30
 70
     1
102
RTVSPropertyOp31
 70
     1
102
RTVSPropertyOp32
 70
     1
  0
XRECORD
  5
81
102
{ACAD_REACTORS
330
80
102
}
330
80
100
AcDbXrecord
280
     1
102
RTVSPropertyOp0
 70
     1
102
RTVSPropertyOp1
 70
     1
102
RTVSPropertyOp2
 70
     1
102
RTVSPropertyOp3
 70
     1
102
RTVSPropertyOp4
 70
     1
102
RTVSPropertyOp5
 70
     1
102
RTVSPropertyOp6
 70
     1
102
RTVSPropertyOp7
 70
     1
102
RTVSPropertyOp8
 70
     1
102
RTVSPropertyOp9
 70
     1
102
RTVSPropertyOp10
 70
     1
102
RTVSPropertyOp11
 70
     1
102
RTVSPropertyOp12
 70
     1
102
RTVSPropertyOp13
 70
     1
102
RTVSPropertyOp14
 70
     1
102
RTVSPropertyOp15
 70
     1
102
RTVSPropertyOp16
 70
     1
102
RTVSPropertyOp17
 70
     1
102
RTVSPropertyOp18
 70
     1
102
RTVSPropertyOp19
 70
     1
102
RTVSPropertyOp20
 70
     1
102
RTVSPropertyOp21
 70
     1
102
RTVSPropertyOp22
 70
     1
102
RTVSPropertyOp23
 70
     1
102
RTVSPropertyOp24
 70
     1
102
RTVSPropertyOp25
 70
     1
102
RTVSPropertyOp26
 70
     1
102
RTVSPropertyOp27
 70
     1
102
RTVSPropertyOp28
 70
     1
102
RTVSPropertyOp29
 70
     1
102
RTVSPropertyOp30
 70
     1
102
RTVSPropertyOp31
 70
     1
102
RTVSPropertyOp32
 70
     1
  0
XRECORD
  5
83
102
{ACAD_REACTORS
330
82
102
}
330
82
100
AcDbXrecord
280
     1
102
RTVSPropertyOp0
 70
     1
102
RTVSPropertyOp1
 70
     1
102
RTVSPropertyOp2
 70
     1
102
RTVSPropertyOp3
 70
     1
102
RTVSPropertyOp4
 70
     1
102
RTVSPropertyOp5
 70
     1
102
RTVSPropertyOp6
 70
     1
102
RTVSPropertyOp7
 70
     1
102
RTVSPropertyOp8
 70
     1
102
RTVSPropertyOp9
 70
     1
102
RTVSPropertyOp10
 70
     1
102
RTVSPropertyOp11
 70
     1
102
RTVSPropertyOp12
 70
     1
102
RTVSPropertyOp13
 70
     1
102
RTVSPropertyOp14
 70
     1
102
RTVSPropertyOp15
 70
     1
102
RTVSPropertyOp16
 70
     1
102
RTVSPropertyOp17
 70
     1
102
RTVSPropertyOp18
 70
     1
102
RTVSPropertyOp19
 70
     1
102
RTVSPropertyOp20
 70
     1
102
RTVSPropertyOp21
 70
     1
102
RTVSPropertyOp22
 70
     1
102
RTVSPropertyOp23
 70
     1
102
RTVSPropertyOp24
 70
     1
102
RTVSPropertyOp25
 70
     1
102
RTVSPropertyOp26
 70
     1
102
RTVSPropertyOp27
 70
     1
102
RTVSPropertyOp28
 70
     1
102
RTVSPropertyOp29
 70
     1
102
RTVSPropertyOp30
 70
     1
102
RTVSPropertyOp31
 70
     1
102
RTVSPropertyOp32
 70
     1
  0
XRECORD
  5
85
102
{ACAD_REACTORS
330
84
102
}
330
84
100
AcDbXrecord
280
     1
102
RTVSPropertyOp0
 70
     1
102
RTVSPropertyOp1
 70
     1
102
RTVSPropertyOp2
 70
     1
102
RTVSPropertyOp3
 70
     1
102
RTVSPropertyOp4
 70
     1
102
RTVSPropertyOp5
 70
     1
102
RTVSPropertyOp6
 70
     1
102
RTVSPropertyOp7
 70
     1
102
RTVSPropertyOp8
 70
     1
102
RTVSPropertyOp9
 70
     1
102
RTVSPropertyOp10
 70
     1
102
RTVSPropertyOp11
 70
     1
102
RTVSPropertyOp12
 70
     1
102
RTVSPropertyOp13
 70
     1
102
RTVSPropertyOp14
 70
     1
102
RTVSPropertyOp15
 70
     1
102
RTVSPropertyOp16
 70
     1
102
RTVSPropertyOp17
 70
     1
102
RTVSPropertyOp18
 70
     1
102
RTVSPropertyOp19
 70
     1
102
RTVSPropertyOp20
 70
     1
102
RTVSPropertyOp21
 70
     1
102
RTVSPropertyOp22
 70
     1
102
RTVSPropertyOp23
 70
     1
102
RTVSPropertyOp24
 70
     1
102
RTVSPropertyOp25
 70
     1
102
RTVSPropertyOp26
 70
     1
102
RTVSPropertyOp27
 70
     1
102
RTVSPropertyOp28
 70
     1
102
RTVSPropertyOp29
 70
     1
102
RTVSPropertyOp30
 70
     1
102
RTVSPropertyOp31
 70
     1
102
RTVSPropertyOp32
 70
     1
  0
XRECORD
  5
87
102
{ACAD_REACTORS
330
86
102
}
330
86
100
AcDbXrecord
280
     1
102
RTVSPropertyOp0
 70
     1
102
RTVSPropertyOp1
 70
     1
102
RTVSPropertyOp2
 70
     1
102
RTVSPropertyOp3
 70
     1
102
RTVSPropertyOp4
 70
     1
102
RTVSPropertyOp5
 70
     1
102
RTVSPropertyOp6
 70
     1
102
RTVSPropertyOp7
 70
     1
102
RTVSPropertyOp8
 70
     1
102
RTVSPropertyOp9
 70
     1
102
RTVSPropertyOp10
 70
     1
102
RTVSPropertyOp11
 70
     1
102
RTVSPropertyOp12
 70
     1
102
RTVSPropertyOp13
 70
     1
102
RTVSPropertyOp14
 70
     1
102
RTVSPropertyOp15
 70
     1
102
RTVSPropertyOp16
 70
     1
102
RTVSPropertyOp17
 70
     1
102
RTVSPropertyOp18
 70
     1
102
RTVSPropertyOp19
 70
     1
102
RTVSPropertyOp20
 70
     1
102
RTVSPropertyOp21
 70
     1
102
RTVSPropertyOp22
 70
     1
102
RTVSPropertyOp23
 70
     1
102
RTVSPropertyOp24
 70
     1
102
RTVSPropertyOp25
 70
     1
102
RTVSPropertyOp26
 70
     1
102
RTVSPropertyOp27
 70
     1
102
RTVSPropertyOp28
 70
     1
102
RTVSPropertyOp29
 70
     1
102
RTVSPropertyOp30
 70
     1
102
RTVSPropertyOp31
 70
     1
102
RTVSPropertyOp32
 70
     1
  0
XRECORD
  5
9B
102
{ACAD_REACTORS
330
9A
102
}
330
9A
100
AcDbXrecord
280
     1
102
RTVSPropertyOp0
 70
     1
102
RTVSPropertyOp1
 70
     1
102
RTVSPropertyOp2
 70
     1
102
RTVSPropertyOp3
 70
     1
102
RTVSPropertyOp4
 70
     1
102
RTVSPropertyOp5
 70
     1
102
RTVSPropertyOp6
 70
     1
102
RTVSPropertyOp7
 70
     1
102
RTVSPropertyOp8
 70
     1
102
RTVSPropertyOp9
 70
     1
102
RTVSPropertyOp10
 70
     1
102
RTVSPropertyOp11
 70
     1
102
RTVSPropertyOp12
 70
     1
102
RTVSPropertyOp13
 70
     1
102
RTVSPropertyOp14
 70
     1
102
RTVSPropertyOp15
 70
     1
102
RTVSPropertyOp16
 70
     1
102
RTVSPropertyOp17
 70
     1
102
RTVSPropertyOp18
 70
     1
102
RTVSPropertyOp19
 70
     1
102
RTVSPropertyOp20
 70
     1
102
RTVSPropertyOp21
 70
     1
102
RTVSPropertyOp22
 70
     1
102
RTVSPropertyOp23
 70
     1
102
RTVSPropertyOp24
 70
     1
102
RTVSPropertyOp25
 70
     1
102
RTVSPropertyOp26
 70
     1
102
RTVSPropertyOp27
 70
     1
102
RTVSPropertyOp28
 70
     1
102
RTVSPropertyOp29
 70
     1
102
RTVSPropertyOp30
 70
     1
102
RTVSPropertyOp31
 70
     1
102
RTVSPropertyOp32
 70
     1
  0
XRECORD
  5
91
102
{ACAD_REACTORS
330
90
102
}
330
90
100
AcDbXrecord
280
     1
102
RTVSPropertyOp0
 70
     1
102
RTVSPropertyOp1
 70
     1
102
RTVSPropertyOp2
 70
     1
102
RTVSPropertyOp3
 70
     1
102
RTVSPropertyOp4
 70
     1
102
RTVSPropertyOp5
 70
     1
102
RTVSPropertyOp6
 70
     1
102
RTVSPropertyOp7
 70
     1
102
RTVSPropertyOp8
 70
     1
102
RTVSPropertyOp9
 70
     1
102
RTVSPropertyOp10
 70
     1
102
RTVSPropertyOp11
 70
     1
102
RTVSPropertyOp12
 70
     1
102
RTVSPropertyOp13
 70
     1
102
RTVSPropertyOp14
 70
     1
102
RTVSPropertyOp15
 70
     1
102
RTVSPropertyOp16
 70
     1
102
RTVSPropertyOp17
 70
     1
102
RTVSPropertyOp18
 70
     1
102
RTVSPropertyOp19
 70
     1
102
RTVSPropertyOp20
 70
     1
102
RTVSPropertyOp21
 70
     1
102
RTVSPropertyOp22
 70
     1
102
RTVSPropertyOp23
 70
     1
102
RTVSPropertyOp24
 70
     1
102
RTVSPropertyOp25
 70
     1
102
RTVSPropertyOp26
 70
     1
102
RTVSPropertyOp27
 70
     1
102
RTVSPropertyOp28
 70
     1
102
RTVSPropertyOp29
 70
     1
102
RTVSPropertyOp30
 70
     1
102
RTVSPropertyOp31
 70
     1
102
RTVSPropertyOp32
 70
     1
  0
XRECORD
  5
99
102
{ACAD_REACTORS
330
98
102
}
330
98
100
AcDbXrecord
280
     1
102
RTVSPropertyOp0
 70
     1
102
RTVSPropertyOp1
 70
     1
102
RTVSPropertyOp2
 70
     1
102
RTVSPropertyOp3
 70
     1
102
RTVSPropertyOp4
 70
     1
102
RTVSPropertyOp5
 70
     1
102
RTVSPropertyOp6
 70
     1
102
RTVSPropertyOp7
 70
     1
102
RTVSPropertyOp8
 70
     1
102
RTVSPropertyOp9
 70
     1
102
RTVSPropertyOp10
 70
     1
102
RTVSPropertyOp11
 70
     1
102
RTVSPropertyOp12
 70
     1
102
RTVSPropertyOp13
 70
     1
102
RTVSPropertyOp14
 70
     1
102
RTVSPropertyOp15
 70
     1
102
RTVSPropertyOp16
 70
     1
102
RTVSPropertyOp17
 70
     1
102
RTVSPropertyOp18
 70
     1
102
RTVSPropertyOp19
 70
     1
102
RTVSPropertyOp20
 70
     1
102
RTVSPropertyOp21
 70
     1
102
RTVSPropertyOp22
 70
     1
102
RTVSPropertyOp23
 70
     1
102
RTVSPropertyOp24
 70
     1
102
RTVSPropertyOp25
 70
     1
102
RTVSPropertyOp26
 70
     1
102
RTVSPropertyOp27
 70
     1
102
RTVSPropertyOp28
 70
     1
102
RTVSPropertyOp29
 70
     1
102
RTVSPropertyOp30
 70
     1
102
RTVSPropertyOp31
 70
     1
102
RTVSPropertyOp32
 70
     1
  0
ENDSEC
  0
EOF
