  0
SECTION
  2
HEADER
  9
$ACADVER
  1
AC1021
  9
$ACADMAINTVER
 70
    25
  9
$DWGCODEPAGE
  3
ANSI_1252
  9
$INSBASE
 10
0.0
 20
0.0
 30
0.0
  9
$EXTMIN
 10
-11.97869
 20
-8.07146
 30
0.0
  9
$EXTMAX
 10
12.91771
 20
6.70847
 30
0.0
  9
$LIMMIN
 10
0.0
 20
0.0
  9
$LIMMAX
 10
12.0
 20
9.0
  9
$ORTHOMODE
 70
     0
  9
$REGENMODE
 70
     1
  9
$FILLMODE
 70
     1
  9
$QTEXTMODE
 70
     0
  9
$MIRRTEXT
 70
     1
  9
$LTSCALE
 40
1.0
  9
$ATTMODE
 70
     1
  9
$TEXTSIZE
 40
0.2
  9
$TRACEWID
 40
0.05
  9
$TEXTSTYLE
  7
Standard
  9
$CLAYER
  8
0
  9
$CELTYPE
  6
ByLayer
  9
$CECOLOR
 62
   256
  9
$CELTSCALE
 40
1.0
  9
$DISPSILH
 70
     0
  9
$DIMSCALE
 40
1.0
  9
$DIMASZ
 40
0.18
  9
$DIMEXO
 40
0.0625
  9
$DIMDLI
 40
0.38
  9
$DIMRND
 40
0.0
  9
$DIMDLE
 40
0.0
  9
$DIMEXE
 40
0.18
  9
$DIMTP
 40
0.0
  9
$DIMTM
 40
0.0
  9
$DIMTXT
 40
0.18
  9
$DIMCEN
 40
0.09
  9
$DIMTSZ
 40
0.0
  9
$DIMTOL
 70
     0
  9
$DIMLIM
 70
     0
  9
$DIMTIH
 70
     1
  9
$DIMTOH
 70
     1
  9
$DIMSE1
 70
     0
  9
$DIMSE2
 70
     0
  9
$DIMTAD
 70
     0
  9
$DIMZIN
 70
     0
  9
$DIMBLK
  1

  9
$DIMASO
 70
     1
  9
$DIMSHO
 70
     1
  9
$DIMPOST
  1

  9
$DIMAPOST
  1

  9
$DIMALT
 70
     0
  9
$DIMALTD
 70
     2
  9
$DIMALTF
 40
25.4
  9
$DIMLFAC
 40
1.0
  9
$DIMTOFL
 70
     0
  9
$DIMTVP
 40
0.0
  9
$DIMTIX
 70
     0
  9
$DIMSOXD
 70
     0
  9
$DIMSAH
 70
     0
  9
$DIMBLK1
  1

  9
$DIMBLK2
  1

  9
$DIMSTYLE
  2
Standard
  9
$DIMCLRD
 70
     0
  9
$DIMCLRE
 70
     0
  9
$DIMCLRT
 70
     0
  9
$DIMTFAC
 40
1.0
  9
$DIMGAP
 40
0.09
  9
$DIMJUST
 70
     0
  9
$DIMSD1
 70
     0
  9
$DIMSD2
 70
     0
  9
$DIMTOLJ
 70
     1
  9
$DIMTZIN
 70
     0
  9
$DIMALTZ
 70
     0
  9
$DIMALTTZ
 70
     0
  9
$DIMUPT
 70
     0
  9
$DIMDEC
 70
     4
  9
$DIMTDEC
 70
     4
  9
$DIMALTU
 70
     2
  9
$DIMALTTD
 70
     2
  9
$DIMTXSTY
  7
Standard
  9
$DIMAUNIT
 70
     0
  9
$DIMADEC
 70
     0
  9
$DIMALTRND
 40
0.0
  9
$DIMAZIN
 70
     0
  9
$DIMDSEP
 70
    46
  9
$DIMATFIT
 70
     3
  9
$DIMFRAC
 70
     0
  9
$DIMLDRBLK
  1

  9
$DIMLUNIT
 70
     2
  9
$DIMLWD
 70
    -2
  9
$DIMLWE
 70
    -2
  9
$DIMTMOVE
 70
     0
  9
$DIMFXL
 40
1.0
  9
$DIMFXLON
 70
     0
  9
$DIMJOGANG
 40
0.7853981633974483
  9
$DIMTFILL
 70
     0
  9
$DIMTFILLCLR
 70
     0
  9
$DIMARCSYM
 70
     0
  9
$DIMLTYPE
  6

  9
$DIMLTEX1
  6

  9
$DIMLTEX2
  6

  9
$LUNITS
 70
     2
  9
$LUPREC
 70
     4
  9
$SKETCHINC
 40
0.1
  9
$FILLETRAD
 40
0.5
  9
$AUNITS
 70
     0
  9
$AUPREC
 70
     0
  9
$MENU
  1
.
  9
$ELEVATION
 40
0.0
  9
$PELEVATION
 40
0.0
  9
$THICKNESS
 40
0.0
  9
$LIMCHECK
 70
     0
  9
$CHAMFERA
 40
0.5
  9
$CHAMFERB
 40
0.5
  9
$CHAMFERC
 40
1.0
  9
$CHAMFERD
 40
0.0
  9
$SKPOLY
 70
     0
  9
$TDCREATE
 40
2456231.952584815
  9
$TDUCREATE
 40
2456232.119251481
  9
$TDUPDATE
 40
2456231.95258485
  9
$TDUUPDATE
 40
2456232.119251516
  9
$TDINDWG
 40
0.0000000116
  9
$TDUSRTIMER
 40
0.0000000116
  9
$USRTIMER
 70
     1
  9
$ANGBASE
 50
0.0
  9
$ANGDIR
 70
     0
  9
$PDMODE
 70
     0
  9
$PDSIZE
 40
0.0
  9
$PLINEWID
 40
0.0
  9
$SPLFRAME
 70
     0
  9
$SPLINETYPE
 70
     6
  9
$SPLINESEGS
 70
     8
  9
$HANDSEED
  5
A1
  9
$SURFTAB1
 70
     6
  9
$SURFTAB2
 70
     6
  9
$SURFTYPE
 70
     6
  9
$SURFU
 70
     6
  9
$SURFV
 70
     6
  9
$UCSBASE
  2

  9
$UCSNAME
  2

  9
$UCSORG
 10
0.0
 20
0.0
 30
0.0
  9
$UCSXDIR
 10
1.0
 20
0.0
 30
0.0
  9
$UCSYDIR
 10
0.0
 20
1.0
 30
0.0
  9
$UCSORTHOREF
  2

  9
$UCSORTHOVIEW
 70
     0
  9
$UCSORGTOP
 10
0.0
 20
0.0
 30
0.0
  9
$UCSORGBOTTOM
 10
0.0
 20
0.0
 30
0.0
  9
$UCSORGLEFT
 10
0.0
 20
0.0
 30
0.0
  9
$UCSORGRIGHT
 10
0.0
 20
0.0
 30
0.0
  9
$UCSORGFRONT
 10
0.0
 20
0.0
 30
0.0
  9
$UCSORGBACK
 10
0.0
 20
0.0
 30
0.0
  9
$PUCSBASE
  2

  9
$PUCSNAME
  2

  9
$PUCSORG
 10
0.0
 20
0.0
 30
0.0
  9
$PUCSXDIR
 10
1.0
 20
0.0
 30
0.0
  9
$PUCSYDIR
 10
0.0
 20
1.0
 30
0.0
  9
$PUCSORTHOREF
  2

  9
$PUCSORTHOVIEW
 70
     0
  9
$PUCSORGTOP
 10
0.0
 20
0.0
 30
0.0
  9
$PUCSORGBOTTOM
 10
0.0
 20
0.0
 30
0.0
  9
$PUCSORGLEFT
 10
0.0
 20
0.0
 30
0.0
  9
$PUCSORGRIGHT
 10
0.0
 20
0.0
 30
0.0
  9
$PUCSORGFRONT
 10
0.0
 20
0.0
 30
0.0
  9
$PUCSORGBACK
 10
0.0
 20
0.0
 30
0.0
  9
$USERI1
 70
     0
  9
$USERI2
 70
     0
  9
$USERI3
 70
     0
  9
$USERI4
 70
     0
  9
$USERI5
 70
     0
  9
$USERR1
 40
0.0
  9
$USERR2
 40
0.0
  9
$USERR3
 40
0.0
  9
$USERR4
 40
0.0
  9
$USERR5
 40
0.0
  9
$WORLDVIEW
 70
     1
  9
$SHADEDGE
 70
     3
  9
$SHADEDIF
 70
    70
  9
$TILEMODE
 70
     1
  9
$MAXACTVP
 70
    64
  9
$PINSBASE
 10
0.0
 20
0.0
 30
0.0
  9
$PLIMCHECK
 70
     0
  9
$PEXTMIN
 10
1.000000000000000E+20
 20
1.000000000000000E+20
 30
1.000000000000000E+20
  9
$PEXTMAX
 10
-1.000000000000000E+20
 20
-1.000000000000000E+20
 30
-1.000000000000000E+20
  9
$PLIMMIN
 10
0.0
 20
0.0
  9
$PLIMMAX
 10
12.0
 20
9.0
  9
$UNITMODE
 70
     0
  9
$VISRETAIN
 70
     1
  9
$PLINEGEN
 70
     0
  9
$PSLTSCALE
 70
     1
  9
$TREEDEPTH
 70
  3020
  9
$CMLSTYLE
  2
Standard
  9
$CMLJUST
 70
     0
  9
$CMLSCALE
 40
1.0
  9
$PROXYGRAPHICS
 70
     1
  9
$MEASUREMENT
 70
     0
  9
$CELWEIGHT
370
    -1
  9
$ENDCAPS
280
     0
  9
$JOINSTYLE
280
     0
  9
$LWDISPLAY
290
     0
  9
$INSUNITS
 70
     5
  9
$HYPERLINKBASE
  1

  9
$STYLESHEET
  1

  9
$XEDIT
290
     1
  9
$CEPSNTYPE
380
     0
  9
$PSTYLEMODE
290
     1
  9
$FINGERPRINTGUID
  2
{914C712C-24C9-4828-A7E5-B9F4A60579EF}
  9
$VERSIONGUID
  2
{FAEB1C32-E019-11D5-929B-00C0DF256EC4}
  9
$EXTNAMES
290
     1
  9
$PSVPSCALE
 40
0.0
  9
$OLESTARTUP
290
     0
  9
$SORTENTS
280
   127
  9
$INDEXCTL
280
     0
  9
$HIDETEXT
280
     1
  9
$XCLIPFRAME
290
     0
  9
$HALOGAP
280
     0
  9
$OBSCOLOR
 70
   257
  9
$OBSLTYPE
280
     0
  9
$INTERSECTIONDISPLAY
280
     0
  9
$INTERSECTIONCOLOR
 70
   257
  9
$DIMASSOC
280
     2
  9
$PROJECTNAME
  1

  9
$CAMERADISPLAY
290
     0
  9
$LENSLENGTH
 40
50.0
  9
$CAMERAHEIGHT
 40
0.0
  9
$STEPSPERSEC
 40
2.0
  9
$STEPSIZE
 40
6.0
  9
$3DDWFPREC
 40
2.0
  9
$PSOLWIDTH
 40
0.25
  9
$PSOLHEIGHT
 40
4.0
  9
$LOFTANG1
 40
1.570796326794897
  9
$LOFTANG2
 40
1.570796326794897
  9
$LOFTMAG1
 40
0.0
  9
$LOFTMAG2
 40
0.0
  9
$LOFTPARAM
 70
     7
  9
$LOFTNORMALS
280
     1
  9
$LATITUDE
 40
37.795
  9
$LONGITUDE
 40
-122.394
  9
$NORTHDIRECTION
 40
0.0
  9
$TIMEZONE
 70
 -8000
  9
$LIGHTGLYPHDISPLAY
280
     1
  9
$TILEMODELIGHTSYNCH
280
     1
  9
$SOLIDHIST
280
     1
  9
$SHOWHIST
280
     1
  9
$DWFFRAME
280
     2
  9
$DGNFRAME
280
     2
  9
$REALWORLDSCALE
290
     1
  9
$INTERFERECOLOR
 62
   256
  9
$CSHADOW
280
     0
  9
$SHADOWPLANELOCATION
 40
0.0
  0
ENDSEC
  0
SECTION
  2
CLASSES
  0
CLASS
  1
ACDBDICTIONARYWDFLT
  2
AcDbDictionaryWithDefault
  3
ObjectDBX Classes
 90
        0
 91
        4
280
     0
281
     0
  0
CLASS
  1
VISUALSTYLE
  2
AcDbVisualStyle
  3
ObjectDBX Classes
 90
     4095
 91
        4
280
     0
281
     0
  0
CLASS
  1
MATERIAL
  2
AcDbMaterial
  3
ObjectDBX Classes
 90
     1153
 91
        4
280
     0
281
     0
  0
ENDSEC
  0
SECTION
  2
TABLES
  0
TABLE
  2
VPORT
  5
8
330
0
100
AcDbSymbolTable
 70
     1
  0
VPORT
  5
29
330
8
100
AcDbSymbolTableRecord
100
AcDbViewportTableRecord
  2
*Active
 70
     0
 10
0.0
 20
0.0
 11
1.0
 21
1.0
 12
10.42990654205607
 22
4.5
 13
0.0
 23
0.0
 14
0.5
 24
0.5
 15
0.5
 25
0.5
 16
0.0
 26
0.0
 36
1.0
 17
0.0
 27
0.0
 37
0.0
 40
9.0
 41
1.972972972850329
 42
50.0
 43
0.0
 44
0.0
 50
0.0
 51
0.0
 71
     0
 72
   100
 73
     1
 74
     3
 75
     0
 76
     0
 77
     0
 78
     0
281
     0
 65
     1
110
0.0
120
0.0
130
0.0
111
1.0
121
0.0
131
0.0
112
0.0
122
1.0
132
0.0
 79
     0
146
0.0
 60
     3
 61
     5
292
     1
282
     1
141
0.0
142
0.0
 63
   250
  0
ENDTAB
  0
TABLE
  2
LTYPE
  5
5
330
0
100
AcDbSymbolTable
 70
     1
  0
LTYPE
  5
14
330
5
100
AcDbSymbolTableRecord
100
AcDbLinetypeTableRecord
  2
ByBlock
 70
     0
  3

 72
    65
 73
     0
 40
0.0
  0
LTYPE
  5
15
330
5
100
AcDbSymbolTableRecord
100
AcDbLinetypeTableRecord
  2
ByLayer
 70
     0
  3

 72
    65
 73
     0
 40
0.0
  0
LTYPE
  5
16
330
5
100
AcDbSymbolTableRecord
100
AcDbLinetypeTableRecord
  2
Continuous
 70
     0
  3
Solid line
 72
    65
 73
     0
 40
0.0
  0
ENDTAB
  0
TABLE
  2
LAYER
  5
2
330
0
100
AcDbSymbolTable
 70
     3
  0
LAYER
  5
10
330
2
100
AcDbSymbolTableRecord
100
AcDbLayerTableRecord
  2
0
 70
     0
 62
     7
  6
Continuous
370
    -3
390
F
347
3E
  0
LAYER
  5
40
330
2
100
AcDbSymbolTableRecord
100
AcDbLayerTableRecord
  2
Layer 1
 70
     0
 62
     7
  6
Continuous
370
    -3
390
F
347
3E
  0
LAYER
  5
55
330
2
100
AcDbSymbolTableRecord
100
AcDbLayerTableRecord
  2
layer 2
 70
     0
 62
     7
  6
Continuous
370
    -3
390
F
347
3E
  0
ENDTAB
  0
TABLE
  2
STYLE
  5
3
330
0
100
AcDbSymbolTable
 70
     1
  0
STYLE
  5
11
330
3
100
AcDbSymbolTableRecord
100
AcDbTextStyleTableRecord
  2
Standard
 70
     0
 40
0.0
 41
1.0
 50
0.0
 71
     0
 42
0.2
  3
txt
  4

  0
ENDTAB
  0
TABLE
  2
VIEW
  5
6
330
0
100
AcDbSymbolTable
 70
     0
  0
ENDTAB
  0
TABLE
  2
UCS
  5
7
330
0
100
AcDbSymbolTable
 70
     0
  0
ENDTAB
  0
TABLE
  2
APPID
  5
9
330
0
100
AcDbSymbolTable
 70
     2
  0
APPID
  5
12
330
9
100
AcDbSymbolTableRecord
100
AcDbRegAppTableRecord
  2
ACAD
 70
     0
  0
APPID
  5
3F
330
9
100
AcDbSymbolTableRecord
100
AcDbRegAppTableRecord
  2
ODA
 70
     0
  0
ENDTAB
  0
TABLE
  2
DIMSTYLE
  5
A
330
0
100
AcDbSymbolTable
 70
     1
100
AcDbDimStyleTable
  0
DIMSTYLE
105
27
330
A
100
AcDbSymbolTableRecord
100
AcDbDimStyleTableRecord
  2
Standard
 70
     0
178
     0
340
11
  0
ENDTAB
  0
TABLE
  2
BLOCK_RECORD
  5
1
330
0
100
AcDbSymbolTable
 70
     1
  0
BLOCK_RECORD
  5
1F
330
1
100
AcDbSymbolTableRecord
100
AcDbBlockTableRecord
  2
*Model_Space
340
22
 70
     0
280
     1
281
     0
  0
BLOCK_RECORD
  5
1B
330
1
100
AcDbSymbolTableRecord
100
AcDbBlockTableRecord
  2
*Paper_Space
340
1E
 70
     0
280
     1
281
     0
  0
BLOCK_RECORD
  5
23
330
1
100
AcDbSymbolTableRecord
100
AcDbBlockTableRecord
  2
*Paper_Space0
340
26
 70
     0
280
     1
281
     0
  0
ENDTAB
  0
ENDSEC
  0
SECTION
  2
BLOCKS
  0
BLOCK
  5
20
330
1F
100
AcDbEntity
  8
0
100
AcDbBlockBegin
  2
*Model_Space
 70
     0
 10
0.0
 20
0.0
 30
0.0
  3
*Model_Space
  1

  0
ENDBLK
  5
21
330
1F
100
AcDbEntity
  8
0
100
AcDbBlockEnd
  0
BLOCK
  5
1C
330
1B
100
AcDbEntity
 67
     1
  8
0
100
AcDbBlockBegin
  2
*Paper_Space
 70
     0
 10
0.0
 20
0.0
 30
0.0
  3
*Paper_Space
  1

  0
ENDBLK
  5
1D
330
1B
100
AcDbEntity
 67
     1
  8
0
100
AcDbBlockEnd
  0
BLOCK
  5
24
330
23
100
AcDbEntity
  8
0
100
AcDbBlockBegin
  2
*Paper_Space0
 70
     0
 10
0.0
 20
0.0
 30
0.0
  3
*Paper_Space0
  1

  0
ENDBLK
  5
25
330
23
100
AcDbEntity
  8
0
100
AcDbBlockEnd
  0
ENDSEC
  0
SECTION
  2
ENTITIES
  0
SPLINE
  5
41
330
1F
100
AcDbEntity
  8
Layer 1
 62
   250
100
AcDbSpline
210
0.0
220
0.0
230
1.0
 70
    11
 71
     3
 72
    92
 73
    88
 74
     0
 42
0.0000000001
 43
0.0000000001
 12
1.0
 22
0.0
 32
0.0
 13
1.0
 23
0.0
 33
0.0
 40
0.0
 40
0.0
 40
0.0
 40
0.0
 40
0.0434782608695652
 40
0.0434782608695652
 40
0.0434782608695652
 40
0.0434782608695652
 40
0.0869565217391304
 40
0.0869565217391304
 40
0.0869565217391304
 40
0.0869565217391304
 40
0.1304347826086956
 40
0.1304347826086956
 40
0.1304347826086956
 40
0.1304347826086956
 40
0.1739130434782609
 40
0.1739130434782609
 40
0.1739130434782609
 40
0.1739130434782609
 40
0.2173913043478261
 40
0.2173913043478261
 40
0.2173913043478261
 40
0.2173913043478261
 40
0.2608695652173913
 40
0.2608695652173913
 40
0.2608695652173913
 40
0.2608695652173913
 40
0.3043478260869565
 40
0.3043478260869565
 40
0.3043478260869565
 40
0.3043478260869565
 40
0.3478260869565217
 40
0.3478260869565217
 40
0.3478260869565217
 40
0.3478260869565217
 40
0.391304347826087
 40
0.391304347826087
 40
0.391304347826087
 40
0.391304347826087
 40
0.4347826086956522
 40
0.4347826086956522
 40
0.4347826086956522
 40
0.4347826086956522
 40
0.4782608695652174
 40
0.4782608695652174
 40
0.4782608695652174
 40
0.4782608695652174
 40
0.5217391304347826
 40
0.5217391304347826
 40
0.5217391304347826
 40
0.5217391304347826
 40
0.5652173913043478
 40
0.5652173913043478
 40
0.5652173913043478
 40
0.5652173913043478
 40
0.6086956521739131
 40
0.6086956521739131
 40
0.6086956521739131
 40
0.6086956521739131
 40
0.6521739130434783
 40
0.6521739130434783
 40
0.6521739130434783
 40
0.6521739130434783
 40
0.6956521739130435
 40
0.6956521739130435
 40
0.6956521739130435
 40
0.6956521739130435
 40
0.7391304347826086
 40
0.7391304347826086
 40
0.7391304347826086
 40
0.7391304347826086
 40
0.782608695652174
 40
0.782608695652174
 40
0.782608695652174
 40
0.782608695652174
 40
0.8260869565217391
 40
0.8260869565217391
 40
0.8260869565217391
 40
0.8260869565217391
 40
0.8695652173913043
 40
0.8695652173913043
 40
0.8695652173913043
 40
0.8695652173913043
 40
0.9130434782608695
 40
0.9130434782608695
 40
0.9130434782608695
 40
0.9130434782608695
 40
1.0
 40
1.0
 40
1.0
 40
1.0
 10
-3.13802
 20
-7.99018
 30
0.0
 10
-3.13802
 20
-7.99018
 30
0.0
 10
-3.13802
 20
-8.0613
 30
0.0
 10
-3.13802
 20
-8.0613
 30
0.0
 10
-3.13802
 20
-8.0613
 30
0.0
 10
-3.13802
 20
-8.0613
 30
0.0
 10
-3.53935
 20
-8.0613
 30
0.0
 10
-3.53935
 20
-8.0613
 30
0.0
 10
-3.53935
 20
-8.0613
 30
0.0
 10
-3.53991
 20
-8.04338
 30
0.0
 10
-3.53695
 20
-8.02616
 30
0.0
 10
-3.5306
 20
-8.00951
 30
0.0
 10
-3.5306
 20
-8.00951
 30
0.0
 10
-3.5203
 20
-7.98228
 30
0.0
 10
-3.50379
 20
-7.95533
 30
0.0
 10
-3.48107
 20
-7.92894
 30
0.0
 10
-3.48107
 20
-7.92894
 30
0.0
 10
-3.45835
 20
-7.90255
 30
0.0
 10
-3.42589
 20
-7.87207
 30
0.0
 10
-3.3837
 20
-7.8375
 30
0.0
 10
-3.3837
 20
-7.8375
 30
0.0
 10
-3.31808
 20
-7.78345
 30
0.0
 10
-3.27349
 20
-7.74069
 30
0.0
 10
-3.25021
 20
-7.70909
 30
0.0
 10
-3.25021
 20
-7.70909
 30
0.0
 10
-3.22678
 20
-7.67748
 30
0.0
 10
-3.21507
 20
-7.64756
 30
0.0
 10
-3.21507
 20
-7.61934
 30
0.0
 10
-3.21507
 20
-7.61934
 30
0.0
 10
-3.21507
 20
-7.58985
 30
0.0
 10
-3.22566
 20
-7.56501
 30
0.0
 10
-3.24682
 20
-7.54469
 30
0.0
 10
-3.24682
 20
-7.54469
 30
0.0
 10
-3.26799
 20
-7.52451
 30
0.0
 10
-3.29565
 20
-7.51435
 30
0.0
 10
-3.32965
 20
-7.51435
 30
0.0
 10
-3.32965
 20
-7.51435
 30
0.0
 10
-3.36564
 20
-7.51435
 30
0.0
 10
-3.39442
 20
-7.52508
 30
0.0
 10
-3.41601
 20
-7.54652
 30
0.0
 10
-3.41601
 20
-7.54652
 30
0.0
 10
-3.43761
 20
-7.56783
 30
0.0
 10
-3.44847
 20
-7.59747
 30
0.0
 10
-3.44875
 20
-7.63542
 30
0.0
 10
-3.44875
 20
-7.63542
 30
0.0
 10
-3.44875
 20
-7.63542
 30
0.0
 10
-3.52495
 20
-7.6278
 30
0.0
 10
-3.52495
 20
-7.6278
 30
0.0
 10
-3.52495
 20
-7.6278
 30
0.0
 10
-3.51973
 20
-7.5708
 30
0.0
 10
-3.49998
 20
-7.52733
 30
0.0
 10
-3.46583
 20
-7.49742
 30
0.0
 10
-3.46583
 20
-7.49742
 30
0.0
 10
-3.43154
 20
-7.4675
 30
0.0
 10
-3.38568
 20
-7.45254
 30
0.0
 10
-3.32796
 20
-7.45254
 30
0.0
 10
-3.32796
 20
-7.45254
 30
0.0
 10
-3.26982
 20
-7.45254
 30
0.0
 10
-3.22368
 20
-7.46863
 30
0.0
 10
-3.18981
 20
-7.50095
 30
0.0
 10
-3.18981
 20
-7.50095
 30
0.0
 10
-3.15581
 20
-7.53326
 30
0.0
 10
-3.13887
 20
-7.57334
 30
0.0
 10
-3.13887
 20
-7.62103
 30
0.0
 10
-3.13887
 20
-7.62103
 30
0.0
 10
-3.13887
 20
-7.6453
 30
0.0
 10
-3.14381
 20
-7.66915
 30
0.0
 10
-3.15383
 20
-7.69258
 30
0.0
 10
-3.15383
 20
-7.69258
 30
0.0
 10
-3.16371
 20
-7.71614
 30
0.0
 10
-3.18022
 20
-7.74084
 30
0.0
 10
-3.20322
 20
-7.7668
 30
0.0
 10
-3.20322
 20
-7.7668
 30
0.0
 10
-3.22636
 20
-7.79262
 30
0.0
 10
-3.2646
 20
-7.82832
 30
0.0
 10
-3.31794
 20
-7.87348
 30
0.0
 10
-3.31794
 20
-7.87348
 30
0.0
 10
-3.36267
 20
-7.91102
 30
0.0
 10
-3.39146
 20
-7.93642
 30
0.0
 10
-3.40416
 20
-7.94982
 30
0.0
 10
-3.40416
 20
-7.94982
 30
0.0
 10
-3.41686
 20
-7.96323
 30
0.0
 10
-3.4273
 20
-7.97663
 30
0.0
 10
-3.43563
 20
-7.99018
 30
0.0
 10
-3.43563
 20
-7.99018
 30
0.0
 10
-3.43563
 20
-7.99018
 30
0.0
 10
-3.13802
 20
-7.99018
 30
0.0
 10
-3.13802
 20
-7.99018
 30
0.0
  0
SPLINE
  5
42
330
1F
100
AcDbEntity
  8
Layer 1
 62
   250
100
AcDbSpline
210
0.0
220
0.0
230
1.0
 70
    11
 71
     3
 72
    52
 73
    48
 74
     0
 42
0.0000000001
 43
0.0000000001
 12
1.0
 22
0.0
 32
0.0
 13
1.0
 23
0.0
 33
0.0
 40
0.0
 40
0.0
 40
0.0
 40
0.0
 40
0.0769230769230769
 40
0.0769230769230769
 40
0.0769230769230769
 40
0.0769230769230769
 40
0.1538461538461539
 40
0.1538461538461539
 40
0.1538461538461539
 40
0.1538461538461539
 40
0.2307692307692308
 40
0.2307692307692308
 40
0.2307692307692308
 40
0.2307692307692308
 40
0.3076923076923077
 40
0.3076923076923077
 40
0.3076923076923077
 40
0.3076923076923077
 40
0.3846153846153846
 40
0.3846153846153846
 40
0.3846153846153846
 40
0.3846153846153846
 40
0.4615384615384616
 40
0.4615384615384616
 40
0.4615384615384616
 40
0.4615384615384616
 40
0.5384615384615384
 40
0.5384615384615384
 40
0.5384615384615384
 40
0.5384615384615384
 40
0.6153846153846154
 40
0.6153846153846154
 40
0.6153846153846154
 40
0.6153846153846154
 40
0.6923076923076923
 40
0.6923076923076923
 40
0.6923076923076923
 40
0.6923076923076923
 40
0.7692307692307693
 40
0.7692307692307693
 40
0.7692307692307693
 40
0.7692307692307693
 40
0.8461538461538461
 40
0.8461538461538461
 40
0.8461538461538461
 40
0.8461538461538461
 40
1.0
 40
1.0
 40
1.0
 40
1.0
 10
-3.05745
 20
-7.76214
 30
0.0
 10
-3.05745
 20
-7.6906
 30
0.0
 10
-3.05011
 20
-7.63274
 30
0.0
 10
-3.03544
 20
-7.589
 30
0.0
 10
-3.03544
 20
-7.589
 30
0.0
 10
-3.02062
 20
-7.54511
 30
0.0
 10
-2.99875
 20
-7.51139
 30
0.0
 10
-2.96968
 20
-7.48782
 30
0.0
 10
-2.96968
 20
-7.48782
 30
0.0
 10
-2.94075
 20
-7.46426
 30
0.0
 10
-2.9042
 20
-7.45254
 30
0.0
 10
-2.86018
 20
-7.45254
 30
0.0
 10
-2.86018
 20
-7.45254
 30
0.0
 10
-2.82772
 20
-7.45254
 30
0.0
 10
-2.79922
 20
-7.45904
 30
0.0
 10
-2.77452
 20
-7.47216
 30
0.0
 10
-2.77452
 20
-7.47216
 30
0.0
 10
-2.74997
 20
-7.48528
 30
0.0
 10
-2.72965
 20
-7.50419
 30
0.0
 10
-2.71384
 20
-7.52889
 30
0.0
 10
-2.71384
 20
-7.52889
 30
0.0
 10
-2.69804
 20
-7.55344
 30
0.0
 10
-2.68562
 20
-7.5835
 30
0.0
 10
-2.67659
 20
-7.61891
 30
0.0
 10
-2.67659
 20
-7.61891
 30
0.0
 10
-2.66742
 20
-7.65433
 30
0.0
 10
-2.6629
 20
-7.70217
 30
0.0
 10
-2.6629
 20
-7.76214
 30
0.0
 10
-2.6629
 20
-7.76214
 30
0.0
 10
-2.6629
 20
-7.83326
 30
0.0
 10
-2.67024
 20
-7.89084
 30
0.0
 10
-2.68477
 20
-7.93458
 30
0.0
 10
-2.68477
 20
-7.93458
 30
0.0
 10
-2.69931
 20
-7.97847
 30
0.0
 10
-2.72118
 20
-8.01219
 30
0.0
 10
-2.75025
 20
-8.0359
 30
0.0
 10
-2.75025
 20
-8.0359
 30
0.0
 10
-2.77918
 20
-8.05961
 30
0.0
 10
-2.81587
 20
-8.07146
 30
0.0
 10
-2.86018
 20
-8.07146
 30
0.0
 10
-2.86018
 20
-8.07146
 30
0.0
 10
-2.91845
 20
-8.07146
 30
0.0
 10
-2.96432
 20
-8.05072
 30
0.0
 10
-2.99762
 20
-8.00909
 30
0.0
 10
-2.99762
 20
-8.00909
 30
0.0
 10
-3.03755
 20
-7.95829
 30
0.0
 10
-3.05745
 20
-7.87602
 30
0.0
 10
-3.05745
 20
-7.76214
 30
0.0
  0
SPLINE
  5
43
330
1F
100
AcDbEntity
  8
Layer 1
 62
   250
100
AcDbSpline
210
0.0
220
0.0
230
1.0
 70
    11
 71
     3
 72
    36
 73
    32
 74
     0
 42
0.0000000001
 43
0.0000000001
 12
1.0
 22
0.0
 32
0.0
 13
1.0
 23
0.0
 33
0.0
 40
0.0
 40
0.0
 40
0.0
 40
0.0
 40
0.1111111111111111
 40
0.1111111111111111
 40
0.1111111111111111
 40
0.1111111111111111
 40
0.2222222222222222
 40
0.2222222222222222
 40
0.2222222222222222
 40
0.2222222222222222
 40
0.3333333333333333
 40
0.3333333333333333
 40
0.3333333333333333
 40
0.3333333333333333
 40
0.4444444444444444
 40
0.4444444444444444
 40
0.4444444444444444
 40
0.4444444444444444
 40
0.5555555555555556
 40
0.5555555555555556
 40
0.5555555555555556
 40
0.5555555555555556
 40
0.6666666666666666
 40
0.6666666666666666
 40
0.6666666666666666
 40
0.6666666666666666
 40
0.7777777777777778
 40
0.7777777777777778
 40
0.7777777777777778
 40
0.7777777777777778
 40
1.0
 40
1.0
 40
1.0
 40
1.0
 10
-2.98125
 20
-7.76243
 30
0.0
 10
-2.98125
 20
-7.86219
 30
0.0
 10
-2.96968
 20
-7.92851
 30
0.0
 10
-2.94639
 20
-7.96125
 30
0.0
 10
-2.94639
 20
-7.96125
 30
0.0
 10
-2.92311
 20
-7.99413
 30
0.0
 10
-2.89432
 20
-8.0105
 30
0.0
 10
-2.86018
 20
-8.0105
 30
0.0
 10
-2.86018
 20
-8.0105
 30
0.0
 10
-2.82603
 20
-8.0105
 30
0.0
 10
-2.79724
 20
-7.99399
 30
0.0
 10
-2.77396
 20
-7.96111
 30
0.0
 10
-2.77396
 20
-7.96111
 30
0.0
 10
-2.75067
 20
-7.92809
 30
0.0
 10
-2.7391
 20
-7.86191
 30
0.0
 10
-2.7391
 20
-7.76243
 30
0.0
 10
-2.7391
 20
-7.76243
 30
0.0
 10
-2.7391
 20
-7.66266
 30
0.0
 10
-2.75067
 20
-7.59634
 30
0.0
 10
-2.77396
 20
-7.5636
 30
0.0
 10
-2.77396
 20
-7.5636
 30
0.0
 10
-2.7971
 20
-7.53072
 30
0.0
 10
-2.82617
 20
-7.51435
 30
0.0
 10
-2.86102
 20
-7.51435
 30
0.0
 10
-2.86102
 20
-7.51435
 30
0.0
 10
-2.89517
 20
-7.51435
 30
0.0
 10
-2.92255
 20
-7.52889
 30
0.0
 10
-2.94301
 20
-7.55781
 30
0.0
 10
-2.94301
 20
-7.55781
 30
0.0
 10
-2.96855
 20
-7.59464
 30
0.0
 10
-2.98125
 20
-7.66294
 30
0.0
 10
-2.98125
 20
-7.76243
 30
0.0
  0
SPLINE
  5
44
330
1F
100
AcDbEntity
  8
Layer 1
 62
   250
100
AcDbSpline
210
0.0
220
0.0
230
1.0
 70
    11
 71
     3
 72
   124
 73
   120
 74
     0
 42
0.0000000001
 43
0.0000000001
 12
1.0
 22
0.0
 32
0.0
 13
1.0
 23
0.0
 33
0.0
 40
0.0
 40
0.0
 40
0.0
 40
0.0
 40
0.032258064516129
 40
0.032258064516129
 40
0.032258064516129
 40
0.032258064516129
 40
0.0645161290322581
 40
0.0645161290322581
 40
0.0645161290322581
 40
0.0645161290322581
 40
0.0967741935483871
 40
0.0967741935483871
 40
0.0967741935483871
 40
0.0967741935483871
 40
0.1290322580645161
 40
0.1290322580645161
 40
0.1290322580645161
 40
0.1290322580645161
 40
0.1612903225806452
 40
0.1612903225806452
 40
0.1612903225806452
 40
0.1612903225806452
 40
0.1935483870967742
 40
0.1935483870967742
 40
0.1935483870967742
 40
0.1935483870967742
 40
0.2258064516129032
 40
0.2258064516129032
 40
0.2258064516129032
 40
0.2258064516129032
 40
0.2580645161290323
 40
0.2580645161290323
 40
0.2580645161290323
 40
0.2580645161290323
 40
0.2903225806451613
 40
0.2903225806451613
 40
0.2903225806451613
 40
0.2903225806451613
 40
0.3225806451612903
 40
0.3225806451612903
 40
0.3225806451612903
 40
0.3225806451612903
 40
0.3548387096774194
 40
0.3548387096774194
 40
0.3548387096774194
 40
0.3548387096774194
 40
0.3870967741935484
 40
0.3870967741935484
 40
0.3870967741935484
 40
0.3870967741935484
 40
0.4193548387096774
 40
0.4193548387096774
 40
0.4193548387096774
 40
0.4193548387096774
 40
0.4516129032258064
 40
0.4516129032258064
 40
0.4516129032258064
 40
0.4516129032258064
 40
0.4838709677419355
 40
0.4838709677419355
 40
0.4838709677419355
 40
0.4838709677419355
 40
0.5161290322580645
 40
0.5161290322580645
 40
0.5161290322580645
 40
0.5161290322580645
 40
0.5483870967741935
 40
0.5483870967741935
 40
0.5483870967741935
 40
0.5483870967741935
 40
0.5806451612903226
 40
0.5806451612903226
 40
0.5806451612903226
 40
0.5806451612903226
 40
0.6129032258064516
 40
0.6129032258064516
 40
0.6129032258064516
 40
0.6129032258064516
 40
0.6451612903225806
 40
0.6451612903225806
 40
0.6451612903225806
 40
0.6451612903225806
 40
0.6774193548387096
 40
0.6774193548387096
 40
0.6774193548387096
 40
0.6774193548387096
 40
0.7096774193548387
 40
0.7096774193548387
 40
0.7096774193548387
 40
0.7096774193548387
 40
0.7419354838709677
 40
0.7419354838709677
 40
0.7419354838709677
 40
0.7419354838709677
 40
0.7741935483870968
 40
0.7741935483870968
 40
0.7741935483870968
 40
0.7741935483870968
 40
0.8064516129032258
 40
0.8064516129032258
 40
0.8064516129032258
 40
0.8064516129032258
 40
0.8387096774193549
 40
0.8387096774193549
 40
0.8387096774193549
 40
0.8387096774193549
 40
0.8709677419354839
 40
0.8709677419354839
 40
0.8709677419354839
 40
0.8709677419354839
 40
0.9032258064516129
 40
0.9032258064516129
 40
0.9032258064516129
 40
0.9032258064516129
 40
0.9354838709677419
 40
0.9354838709677419
 40
0.9354838709677419
 40
0.9354838709677419
 40
1.0
 40
1.0
 40
1.0
 40
1.0
 10
-2.58656
 20
-7.90043
 30
0.0
 10
-2.58656
 20
-7.90043
 30
0.0
 10
-2.51205
 20
-7.89027
 30
0.0
 10
-2.51205
 20
-7.89027
 30
0.0
 10
-2.51205
 20
-7.89027
 30
0.0
 10
-2.50345
 20
-7.93261
 30
0.0
 10
-2.48905
 20
-7.96309
 30
0.0
 10
-2.46859
 20
-7.98171
 30
0.0
 10
-2.46859
 20
-7.98171
 30
0.0
 10
-2.44813
 20
-8.00034
 30
0.0
 10
-2.42301
 20
-8.00965
 30
0.0
 10
-2.39324
 20
-8.00965
 30
0.0
 10
-2.39324
 20
-8.00965
 30
0.0
 10
-2.35796
 20
-8.00965
 30
0.0
 10
-2.32818
 20
-7.99752
 30
0.0
 10
-2.3042
 20
-7.97325
 30
0.0
 10
-2.3042
 20
-7.97325
 30
0.0
 10
-2.28021
 20
-7.94898
 30
0.0
 10
-2.26821
 20
-7.91892
 30
0.0
 10
-2.26821
 20
-7.88308
 30
0.0
 10
-2.26821
 20
-7.88308
 30
0.0
 10
-2.26821
 20
-7.84893
 30
0.0
 10
-2.27936
 20
-7.8207
 30
0.0
 10
-2.3018
 20
-7.79841
 30
0.0
 10
-2.3018
 20
-7.79841
 30
0.0
 10
-2.32409
 20
-7.77625
 30
0.0
 10
-2.35246
 20
-7.76511
 30
0.0
 10
-2.38703
 20
-7.76511
 30
0.0
 10
-2.38703
 20
-7.76511
 30
0.0
 10
-2.40114
 20
-7.76511
 30
0.0
 10
-2.41864
 20
-7.76793
 30
0.0
 10
-2.43966
 20
-7.77343
 30
0.0
 10
-2.43966
 20
-7.77343
 30
0.0
 10
-2.43966
 20
-7.77343
 30
0.0
 10
-2.43134
 20
-7.70824
 30
0.0
 10
-2.43134
 20
-7.70824
 30
0.0
 10
-2.43134
 20
-7.70824
 30
0.0
 10
-2.4264
 20
-7.7088
 30
0.0
 10
-2.42231
 20
-7.70909
 30
0.0
 10
-2.41934
 20
-7.70909
 30
0.0
 10
-2.41934
 20
-7.70909
 30
0.0
 10
-2.38745
 20
-7.70909
 30
0.0
 10
-2.35895
 20
-7.70076
 30
0.0
 10
-2.33341
 20
-7.68425
 30
0.0
 10
-2.33341
 20
-7.68425
 30
0.0
 10
-2.30801
 20
-7.66774
 30
0.0
 10
-2.29531
 20
-7.64234
 30
0.0
 10
-2.29531
 20
-7.60805
 30
0.0
 10
-2.29531
 20
-7.60805
 30
0.0
 10
-2.29531
 20
-7.58081
 30
0.0
 10
-2.30462
 20
-7.55824
 30
0.0
 10
-2.3231
 20
-7.54032
 30
0.0
 10
-2.3231
 20
-7.54032
 30
0.0
 10
-2.34159
 20
-7.52239
 30
0.0
 10
-2.36544
 20
-7.5135
 30
0.0
 10
-2.39465
 20
-7.5135
 30
0.0
 10
-2.39465
 20
-7.5135
 30
0.0
 10
-2.42372
 20
-7.5135
 30
0.0
 10
-2.44785
 20
-7.52268
 30
0.0
 10
-2.46718
 20
-7.54102
 30
0.0
 10
-2.46718
 20
-7.54102
 30
0.0
 10
-2.48651
 20
-7.55937
 30
0.0
 10
-2.49893
 20
-7.58688
 30
0.0
 10
-2.50443
 20
-7.62357
 30
0.0
 10
-2.50443
 20
-7.62357
 30
0.0
 10
-2.50443
 20
-7.62357
 30
0.0
 10
-2.57894
 20
-7.61002
 30
0.0
 10
-2.57894
 20
-7.61002
 30
0.0
 10
-2.57894
 20
-7.61002
 30
0.0
 10
-2.56977
 20
-7.56007
 30
0.0
 10
-2.54917
 20
-7.52127
 30
0.0
 10
-2.51685
 20
-7.49375
 30
0.0
 10
-2.51685
 20
-7.49375
 30
0.0
 10
-2.48468
 20
-7.46623
 30
0.0
 10
-2.44446
 20
-7.45254
 30
0.0
 10
-2.39648
 20
-7.45254
 30
0.0
 10
-2.39648
 20
-7.45254
 30
0.0
 10
-2.36346
 20
-7.45254
 30
0.0
 10
-2.33298
 20
-7.4596
 30
0.0
 10
-2.30518
 20
-7.47385
 30
0.0
 10
-2.30518
 20
-7.47385
 30
0.0
 10
-2.27724
 20
-7.48796
 30
0.0
 10
-2.25594
 20
-7.5073
 30
0.0
 10
-2.24126
 20
-7.53171
 30
0.0
 10
-2.24126
 20
-7.53171
 30
0.0
 10
-2.22644
 20
-7.55626
 30
0.0
 10
-2.21911
 20
-7.58223
 30
0.0
 10
-2.21911
 20
-7.60974
 30
0.0
 10
-2.21911
 20
-7.60974
 30
0.0
 10
-2.21911
 20
-7.63585
 30
0.0
 10
-2.22616
 20
-7.65956
 30
0.0
 10
-2.24013
 20
-7.681
 30
0.0
 10
-2.24013
 20
-7.681
 30
0.0
 10
-2.25424
 20
-7.70245
 30
0.0
 10
-2.27513
 20
-7.71953
 30
0.0
 10
-2.30264
 20
-7.73223
 30
0.0
 10
-2.30264
 20
-7.73223
 30
0.0
 10
-2.2668
 20
-7.74041
 30
0.0
 10
-2.239
 20
-7.75763
 30
0.0
 10
-2.21911
 20
-7.78373
 30
0.0
 10
-2.21911
 20
-7.78373
 30
0.0
 10
-2.19935
 20
-7.8097
 30
0.0
 10
-2.18947
 20
-7.84244
 30
0.0
 10
-2.18947
 20
-7.88152
 30
0.0
 10
-2.18947
 20
-7.88152
 30
0.0
 10
-2.18947
 20
-7.93444
 30
0.0
 10
-2.2088
 20
-7.97946
 30
0.0
 10
-2.24733
 20
-8.01629
 30
0.0
 10
-2.24733
 20
-8.01629
 30
0.0
 10
-2.28599
 20
-8.05312
 30
0.0
 10
-2.33482
 20
-8.07146
 30
0.0
 10
-2.3938
 20
-8.07146
 30
0.0
 10
-2.3938
 20
-8.07146
 30
0.0
 10
-2.447
 20
-8.07146
 30
0.0
 10
-2.49117
 20
-8.05551
 30
0.0
 10
-2.52631
 20
-8.02376
 30
0.0
 10
-2.52631
 20
-8.02376
 30
0.0
 10
-2.56158
 20
-7.99201
 30
0.0
 10
-2.58162
 20
-7.95095
 30
0.0
 10
-2.58656
 20
-7.90043
 30
0.0
  0
SPLINE
  5
45
330
1F
100
AcDbEntity
  8
Layer 1
 62
   250
100
AcDbSpline
210
0.0
220
0.0
230
1.0
 70
    11
 71
     3
 72
   124
 73
   120
 74
     0
 42
0.0000000001
 43
0.0000000001
 12
1.0
 22
0.0
 32
0.0
 13
1.0
 23
0.0
 33
0.0
 40
0.0
 40
0.0
 40
0.0
 40
0.0
 40
0.032258064516129
 40
0.032258064516129
 40
0.032258064516129
 40
0.032258064516129
 40
0.0645161290322581
 40
0.0645161290322581
 40
0.0645161290322581
 40
0.0645161290322581
 40
0.0967741935483871
 40
0.0967741935483871
 40
0.0967741935483871
 40
0.0967741935483871
 40
0.1290322580645161
 40
0.1290322580645161
 40
0.1290322580645161
 40
0.1290322580645161
 40
0.1612903225806452
 40
0.1612903225806452
 40
0.1612903225806452
 40
0.1612903225806452
 40
0.1935483870967742
 40
0.1935483870967742
 40
0.1935483870967742
 40
0.1935483870967742
 40
0.2258064516129032
 40
0.2258064516129032
 40
0.2258064516129032
 40
0.2258064516129032
 40
0.2580645161290323
 40
0.2580645161290323
 40
0.2580645161290323
 40
0.2580645161290323
 40
0.2903225806451613
 40
0.2903225806451613
 40
0.2903225806451613
 40
0.2903225806451613
 40
0.3225806451612903
 40
0.3225806451612903
 40
0.3225806451612903
 40
0.3225806451612903
 40
0.3548387096774194
 40
0.3548387096774194
 40
0.3548387096774194
 40
0.3548387096774194
 40
0.3870967741935484
 40
0.3870967741935484
 40
0.3870967741935484
 40
0.3870967741935484
 40
0.4193548387096774
 40
0.4193548387096774
 40
0.4193548387096774
 40
0.4193548387096774
 40
0.4516129032258064
 40
0.4516129032258064
 40
0.4516129032258064
 40
0.4516129032258064
 40
0.4838709677419355
 40
0.4838709677419355
 40
0.4838709677419355
 40
0.4838709677419355
 40
0.5161290322580645
 40
0.5161290322580645
 40
0.5161290322580645
 40
0.5161290322580645
 40
0.5483870967741935
 40
0.5483870967741935
 40
0.5483870967741935
 40
0.5483870967741935
 40
0.5806451612903226
 40
0.5806451612903226
 40
0.5806451612903226
 40
0.5806451612903226
 40
0.6129032258064516
 40
0.6129032258064516
 40
0.6129032258064516
 40
0.6129032258064516
 40
0.6451612903225806
 40
0.6451612903225806
 40
0.6451612903225806
 40
0.6451612903225806
 40
0.6774193548387096
 40
0.6774193548387096
 40
0.6774193548387096
 40
0.6774193548387096
 40
0.7096774193548387
 40
0.7096774193548387
 40
0.7096774193548387
 40
0.7096774193548387
 40
0.7419354838709677
 40
0.7419354838709677
 40
0.7419354838709677
 40
0.7419354838709677
 40
0.7741935483870968
 40
0.7741935483870968
 40
0.7741935483870968
 40
0.7741935483870968
 40
0.8064516129032258
 40
0.8064516129032258
 40
0.8064516129032258
 40
0.8064516129032258
 40
0.8387096774193549
 40
0.8387096774193549
 40
0.8387096774193549
 40
0.8387096774193549
 40
0.8709677419354839
 40
0.8709677419354839
 40
0.8709677419354839
 40
0.8709677419354839
 40
0.9032258064516129
 40
0.9032258064516129
 40
0.9032258064516129
 40
0.9032258064516129
 40
0.9354838709677419
 40
0.9354838709677419
 40
0.9354838709677419
 40
0.9354838709677419
 40
1.0
 40
1.0
 40
1.0
 40
1.0
 10
-2.11567
 20
-7.90043
 30
0.0
 10
-2.11567
 20
-7.90043
 30
0.0
 10
-2.04116
 20
-7.89027
 30
0.0
 10
-2.04116
 20
-7.89027
 30
0.0
 10
-2.04116
 20
-7.89027
 30
0.0
 10
-2.03256
 20
-7.93261
 30
0.0
 10
-2.01816
 20
-7.96309
 30
0.0
 10
-1.9977
 20
-7.98171
 30
0.0
 10
-1.9977
 20
-7.98171
 30
0.0
 10
-1.97724
 20
-8.00034
 30
0.0
 10
-1.95212
 20
-8.00965
 30
0.0
 10
-1.92235
 20
-8.00965
 30
0.0
 10
-1.92235
 20
-8.00965
 30
0.0
 10
-1.88707
 20
-8.00965
 30
0.0
 10
-1.85729
 20
-7.99752
 30
0.0
 10
-1.83331
 20
-7.97325
 30
0.0
 10
-1.83331
 20
-7.97325
 30
0.0
 10
-1.80932
 20
-7.94898
 30
0.0
 10
-1.79732
 20
-7.91892
 30
0.0
 10
-1.79732
 20
-7.88308
 30
0.0
 10
-1.79732
 20
-7.88308
 30
0.0
 10
-1.79732
 20
-7.84893
 30
0.0
 10
-1.80847
 20
-7.8207
 30
0.0
 10
-1.83091
 20
-7.79841
 30
0.0
 10
-1.83091
 20
-7.79841
 30
0.0
 10
-1.8532
 20
-7.77625
 30
0.0
 10
-1.88157
 20
-7.76511
 30
0.0
 10
-1.91614
 20
-7.76511
 30
0.0
 10
-1.91614
 20
-7.76511
 30
0.0
 10
-1.93025
 20
-7.76511
 30
0.0
 10
-1.94775
 20
-7.76793
 30
0.0
 10
-1.96877
 20
-7.77343
 30
0.0
 10
-1.96877
 20
-7.77343
 30
0.0
 10
-1.96877
 20
-7.77343
 30
0.0
 10
-1.96045
 20
-7.70824
 30
0.0
 10
-1.96045
 20
-7.70824
 30
0.0
 10
-1.96045
 20
-7.70824
 30
0.0
 10
-1.95551
 20
-7.7088
 30
0.0
 10
-1.95142
 20
-7.70909
 30
0.0
 10
-1.94845
 20
-7.70909
 30
0.0
 10
-1.94845
 20
-7.70909
 30
0.0
 10
-1.91656
 20
-7.70909
 30
0.0
 10
-1.88806
 20
-7.70076
 30
0.0
 10
-1.86252
 20
-7.68425
 30
0.0
 10
-1.86252
 20
-7.68425
 30
0.0
 10
-1.83712
 20
-7.66774
 30
0.0
 10
-1.82442
 20
-7.64234
 30
0.0
 10
-1.82442
 20
-7.60805
 30
0.0
 10
-1.82442
 20
-7.60805
 30
0.0
 10
-1.82442
 20
-7.58081
 30
0.0
 10
-1.83373
 20
-7.55824
 30
0.0
 10
-1.85221
 20
-7.54032
 30
0.0
 10
-1.85221
 20
-7.54032
 30
0.0
 10
-1.8707
 20
-7.52239
 30
0.0
 10
-1.89455
 20
-7.5135
 30
0.0
 10
-1.92376
 20
-7.5135
 30
0.0
 10
-1.92376
 20
-7.5135
 30
0.0
 10
-1.95283
 20
-7.5135
 30
0.0
 10
-1.97696
 20
-7.52268
 30
0.0
 10
-1.99629
 20
-7.54102
 30
0.0
 10
-1.99629
 20
-7.54102
 30
0.0
 10
-2.01562
 20
-7.55937
 30
0.0
 10
-2.02804
 20
-7.58688
 30
0.0
 10
-2.03354
 20
-7.62357
 30
0.0
 10
-2.03354
 20
-7.62357
 30
0.0
 10
-2.03354
 20
-7.62357
 30
0.0
 10
-2.10805
 20
-7.61002
 30
0.0
 10
-2.10805
 20
-7.61002
 30
0.0
 10
-2.10805
 20
-7.61002
 30
0.0
 10
-2.09888
 20
-7.56007
 30
0.0
 10
-2.07828
 20
-7.52127
 30
0.0
 10
-2.04596
 20
-7.49375
 30
0.0
 10
-2.04596
 20
-7.49375
 30
0.0
 10
-2.01379
 20
-7.46623
 30
0.0
 10
-1.97357
 20
-7.45254
 30
0.0
 10
-1.92559
 20
-7.45254
 30
0.0
 10
-1.92559
 20
-7.45254
 30
0.0
 10
-1.89257
 20
-7.45254
 30
0.0
 10
-1.86209
 20
-7.4596
 30
0.0
 10
-1.83429
 20
-7.47385
 30
0.0
 10
-1.83429
 20
-7.47385
 30
0.0
 10
-1.80635
 20
-7.48796
 30
0.0
 10
-1.78505
 20
-7.5073
 30
0.0
 10
-1.77037
 20
-7.53171
 30
0.0
 10
-1.77037
 20
-7.53171
 30
0.0
 10
-1.75555
 20
-7.55626
 30
0.0
 10
-1.74822
 20
-7.58223
 30
0.0
 10
-1.74822
 20
-7.60974
 30
0.0
 10
-1.74822
 20
-7.60974
 30
0.0
 10
-1.74822
 20
-7.63585
 30
0.0
 10
-1.75527
 20
-7.65956
 30
0.0
 10
-1.76924
 20
-7.681
 30
0.0
 10
-1.76924
 20
-7.681
 30
0.0
 10
-1.78335
 20
-7.70245
 30
0.0
 10
-1.80424
 20
-7.71953
 30
0.0
 10
-1.83175
 20
-7.73223
 30
0.0
 10
-1.83175
 20
-7.73223
 30
0.0
 10
-1.79591
 20
-7.74041
 30
0.0
 10
-1.76811
 20
-7.75763
 30
0.0
 10
-1.74822
 20
-7.78373
 30
0.0
 10
-1.74822
 20
-7.78373
 30
0.0
 10
-1.72846
 20
-7.8097
 30
0.0
 10
-1.71858
 20
-7.84244
 30
0.0
 10
-1.71858
 20
-7.88152
 30
0.0
 10
-1.71858
 20
-7.88152
 30
0.0
 10
-1.71858
 20
-7.93444
 30
0.0
 10
-1.73791
 20
-7.97946
 30
0.0
 10
-1.77644
 20
-8.01629
 30
0.0
 10
-1.77644
 20
-8.01629
 30
0.0
 10
-1.8151
 20
-8.05312
 30
0.0
 10
-1.86393
 20
-8.07146
 30
0.0
 10
-1.92291
 20
-8.07146
 30
0.0
 10
-1.92291
 20
-8.07146
 30
0.0
 10
-1.97611
 20
-8.07146
 30
0.0
 10
-2.02028
 20
-8.05551
 30
0.0
 10
-2.05542
 20
-8.02376
 30
0.0
 10
-2.05542
 20
-8.02376
 30
0.0
 10
-2.09069
 20
-7.99201
 30
0.0
 10
-2.11073
 20
-7.95095
 30
0.0
 10
-2.11567
 20
-7.90043
 30
0.0
  0
SPLINE
  5
46
330
1F
100
AcDbEntity
  8
Layer 1
 62
   250
100
AcDbSpline
210
0.0
220
0.0
230
1.0
 70
    11
 71
     3
 72
    92
 73
    88
 74
     0
 42
0.0000000001
 43
0.0000000001
 12
1.0
 22
0.0
 32
0.0
 13
1.0
 23
0.0
 33
0.0
 40
0.0
 40
0.0
 40
0.0
 40
0.0
 40
0.0434782608695652
 40
0.0434782608695652
 40
0.0434782608695652
 40
0.0434782608695652
 40
0.0869565217391304
 40
0.0869565217391304
 40
0.0869565217391304
 40
0.0869565217391304
 40
0.1304347826086956
 40
0.1304347826086956
 40
0.1304347826086956
 40
0.1304347826086956
 40
0.1739130434782609
 40
0.1739130434782609
 40
0.1739130434782609
 40
0.1739130434782609
 40
0.2173913043478261
 40
0.2173913043478261
 40
0.2173913043478261
 40
0.2173913043478261
 40
0.2608695652173913
 40
0.2608695652173913
 40
0.2608695652173913
 40
0.2608695652173913
 40
0.3043478260869565
 40
0.3043478260869565
 40
0.3043478260869565
 40
0.3043478260869565
 40
0.3478260869565217
 40
0.3478260869565217
 40
0.3478260869565217
 40
0.3478260869565217
 40
0.391304347826087
 40
0.391304347826087
 40
0.391304347826087
 40
0.391304347826087
 40
0.4347826086956522
 40
0.4347826086956522
 40
0.4347826086956522
 40
0.4347826086956522
 40
0.4782608695652174
 40
0.4782608695652174
 40
0.4782608695652174
 40
0.4782608695652174
 40
0.5217391304347826
 40
0.5217391304347826
 40
0.5217391304347826
 40
0.5217391304347826
 40
0.5652173913043478
 40
0.5652173913043478
 40
0.5652173913043478
 40
0.5652173913043478
 40
0.6086956521739131
 40
0.6086956521739131
 40
0.6086956521739131
 40
0.6086956521739131
 40
0.6521739130434783
 40
0.6521739130434783
 40
0.6521739130434783
 40
0.6521739130434783
 40
0.6956521739130435
 40
0.6956521739130435
 40
0.6956521739130435
 40
0.6956521739130435
 40
0.7391304347826086
 40
0.7391304347826086
 40
0.7391304347826086
 40
0.7391304347826086
 40
0.782608695652174
 40
0.782608695652174
 40
0.782608695652174
 40
0.782608695652174
 40
0.8260869565217391
 40
0.8260869565217391
 40
0.8260869565217391
 40
0.8260869565217391
 40
0.8695652173913043
 40
0.8695652173913043
 40
0.8695652173913043
 40
0.8695652173913043
 40
0.9130434782608695
 40
0.9130434782608695
 40
0.9130434782608695
 40
0.9130434782608695
 40
1.0
 40
1.0
 40
1.0
 40
1.0
 10
-1.25446
 20
-7.99018
 30
0.0
 10
-1.25446
 20
-7.99018
 30
0.0
 10
-1.25446
 20
-8.0613
 30
0.0
 10
-1.25446
 20
-8.0613
 30
0.0
 10
-1.25446
 20
-8.0613
 30
0.0
 10
-1.25446
 20
-8.0613
 30
0.0
 10
-1.65579
 20
-8.0613
 30
0.0
 10
-1.65579
 20
-8.0613
 30
0.0
 10
-1.65579
 20
-8.0613
 30
0.0
 10
-1.65635
 20
-8.04338
 30
0.0
 10
-1.65339
 20
-8.02616
 30
0.0
 10
-1.64704
 20
-8.00951
 30
0.0
 10
-1.64704
 20
-8.00951
 30
0.0
 10
-1.63674
 20
-7.98228
 30
0.0
 10
-1.62023
 20
-7.95533
 30
0.0
 10
-1.59751
 20
-7.92894
 30
0.0
 10
-1.59751
 20
-7.92894
 30
0.0
 10
-1.57479
 20
-7.90255
 30
0.0
 10
-1.54233
 20
-7.87207
 30
0.0
 10
-1.50014
 20
-7.8375
 30
0.0
 10
-1.50014
 20
-7.8375
 30
0.0
 10
-1.43452
 20
-7.78345
 30
0.0
 10
-1.38993
 20
-7.74069
 30
0.0
 10
-1.36665
 20
-7.70909
 30
0.0
 10
-1.36665
 20
-7.70909
 30
0.0
 10
-1.34322
 20
-7.67748
 30
0.0
 10
-1.33151
 20
-7.64756
 30
0.0
 10
-1.33151
 20
-7.61934
 30
0.0
 10
-1.33151
 20
-7.61934
 30
0.0
 10
-1.33151
 20
-7.58985
 30
0.0
 10
-1.3421
 20
-7.56501
 30
0.0
 10
-1.36326
 20
-7.54469
 30
0.0
 10
-1.36326
 20
-7.54469
 30
0.0
 10
-1.38443
 20
-7.52451
 30
0.0
 10
-1.41209
 20
-7.51435
 30
0.0
 10
-1.44609
 20
-7.51435
 30
0.0
 10
-1.44609
 20
-7.51435
 30
0.0
 10
-1.48208
 20
-7.51435
 30
0.0
 10
-1.51086
 20
-7.52508
 30
0.0
 10
-1.53245
 20
-7.54652
 30
0.0
 10
-1.53245
 20
-7.54652
 30
0.0
 10
-1.55405
 20
-7.56783
 30
0.0
 10
-1.56491
 20
-7.59747
 30
0.0
 10
-1.56519
 20
-7.63542
 30
0.0
 10
-1.56519
 20
-7.63542
 30
0.0
 10
-1.56519
 20
-7.63542
 30
0.0
 10
-1.64139
 20
-7.6278
 30
0.0
 10
-1.64139
 20
-7.6278
 30
0.0
 10
-1.64139
 20
-7.6278
 30
0.0
 10
-1.63617
 20
-7.5708
 30
0.0
 10
-1.61642
 20
-7.52733
 30
0.0
 10
-1.58227
 20
-7.49742
 30
0.0
 10
-1.58227
 20
-7.49742
 30
0.0
 10
-1.54798
 20
-7.4675
 30
0.0
 10
-1.50212
 20
-7.45254
 30
0.0
 10
-1.4444
 20
-7.45254
 30
0.0
 10
-1.4444
 20
-7.45254
 30
0.0
 10
-1.38626
 20
-7.45254
 30
0.0
 10
-1.34012
 20
-7.46863
 30
0.0
 10
-1.30625
 20
-7.50095
 30
0.0
 10
-1.30625
 20
-7.50095
 30
0.0
 10
-1.27225
 20
-7.53326
 30
0.0
 10
-1.25531
 20
-7.57334
 30
0.0
 10
-1.25531
 20
-7.62103
 30
0.0
 10
-1.25531
 20
-7.62103
 30
0.0
 10
-1.25531
 20
-7.6453
 30
0.0
 10
-1.26025
 20
-7.66915
 30
0.0
 10
-1.27027
 20
-7.69258
 30
0.0
 10
-1.27027
 20
-7.69258
 30
0.0
 10
-1.28015
 20
-7.71614
 30
0.0
 10
-1.29666
 20
-7.74084
 30
0.0
 10
-1.31966
 20
-7.7668
 30
0.0
 10
-1.31966
 20
-7.7668
 30
0.0
 10
-1.3428
 20
-7.79262
 30
0.0
 10
-1.38104
 20
-7.82832
 30
0.0
 10
-1.43438
 20
-7.87348
 30
0.0
 10
-1.43438
 20
-7.87348
 30
0.0
 10
-1.47911
 20
-7.91102
 30
0.0
 10
-1.5079
 20
-7.93642
 30
0.0
 10
-1.5206
 20
-7.94982
 30
0.0
 10
-1.5206
 20
-7.94982
 30
0.0
 10
-1.5333
 20
-7.96323
 30
0.0
 10
-1.54374
 20
-7.97663
 30
0.0
 10
-1.55207
 20
-7.99018
 30
0.0
 10
-1.55207
 20
-7.99018
 30
0.0
 10
-1.55207
 20
-7.99018
 30
0.0
 10
-1.25446
 20
-7.99018
 30
0.0
 10
-1.25446
 20
-7.99018
 30
0.0
  0
SPLINE
  5
47
330
1F
100
AcDbEntity
  8
Layer 1
 62
   250
100
AcDbSpline
210
0.0
220
0.0
230
1.0
 70
    11
 71
     3
 72
    92
 73
    88
 74
     0
 42
0.0000000001
 43
0.0000000001
 12
1.0
 22
0.0
 32
0.0
 13
1.0
 23
0.0
 33
0.0
 40
0.0
 40
0.0
 40
0.0
 40
0.0
 40
0.0434782608695652
 40
0.0434782608695652
 40
0.0434782608695652
 40
0.0434782608695652
 40
0.0869565217391304
 40
0.0869565217391304
 40
0.0869565217391304
 40
0.0869565217391304
 40
0.1304347826086956
 40
0.1304347826086956
 40
0.1304347826086956
 40
0.1304347826086956
 40
0.1739130434782609
 40
0.1739130434782609
 40
0.1739130434782609
 40
0.1739130434782609
 40
0.2173913043478261
 40
0.2173913043478261
 40
0.2173913043478261
 40
0.2173913043478261
 40
0.2608695652173913
 40
0.2608695652173913
 40
0.2608695652173913
 40
0.2608695652173913
 40
0.3043478260869565
 40
0.3043478260869565
 40
0.3043478260869565
 40
0.3043478260869565
 40
0.3478260869565217
 40
0.3478260869565217
 40
0.3478260869565217
 40
0.3478260869565217
 40
0.391304347826087
 40
0.391304347826087
 40
0.391304347826087
 40
0.391304347826087
 40
0.4347826086956522
 40
0.4347826086956522
 40
0.4347826086956522
 40
0.4347826086956522
 40
0.4782608695652174
 40
0.4782608695652174
 40
0.4782608695652174
 40
0.4782608695652174
 40
0.5217391304347826
 40
0.5217391304347826
 40
0.5217391304347826
 40
0.5217391304347826
 40
0.5652173913043478
 40
0.5652173913043478
 40
0.5652173913043478
 40
0.5652173913043478
 40
0.6086956521739131
 40
0.6086956521739131
 40
0.6086956521739131
 40
0.6086956521739131
 40
0.6521739130434783
 40
0.6521739130434783
 40
0.6521739130434783
 40
0.6521739130434783
 40
0.6956521739130435
 40
0.6956521739130435
 40
0.6956521739130435
 40
0.6956521739130435
 40
0.7391304347826086
 40
0.7391304347826086
 40
0.7391304347826086
 40
0.7391304347826086
 40
0.782608695652174
 40
0.782608695652174
 40
0.782608695652174
 40
0.782608695652174
 40
0.8260869565217391
 40
0.8260869565217391
 40
0.8260869565217391
 40
0.8260869565217391
 40
0.8695652173913043
 40
0.8695652173913043
 40
0.8695652173913043
 40
0.8695652173913043
 40
0.9130434782608695
 40
0.9130434782608695
 40
0.9130434782608695
 40
0.9130434782608695
 40
1.0
 40
1.0
 40
1.0
 40
1.0
 10
-0.78357
 20
-7.99018
 30
0.0
 10
-0.78357
 20
-7.99018
 30
0.0
 10
-0.78357
 20
-8.0613
 30
0.0
 10
-0.78357
 20
-8.0613
 30
0.0
 10
-0.78357
 20
-8.0613
 30
0.0
 10
-0.78357
 20
-8.0613
 30
0.0
 10
-1.1849
 20
-8.0613
 30
0.0
 10
-1.1849
 20
-8.0613
 30
0.0
 10
-1.1849
 20
-8.0613
 30
0.0
 10
-1.18546
 20
-8.04338
 30
0.0
 10
-1.1825
 20
-8.02616
 30
0.0
 10
-1.17615
 20
-8.00951
 30
0.0
 10
-1.17615
 20
-8.00951
 30
0.0
 10
-1.16585
 20
-7.98228
 30
0.0
 10
-1.14934
 20
-7.95533
 30
0.0
 10
-1.12662
 20
-7.92894
 30
0.0
 10
-1.12662
 20
-7.92894
 30
0.0
 10
-1.1039
 20
-7.90255
 30
0.0
 10
-1.07144
 20
-7.87207
 30
0.0
 10
-1.02925
 20
-7.8375
 30
0.0
 10
-1.02925
 20
-7.8375
 30
0.0
 10
-0.96363
 20
-7.78345
 30
0.0
 10
-0.91904
 20
-7.74069
 30
0.0
 10
-0.89576
 20
-7.70909
 30
0.0
 10
-0.89576
 20
-7.70909
 30
0.0
 10
-0.87233
 20
-7.67748
 30
0.0
 10
-0.86062
 20
-7.64756
 30
0.0
 10
-0.86062
 20
-7.61934
 30
0.0
 10
-0.86062
 20
-7.61934
 30
0.0
 10
-0.86062
 20
-7.58985
 30
0.0
 10
-0.87121
 20
-7.56501
 30
0.0
 10
-0.89237
 20
-7.54469
 30
0.0
 10
-0.89237
 20
-7.54469
 30
0.0
 10
-0.91354
 20
-7.52451
 30
0.0
 10
-0.9412
 20
-7.51435
 30
0.0
 10
-0.9752
 20
-7.51435
 30
0.0
 10
-0.9752
 20
-7.51435
 30
0.0
 10
-1.01119
 20
-7.51435
 30
0.0
 10
-1.03997
 20
-7.52508
 30
0.0
 10
-1.06156
 20
-7.54652
 30
0.0
 10
-1.06156
 20
-7.54652
 30
0.0
 10
-1.08316
 20
-7.56783
 30
0.0
 10
-1.09402
 20
-7.59747
 30
0.0
 10
-1.0943
 20
-7.63542
 30
0.0
 10
-1.0943
 20
-7.63542
 30
0.0
 10
-1.0943
 20
-7.63542
 30
0.0
 10
-1.1705
 20
-7.6278
 30
0.0
 10
-1.1705
 20
-7.6278
 30
0.0
 10
-1.1705
 20
-7.6278
 30
0.0
 10
-1.16528
 20
-7.5708
 30
0.0
 10
-1.14553
 20
-7.52733
 30
0.0
 10
-1.11138
 20
-7.49742
 30
0.0
 10
-1.11138
 20
-7.49742
 30
0.0
 10
-1.07709
 20
-7.4675
 30
0.0
 10
-1.03123
 20
-7.45254
 30
0.0
 10
-0.97351
 20
-7.45254
 30
0.0
 10
-0.97351
 20
-7.45254
 30
0.0
 10
-0.91537
 20
-7.45254
 30
0.0
 10
-0.86923
 20
-7.46863
 30
0.0
 10
-0.83536
 20
-7.50095
 30
0.0
 10
-0.83536
 20
-7.50095
 30
0.0
 10
-0.80136
 20
-7.53326
 30
0.0
 10
-0.78442
 20
-7.57334
 30
0.0
 10
-0.78442
 20
-7.62103
 30
0.0
 10
-0.78442
 20
-7.62103
 30
0.0
 10
-0.78442
 20
-7.6453
 30
0.0
 10
-0.78936
 20
-7.66915
 30
0.0
 10
-0.79938
 20
-7.69258
 30
0.0
 10
-0.79938
 20
-7.69258
 30
0.0
 10
-0.80926
 20
-7.71614
 30
0.0
 10
-0.82577
 20
-7.74084
 30
0.0
 10
-0.84877
 20
-7.7668
 30
0.0
 10
-0.84877
 20
-7.7668
 30
0.0
 10
-0.87191
 20
-7.79262
 30
0.0
 10
-0.91015
 20
-7.82832
 30
0.0
 10
-0.96349
 20
-7.87348
 30
0.0
 10
-0.96349
 20
-7.87348
 30
0.0
 10
-1.00822
 20
-7.91102
 30
0.0
 10
-1.03701
 20
-7.93642
 30
0.0
 10
-1.04971
 20
-7.94982
 30
0.0
 10
-1.04971
 20
-7.94982
 30
0.0
 10
-1.06241
 20
-7.96323
 30
0.0
 10
-1.07285
 20
-7.97663
 30
0.0
 10
-1.08118
 20
-7.99018
 30
0.0
 10
-1.08118
 20
-7.99018
 30
0.0
 10
-1.08118
 20
-7.99018
 30
0.0
 10
-0.78357
 20
-7.99018
 30
0.0
 10
-0.78357
 20
-7.99018
 30
0.0
  0
SPLINE
  5
48
330
1F
100
AcDbEntity
  8
Layer 1
 62
   250
100
AcDbSpline
210
0.0
220
0.0
230
1.0
 70
    11
 71
     3
 72
    28
 73
    24
 74
     0
 42
0.0000000001
 43
0.0000000001
 12
1.0
 22
0.0
 32
0.0
 13
1.0
 23
0.0
 33
0.0
 40
0.0
 40
0.0
 40
0.0
 40
0.0
 40
0.1428571428571428
 40
0.1428571428571428
 40
0.1428571428571428
 40
0.1428571428571428
 40
0.2857142857142857
 40
0.2857142857142857
 40
0.2857142857142857
 40
0.2857142857142857
 40
0.4285714285714285
 40
0.4285714285714285
 40
0.4285714285714285
 40
0.4285714285714285
 40
0.5714285714285714
 40
0.5714285714285714
 40
0.5714285714285714
 40
0.5714285714285714
 40
0.7142857142857143
 40
0.7142857142857143
 40
0.7142857142857143
 40
0.7142857142857143
 40
1.0
 40
1.0
 40
1.0
 40
1.0
 10
-0.67675
 20
-8.0613
 30
0.0
 10
-0.67675
 20
-8.0613
 30
0.0
 10
-0.67675
 20
-7.45508
 30
0.0
 10
-0.67675
 20
-7.45508
 30
0.0
 10
-0.67675
 20
-7.45508
 30
0.0
 10
-0.67675
 20
-7.45508
 30
0.0
 10
-0.59632
 20
-7.45508
 30
0.0
 10
-0.59632
 20
-7.45508
 30
0.0
 10
-0.59632
 20
-7.45508
 30
0.0
 10
-0.59632
 20
-7.45508
 30
0.0
 10
-0.59632
 20
-7.99018
 30
0.0
 10
-0.59632
 20
-7.99018
 30
0.0
 10
-0.59632
 20
-7.99018
 30
0.0
 10
-0.59632
 20
-7.99018
 30
0.0
 10
-0.29829
 20
-7.99018
 30
0.0
 10
-0.29829
 20
-7.99018
 30
0.0
 10
-0.29829
 20
-7.99018
 30
0.0
 10
-0.29829
 20
-7.99018
 30
0.0
 10
-0.29829
 20
-8.0613
 30
0.0
 10
-0.29829
 20
-8.0613
 30
0.0
 10
-0.29829
 20
-8.0613
 30
0.0
 10
-0.29829
 20
-8.0613
 30
0.0
 10
-0.67675
 20
-8.0613
 30
0.0
 10
-0.67675
 20
-8.0613
 30
0.0
  0
SPLINE
  5
49
330
1F
100
AcDbEntity
  8
Layer 1
 62
   250
100
AcDbSpline
210
0.0
220
0.0
230
1.0
 70
    11
 71
     3
 72
    36
 73
    32
 74
     0
 42
0.0000000001
 43
0.0000000001
 12
1.0
 22
0.0
 32
0.0
 13
1.0
 23
0.0
 33
0.0
 40
0.0
 40
0.0
 40
0.0
 40
0.0
 40
0.1111111111111111
 40
0.1111111111111111
 40
0.1111111111111111
 40
0.1111111111111111
 40
0.2222222222222222
 40
0.2222222222222222
 40
0.2222222222222222
 40
0.2222222222222222
 40
0.3333333333333333
 40
0.3333333333333333
 40
0.3333333333333333
 40
0.3333333333333333
 40
0.4444444444444444
 40
0.4444444444444444
 40
0.4444444444444444
 40
0.4444444444444444
 40
0.5555555555555556
 40
0.5555555555555556
 40
0.5555555555555556
 40
0.5555555555555556
 40
0.6666666666666666
 40
0.6666666666666666
 40
0.6666666666666666
 40
0.6666666666666666
 40
0.7777777777777778
 40
0.7777777777777778
 40
0.7777777777777778
 40
0.7777777777777778
 40
1.0
 40
1.0
 40
1.0
 40
1.0
 10
0.14014
 20
-8.0613
 30
0.0
 10
0.14014
 20
-8.0613
 30
0.0
 10
0.14014
 20
-7.5262
 30
0.0
 10
0.14014
 20
-7.5262
 30
0.0
 10
0.14014
 20
-7.5262
 30
0.0
 10
0.14014
 20
-7.5262
 30
0.0
 10
-0.05968
 20
-7.5262
 30
0.0
 10
-0.05968
 20
-7.5262
 30
0.0
 10
-0.05968
 20
-7.5262
 30
0.0
 10
-0.05968
 20
-7.5262
 30
0.0
 10
-0.05968
 20
-7.45508
 30
0.0
 10
-0.05968
 20
-7.45508
 30
0.0
 10
-0.05968
 20
-7.45508
 30
0.0
 10
-0.05968
 20
-7.45508
 30
0.0
 10
0.42039
 20
-7.45508
 30
0.0
 10
0.42039
 20
-7.45508
 30
0.0
 10
0.42039
 20
-7.45508
 30
0.0
 10
0.42039
 20
-7.45508
 30
0.0
 10
0.42039
 20
-7.5262
 30
0.0
 10
0.42039
 20
-7.5262
 30
0.0
 10
0.42039
 20
-7.5262
 30
0.0
 10
0.42039
 20
-7.5262
 30
0.0
 10
0.22057
 20
-7.5262
 30
0.0
 10
0.22057
 20
-7.5262
 30
0.0
 10
0.22057
 20
-7.5262
 30
0.0
 10
0.22057
 20
-7.5262
 30
0.0
 10
0.22057
 20
-8.0613
 30
0.0
 10
0.22057
 20
-8.0613
 30
0.0
 10
0.22057
 20
-8.0613
 30
0.0
 10
0.22057
 20
-8.0613
 30
0.0
 10
0.14014
 20
-8.0613
 30
0.0
 10
0.14014
 20
-8.0613
 30
0.0
  0
SPLINE
  5
4A
330
1F
100
AcDbEntity
  8
Layer 1
 62
   250
100
AcDbSpline
210
0.0
220
0.0
230
1.0
 70
    11
 71
     3
 72
    52
 73
    48
 74
     0
 42
0.0000000001
 43
0.0000000001
 12
1.0
 22
0.0
 32
0.0
 13
1.0
 23
0.0
 33
0.0
 40
0.0
 40
0.0
 40
0.0
 40
0.0
 40
0.0769230769230769
 40
0.0769230769230769
 40
0.0769230769230769
 40
0.0769230769230769
 40
0.1538461538461539
 40
0.1538461538461539
 40
0.1538461538461539
 40
0.1538461538461539
 40
0.2307692307692308
 40
0.2307692307692308
 40
0.2307692307692308
 40
0.2307692307692308
 40
0.3076923076923077
 40
0.3076923076923077
 40
0.3076923076923077
 40
0.3076923076923077
 40
0.3846153846153846
 40
0.3846153846153846
 40
0.3846153846153846
 40
0.3846153846153846
 40
0.4615384615384616
 40
0.4615384615384616
 40
0.4615384615384616
 40
0.4615384615384616
 40
0.5384615384615384
 40
0.5384615384615384
 40
0.5384615384615384
 40
0.5384615384615384
 40
0.6153846153846154
 40
0.6153846153846154
 40
0.6153846153846154
 40
0.6153846153846154
 40
0.6923076923076923
 40
0.6923076923076923
 40
0.6923076923076923
 40
0.6923076923076923
 40
0.7692307692307693
 40
0.7692307692307693
 40
0.7692307692307693
 40
0.7692307692307693
 40
0.8461538461538461
 40
0.8461538461538461
 40
0.8461538461538461
 40
0.8461538461538461
 40
1.0
 40
1.0
 40
1.0
 40
1.0
 10
0.50491
 20
-8.0613
 30
0.0
 10
0.50491
 20
-8.0613
 30
0.0
 10
0.50491
 20
-7.45508
 30
0.0
 10
0.50491
 20
-7.45508
 30
0.0
 10
0.50491
 20
-7.45508
 30
0.0
 10
0.50491
 20
-7.45508
 30
0.0
 10
0.94264
 20
-7.45508
 30
0.0
 10
0.94264
 20
-7.45508
 30
0.0
 10
0.94264
 20
-7.45508
 30
0.0
 10
0.94264
 20
-7.45508
 30
0.0
 10
0.94264
 20
-7.5262
 30
0.0
 10
0.94264
 20
-7.5262
 30
0.0
 10
0.94264
 20
-7.5262
 30
0.0
 10
0.94264
 20
-7.5262
 30
0.0
 10
0.58534
 20
-7.5262
 30
0.0
 10
0.58534
 20
-7.5262
 30
0.0
 10
0.58534
 20
-7.5262
 30
0.0
 10
0.58534
 20
-7.5262
 30
0.0
 10
0.58534
 20
-7.71247
 30
0.0
 10
0.58534
 20
-7.71247
 30
0.0
 10
0.58534
 20
-7.71247
 30
0.0
 10
0.58534
 20
-7.71247
 30
0.0
 10
0.91978
 20
-7.71247
 30
0.0
 10
0.91978
 20
-7.71247
 30
0.0
 10
0.91978
 20
-7.71247
 30
0.0
 10
0.91978
 20
-7.71247
 30
0.0
 10
0.91978
 20
-7.78359
 30
0.0
 10
0.91978
 20
-7.78359
 30
0.0
 10
0.91978
 20
-7.78359
 30
0.0
 10
0.91978
 20
-7.78359
 30
0.0
 10
0.58534
 20
-7.78359
 30
0.0
 10
0.58534
 20
-7.78359
 30
0.0
 10
0.58534
 20
-7.78359
 30
0.0
 10
0.58534
 20
-7.78359
 30
0.0
 10
0.58534
 20
-7.99018
 30
0.0
 10
0.58534
 20
-7.99018
 30
0.0
 10
0.58534
 20
-7.99018
 30
0.0
 10
0.58534
 20
-7.99018
 30
0.0
 10
0.95703
 20
-7.99018
 30
0.0
 10
0.95703
 20
-7.99018
 30
0.0
 10
0.95703
 20
-7.99018
 30
0.0
 10
0.95703
 20
-7.99018
 30
0.0
 10
0.95703
 20
-8.0613
 30
0.0
 10
0.95703
 20
-8.0613
 30
0.0
 10
0.95703
 20
-8.0613
 30
0.0
 10
0.95703
 20
-8.0613
 30
0.0
 10
0.50491
 20
-8.0613
 30
0.0
 10
0.50491
 20
-8.0613
 30
0.0
  0
SPLINE
  5
4B
330
1F
100
AcDbEntity
  8
Layer 1
 62
   250
100
AcDbSpline
210
0.0
220
0.0
230
1.0
 70
    11
 71
     3
 72
    64
 73
    60
 74
     0
 42
0.0000000001
 43
0.0000000001
 12
1.0
 22
0.0
 32
0.0
 13
1.0
 23
0.0
 33
0.0
 40
0.0
 40
0.0
 40
0.0
 40
0.0
 40
0.0625
 40
0.0625
 40
0.0625
 40
0.0625
 40
0.125
 40
0.125
 40
0.125
 40
0.125
 40
0.1875
 40
0.1875
 40
0.1875
 40
0.1875
 40
0.25
 40
0.25
 40
0.25
 40
0.25
 40
0.3125
 40
0.3125
 40
0.3125
 40
0.3125
 40
0.375
 40
0.375
 40
0.375
 40
0.375
 40
0.4375
 40
0.4375
 40
0.4375
 40
0.4375
 40
0.5
 40
0.5
 40
0.5
 40
0.5
 40
0.5625
 40
0.5625
 40
0.5625
 40
0.5625
 40
0.625
 40
0.625
 40
0.625
 40
0.625
 40
0.6875
 40
0.6875
 40
0.6875
 40
0.6875
 40
0.75
 40
0.75
 40
0.75
 40
0.75
 40
0.8125
 40
0.8125
 40
0.8125
 40
0.8125
 40
0.875
 40
0.875
 40
0.875
 40
0.875
 40
1.0
 40
1.0
 40
1.0
 40
1.0
 10
1.06625
 20
-8.0613
 30
0.0
 10
1.06625
 20
-8.0613
 30
0.0
 10
1.06625
 20
-7.45508
 30
0.0
 10
1.06625
 20
-7.45508
 30
0.0
 10
1.06625
 20
-7.45508
 30
0.0
 10
1.06625
 20
-7.45508
 30
0.0
 10
1.18648
 20
-7.45508
 30
0.0
 10
1.18648
 20
-7.45508
 30
0.0
 10
1.18648
 20
-7.45508
 30
0.0
 10
1.18648
 20
-7.45508
 30
0.0
 10
1.32985
 20
-7.8842
 30
0.0
 10
1.32985
 20
-7.8842
 30
0.0
 10
1.32985
 20
-7.8842
 30
0.0
 10
1.34311
 20
-7.92414
 30
0.0
 10
1.35271
 20
-7.95406
 30
0.0
 10
1.35877
 20
-7.97395
 30
0.0
 10
1.35877
 20
-7.97395
 30
0.0
 10
1.36569
 20
-7.95194
 30
0.0
 10
1.37655
 20
-7.91948
 30
0.0
 10
1.39123
 20
-7.87673
 30
0.0
 10
1.39123
 20
-7.87673
 30
0.0
 10
1.39123
 20
-7.87673
 30
0.0
 10
1.53714
 20
-7.45508
 30
0.0
 10
1.53714
 20
-7.45508
 30
0.0
 10
1.53714
 20
-7.45508
 30
0.0
 10
1.53714
 20
-7.45508
 30
0.0
 10
1.64453
 20
-7.45508
 30
0.0
 10
1.64453
 20
-7.45508
 30
0.0
 10
1.64453
 20
-7.45508
 30
0.0
 10
1.64453
 20
-7.45508
 30
0.0
 10
1.64453
 20
-8.0613
 30
0.0
 10
1.64453
 20
-8.0613
 30
0.0
 10
1.64453
 20
-8.0613
 30
0.0
 10
1.64453
 20
-8.0613
 30
0.0
 10
1.56748
 20
-8.0613
 30
0.0
 10
1.56748
 20
-8.0613
 30
0.0
 10
1.56748
 20
-8.0613
 30
0.0
 10
1.56748
 20
-8.0613
 30
0.0
 10
1.56748
 20
-7.55414
 30
0.0
 10
1.56748
 20
-7.55414
 30
0.0
 10
1.56748
 20
-7.55414
 30
0.0
 10
1.56748
 20
-7.55414
 30
0.0
 10
1.39052
 20
-8.0613
 30
0.0
 10
1.39052
 20
-8.0613
 30
0.0
 10
1.39052
 20
-8.0613
 30
0.0
 10
1.39052
 20
-8.0613
 30
0.0
 10
1.31828
 20
-8.0613
 30
0.0
 10
1.31828
 20
-8.0613
 30
0.0
 10
1.31828
 20
-8.0613
 30
0.0
 10
1.31828
 20
-8.0613
 30
0.0
 10
1.1433
 20
-7.54483
 30
0.0
 10
1.1433
 20
-7.54483
 30
0.0
 10
1.1433
 20
-7.54483
 30
0.0
 10
1.1433
 20
-7.54483
 30
0.0
 10
1.1433
 20
-8.0613
 30
0.0
 10
1.1433
 20
-8.0613
 30
0.0
 10
1.1433
 20
-8.0613
 30
0.0
 10
1.1433
 20
-8.0613
 30
0.0
 10
1.06625
 20
-8.0613
 30
0.0
 10
1.06625
 20
-8.0613
 30
0.0
  0
SPLINE
  5
4C
330
1F
100
AcDbEntity
  8
Layer 1
 62
   250
100
AcDbSpline
210
0.0
220
0.0
230
1.0
 70
    11
 71
     3
 72
    48
 73
    44
 74
     0
 42
0.0000000001
 43
0.0000000001
 12
1.0
 22
0.0
 32
0.0
 13
1.0
 23
0.0
 33
0.0
 40
0.0
 40
0.0
 40
0.0
 40
0.0
 40
0.0833333333333333
 40
0.0833333333333333
 40
0.0833333333333333
 40
0.0833333333333333
 40
0.1666666666666667
 40
0.1666666666666667
 40
0.1666666666666667
 40
0.1666666666666667
 40
0.25
 40
0.25
 40
0.25
 40
0.25
 40
0.3333333333333333
 40
0.3333333333333333
 40
0.3333333333333333
 40
0.3333333333333333
 40
0.4166666666666667
 40
0.4166666666666667
 40
0.4166666666666667
 40
0.4166666666666667
 40
0.5
 40
0.5
 40
0.5
 40
0.5
 40
0.5833333333333334
 40
0.5833333333333334
 40
0.5833333333333334
 40
0.5833333333333334
 40
0.6666666666666666
 40
0.6666666666666666
 40
0.6666666666666666
 40
0.6666666666666666
 40
0.75
 40
0.75
 40
0.75
 40
0.75
 40
0.8333333333333334
 40
0.8333333333333334
 40
0.8333333333333334
 40
0.8333333333333334
 40
1.0
 40
1.0
 40
1.0
 40
1.0
 10
1.77322
 20
-8.0613
 30
0.0
 10
1.77322
 20
-8.0613
 30
0.0
 10
1.77322
 20
-7.45508
 30
0.0
 10
1.77322
 20
-7.45508
 30
0.0
 10
1.77322
 20
-7.45508
 30
0.0
 10
1.77322
 20
-7.45508
 30
0.0
 10
2.00211
 20
-7.45508
 30
0.0
 10
2.00211
 20
-7.45508
 30
0.0
 10
2.00211
 20
-7.45508
 30
0.0
 10
2.04232
 20
-7.45508
 30
0.0
 10
2.07309
 20
-7.45706
 30
0.0
 10
2.09439
 20
-7.46087
 30
0.0
 10
2.09439
 20
-7.46087
 30
0.0
 10
2.12417
 20
-7.46581
 30
0.0
 10
2.14915
 20
-7.47526
 30
0.0
 10
2.16932
 20
-7.48909
 30
0.0
 10
2.16932
 20
-7.48909
 30
0.0
 10
2.1895
 20
-7.50306
 30
0.0
 10
2.20573
 20
-7.52254
 30
0.0
 10
2.21801
 20
-7.54751
 30
0.0
 10
2.21801
 20
-7.54751
 30
0.0
 10
2.23028
 20
-7.57249
 30
0.0
 10
2.23635
 20
-7.60001
 30
0.0
 10
2.23635
 20
-7.63006
 30
0.0
 10
2.23635
 20
-7.63006
 30
0.0
 10
2.23635
 20
-7.68143
 30
0.0
 10
2.21998
 20
-7.72503
 30
0.0
 10
2.1871
 20
-7.76059
 30
0.0
 10
2.1871
 20
-7.76059
 30
0.0
 10
2.15437
 20
-7.79629
 30
0.0
 10
2.09496
 20
-7.81407
 30
0.0
 10
2.00916
 20
-7.81407
 30
0.0
 10
2.00916
 20
-7.81407
 30
0.0
 10
2.00916
 20
-7.81407
 30
0.0
 10
1.85366
 20
-7.81407
 30
0.0
 10
1.85366
 20
-7.81407
 30
0.0
 10
1.85366
 20
-7.81407
 30
0.0
 10
1.85366
 20
-7.81407
 30
0.0
 10
1.85366
 20
-8.0613
 30
0.0
 10
1.85366
 20
-8.0613
 30
0.0
 10
1.85366
 20
-8.0613
 30
0.0
 10
1.85366
 20
-8.0613
 30
0.0
 10
1.77322
 20
-8.0613
 30
0.0
 10
1.77322
 20
-8.0613
 30
0.0
  0
SPLINE
  5
4D
330
1F
100
AcDbEntity
  8
Layer 1
 62
   250
100
AcDbSpline
210
0.0
220
0.0
230
1.0
 70
    11
 71
     3
 72
    36
 73
    32
 74
     0
 42
0.0000000001
 43
0.0000000001
 12
1.0
 22
0.0
 32
0.0
 13
1.0
 23
0.0
 33
0.0
 40
0.0
 40
0.0
 40
0.0
 40
0.0
 40
0.1111111111111111
 40
0.1111111111111111
 40
0.1111111111111111
 40
0.1111111111111111
 40
0.2222222222222222
 40
0.2222222222222222
 40
0.2222222222222222
 40
0.2222222222222222
 40
0.3333333333333333
 40
0.3333333333333333
 40
0.3333333333333333
 40
0.3333333333333333
 40
0.4444444444444444
 40
0.4444444444444444
 40
0.4444444444444444
 40
0.4444444444444444
 40
0.5555555555555556
 40
0.5555555555555556
 40
0.5555555555555556
 40
0.5555555555555556
 40
0.6666666666666666
 40
0.6666666666666666
 40
0.6666666666666666
 40
0.6666666666666666
 40
0.7777777777777778
 40
0.7777777777777778
 40
0.7777777777777778
 40
0.7777777777777778
 40
1.0
 40
1.0
 40
1.0
 40
1.0
 10
1.85366
 20
-7.74295
 30
0.0
 10
1.85366
 20
-7.74295
 30
0.0
 10
2.01029
 20
-7.74295
 30
0.0
 10
2.01029
 20
-7.74295
 30
0.0
 10
2.01029
 20
-7.74295
 30
0.0
 10
2.06222
 20
-7.74295
 30
0.0
 10
2.09891
 20
-7.73336
 30
0.0
 10
2.12078
 20
-7.71402
 30
0.0
 10
2.12078
 20
-7.71402
 30
0.0
 10
2.14251
 20
-7.69469
 30
0.0
 10
2.15338
 20
-7.6676
 30
0.0
 10
2.15338
 20
-7.63246
 30
0.0
 10
2.15338
 20
-7.63246
 30
0.0
 10
2.15338
 20
-7.6072
 30
0.0
 10
2.14703
 20
-7.58547
 30
0.0
 10
2.13419
 20
-7.56741
 30
0.0
 10
2.13419
 20
-7.56741
 30
0.0
 10
2.12135
 20
-7.54935
 30
0.0
 10
2.10441
 20
-7.53735
 30
0.0
 10
2.08353
 20
-7.53157
 30
0.0
 10
2.08353
 20
-7.53157
 30
0.0
 10
2.06998
 20
-7.52804
 30
0.0
 10
2.045
 20
-7.5262
 30
0.0
 10
2.00874
 20
-7.5262
 30
0.0
 10
2.00874
 20
-7.5262
 30
0.0
 10
2.00874
 20
-7.5262
 30
0.0
 10
1.85366
 20
-7.5262
 30
0.0
 10
1.85366
 20
-7.5262
 30
0.0
 10
1.85366
 20
-7.5262
 30
0.0
 10
1.85366
 20
-7.5262
 30
0.0
 10
1.85366
 20
-7.74295
 30
0.0
 10
1.85366
 20
-7.74295
 30
0.0
  0
SPLINE
  5
4E
330
1F
100
AcDbEntity
  8
Layer 1
 62
   250
100
AcDbSpline
210
0.0
220
0.0
230
1.0
 70
    11
 71
     3
 72
    28
 73
    24
 74
     0
 42
0.0000000001
 43
0.0000000001
 12
1.0
 22
0.0
 32
0.0
 13
1.0
 23
0.0
 33
0.0
 40
0.0
 40
0.0
 40
0.0
 40
0.0
 40
0.1428571428571428
 40
0.1428571428571428
 40
0.1428571428571428
 40
0.1428571428571428
 40
0.2857142857142857
 40
0.2857142857142857
 40
0.2857142857142857
 40
0.2857142857142857
 40
0.4285714285714285
 40
0.4285714285714285
 40
0.4285714285714285
 40
0.4285714285714285
 40
0.5714285714285714
 40
0.5714285714285714
 40
0.5714285714285714
 40
0.5714285714285714
 40
0.7142857142857143
 40
0.7142857142857143
 40
0.7142857142857143
 40
0.7142857142857143
 40
1.0
 40
1.0
 40
1.0
 40
1.0
 10
2.33457
 20
-8.0613
 30
0.0
 10
2.33457
 20
-8.0613
 30
0.0
 10
2.33457
 20
-7.45508
 30
0.0
 10
2.33457
 20
-7.45508
 30
0.0
 10
2.33457
 20
-7.45508
 30
0.0
 10
2.33457
 20
-7.45508
 30
0.0
 10
2.415
 20
-7.45508
 30
0.0
 10
2.415
 20
-7.45508
 30
0.0
 10
2.415
 20
-7.45508
 30
0.0
 10
2.415
 20
-7.45508
 30
0.0
 10
2.415
 20
-7.99018
 30
0.0
 10
2.415
 20
-7.99018
 30
0.0
 10
2.415
 20
-7.99018
 30
0.0
 10
2.415
 20
-7.99018
 30
0.0
 10
2.71303
 20
-7.99018
 30
0.0
 10
2.71303
 20
-7.99018
 30
0.0
 10
2.71303
 20
-7.99018
 30
0.0
 10
2.71303
 20
-7.99018
 30
0.0
 10
2.71303
 20
-8.0613
 30
0.0
 10
2.71303
 20
-8.0613
 30
0.0
 10
2.71303
 20
-8.0613
 30
0.0
 10
2.71303
 20
-8.0613
 30
0.0
 10
2.33457
 20
-8.0613
 30
0.0
 10
2.33457
 20
-8.0613
 30
0.0
  0
SPLINE
  5
4F
330
1F
100
AcDbEntity
  8
Layer 1
 62
   250
100
AcDbSpline
210
0.0
220
0.0
230
1.0
 70
    11
 71
     3
 72
    36
 73
    32
 74
     0
 42
0.0000000001
 43
0.0000000001
 12
1.0
 22
0.0
 32
0.0
 13
1.0
 23
0.0
 33
0.0
 40
0.0
 40
0.0
 40
0.0
 40
0.0
 40
0.1111111111111111
 40
0.1111111111111111
 40
0.1111111111111111
 40
0.1111111111111111
 40
0.2222222222222222
 40
0.2222222222222222
 40
0.2222222222222222
 40
0.2222222222222222
 40
0.3333333333333333
 40
0.3333333333333333
 40
0.3333333333333333
 40
0.3333333333333333
 40
0.4444444444444444
 40
0.4444444444444444
 40
0.4444444444444444
 40
0.4444444444444444
 40
0.5555555555555556
 40
0.5555555555555556
 40
0.5555555555555556
 40
0.5555555555555556
 40
0.6666666666666666
 40
0.6666666666666666
 40
0.6666666666666666
 40
0.6666666666666666
 40
0.7777777777777778
 40
0.7777777777777778
 40
0.7777777777777778
 40
0.7777777777777778
 40
1.0
 40
1.0
 40
1.0
 40
1.0
 10
2.74238
 20
-8.0613
 30
0.0
 10
2.74238
 20
-8.0613
 30
0.0
 10
2.97493
 20
-7.45508
 30
0.0
 10
2.97493
 20
-7.45508
 30
0.0
 10
2.97493
 20
-7.45508
 30
0.0
 10
2.97493
 20
-7.45508
 30
0.0
 10
3.06313
 20
-7.45508
 30
0.0
 10
3.06313
 20
-7.45508
 30
0.0
 10
3.06313
 20
-7.45508
 30
0.0
 10
3.06313
 20
-7.45508
 30
0.0
 10
3.30993
 20
-8.0613
 30
0.0
 10
3.30993
 20
-8.0613
 30
0.0
 10
3.30993
 20
-8.0613
 30
0.0
 10
3.30993
 20
-8.0613
 30
0.0
 10
3.21863
 20
-8.0613
 30
0.0
 10
3.21863
 20
-8.0613
 30
0.0
 10
3.21863
 20
-8.0613
 30
0.0
 10
3.21863
 20
-8.0613
 30
0.0
 10
3.1485
 20
-7.87757
 30
0.0
 10
3.1485
 20
-7.87757
 30
0.0
 10
3.1485
 20
-7.87757
 30
0.0
 10
3.1485
 20
-7.87757
 30
0.0
 10
2.89323
 20
-7.87757
 30
0.0
 10
2.89323
 20
-7.87757
 30
0.0
 10
2.89323
 20
-7.87757
 30
0.0
 10
2.89323
 20
-7.87757
 30
0.0
 10
2.82747
 20
-8.0613
 30
0.0
 10
2.82747
 20
-8.0613
 30
0.0
 10
2.82747
 20
-8.0613
 30
0.0
 10
2.82747
 20
-8.0613
 30
0.0
 10
2.74238
 20
-8.0613
 30
0.0
 10
2.74238
 20
-8.0613
 30
0.0
  0
SPLINE
  5
50
330
1F
100
AcDbEntity
  8
Layer 1
 62
   250
100
AcDbSpline
210
0.0
220
0.0
230
1.0
 70
    11
 71
     3
 72
    24
 73
    20
 74
     0
 42
0.0000000001
 43
0.0000000001
 12
1.0
 22
0.0
 32
0.0
 13
1.0
 23
0.0
 33
0.0
 40
0.0
 40
0.0
 40
0.0
 40
0.0
 40
0.1666666666666667
 40
0.1666666666666667
 40
0.1666666666666667
 40
0.1666666666666667
 40
0.3333333333333333
 40
0.3333333333333333
 40
0.3333333333333333
 40
0.3333333333333333
 40
0.5
 40
0.5
 40
0.5
 40
0.5
 40
0.6666666666666666
 40
0.6666666666666666
 40
0.6666666666666666
 40
0.6666666666666666
 40
1.0
 40
1.0
 40
1.0
 40
1.0
 10
2.91679
 20
-7.81238
 30
0.0
 10
2.91679
 20
-7.81238
 30
0.0
 10
3.12338
 20
-7.81238
 30
0.0
 10
3.12338
 20
-7.81238
 30
0.0
 10
3.12338
 20
-7.81238
 30
0.0
 10
3.12338
 20
-7.81238
 30
0.0
 10
3.06016
 20
-7.64432
 30
0.0
 10
3.06016
 20
-7.64432
 30
0.0
 10
3.06016
 20
-7.64432
 30
0.0
 10
3.04111
 20
-7.59323
 30
0.0
 10
3.02672
 20
-7.55104
 30
0.0
 10
3.0167
 20
-7.51774
 30
0.0
 10
3.0167
 20
-7.51774
 30
0.0
 10
3.00838
 20
-7.55725
 30
0.0
 10
2.99723
 20
-7.59605
 30
0.0
 10
2.98326
 20
-7.63444
 30
0.0
 10
2.98326
 20
-7.63444
 30
0.0
 10
2.98326
 20
-7.63444
 30
0.0
 10
2.91679
 20
-7.81238
 30
0.0
 10
2.91679
 20
-7.81238
 30
0.0
  0
SPLINE
  5
51
330
1F
100
AcDbEntity
  8
Layer 1
 62
   250
100
AcDbSpline
210
0.0
220
0.0
230
1.0
 70
    11
 71
     3
 72
    36
 73
    32
 74
     0
 42
0.0000000001
 43
0.0000000001
 12
1.0
 22
0.0
 32
0.0
 13
1.0
 23
0.0
 33
0.0
 40
0.0
 40
0.0
 40
0.0
 40
0.0
 40
0.1111111111111111
 40
0.1111111111111111
 40
0.1111111111111111
 40
0.1111111111111111
 40
0.2222222222222222
 40
0.2222222222222222
 40
0.2222222222222222
 40
0.2222222222222222
 40
0.3333333333333333
 40
0.3333333333333333
 40
0.3333333333333333
 40
0.3333333333333333
 40
0.4444444444444444
 40
0.4444444444444444
 40
0.4444444444444444
 40
0.4444444444444444
 40
0.5555555555555556
 40
0.5555555555555556
 40
0.5555555555555556
 40
0.5555555555555556
 40
0.6666666666666666
 40
0.6666666666666666
 40
0.6666666666666666
 40
0.6666666666666666
 40
0.7777777777777778
 40
0.7777777777777778
 40
0.7777777777777778
 40
0.7777777777777778
 40
1.0
 40
1.0
 40
1.0
 40
1.0
 10
3.46488
 20
-8.0613
 30
0.0
 10
3.46488
 20
-8.0613
 30
0.0
 10
3.46488
 20
-7.5262
 30
0.0
 10
3.46488
 20
-7.5262
 30
0.0
 10
3.46488
 20
-7.5262
 30
0.0
 10
3.46488
 20
-7.5262
 30
0.0
 10
3.26506
 20
-7.5262
 30
0.0
 10
3.26506
 20
-7.5262
 30
0.0
 10
3.26506
 20
-7.5262
 30
0.0
 10
3.26506
 20
-7.5262
 30
0.0
 10
3.26506
 20
-7.45508
 30
0.0
 10
3.26506
 20
-7.45508
 30
0.0
 10
3.26506
 20
-7.45508
 30
0.0
 10
3.26506
 20
-7.45508
 30
0.0
 10
3.74513
 20
-7.45508
 30
0.0
 10
3.74513
 20
-7.45508
 30
0.0
 10
3.74513
 20
-7.45508
 30
0.0
 10
3.74513
 20
-7.45508
 30
0.0
 10
3.74513
 20
-7.5262
 30
0.0
 10
3.74513
 20
-7.5262
 30
0.0
 10
3.74513
 20
-7.5262
 30
0.0
 10
3.74513
 20
-7.5262
 30
0.0
 10
3.54531
 20
-7.5262
 30
0.0
 10
3.54531
 20
-7.5262
 30
0.0
 10
3.54531
 20
-7.5262
 30
0.0
 10
3.54531
 20
-7.5262
 30
0.0
 10
3.54531
 20
-8.0613
 30
0.0
 10
3.54531
 20
-8.0613
 30
0.0
 10
3.54531
 20
-8.0613
 30
0.0
 10
3.54531
 20
-8.0613
 30
0.0
 10
3.46488
 20
-8.0613
 30
0.0
 10
3.46488
 20
-8.0613
 30
0.0
  0
SPLINE
  5
52
330
1F
100
AcDbEntity
  8
Layer 1
 62
   250
100
AcDbSpline
210
0.0
220
0.0
230
1.0
 70
    11
 71
     3
 72
    52
 73
    48
 74
     0
 42
0.0000000001
 43
0.0000000001
 12
1.0
 22
0.0
 32
0.0
 13
1.0
 23
0.0
 33
0.0
 40
0.0
 40
0.0
 40
0.0
 40
0.0
 40
0.0769230769230769
 40
0.0769230769230769
 40
0.0769230769230769
 40
0.0769230769230769
 40
0.1538461538461539
 40
0.1538461538461539
 40
0.1538461538461539
 40
0.1538461538461539
 40
0.2307692307692308
 40
0.2307692307692308
 40
0.2307692307692308
 40
0.2307692307692308
 40
0.3076923076923077
 40
0.3076923076923077
 40
0.3076923076923077
 40
0.3076923076923077
 40
0.3846153846153846
 40
0.3846153846153846
 40
0.3846153846153846
 40
0.3846153846153846
 40
0.4615384615384616
 40
0.4615384615384616
 40
0.4615384615384616
 40
0.4615384615384616
 40
0.5384615384615384
 40
0.5384615384615384
 40
0.5384615384615384
 40
0.5384615384615384
 40
0.6153846153846154
 40
0.6153846153846154
 40
0.6153846153846154
 40
0.6153846153846154
 40
0.6923076923076923
 40
0.6923076923076923
 40
0.6923076923076923
 40
0.6923076923076923
 40
0.7692307692307693
 40
0.7692307692307693
 40
0.7692307692307693
 40
0.7692307692307693
 40
0.8461538461538461
 40
0.8461538461538461
 40
0.8461538461538461
 40
0.8461538461538461
 40
1.0
 40
1.0
 40
1.0
 40
1.0
 10
3.82965
 20
-8.0613
 30
0.0
 10
3.82965
 20
-8.0613
 30
0.0
 10
3.82965
 20
-7.45508
 30
0.0
 10
3.82965
 20
-7.45508
 30
0.0
 10
3.82965
 20
-7.45508
 30
0.0
 10
3.82965
 20
-7.45508
 30
0.0
 10
4.26738
 20
-7.45508
 30
0.0
 10
4.26738
 20
-7.45508
 30
0.0
 10
4.26738
 20
-7.45508
 30
0.0
 10
4.26738
 20
-7.45508
 30
0.0
 10
4.26738
 20
-7.5262
 30
0.0
 10
4.26738
 20
-7.5262
 30
0.0
 10
4.26738
 20
-7.5262
 30
0.0
 10
4.26738
 20
-7.5262
 30
0.0
 10
3.91008
 20
-7.5262
 30
0.0
 10
3.91008
 20
-7.5262
 30
0.0
 10
3.91008
 20
-7.5262
 30
0.0
 10
3.91008
 20
-7.5262
 30
0.0
 10
3.91008
 20
-7.71247
 30
0.0
 10
3.91008
 20
-7.71247
 30
0.0
 10
3.91008
 20
-7.71247
 30
0.0
 10
3.91008
 20
-7.71247
 30
0.0
 10
4.24452
 20
-7.71247
 30
0.0
 10
4.24452
 20
-7.71247
 30
0.0
 10
4.24452
 20
-7.71247
 30
0.0
 10
4.24452
 20
-7.71247
 30
0.0
 10
4.24452
 20
-7.78359
 30
0.0
 10
4.24452
 20
-7.78359
 30
0.0
 10
4.24452
 20
-7.78359
 30
0.0
 10
4.24452
 20
-7.78359
 30
0.0
 10
3.91008
 20
-7.78359
 30
0.0
 10
3.91008
 20
-7.78359
 30
0.0
 10
3.91008
 20
-7.78359
 30
0.0
 10
3.91008
 20
-7.78359
 30
0.0
 10
3.91008
 20
-7.99018
 30
0.0
 10
3.91008
 20
-7.99018
 30
0.0
 10
3.91008
 20
-7.99018
 30
0.0
 10
3.91008
 20
-7.99018
 30
0.0
 10
4.28177
 20
-7.99018
 30
0.0
 10
4.28177
 20
-7.99018
 30
0.0
 10
4.28177
 20
-7.99018
 30
0.0
 10
4.28177
 20
-7.99018
 30
0.0
 10
4.28177
 20
-8.0613
 30
0.0
 10
4.28177
 20
-8.0613
 30
0.0
 10
4.28177
 20
-8.0613
 30
0.0
 10
4.28177
 20
-8.0613
 30
0.0
 10
3.82965
 20
-8.0613
 30
0.0
 10
3.82965
 20
-8.0613
 30
0.0
  0
SPLINE
  5
53
330
1F
100
AcDbEntity
  8
Layer 1
 62
     3
370
     9
100
AcDbSpline
210
0.0
220
0.0
230
1.0
 70
     8
 71
     3
 72
    32
 73
    28
 74
     0
 42
0.0000000001
 43
0.0000000001
 12
1.0
 22
0.0
 32
0.0
 13
1.0
 23
0.0
 33
0.0
 40
0.0
 40
0.0
 40
0.0
 40
0.0
 40
0.125
 40
0.125
 40
0.125
 40
0.125
 40
0.25
 40
0.25
 40
0.25
 40
0.25
 40
0.375
 40
0.375
 40
0.375
 40
0.375
 40
0.5
 40
0.5
 40
0.5
 40
0.5
 40
0.625
 40
0.625
 40
0.625
 40
0.625
 40
0.75
 40
0.75
 40
0.75
 40
0.75
 40
1.0
 40
1.0
 40
1.0
 40
1.0
 10
2.91474
 20
5.28558
 30
0.0
 10
2.91474
 20
5.28558
 30
0.0
 10
-9.87583
 20
5.28558
 30
0.0
 10
-9.87583
 20
5.28558
 30
0.0
 10
-9.87583
 20
5.28558
 30
0.0
 10
-9.985
 20
5.28551
 30
0.0
 10
-10.08966
 20
5.24208
 30
0.0
 10
-10.16681
 20
5.16484
 30
0.0
 10
-10.16681
 20
5.16484
 30
0.0
 10
-10.24395
 20
5.0876
 30
0.0
 10
-10.28725
 20
4.9834
 30
0.0
 10
-10.28718
 20
4.87424
 30
0.0
 10
-10.28718
 20
4.87424
 30
0.0
 10
-10.28718
 20
4.87424
 30
0.0
 10
-10.28718
 20
-5.44774
 30
0.0
 10
-10.28718
 20
-5.44774
 30
0.0
 10
-10.28718
 20
-5.44774
 30
0.0
 10
-10.28711
 20
-5.55691
 30
0.0
 10
-10.24368
 20
-5.66157
 30
0.0
 10
-10.16644
 20
-5.73872
 30
0.0
 10
-10.16644
 20
-5.73872
 30
0.0
 10
-10.0892
 20
-5.81586
 30
0.0
 10
-9.985
 20
-5.85916
 30
0.0
 10
-9.87583
 20
-5.85909
 30
0.0
 10
-9.87583
 20
-5.85909
 30
0.0
 10
-9.87583
 20
-5.85909
 30
0.0
 10
2.91474
 20
-5.85909
 30
0.0
 10
2.91474
 20
-5.85909
 30
0.0
  0
SPLINE
  5
54
330
1F
100
AcDbEntity
  8
Layer 1
 62
     3
370
     9
100
AcDbSpline
210
0.0
220
0.0
230
1.0
 70
     8
 71
     3
 72
    32
 73
    28
 74
     0
 42
0.0000000001
 43
0.0000000001
 12
1.0
 22
0.0
 32
0.0
 13
1.0
 23
0.0
 33
0.0
 40
0.0
 40
0.0
 40
0.0
 40
0.0
 40
0.125
 40
0.125
 40
0.125
 40
0.125
 40
0.25
 40
0.25
 40
0.25
 40
0.25
 40
0.375
 40
0.375
 40
0.375
 40
0.375
 40
0.5
 40
0.5
 40
0.5
 40
0.5
 40
0.625
 40
0.625
 40
0.625
 40
0.625
 40
0.75
 40
0.75
 40
0.75
 40
0.75
 40
1.0
 40
1.0
 40
1.0
 40
1.0
 10
2.91474
 20
5.28558
 30
0.0
 10
2.91474
 20
5.28558
 30
0.0
 10
10.89428
 20
5.28558
 30
0.0
 10
10.89428
 20
5.28558
 30
0.0
 10
10.89428
 20
5.28558
 30
0.0
 10
11.0033
 20
5.28565
 30
0.0
 10
11.10789
 20
5.2424
 30
0.0
 10
11.18503
 20
5.16536
 30
0.0
 10
11.18503
 20
5.16536
 30
0.0
 10
11.26217
 20
5.08832
 30
0.0
 10
11.30555
 20
4.98326
 30
0.0
 10
11.30562
 20
4.87424
 30
0.0
 10
11.30562
 20
4.87424
 30
0.0
 10
11.30562
 20
4.87424
 30
0.0
 10
11.30562
 20
-5.44774
 30
0.0
 10
11.30562
 20
-5.44774
 30
0.0
 10
11.30562
 20
-5.44774
 30
0.0
 10
11.30569
 20
-5.55677
 30
0.0
 10
11.26244
 20
-5.66136
 30
0.0
 10
11.1854
 20
-5.7385
 30
0.0
 10
11.1854
 20
-5.7385
 30
0.0
 10
11.10835
 20
-5.81564
 30
0.0
 10
11.0033
 20
-5.85902
 30
0.0
 10
10.89428
 20
-5.85909
 30
0.0
 10
10.89428
 20
-5.85909
 30
0.0
 10
10.89428
 20
-5.85909
 30
0.0
 10
2.91474
 20
-5.85909
 30
0.0
 10
2.91474
 20
-5.85909
 30
0.0
  0
SPLINE
  5
56
330
1F
100
AcDbEntity
  8
layer 2
 62
     1
370
     0
100
AcDbSpline
210
0.0
220
0.0
230
1.0
 70
    24
 71
     3
 72
     8
 73
     4
 74
     0
 42
0.0000000001
 43
0.0000000001
 12
1.0
 22
0.0
 32
0.0
 13
1.0
 23
0.0
 33
0.0
 40
0.0
 40
0.0
 40
0.0
 40
0.0
 40
1.0
 40
1.0
 40
1.0
 40
1.0
 10
-10.28718
 20
5.01135
 30
0.0
 10
-10.28718
 20
5.01135
 30
0.0
 10
-10.28718
 20
6.38544
 30
0.0
 10
-10.28718
 20
6.38544
 30
0.0
  0
SPLINE
  5
57
330
1F
100
AcDbEntity
  8
layer 2
 62
     1
370
     0
100
AcDbSpline
210
0.0
220
0.0
230
1.0
 70
    24
 71
     3
 72
     8
 73
     4
 74
     0
 42
0.0000000001
 43
0.0000000001
 12
1.0
 22
0.0
 32
0.0
 13
1.0
 23
0.0
 33
0.0
 40
0.0
 40
0.0
 40
0.0
 40
0.0
 40
1.0
 40
1.0
 40
1.0
 40
1.0
 10
11.30562
 20
5.01135
 30
0.0
 10
11.30562
 20
5.01135
 30
0.0
 10
11.30562
 20
6.38544
 30
0.0
 10
11.30562
 20
6.38544
 30
0.0
  0
SPLINE
  5
58
330
1F
100
AcDbEntity
  8
layer 2
 62
     1
370
     0
100
AcDbSpline
210
0.0
220
0.0
230
1.0
 70
    24
 71
     3
 72
     8
 73
     4
 74
     0
 42
0.0000000001
 43
0.0000000001
 12
1.0
 22
0.0
 32
0.0
 13
1.0
 23
0.0
 33
0.0
 40
0.0
 40
0.0
 40
0.0
 40
0.0
 40
1.0
 40
1.0
 40
1.0
 40
1.0
 10
-9.73872
 20
6.11121
 30
0.0
 10
-9.73872
 20
6.11121
 30
0.0
 10
10.75716
 20
6.11121
 30
0.0
 10
10.75716
 20
6.11121
 30
0.0
  0
SPLINE
  5
59
330
1F
100
AcDbEntity
  8
layer 2
 62
     1
100
AcDbSpline
210
0.0
220
0.0
230
1.0
 70
    27
 71
     3
 72
    12
 73
     8
 74
     0
 42
0.0000000001
 43
0.0000000001
 12
1.0
 22
0.0
 32
0.0
 13
1.0
 23
0.0
 33
0.0
 40
0.0
 40
0.0
 40
0.0
 40
0.0
 40
0.3333333333333333
 40
0.3333333333333333
 40
0.3333333333333333
 40
0.3333333333333333
 40
1.0
 40
1.0
 40
1.0
 40
1.0
 10
-9.73872
 20
6.20262
 30
0.0
 10
-9.73872
 20
6.20262
 30
0.0
 10
-10.28718
 20
6.11121
 30
0.0
 10
-10.28718
 20
6.11121
 30
0.0
 10
-10.28718
 20
6.11121
 30
0.0
 10
-10.28718
 20
6.11121
 30
0.0
 10
-9.73872
 20
6.20262
 30
0.0
 10
-9.73872
 20
6.20262
 30
0.0
  0
SPLINE
  5
5A
330
1F
100
AcDbEntity
  8
layer 2
 62
     1
100
AcDbSpline
210
0.0
220
0.0
230
1.0
 70
     8
 71
     3
 72
    12
 73
     8
 74
     0
 42
0.0000000001
 43
0.0000000001
 12
1.0
 22
0.0
 32
0.0
 13
1.0
 23
0.0
 33
0.0
 40
0.0
 40
0.0
 40
0.0
 40
0.0
 40
0.3333333333333333
 40
0.3333333333333333
 40
0.3333333333333333
 40
0.3333333333333333
 40
1.0
 40
1.0
 40
1.0
 40
1.0
 10
-10.28718
 20
6.11121
 30
0.0
 10
-10.28718
 20
6.11121
 30
0.0
 10
-9.73872
 20
6.0198
 30
0.0
 10
-9.73872
 20
6.0198
 30
0.0
 10
-9.73872
 20
6.0198
 30
0.0
 10
-9.73872
 20
6.0198
 30
0.0
 10
-9.73872
 20
6.20262
 30
0.0
 10
-9.73872
 20
6.20262
 30
0.0
  0
SPLINE
  5
5B
330
1F
100
AcDbEntity
  8
layer 2
 62
     1
370
     9
100
AcDbSpline
210
0.0
220
0.0
230
1.0
 70
    24
 71
     3
 72
     8
 73
     4
 74
     0
 42
0.0000000001
 43
0.0000000001
 12
1.0
 22
0.0
 32
0.0
 13
1.0
 23
0.0
 33
0.0
 40
0.0
 40
0.0
 40
0.0
 40
0.0
 40
1.0
 40
1.0
 40
1.0
 40
1.0
 10
-9.73872
 20
6.20262
 30
0.0
 10
-9.73872
 20
6.20262
 30
0.0
 10
-10.28718
 20
6.11121
 30
0.0
 10
-10.28718
 20
6.11121
 30
0.0
  0
SPLINE
  5
5C
330
1F
100
AcDbEntity
  8
layer 2
 62
     1
370
     9
100
AcDbSpline
210
0.0
220
0.0
230
1.0
 70
     8
 71
     3
 72
    12
 73
     8
 74
     0
 42
0.0000000001
 43
0.0000000001
 12
1.0
 22
0.0
 32
0.0
 13
1.0
 23
0.0
 33
0.0
 40
0.0
 40
0.0
 40
0.0
 40
0.0
 40
0.3333333333333333
 40
0.3333333333333333
 40
0.3333333333333333
 40
0.3333333333333333
 40
1.0
 40
1.0
 40
1.0
 40
1.0
 10
-10.28718
 20
6.11121
 30
0.0
 10
-10.28718
 20
6.11121
 30
0.0
 10
-9.73872
 20
6.0198
 30
0.0
 10
-9.73872
 20
6.0198
 30
0.0
 10
-9.73872
 20
6.0198
 30
0.0
 10
-9.73872
 20
6.0198
 30
0.0
 10
-9.73872
 20
6.20262
 30
0.0
 10
-9.73872
 20
6.20262
 30
0.0
  0
SPLINE
  5
5D
330
1F
100
AcDbEntity
  8
layer 2
 62
     1
100
AcDbSpline
210
0.0
220
0.0
230
1.0
 70
    27
 71
     3
 72
    12
 73
     8
 74
     0
 42
0.0000000001
 43
0.0000000001
 12
1.0
 22
0.0
 32
0.0
 13
1.0
 23
0.0
 33
0.0
 40
0.0
 40
0.0
 40
0.0
 40
0.0
 40
0.3333333333333333
 40
0.3333333333333333
 40
0.3333333333333333
 40
0.3333333333333333
 40
1.0
 40
1.0
 40
1.0
 40
1.0
 10
10.75716
 20
6.20262
 30
0.0
 10
10.75716
 20
6.20262
 30
0.0
 10
11.30562
 20
6.11121
 30
0.0
 10
11.30562
 20
6.11121
 30
0.0
 10
11.30562
 20
6.11121
 30
0.0
 10
11.30562
 20
6.11121
 30
0.0
 10
10.75716
 20
6.20262
 30
0.0
 10
10.75716
 20
6.20262
 30
0.0
  0
SPLINE
  5
5E
330
1F
100
AcDbEntity
  8
layer 2
 62
     1
100
AcDbSpline
210
0.0
220
0.0
230
1.0
 70
     8
 71
     3
 72
    12
 73
     8
 74
     0
 42
0.0000000001
 43
0.0000000001
 12
1.0
 22
0.0
 32
0.0
 13
1.0
 23
0.0
 33
0.0
 40
0.0
 40
0.0
 40
0.0
 40
0.0
 40
0.3333333333333333
 40
0.3333333333333333
 40
0.3333333333333333
 40
0.3333333333333333
 40
1.0
 40
1.0
 40
1.0
 40
1.0
 10
11.30562
 20
6.11121
 30
0.0
 10
11.30562
 20
6.11121
 30
0.0
 10
10.75716
 20
6.0198
 30
0.0
 10
10.75716
 20
6.0198
 30
0.0
 10
10.75716
 20
6.0198
 30
0.0
 10
10.75716
 20
6.0198
 30
0.0
 10
10.75716
 20
6.20262
 30
0.0
 10
10.75716
 20
6.20262
 30
0.0
  0
SPLINE
  5
5F
330
1F
100
AcDbEntity
  8
layer 2
 62
     1
370
     9
100
AcDbSpline
210
0.0
220
0.0
230
1.0
 70
    24
 71
     3
 72
     8
 73
     4
 74
     0
 42
0.0000000001
 43
0.0000000001
 12
1.0
 22
0.0
 32
0.0
 13
1.0
 23
0.0
 33
0.0
 40
0.0
 40
0.0
 40
0.0
 40
0.0
 40
1.0
 40
1.0
 40
1.0
 40
1.0
 10
10.75716
 20
6.20262
 30
0.0
 10
10.75716
 20
6.20262
 30
0.0
 10
11.30562
 20
6.11121
 30
0.0
 10
11.30562
 20
6.11121
 30
0.0
  0
SPLINE
  5
60
330
1F
100
AcDbEntity
  8
layer 2
 62
     1
370
     9
100
AcDbSpline
210
0.0
220
0.0
230
1.0
 70
     8
 71
     3
 72
    12
 73
     8
 74
     0
 42
0.0000000001
 43
0.0000000001
 12
1.0
 22
0.0
 32
0.0
 13
1.0
 23
0.0
 33
0.0
 40
0.0
 40
0.0
 40
0.0
 40
0.0
 40
0.3333333333333333
 40
0.3333333333333333
 40
0.3333333333333333
 40
0.3333333333333333
 40
1.0
 40
1.0
 40
1.0
 40
1.0
 10
11.30562
 20
6.11121
 30
0.0
 10
11.30562
 20
6.11121
 30
0.0
 10
10.75716
 20
6.0198
 30
0.0
 10
10.75716
 20
6.0198
 30
0.0
 10
10.75716
 20
6.0198
 30
0.0
 10
10.75716
 20
6.0198
 30
0.0
 10
10.75716
 20
6.20262
 30
0.0
 10
10.75716
 20
6.20262
 30
0.0
  0
SPLINE
  5
61
330
1F
100
AcDbEntity
  8
layer 2
 62
     1
100
AcDbSpline
210
0.0
220
0.0
230
1.0
 70
    11
 71
     3
 72
   124
 73
   120
 74
     0
 42
0.0000000001
 43
0.0000000001
 12
1.0
 22
0.0
 32
0.0
 13
1.0
 23
0.0
 33
0.0
 40
0.0
 40
0.0
 40
0.0
 40
0.0
 40
0.032258064516129
 40
0.032258064516129
 40
0.032258064516129
 40
0.032258064516129
 40
0.0645161290322581
 40
0.0645161290322581
 40
0.0645161290322581
 40
0.0645161290322581
 40
0.0967741935483871
 40
0.0967741935483871
 40
0.0967741935483871
 40
0.0967741935483871
 40
0.1290322580645161
 40
0.1290322580645161
 40
0.1290322580645161
 40
0.1290322580645161
 40
0.1612903225806452
 40
0.1612903225806452
 40
0.1612903225806452
 40
0.1612903225806452
 40
0.1935483870967742
 40
0.1935483870967742
 40
0.1935483870967742
 40
0.1935483870967742
 40
0.2258064516129032
 40
0.2258064516129032
 40
0.2258064516129032
 40
0.2258064516129032
 40
0.2580645161290323
 40
0.2580645161290323
 40
0.2580645161290323
 40
0.2580645161290323
 40
0.2903225806451613
 40
0.2903225806451613
 40
0.2903225806451613
 40
0.2903225806451613
 40
0.3225806451612903
 40
0.3225806451612903
 40
0.3225806451612903
 40
0.3225806451612903
 40
0.3548387096774194
 40
0.3548387096774194
 40
0.3548387096774194
 40
0.3548387096774194
 40
0.3870967741935484
 40
0.3870967741935484
 40
0.3870967741935484
 40
0.3870967741935484
 40
0.4193548387096774
 40
0.4193548387096774
 40
0.4193548387096774
 40
0.4193548387096774
 40
0.4516129032258064
 40
0.4516129032258064
 40
0.4516129032258064
 40
0.4516129032258064
 40
0.4838709677419355
 40
0.4838709677419355
 40
0.4838709677419355
 40
0.4838709677419355
 40
0.5161290322580645
 40
0.5161290322580645
 40
0.5161290322580645
 40
0.5161290322580645
 40
0.5483870967741935
 40
0.5483870967741935
 40
0.5483870967741935
 40
0.5483870967741935
 40
0.5806451612903226
 40
0.5806451612903226
 40
0.5806451612903226
 40
0.5806451612903226
 40
0.6129032258064516
 40
0.6129032258064516
 40
0.6129032258064516
 40
0.6129032258064516
 40
0.6451612903225806
 40
0.6451612903225806
 40
0.6451612903225806
 40
0.6451612903225806
 40
0.6774193548387096
 40
0.6774193548387096
 40
0.6774193548387096
 40
0.6774193548387096
 40
0.7096774193548387
 40
0.7096774193548387
 40
0.7096774193548387
 40
0.7096774193548387
 40
0.7419354838709677
 40
0.7419354838709677
 40
0.7419354838709677
 40
0.7419354838709677
 40
0.7741935483870968
 40
0.7741935483870968
 40
0.7741935483870968
 40
0.7741935483870968
 40
0.8064516129032258
 40
0.8064516129032258
 40
0.8064516129032258
 40
0.8064516129032258
 40
0.8387096774193549
 40
0.8387096774193549
 40
0.8387096774193549
 40
0.8387096774193549
 40
0.8709677419354839
 40
0.8709677419354839
 40
0.8709677419354839
 40
0.8709677419354839
 40
0.9032258064516129
 40
0.9032258064516129
 40
0.9032258064516129
 40
0.9032258064516129
 40
0.9354838709677419
 40
0.9354838709677419
 40
0.9354838709677419
 40
0.9354838709677419
 40
1.0
 40
1.0
 40
1.0
 40
1.0
 10
0.16022
 20
6.44155
 30
0.0
 10
0.16022
 20
6.44155
 30
0.0
 10
0.20462
 20
6.4476
 30
0.0
 10
0.20462
 20
6.4476
 30
0.0
 10
0.20462
 20
6.4476
 30
0.0
 10
0.20975
 20
6.42237
 30
0.0
 10
0.21833
 20
6.40421
 30
0.0
 10
0.23052
 20
6.39311
 30
0.0
 10
0.23052
 20
6.39311
 30
0.0
 10
0.24271
 20
6.38201
 30
0.0
 10
0.25768
 20
6.37646
 30
0.0
 10
0.27543
 20
6.37646
 30
0.0
 10
0.27543
 20
6.37646
 30
0.0
 10
0.29645
 20
6.37646
 30
0.0
 10
0.3142
 20
6.38369
 30
0.0
 10
0.32849
 20
6.39815
 30
0.0
 10
0.32849
 20
6.39815
 30
0.0
 10
0.34279
 20
6.41262
 30
0.0
 10
0.34994
 20
6.43053
 30
0.0
 10
0.34994
 20
6.45189
 30
0.0
 10
0.34994
 20
6.45189
 30
0.0
 10
0.34994
 20
6.47224
 30
0.0
 10
0.34329
 20
6.48906
 30
0.0
 10
0.32992
 20
6.50235
 30
0.0
 10
0.32992
 20
6.50235
 30
0.0
 10
0.31664
 20
6.51555
 30
0.0
 10
0.29973
 20
6.5222
 30
0.0
 10
0.27913
 20
6.5222
 30
0.0
 10
0.27913
 20
6.5222
 30
0.0
 10
0.27072
 20
6.5222
 30
0.0
 10
0.26029
 20
6.52051
 30
0.0
 10
0.24776
 20
6.51724
 30
0.0
 10
0.24776
 20
6.51724
 30
0.0
 10
0.24776
 20
6.51724
 30
0.0
 10
0.25272
 20
6.55609
 30
0.0
 10
0.25272
 20
6.55609
 30
0.0
 10
0.25272
 20
6.55609
 30
0.0
 10
0.25567
 20
6.55575
 30
0.0
 10
0.2581
 20
6.55558
 30
0.0
 10
0.25987
 20
6.55558
 30
0.0
 10
0.25987
 20
6.55558
 30
0.0
 10
0.27888
 20
6.55558
 30
0.0
 10
0.29586
 20
6.56054
 30
0.0
 10
0.31109
 20
6.57038
 30
0.0
 10
0.31109
 20
6.57038
 30
0.0
 10
0.32622
 20
6.58022
 30
0.0
 10
0.33379
 20
6.59536
 30
0.0
 10
0.33379
 20
6.6158
 30
0.0
 10
0.33379
 20
6.6158
 30
0.0
 10
0.33379
 20
6.63203
 30
0.0
 10
0.32824
 20
6.64548
 30
0.0
 10
0.31723
 20
6.65616
 30
0.0
 10
0.31723
 20
6.65616
 30
0.0
 10
0.30621
 20
6.66684
 30
0.0
 10
0.292
 20
6.67214
 30
0.0
 10
0.27459
 20
6.67214
 30
0.0
 10
0.27459
 20
6.67214
 30
0.0
 10
0.25726
 20
6.67214
 30
0.0
 10
0.24288
 20
6.66668
 30
0.0
 10
0.23136
 20
6.65574
 30
0.0
 10
0.23136
 20
6.65574
 30
0.0
 10
0.21984
 20
6.64481
 30
0.0
 10
0.21244
 20
6.62841
 30
0.0
 10
0.20916
 20
6.60655
 30
0.0
 10
0.20916
 20
6.60655
 30
0.0
 10
0.20916
 20
6.60655
 30
0.0
 10
0.16476
 20
6.61462
 30
0.0
 10
0.16476
 20
6.61462
 30
0.0
 10
0.16476
 20
6.61462
 30
0.0
 10
0.17022
 20
6.64439
 30
0.0
 10
0.1825
 20
6.66752
 30
0.0
 10
0.20176
 20
6.68391
 30
0.0
 10
0.20176
 20
6.68391
 30
0.0
 10
0.22093
 20
6.70031
 30
0.0
 10
0.2449
 20
6.70847
 30
0.0
 10
0.27349
 20
6.70847
 30
0.0
 10
0.27349
 20
6.70847
 30
0.0
 10
0.29317
 20
6.70847
 30
0.0
 10
0.31134
 20
6.70427
 30
0.0
 10
0.3279
 20
6.69577
 30
0.0
 10
0.3279
 20
6.69577
 30
0.0
 10
0.34455
 20
6.68736
 30
0.0
 10
0.35725
 20
6.67584
 30
0.0
 10
0.366
 20
6.66129
 30
0.0
 10
0.366
 20
6.66129
 30
0.0
 10
0.37483
 20
6.64666
 30
0.0
 10
0.3792
 20
6.63119
 30
0.0
 10
0.3792
 20
6.61479
 30
0.0
 10
0.3792
 20
6.61479
 30
0.0
 10
0.3792
 20
6.59923
 30
0.0
 10
0.375
 20
6.5851
 30
0.0
 10
0.36667
 20
6.57232
 30
0.0
 10
0.36667
 20
6.57232
 30
0.0
 10
0.35826
 20
6.55954
 30
0.0
 10
0.34582
 20
6.54936
 30
0.0
 10
0.32942
 20
6.54179
 30
0.0
 10
0.32942
 20
6.54179
 30
0.0
 10
0.35078
 20
6.53691
 30
0.0
 10
0.36735
 20
6.52665
 30
0.0
 10
0.3792
 20
6.5111
 30
0.0
 10
0.3792
 20
6.5111
 30
0.0
 10
0.39098
 20
6.49562
 30
0.0
 10
0.39686
 20
6.47611
 30
0.0
 10
0.39686
 20
6.45282
 30
0.0
 10
0.39686
 20
6.45282
 30
0.0
 10
0.39686
 20
6.42128
 30
0.0
 10
0.38534
 20
6.39445
 30
0.0
 10
0.36239
 20
6.37251
 30
0.0
 10
0.36239
 20
6.37251
 30
0.0
 10
0.33934
 20
6.35056
 30
0.0
 10
0.31024
 20
6.33962
 30
0.0
 10
0.27509
 20
6.33962
 30
0.0
 10
0.27509
 20
6.33962
 30
0.0
 10
0.24339
 20
6.33962
 30
0.0
 10
0.21707
 20
6.34912
 30
0.0
 10
0.19613
 20
6.36805
 30
0.0
 10
0.19613
 20
6.36805
 30
0.0
 10
0.1751
 20
6.38697
 30
0.0
 10
0.16316
 20
6.41144
 30
0.0
 10
0.16022
 20
6.44155
 30
0.0
  0
SPLINE
  5
62
330
1F
100
AcDbEntity
  8
layer 2
 62
     1
100
AcDbSpline
210
0.0
220
0.0
230
1.0
 70
    11
 71
     3
 72
    40
 73
    36
 74
     0
 42
0.0000000001
 43
0.0000000001
 12
1.0
 22
0.0
 32
0.0
 13
1.0
 23
0.0
 33
0.0
 40
0.0
 40
0.0
 40
0.0
 40
0.0
 40
0.1
 40
0.1
 40
0.1
 40
0.1
 40
0.2
 40
0.2
 40
0.2
 40
0.2
 40
0.3
 40
0.3
 40
0.3
 40
0.3
 40
0.4
 40
0.4
 40
0.4
 40
0.4
 40
0.5
 40
0.5
 40
0.5
 40
0.5
 40
0.6
 40
0.6
 40
0.6
 40
0.6
 40
0.7
 40
0.7
 40
0.7
 40
0.7
 40
0.8
 40
0.8
 40
0.8
 40
0.8
 40
1.0
 40
1.0
 40
1.0
 40
1.0
 10
0.60736
 20
6.34568
 30
0.0
 10
0.60736
 20
6.34568
 30
0.0
 10
0.56296
 20
6.34568
 30
0.0
 10
0.56296
 20
6.34568
 30
0.0
 10
0.56296
 20
6.34568
 30
0.0
 10
0.56296
 20
6.34568
 30
0.0
 10
0.56296
 20
6.62841
 30
0.0
 10
0.56296
 20
6.62841
 30
0.0
 10
0.56296
 20
6.62841
 30
0.0
 10
0.55228
 20
6.61815
 30
0.0
 10
0.53823
 20
6.60797
 30
0.0
 10
0.52091
 20
6.5978
 30
0.0
 10
0.52091
 20
6.5978
 30
0.0
 10
0.50358
 20
6.58762
 30
0.0
 10
0.48794
 20
6.57997
 30
0.0
 10
0.47415
 20
6.57492
 30
0.0
 10
0.47415
 20
6.57492
 30
0.0
 10
0.47415
 20
6.57492
 30
0.0
 10
0.47415
 20
6.61781
 30
0.0
 10
0.47415
 20
6.61781
 30
0.0
 10
0.47415
 20
6.61781
 30
0.0
 10
0.49896
 20
6.62942
 30
0.0
 10
0.52066
 20
6.64355
 30
0.0
 10
0.53924
 20
6.6602
 30
0.0
 10
0.53924
 20
6.6602
 30
0.0
 10
0.55783
 20
6.67677
 30
0.0
 10
0.57103
 20
6.69283
 30
0.0
 10
0.57877
 20
6.70847
 30
0.0
 10
0.57877
 20
6.70847
 30
0.0
 10
0.57877
 20
6.70847
 30
0.0
 10
0.60736
 20
6.70847
 30
0.0
 10
0.60736
 20
6.70847
 30
0.0
 10
0.60736
 20
6.70847
 30
0.0
 10
0.60736
 20
6.70847
 30
0.0
 10
0.60736
 20
6.34568
 30
0.0
 10
0.60736
 20
6.34568
 30
0.0
  0
SPLINE
  5
63
330
1F
100
AcDbEntity
  8
layer 2
 62
     1
100
AcDbSpline
210
0.0
220
0.0
230
1.0
 70
    11
 71
     3
 72
    28
 73
    24
 74
     0
 42
0.0000000001
 43
0.0000000001
 12
1.0
 22
0.0
 32
0.0
 13
1.0
 23
0.0
 33
0.0
 40
0.0
 40
0.0
 40
0.0
 40
0.0
 40
0.1428571428571428
 40
0.1428571428571428
 40
0.1428571428571428
 40
0.1428571428571428
 40
0.2857142857142857
 40
0.2857142857142857
 40
0.2857142857142857
 40
0.2857142857142857
 40
0.4285714285714285
 40
0.4285714285714285
 40
0.4285714285714285
 40
0.4285714285714285
 40
0.5714285714285714
 40
0.5714285714285714
 40
0.5714285714285714
 40
0.5714285714285714
 40
0.7142857142857143
 40
0.7142857142857143
 40
0.7142857142857143
 40
0.7142857142857143
 40
1.0
 40
1.0
 40
1.0
 40
1.0
 10
0.73578
 20
6.5793
 30
0.0
 10
0.73578
 20
6.5793
 30
0.0
 10
0.7235
 20
6.64792
 30
0.0
 10
0.7235
 20
6.64792
 30
0.0
 10
0.7235
 20
6.64792
 30
0.0
 10
0.7235
 20
6.64792
 30
0.0
 10
0.7235
 20
6.70696
 30
0.0
 10
0.7235
 20
6.70696
 30
0.0
 10
0.7235
 20
6.70696
 30
0.0
 10
0.7235
 20
6.70696
 30
0.0
 10
0.77396
 20
6.70696
 30
0.0
 10
0.77396
 20
6.70696
 30
0.0
 10
0.77396
 20
6.70696
 30
0.0
 10
0.77396
 20
6.70696
 30
0.0
 10
0.77396
 20
6.64792
 30
0.0
 10
0.77396
 20
6.64792
 30
0.0
 10
0.77396
 20
6.64792
 30
0.0
 10
0.77396
 20
6.64792
 30
0.0
 10
0.76286
 20
6.5793
 30
0.0
 10
0.76286
 20
6.5793
 30
0.0
 10
0.76286
 20
6.5793
 30
0.0
 10
0.76286
 20
6.5793
 30
0.0
 10
0.73578
 20
6.5793
 30
0.0
 10
0.73578
 20
6.5793
 30
0.0
  0
SPLINE
  5
64
330
1F
100
AcDbEntity
  8
layer 2
 62
     1
100
AcDbSpline
210
0.0
220
0.0
230
1.0
 70
    11
 71
     3
 72
    28
 73
    24
 74
     0
 42
0.0000000001
 43
0.0000000001
 12
1.0
 22
0.0
 32
0.0
 13
1.0
 23
0.0
 33
0.0
 40
0.0
 40
0.0
 40
0.0
 40
0.0
 40
0.1428571428571428
 40
0.1428571428571428
 40
0.1428571428571428
 40
0.1428571428571428
 40
0.2857142857142857
 40
0.2857142857142857
 40
0.2857142857142857
 40
0.2857142857142857
 40
0.4285714285714285
 40
0.4285714285714285
 40
0.4285714285714285
 40
0.4285714285714285
 40
0.5714285714285714
 40
0.5714285714285714
 40
0.5714285714285714
 40
0.5714285714285714
 40
0.7142857142857143
 40
0.7142857142857143
 40
0.7142857142857143
 40
0.7142857142857143
 40
1.0
 40
1.0
 40
1.0
 40
1.0
 10
0.81727
 20
6.5793
 30
0.0
 10
0.81727
 20
6.5793
 30
0.0
 10
0.80524
 20
6.64792
 30
0.0
 10
0.80524
 20
6.64792
 30
0.0
 10
0.80524
 20
6.64792
 30
0.0
 10
0.80524
 20
6.64792
 30
0.0
 10
0.80524
 20
6.70696
 30
0.0
 10
0.80524
 20
6.70696
 30
0.0
 10
0.80524
 20
6.70696
 30
0.0
 10
0.80524
 20
6.70696
 30
0.0
 10
0.8557
 20
6.70696
 30
0.0
 10
0.8557
 20
6.70696
 30
0.0
 10
0.8557
 20
6.70696
 30
0.0
 10
0.8557
 20
6.70696
 30
0.0
 10
0.8557
 20
6.64792
 30
0.0
 10
0.8557
 20
6.64792
 30
0.0
 10
0.8557
 20
6.64792
 30
0.0
 10
0.8557
 20
6.64792
 30
0.0
 10
0.84384
 20
6.5793
 30
0.0
 10
0.84384
 20
6.5793
 30
0.0
 10
0.84384
 20
6.5793
 30
0.0
 10
0.84384
 20
6.5793
 30
0.0
 10
0.81727
 20
6.5793
 30
0.0
 10
0.81727
 20
6.5793
 30
0.0
  0
SPLINE
  5
65
330
1F
100
AcDbEntity
  8
layer 2
 62
     1
370
     0
100
AcDbSpline
210
0.0
220
0.0
230
1.0
 70
    24
 71
     3
 72
     8
 73
     4
 74
     0
 42
0.0000000001
 43
0.0000000001
 12
1.0
 22
0.0
 32
0.0
 13
1.0
 23
0.0
 33
0.0
 40
0.0
 40
0.0
 40
0.0
 40
0.0
 40
1.0
 40
1.0
 40
1.0
 40
1.0
 10
11.03139
 20
5.28558
 30
0.0
 10
11.03139
 20
5.28558
 30
0.0
 10
12.91771
 20
5.28558
 30
0.0
 10
12.91771
 20
5.28558
 30
0.0
  0
SPLINE
  5
66
330
1F
100
AcDbEntity
  8
layer 2
 62
     1
370
     0
100
AcDbSpline
210
0.0
220
0.0
230
1.0
 70
    24
 71
     3
 72
     8
 73
     4
 74
     0
 42
0.0000000001
 43
0.0000000001
 12
1.0
 22
0.0
 32
0.0
 13
1.0
 23
0.0
 33
0.0
 40
0.0
 40
0.0
 40
0.0
 40
0.0
 40
1.0
 40
1.0
 40
1.0
 40
1.0
 10
11.03139
 20
-5.85909
 30
0.0
 10
11.03139
 20
-5.85909
 30
0.0
 10
12.91771
 20
-5.85909
 30
0.0
 10
12.91771
 20
-5.85909
 30
0.0
  0
SPLINE
  5
67
330
1F
100
AcDbEntity
  8
layer 2
 62
     1
370
     0
100
AcDbSpline
210
0.0
220
0.0
230
1.0
 70
    24
 71
     3
 72
     8
 73
     4
 74
     0
 42
0.0000000001
 43
0.0000000001
 12
1.0
 22
0.0
 32
0.0
 13
1.0
 23
0.0
 33
0.0
 40
0.0
 40
0.0
 40
0.0
 40
0.0
 40
1.0
 40
1.0
 40
1.0
 40
1.0
 10
12.64348
 20
4.73712
 30
0.0
 10
12.64348
 20
4.73712
 30
0.0
 10
12.64348
 20
-5.31063
 30
0.0
 10
12.64348
 20
-5.31063
 30
0.0
  0
SPLINE
  5
68
330
1F
100
AcDbEntity
  8
layer 2
 62
     1
100
AcDbSpline
210
0.0
220
0.0
230
1.0
 70
    27
 71
     3
 72
    12
 73
     8
 74
     0
 42
0.0000000001
 43
0.0000000001
 12
1.0
 22
0.0
 32
0.0
 13
1.0
 23
0.0
 33
0.0
 40
0.0
 40
0.0
 40
0.0
 40
0.0
 40
0.3333333333333333
 40
0.3333333333333333
 40
0.3333333333333333
 40
0.3333333333333333
 40
1.0
 40
1.0
 40
1.0
 40
1.0
 10
12.55207
 20
4.73712
 30
0.0
 10
12.55207
 20
4.73712
 30
0.0
 10
12.64348
 20
5.28558
 30
0.0
 10
12.64348
 20
5.28558
 30
0.0
 10
12.64348
 20
5.28558
 30
0.0
 10
12.64348
 20
5.28558
 30
0.0
 10
12.55207
 20
4.73712
 30
0.0
 10
12.55207
 20
4.73712
 30
0.0
  0
SPLINE
  5
69
330
1F
100
AcDbEntity
  8
layer 2
 62
     1
100
AcDbSpline
210
0.0
220
0.0
230
1.0
 70
     8
 71
     3
 72
    12
 73
     8
 74
     0
 42
0.0000000001
 43
0.0000000001
 12
1.0
 22
0.0
 32
0.0
 13
1.0
 23
0.0
 33
0.0
 40
0.0
 40
0.0
 40
0.0
 40
0.0
 40
0.3333333333333333
 40
0.3333333333333333
 40
0.3333333333333333
 40
0.3333333333333333
 40
1.0
 40
1.0
 40
1.0
 40
1.0
 10
12.64348
 20
5.28558
 30
0.0
 10
12.64348
 20
5.28558
 30
0.0
 10
12.73489
 20
4.73712
 30
0.0
 10
12.73489
 20
4.73712
 30
0.0
 10
12.73489
 20
4.73712
 30
0.0
 10
12.73489
 20
4.73712
 30
0.0
 10
12.55207
 20
4.73712
 30
0.0
 10
12.55207
 20
4.73712
 30
0.0
  0
SPLINE
  5
6A
330
1F
100
AcDbEntity
  8
layer 2
 62
     1
370
     9
100
AcDbSpline
210
0.0
220
0.0
230
1.0
 70
    24
 71
     3
 72
     8
 73
     4
 74
     0
 42
0.0000000001
 43
0.0000000001
 12
1.0
 22
0.0
 32
0.0
 13
1.0
 23
0.0
 33
0.0
 40
0.0
 40
0.0
 40
0.0
 40
0.0
 40
1.0
 40
1.0
 40
1.0
 40
1.0
 10
12.55207
 20
4.73712
 30
0.0
 10
12.55207
 20
4.73712
 30
0.0
 10
12.64348
 20
5.28558
 30
0.0
 10
12.64348
 20
5.28558
 30
0.0
  0
SPLINE
  5
6B
330
1F
100
AcDbEntity
  8
layer 2
 62
     1
370
     9
100
AcDbSpline
210
0.0
220
0.0
230
1.0
 70
     8
 71
     3
 72
    12
 73
     8
 74
     0
 42
0.0000000001
 43
0.0000000001
 12
1.0
 22
0.0
 32
0.0
 13
1.0
 23
0.0
 33
0.0
 40
0.0
 40
0.0
 40
0.0
 40
0.0
 40
0.3333333333333333
 40
0.3333333333333333
 40
0.3333333333333333
 40
0.3333333333333333
 40
1.0
 40
1.0
 40
1.0
 40
1.0
 10
12.64348
 20
5.28558
 30
0.0
 10
12.64348
 20
5.28558
 30
0.0
 10
12.73489
 20
4.73712
 30
0.0
 10
12.73489
 20
4.73712
 30
0.0
 10
12.73489
 20
4.73712
 30
0.0
 10
12.73489
 20
4.73712
 30
0.0
 10
12.55207
 20
4.73712
 30
0.0
 10
12.55207
 20
4.73712
 30
0.0
  0
SPLINE
  5
6C
330
1F
100
AcDbEntity
  8
layer 2
 62
     1
100
AcDbSpline
210
0.0
220
0.0
230
1.0
 70
    27
 71
     3
 72
    12
 73
     8
 74
     0
 42
0.0000000001
 43
0.0000000001
 12
1.0
 22
0.0
 32
0.0
 13
1.0
 23
0.0
 33
0.0
 40
0.0
 40
0.0
 40
0.0
 40
0.0
 40
0.3333333333333333
 40
0.3333333333333333
 40
0.3333333333333333
 40
0.3333333333333333
 40
1.0
 40
1.0
 40
1.0
 40
1.0
 10
12.55207
 20
-5.31063
 30
0.0
 10
12.55207
 20
-5.31063
 30
0.0
 10
12.64348
 20
-5.85909
 30
0.0
 10
12.64348
 20
-5.85909
 30
0.0
 10
12.64348
 20
-5.85909
 30
0.0
 10
12.64348
 20
-5.85909
 30
0.0
 10
12.55207
 20
-5.31063
 30
0.0
 10
12.55207
 20
-5.31063
 30
0.0
  0
SPLINE
  5
6D
330
1F
100
AcDbEntity
  8
layer 2
 62
     1
100
AcDbSpline
210
0.0
220
0.0
230
1.0
 70
     8
 71
     3
 72
    12
 73
     8
 74
     0
 42
0.0000000001
 43
0.0000000001
 12
1.0
 22
0.0
 32
0.0
 13
1.0
 23
0.0
 33
0.0
 40
0.0
 40
0.0
 40
0.0
 40
0.0
 40
0.3333333333333333
 40
0.3333333333333333
 40
0.3333333333333333
 40
0.3333333333333333
 40
1.0
 40
1.0
 40
1.0
 40
1.0
 10
12.64348
 20
-5.85909
 30
0.0
 10
12.64348
 20
-5.85909
 30
0.0
 10
12.73489
 20
-5.31063
 30
0.0
 10
12.73489
 20
-5.31063
 30
0.0
 10
12.73489
 20
-5.31063
 30
0.0
 10
12.73489
 20
-5.31063
 30
0.0
 10
12.55207
 20
-5.31063
 30
0.0
 10
12.55207
 20
-5.31063
 30
0.0
  0
SPLINE
  5
6E
330
1F
100
AcDbEntity
  8
layer 2
 62
     1
370
     9
100
AcDbSpline
210
0.0
220
0.0
230
1.0
 70
    24
 71
     3
 72
     8
 73
     4
 74
     0
 42
0.0000000001
 43
0.0000000001
 12
1.0
 22
0.0
 32
0.0
 13
1.0
 23
0.0
 33
0.0
 40
0.0
 40
0.0
 40
0.0
 40
0.0
 40
1.0
 40
1.0
 40
1.0
 40
1.0
 10
12.55207
 20
-5.31063
 30
0.0
 10
12.55207
 20
-5.31063
 30
0.0
 10
12.64348
 20
-5.85909
 30
0.0
 10
12.64348
 20
-5.85909
 30
0.0
  0
SPLINE
  5
6F
330
1F
100
AcDbEntity
  8
layer 2
 62
     1
370
     9
100
AcDbSpline
210
0.0
220
0.0
230
1.0
 70
     8
 71
     3
 72
    12
 73
     8
 74
     0
 42
0.0000000001
 43
0.0000000001
 12
1.0
 22
0.0
 32
0.0
 13
1.0
 23
0.0
 33
0.0
 40
0.0
 40
0.0
 40
0.0
 40
0.0
 40
0.3333333333333333
 40
0.3333333333333333
 40
0.3333333333333333
 40
0.3333333333333333
 40
1.0
 40
1.0
 40
1.0
 40
1.0
 10
12.64348
 20
-5.85909
 30
0.0
 10
12.64348
 20
-5.85909
 30
0.0
 10
12.73489
 20
-5.31063
 30
0.0
 10
12.73489
 20
-5.31063
 30
0.0
 10
12.73489
 20
-5.31063
 30
0.0
 10
12.73489
 20
-5.31063
 30
0.0
 10
12.55207
 20
-5.31063
 30
0.0
 10
12.55207
 20
-5.31063
 30
0.0
  0
SPLINE
  5
70
330
1F
100
AcDbEntity
  8
layer 2
 62
     1
100
AcDbSpline
210
0.0
220
0.0
230
1.0
 70
    11
 71
     3
 72
    40
 73
    36
 74
     0
 42
0.0000000001
 43
0.0000000001
 12
1.0
 22
0.0
 32
0.0
 13
1.0
 23
0.0
 33
0.0
 40
0.0
 40
0.0
 40
0.0
 40
0.0
 40
0.1
 40
0.1
 40
0.1
 40
0.1
 40
0.2
 40
0.2
 40
0.2
 40
0.2
 40
0.3
 40
0.3
 40
0.3
 40
0.3
 40
0.4
 40
0.4
 40
0.4
 40
0.4
 40
0.5
 40
0.5
 40
0.5
 40
0.5
 40
0.6
 40
0.6
 40
0.6
 40
0.6
 40
0.7
 40
0.7
 40
0.7
 40
0.7
 40
0.8
 40
0.8
 40
0.8
 40
0.8
 40
1.0
 40
1.0
 40
1.0
 40
1.0
 10
12.40902
 20
0.63603
 30
0.0
 10
12.40902
 20
0.63603
 30
0.0
 10
12.40902
 20
0.59163
 30
0.0
 10
12.40902
 20
0.59163
 30
0.0
 10
12.40902
 20
0.59163
 30
0.0
 10
12.40902
 20
0.59163
 30
0.0
 10
12.12628
 20
0.59163
 30
0.0
 10
12.12628
 20
0.59163
 30
0.0
 10
12.12628
 20
0.59163
 30
0.0
 10
12.13654
 20
0.58094
 30
0.0
 10
12.14672
 20
0.5669
 30
0.0
 10
12.15689
 20
0.54958
 30
0.0
 10
12.15689
 20
0.54958
 30
0.0
 10
12.16707
 20
0.53225
 30
0.0
 10
12.17472
 20
0.51661
 30
0.0
 10
12.17977
 20
0.50282
 30
0.0
 10
12.17977
 20
0.50282
 30
0.0
 10
12.17977
 20
0.50282
 30
0.0
 10
12.13688
 20
0.50282
 30
0.0
 10
12.13688
 20
0.50282
 30
0.0
 10
12.13688
 20
0.50282
 30
0.0
 10
12.12528
 20
0.52763
 30
0.0
 10
12.11115
 20
0.54933
 30
0.0
 10
12.0945
 20
0.56791
 30
0.0
 10
12.0945
 20
0.56791
 30
0.0
 10
12.07793
 20
0.58649
 30
0.0
 10
12.06187
 20
0.5997
 30
0.0
 10
12.04622
 20
0.60743
 30
0.0
 10
12.04622
 20
0.60743
 30
0.0
 10
12.04622
 20
0.60743
 30
0.0
 10
12.04622
 20
0.63603
 30
0.0
 10
12.04622
 20
0.63603
 30
0.0
 10
12.04622
 20
0.63603
 30
0.0
 10
12.04622
 20
0.63603
 30
0.0
 10
12.40902
 20
0.63603
 30
0.0
 10
12.40902
 20
0.63603
 30
0.0
  0
SPLINE
  5
71
330
1F
100
AcDbEntity
  8
layer 2
 62
     1
100
AcDbSpline
210
0.0
220
0.0
230
1.0
 70
    11
 71
     3
 72
    80
 73
    76
 74
     0
 42
0.0000000001
 43
0.0000000001
 12
1.0
 22
0.0
 32
0.0
 13
1.0
 23
0.0
 33
0.0
 40
0.0
 40
0.0
 40
0.0
 40
0.0
 40
0.05
 40
0.05
 40
0.05
 40
0.05
 40
0.1
 40
0.1
 40
0.1
 40
0.1
 40
0.15
 40
0.15
 40
0.15
 40
0.15
 40
0.2
 40
0.2
 40
0.2
 40
0.2
 40
0.25
 40
0.25
 40
0.25
 40
0.25
 40
0.3
 40
0.3
 40
0.3
 40
0.3
 40
0.35
 40
0.35
 40
0.35
 40
0.35
 40
0.4
 40
0.4
 40
0.4
 40
0.4
 40
0.45
 40
0.45
 40
0.45
 40
0.45
 40
0.5
 40
0.5
 40
0.5
 40
0.5
 40
0.55
 40
0.55
 40
0.55
 40
0.55
 40
0.6
 40
0.6
 40
0.6
 40
0.6
 40
0.65
 40
0.65
 40
0.65
 40
0.65
 40
0.7
 40
0.7
 40
0.7
 40
0.7
 40
0.75
 40
0.75
 40
0.75
 40
0.75
 40
0.8
 40
0.8
 40
0.8
 40
0.8
 40
0.85
 40
0.85
 40
0.85
 40
0.85
 40
0.9
 40
0.9
 40
0.9
 40
0.9
 40
1.0
 40
1.0
 40
1.0
 40
1.0
 10
12.13604
 20
0.98074
 30
0.0
 10
12.13604
 20
0.98074
 30
0.0
 10
12.13957
 20
0.93684
 30
0.0
 10
12.13957
 20
0.93684
 30
0.0
 10
12.13957
 20
0.93684
 30
0.0
 10
12.12216
 20
0.93289
 30
0.0
 10
12.10946
 20
0.92726
 30
0.0
 10
12.10156
 20
0.91994
 30
0.0
 10
12.10156
 20
0.91994
 30
0.0
 10
12.08886
 20
0.90792
 30
0.0
 10
12.08255
 20
0.89303
 30
0.0
 10
12.08255
 20
0.87537
 30
0.0
 10
12.08255
 20
0.87537
 30
0.0
 10
12.08255
 20
0.86116
 30
0.0
 10
12.08651
 20
0.84854
 30
0.0
 10
12.09441
 20
0.83769
 30
0.0
 10
12.09441
 20
0.83769
 30
0.0
 10
12.10459
 20
0.82373
 30
0.0
 10
12.11939
 20
0.8128
 30
0.0
 10
12.1389
 20
0.80464
 30
0.0
 10
12.1389
 20
0.80464
 30
0.0
 10
12.15849
 20
0.79657
 30
0.0
 10
12.18633
 20
0.79237
 30
0.0
 10
12.22241
 20
0.79203
 30
0.0
 10
12.22241
 20
0.79203
 30
0.0
 10
12.20618
 20
0.80271
 30
0.0
 10
12.19407
 20
0.81583
 30
0.0
 10
12.18625
 20
0.8313
 30
0.0
 10
12.18625
 20
0.8313
 30
0.0
 10
12.17834
 20
0.84678
 30
0.0
 10
12.17439
 20
0.86292
 30
0.0
 10
12.17439
 20
0.87991
 30
0.0
 10
12.17439
 20
0.87991
 30
0.0
 10
12.17439
 20
0.90951
 30
0.0
 10
12.18532
 20
0.93474
 30
0.0
 10
12.2071
 20
0.9556
 30
0.0
 10
12.2071
 20
0.9556
 30
0.0
 10
12.22888
 20
0.97637
 30
0.0
 10
12.25697
 20
0.9868
 30
0.0
 10
12.29154
 20
0.9868
 30
0.0
 10
12.29154
 20
0.9868
 30
0.0
 10
12.31424
 20
0.9868
 30
0.0
 10
12.33526
 20
0.98192
 30
0.0
 10
12.35478
 20
0.97216
 30
0.0
 10
12.35478
 20
0.97216
 30
0.0
 10
12.37429
 20
0.96233
 30
0.0
 10
12.38917
 20
0.94895
 30
0.0
 10
12.39952
 20
0.9318
 30
0.0
 10
12.39952
 20
0.9318
 30
0.0
 10
12.40986
 20
0.91473
 30
0.0
 10
12.41507
 20
0.8953
 30
0.0
 10
12.41507
 20
0.8736
 30
0.0
 10
12.41507
 20
0.8736
 30
0.0
 10
12.41507
 20
0.83668
 30
0.0
 10
12.40145
 20
0.80649
 30
0.0
 10
12.37429
 20
0.78311
 30
0.0
 10
12.37429
 20
0.78311
 30
0.0
 10
12.34712
 20
0.75982
 30
0.0
 10
12.3023
 20
0.74813
 30
0.0
 10
12.2399
 20
0.74813
 30
0.0
 10
12.2399
 20
0.74813
 30
0.0
 10
12.1701
 20
0.74813
 30
0.0
 10
12.1193
 20
0.76108
 30
0.0
 10
12.0876
 20
0.7869
 30
0.0
 10
12.0876
 20
0.7869
 30
0.0
 10
12.06001
 20
0.80944
 30
0.0
 10
12.04622
 20
0.8398
 30
0.0
 10
12.04622
 20
0.87806
 30
0.0
 10
12.04622
 20
0.87806
 30
0.0
 10
12.04622
 20
0.90648
 30
0.0
 10
12.05421
 20
0.92986
 30
0.0
 10
12.07011
 20
0.94803
 30
0.0
 10
12.07011
 20
0.94803
 30
0.0
 10
12.086
 20
0.96619
 30
0.0
 10
12.10795
 20
0.97713
 30
0.0
 10
12.13604
 20
0.98074
 30
0.0
  0
SPLINE
  5
72
330
1F
100
AcDbEntity
  8
layer 2
 62
     1
100
AcDbSpline
210
0.0
220
0.0
230
1.0
 70
    11
 71
     3
 72
    40
 73
    36
 74
     0
 42
0.0000000001
 43
0.0000000001
 12
1.0
 22
0.0
 32
0.0
 13
1.0
 23
0.0
 33
0.0
 40
0.0
 40
0.0
 40
0.0
 40
0.0
 40
0.1
 40
0.1
 40
0.1
 40
0.1
 40
0.2
 40
0.2
 40
0.2
 40
0.2
 40
0.3
 40
0.3
 40
0.3
 40
0.3
 40
0.4
 40
0.4
 40
0.4
 40
0.4
 40
0.5
 40
0.5
 40
0.5
 40
0.5
 40
0.6
 40
0.6
 40
0.6
 40
0.6
 40
0.7
 40
0.7
 40
0.7
 40
0.7
 40
0.8
 40
0.8
 40
0.8
 40
0.8
 40
1.0
 40
1.0
 40
1.0
 40
1.0
 10
12.29195
 20
0.79909
 30
0.0
 10
12.30726
 20
0.79909
 30
0.0
 10
12.32189
 20
0.80237
 30
0.0
 10
12.33585
 20
0.80885
 30
0.0
 10
12.33585
 20
0.80885
 30
0.0
 10
12.34981
 20
0.81532
 30
0.0
 10
12.36041
 20
0.82441
 30
0.0
 10
12.36773
 20
0.83593
 30
0.0
 10
12.36773
 20
0.83593
 30
0.0
 10
12.37504
 20
0.84753
 30
0.0
 10
12.37874
 20
0.85981
 30
0.0
 10
12.37874
 20
0.87285
 30
0.0
 10
12.37874
 20
0.87285
 30
0.0
 10
12.37874
 20
0.89177
 30
0.0
 10
12.37117
 20
0.90792
 30
0.0
 10
12.35604
 20
0.92129
 30
0.0
 10
12.35604
 20
0.92129
 30
0.0
 10
12.3409
 20
0.93466
 30
0.0
 10
12.32038
 20
0.94139
 30
0.0
 10
12.29439
 20
0.94139
 30
0.0
 10
12.29439
 20
0.94139
 30
0.0
 10
12.26942
 20
0.94139
 30
0.0
 10
12.24974
 20
0.93474
 30
0.0
 10
12.23536
 20
0.92154
 30
0.0
 10
12.23536
 20
0.92154
 30
0.0
 10
12.22098
 20
0.90834
 30
0.0
 10
12.21374
 20
0.89152
 30
0.0
 10
12.21374
 20
0.87108
 30
0.0
 10
12.21374
 20
0.87108
 30
0.0
 10
12.21374
 20
0.85107
 30
0.0
 10
12.22098
 20
0.83399
 30
0.0
 10
12.23536
 20
0.82003
 30
0.0
 10
12.23536
 20
0.82003
 30
0.0
 10
12.24974
 20
0.80607
 30
0.0
 10
12.26858
 20
0.79909
 30
0.0
 10
12.29195
 20
0.79909
 30
0.0
  0
SPLINE
  5
73
330
1F
100
AcDbEntity
  8
layer 2
 62
     1
100
AcDbSpline
210
0.0
220
0.0
230
1.0
 70
    11
 71
     3
 72
    28
 73
    24
 74
     0
 42
0.0000000001
 43
0.0000000001
 12
1.0
 22
0.0
 32
0.0
 13
1.0
 23
0.0
 33
0.0
 40
0.0
 40
0.0
 40
0.0
 40
0.0
 40
0.1428571428571428
 40
0.1428571428571428
 40
0.1428571428571428
 40
0.1428571428571428
 40
0.2857142857142857
 40
0.2857142857142857
 40
0.2857142857142857
 40
0.2857142857142857
 40
0.4285714285714285
 40
0.4285714285714285
 40
0.4285714285714285
 40
0.4285714285714285
 40
0.5714285714285714
 40
0.5714285714285714
 40
0.5714285714285714
 40
0.5714285714285714
 40
0.7142857142857143
 40
0.7142857142857143
 40
0.7142857142857143
 40
0.7142857142857143
 40
1.0
 40
1.0
 40
1.0
 40
1.0
 10
12.1754
 20
1.04508
 30
0.0
 10
12.1754
 20
1.04508
 30
0.0
 10
12.10677
 20
1.0328
 30
0.0
 10
12.10677
 20
1.0328
 30
0.0
 10
12.10677
 20
1.0328
 30
0.0
 10
12.10677
 20
1.0328
 30
0.0
 10
12.04774
 20
1.0328
 30
0.0
 10
12.04774
 20
1.0328
 30
0.0
 10
12.04774
 20
1.0328
 30
0.0
 10
12.04774
 20
1.0328
 30
0.0
 10
12.04774
 20
1.08326
 30
0.0
 10
12.04774
 20
1.08326
 30
0.0
 10
12.04774
 20
1.08326
 30
0.0
 10
12.04774
 20
1.08326
 30
0.0
 10
12.10677
 20
1.08326
 30
0.0
 10
12.10677
 20
1.08326
 30
0.0
 10
12.10677
 20
1.08326
 30
0.0
 10
12.10677
 20
1.08326
 30
0.0
 10
12.1754
 20
1.07216
 30
0.0
 10
12.1754
 20
1.07216
 30
0.0
 10
12.1754
 20
1.07216
 30
0.0
 10
12.1754
 20
1.07216
 30
0.0
 10
12.1754
 20
1.04508
 30
0.0
 10
12.1754
 20
1.04508
 30
0.0
  0
SPLINE
  5
74
330
1F
100
AcDbEntity
  8
layer 2
 62
     1
100
AcDbSpline
210
0.0
220
0.0
230
1.0
 70
    11
 71
     3
 72
    28
 73
    24
 74
     0
 42
0.0000000001
 43
0.0000000001
 12
1.0
 22
0.0
 32
0.0
 13
1.0
 23
0.0
 33
0.0
 40
0.0
 40
0.0
 40
0.0
 40
0.0
 40
0.1428571428571428
 40
0.1428571428571428
 40
0.1428571428571428
 40
0.1428571428571428
 40
0.2857142857142857
 40
0.2857142857142857
 40
0.2857142857142857
 40
0.2857142857142857
 40
0.4285714285714285
 40
0.4285714285714285
 40
0.4285714285714285
 40
0.4285714285714285
 40
0.5714285714285714
 40
0.5714285714285714
 40
0.5714285714285714
 40
0.5714285714285714
 40
0.7142857142857143
 40
0.7142857142857143
 40
0.7142857142857143
 40
0.7142857142857143
 40
1.0
 40
1.0
 40
1.0
 40
1.0
 10
12.1754
 20
1.12657
 30
0.0
 10
12.1754
 20
1.12657
 30
0.0
 10
12.10677
 20
1.11454
 30
0.0
 10
12.10677
 20
1.11454
 30
0.0
 10
12.10677
 20
1.11454
 30
0.0
 10
12.10677
 20
1.11454
 30
0.0
 10
12.04774
 20
1.11454
 30
0.0
 10
12.04774
 20
1.11454
 30
0.0
 10
12.04774
 20
1.11454
 30
0.0
 10
12.04774
 20
1.11454
 30
0.0
 10
12.04774
 20
1.165
 30
0.0
 10
12.04774
 20
1.165
 30
0.0
 10
12.04774
 20
1.165
 30
0.0
 10
12.04774
 20
1.165
 30
0.0
 10
12.10677
 20
1.165
 30
0.0
 10
12.10677
 20
1.165
 30
0.0
 10
12.10677
 20
1.165
 30
0.0
 10
12.10677
 20
1.165
 30
0.0
 10
12.1754
 20
1.15314
 30
0.0
 10
12.1754
 20
1.15314
 30
0.0
 10
12.1754
 20
1.15314
 30
0.0
 10
12.1754
 20
1.15314
 30
0.0
 10
12.1754
 20
1.12657
 30
0.0
 10
12.1754
 20
1.12657
 30
0.0
  0
SPLINE
  5
75
330
1F
100
AcDbEntity
  8
layer 2
 62
     1
370
     0
100
AcDbSpline
210
0.0
220
0.0
230
1.0
 70
    24
 71
     3
 72
     8
 73
     4
 74
     0
 42
0.0000000001
 43
0.0000000001
 12
1.0
 22
0.0
 32
0.0
 13
1.0
 23
0.0
 33
0.0
 40
0.0
 40
0.0
 40
0.0
 40
0.0
 40
1.0
 40
1.0
 40
1.0
 40
1.0
 10
-11.9081
 20
-7.13473
 30
0.0
 10
-11.9081
 20
-7.13473
 30
0.0
 10
-10.44554
 20
-5.92066
 30
0.0
 10
-10.44554
 20
-5.92066
 30
0.0
  0
SPLINE
  5
76
330
1F
100
AcDbEntity
  8
layer 2
 62
     1
100
AcDbSpline
210
0.0
220
0.0
230
1.0
 70
    11
 71
     3
 72
    80
 73
    76
 74
     0
 42
0.0000000001
 43
0.0000000001
 12
1.0
 22
0.0
 32
0.0
 13
1.0
 23
0.0
 33
0.0
 40
0.0
 40
0.0
 40
0.0
 40
0.0
 40
0.05
 40
0.05
 40
0.05
 40
0.05
 40
0.1
 40
0.1
 40
0.1
 40
0.1
 40
0.15
 40
0.15
 40
0.15
 40
0.15
 40
0.2
 40
0.2
 40
0.2
 40
0.2
 40
0.25
 40
0.25
 40
0.25
 40
0.25
 40
0.3
 40
0.3
 40
0.3
 40
0.3
 40
0.35
 40
0.35
 40
0.35
 40
0.35
 40
0.4
 40
0.4
 40
0.4
 40
0.4
 40
0.45
 40
0.45
 40
0.45
 40
0.45
 40
0.5
 40
0.5
 40
0.5
 40
0.5
 40
0.55
 40
0.55
 40
0.55
 40
0.55
 40
0.6
 40
0.6
 40
0.6
 40
0.6
 40
0.65
 40
0.65
 40
0.65
 40
0.65
 40
0.7
 40
0.7
 40
0.7
 40
0.7
 40
0.75
 40
0.75
 40
0.75
 40
0.75
 40
0.8
 40
0.8
 40
0.8
 40
0.8
 40
0.85
 40
0.85
 40
0.85
 40
0.85
 40
0.9
 40
0.9
 40
0.9
 40
0.9
 40
1.0
 40
1.0
 40
1.0
 40
1.0
 10
-11.74793
 20
-5.91601
 30
0.0
 10
-11.74793
 20
-5.91601
 30
0.0
 10
-11.97869
 20
-5.63802
 30
0.0
 10
-11.97869
 20
-5.63802
 30
0.0
 10
-11.97869
 20
-5.63802
 30
0.0
 10
-11.97869
 20
-5.63802
 30
0.0
 10
-11.85549
 20
-5.53575
 30
0.0
 10
-11.85549
 20
-5.53575
 30
0.0
 10
-11.85549
 20
-5.53575
 30
0.0
 10
-11.8307
 20
-5.51518
 30
0.0
 10
-11.80978
 20
-5.50207
 30
0.0
 10
-11.79277
 20
-5.49636
 30
0.0
 10
-11.79277
 20
-5.49636
 30
0.0
 10
-11.77575
 20
-5.49066
 30
0.0
 10
-11.75816
 20
-5.49092
 30
0.0
 10
-11.73999
 20
-5.49714
 30
0.0
 10
-11.73999
 20
-5.49714
 30
0.0
 10
-11.72181
 20
-5.50337
 30
0.0
 10
-11.70639
 20
-5.51417
 30
0.0
 10
-11.69371
 20
-5.52945
 30
0.0
 10
-11.69371
 20
-5.52945
 30
0.0
 10
-11.67733
 20
-5.54918
 30
0.0
 10
-11.66993
 20
-5.57113
 30
0.0
 10
-11.67145
 20
-5.59524
 30
0.0
 10
-11.67145
 20
-5.59524
 30
0.0
 10
-11.67298
 20
-5.61934
 30
0.0
 10
-11.68556
 20
-5.64421
 30
0.0
 10
-11.70916
 20
-5.67003
 30
0.0
 10
-11.70916
 20
-5.67003
 30
0.0
 10
-11.69552
 20
-5.66658
 30
0.0
 10
-11.68427
 20
-5.66511
 30
0.0
 10
-11.67546
 20
-5.66546
 30
0.0
 10
-11.67546
 20
-5.66546
 30
0.0
 10
-11.65656
 20
-5.66637
 30
0.0
 10
-11.63614
 20
-5.6703
 30
0.0
 10
-11.61433
 20
-5.67722
 30
0.0
 10
-11.61433
 20
-5.67722
 30
0.0
 10
-11.61433
 20
-5.67722
 30
0.0
 10
-11.5034
 20
-5.71302
 30
0.0
 10
-11.5034
 20
-5.71302
 30
0.0
 10
-11.5034
 20
-5.71302
 30
0.0
 10
-11.5034
 20
-5.71302
 30
0.0
 10
-11.54935
 20
-5.75116
 30
0.0
 10
-11.54935
 20
-5.75116
 30
0.0
 10
-11.54935
 20
-5.75116
 30
0.0
 10
-11.54935
 20
-5.75116
 30
0.0
 10
-11.63412
 20
-5.72382
 30
0.0
 10
-11.63412
 20
-5.72382
 30
0.0
 10
-11.63412
 20
-5.72382
 30
0.0
 10
-11.65871
 20
-5.71592
 30
0.0
 10
-11.67816
 20
-5.71053
 30
0.0
 10
-11.69244
 20
-5.70742
 30
0.0
 10
-11.69244
 20
-5.70742
 30
0.0
 10
-11.70679
 20
-5.70435
 30
0.0
 10
-11.7181
 20
-5.70336
 30
0.0
 10
-11.72656
 20
-5.70437
 30
0.0
 10
-11.72656
 20
-5.70437
 30
0.0
 10
-11.73489
 20
-5.70539
 30
0.0
 10
-11.74256
 20
-5.7076
 30
0.0
 10
-11.74944
 20
-5.7109
 30
0.0
 10
-11.74944
 20
-5.7109
 30
0.0
 10
-11.75428
 20
-5.7135
 30
0.0
 10
-11.76145
 20
-5.71869
 30
0.0
 10
-11.77096
 20
-5.72658
 30
0.0
 10
-11.77096
 20
-5.72658
 30
0.0
 10
-11.77096
 20
-5.72658
 30
0.0
 10
-11.81354
 20
-5.76193
 30
0.0
 10
-11.81354
 20
-5.76193
 30
0.0
 10
-11.81354
 20
-5.76193
 30
0.0
 10
-11.81354
 20
-5.76193
 30
0.0
 10
-11.71105
 20
-5.88539
 30
0.0
 10
-11.71105
 20
-5.88539
 30
0.0
 10
-11.71105
 20
-5.88539
 30
0.0
 10
-11.71105
 20
-5.88539
 30
0.0
 10
-11.74793
 20
-5.91601
 30
0.0
 10
-11.74793
 20
-5.91601
 30
0.0
  0
SPLINE
  5
77
330
1F
100
AcDbEntity
  8
layer 2
 62
     1
100
AcDbSpline
210
0.0
220
0.0
230
1.0
 70
    11
 71
     3
 72
    36
 73
    32
 74
     0
 42
0.0000000001
 43
0.0000000001
 12
1.0
 22
0.0
 32
0.0
 13
1.0
 23
0.0
 33
0.0
 40
0.0
 40
0.0
 40
0.0
 40
0.0
 40
0.1111111111111111
 40
0.1111111111111111
 40
0.1111111111111111
 40
0.1111111111111111
 40
0.2222222222222222
 40
0.2222222222222222
 40
0.2222222222222222
 40
0.2222222222222222
 40
0.3333333333333333
 40
0.3333333333333333
 40
0.3333333333333333
 40
0.3333333333333333
 40
0.4444444444444444
 40
0.4444444444444444
 40
0.4444444444444444
 40
0.4444444444444444
 40
0.5555555555555556
 40
0.5555555555555556
 40
0.5555555555555556
 40
0.5555555555555556
 40
0.6666666666666666
 40
0.6666666666666666
 40
0.6666666666666666
 40
0.6666666666666666
 40
0.7777777777777778
 40
0.7777777777777778
 40
0.7777777777777778
 40
0.7777777777777778
 40
1.0
 40
1.0
 40
1.0
 40
1.0
 10
-11.83997
 20
-5.73009
 30
0.0
 10
-11.83997
 20
-5.73009
 30
0.0
 10
-11.76102
 20
-5.66456
 30
0.0
 10
-11.76102
 20
-5.66456
 30
0.0
 10
-11.76102
 20
-5.66456
 30
0.0
 10
-11.7442
 20
-5.65059
 30
0.0
 10
-11.73258
 20
-5.638
 30
0.0
 10
-11.72603
 20
-5.62666
 30
0.0
 10
-11.72603
 20
-5.62666
 30
0.0
 10
-11.71943
 20
-5.61539
 30
0.0
 10
-11.71687
 20
-5.60386
 30
0.0
 10
-11.71841
 20
-5.59213
 30
0.0
 10
-11.71841
 20
-5.59213
 30
0.0
 10
-11.71983
 20
-5.58041
 30
0.0
 10
-11.72424
 20
-5.57009
 30
0.0
 10
-11.73171
 20
-5.5611
 30
0.0
 10
-11.73171
 20
-5.5611
 30
0.0
 10
-11.74261
 20
-5.54796
 30
0.0
 10
-11.75636
 20
-5.54101
 30
0.0
 10
-11.77291
 20
-5.54043
 30
0.0
 10
-11.77291
 20
-5.54043
 30
0.0
 10
-11.78946
 20
-5.53985
 30
0.0
 10
-11.80796
 20
-5.54811
 30
0.0
 10
-11.82848
 20
-5.56513
 30
0.0
 10
-11.82848
 20
-5.56513
 30
0.0
 10
-11.82848
 20
-5.56513
 30
0.0
 10
-11.91635
 20
-5.63808
 30
0.0
 10
-11.91635
 20
-5.63808
 30
0.0
 10
-11.91635
 20
-5.63808
 30
0.0
 10
-11.91635
 20
-5.63808
 30
0.0
 10
-11.83997
 20
-5.73009
 30
0.0
 10
-11.83997
 20
-5.73009
 30
0.0
  0
SPLINE
  5
78
330
1F
100
AcDbEntity
  8
layer 2
 62
     1
100
AcDbSpline
210
0.0
220
0.0
230
1.0
 70
    11
 71
     3
 72
    40
 73
    36
 74
     0
 42
0.0000000001
 43
0.0000000001
 12
1.0
 22
0.0
 32
0.0
 13
1.0
 23
0.0
 33
0.0
 40
0.0
 40
0.0
 40
0.0
 40
0.0
 40
0.1
 40
0.1
 40
0.1
 40
0.1
 40
0.2
 40
0.2
 40
0.2
 40
0.2
 40
0.3
 40
0.3
 40
0.3
 40
0.3
 40
0.4
 40
0.4
 40
0.4
 40
0.4
 40
0.5
 40
0.5
 40
0.5
 40
0.5
 40
0.6
 40
0.6
 40
0.6
 40
0.6
 40
0.7
 40
0.7
 40
0.7
 40
0.7
 40
0.8
 40
0.8
 40
0.8
 40
0.8
 40
1.0
 40
1.0
 40
1.0
 40
1.0
 10
-11.3538
 20
-5.58883
 30
0.0
 10
-11.3538
 20
-5.58883
 30
0.0
 10
-11.38796
 20
-5.61719
 30
0.0
 10
-11.38796
 20
-5.61719
 30
0.0
 10
-11.38796
 20
-5.61719
 30
0.0
 10
-11.38796
 20
-5.61719
 30
0.0
 10
-11.56855
 20
-5.39965
 30
0.0
 10
-11.56855
 20
-5.39965
 30
0.0
 10
-11.56855
 20
-5.39965
 30
0.0
 10
-11.57022
 20
-5.41436
 30
0.0
 10
-11.57452
 20
-5.43116
 30
0.0
 10
-11.58135
 20
-5.45006
 30
0.0
 10
-11.58135
 20
-5.45006
 30
0.0
 10
-11.58819
 20
-5.46895
 30
0.0
 10
-11.59533
 20
-5.48483
 30
0.0
 10
-11.60272
 20
-5.49752
 30
0.0
 10
-11.60272
 20
-5.49752
 30
0.0
 10
-11.60272
 20
-5.49752
 30
0.0
 10
-11.63011
 20
-5.46452
 30
0.0
 10
-11.63011
 20
-5.46452
 30
0.0
 10
-11.63011
 20
-5.46452
 30
0.0
 10
-11.61844
 20
-5.43975
 30
0.0
 10
-11.61077
 20
-5.41502
 30
0.0
 10
-11.6071
 20
-5.39034
 30
0.0
 10
-11.6071
 20
-5.39034
 30
0.0
 10
-11.60339
 20
-5.36572
 30
0.0
 10
-11.60348
 20
-5.34492
 30
0.0
 10
-11.60752
 20
-5.32795
 30
0.0
 10
-11.60752
 20
-5.32795
 30
0.0
 10
-11.60752
 20
-5.32795
 30
0.0
 10
-11.58552
 20
-5.30969
 30
0.0
 10
-11.58552
 20
-5.30969
 30
0.0
 10
-11.58552
 20
-5.30969
 30
0.0
 10
-11.58552
 20
-5.30969
 30
0.0
 10
-11.3538
 20
-5.58883
 30
0.0
 10
-11.3538
 20
-5.58883
 30
0.0
  0
SPLINE
  5
79
330
1F
100
AcDbEntity
  8
layer 2
 62
     1
100
AcDbSpline
210
0.0
220
0.0
230
1.0
 70
    11
 71
     3
 72
    92
 73
    88
 74
     0
 42
0.0000000001
 43
0.0000000001
 12
1.0
 22
0.0
 32
0.0
 13
1.0
 23
0.0
 33
0.0
 40
0.0
 40
0.0
 40
0.0
 40
0.0
 40
0.0434782608695652
 40
0.0434782608695652
 40
0.0434782608695652
 40
0.0434782608695652
 40
0.0869565217391304
 40
0.0869565217391304
 40
0.0869565217391304
 40
0.0869565217391304
 40
0.1304347826086956
 40
0.1304347826086956
 40
0.1304347826086956
 40
0.1304347826086956
 40
0.1739130434782609
 40
0.1739130434782609
 40
0.1739130434782609
 40
0.1739130434782609
 40
0.2173913043478261
 40
0.2173913043478261
 40
0.2173913043478261
 40
0.2173913043478261
 40
0.2608695652173913
 40
0.2608695652173913
 40
0.2608695652173913
 40
0.2608695652173913
 40
0.3043478260869565
 40
0.3043478260869565
 40
0.3043478260869565
 40
0.3043478260869565
 40
0.3478260869565217
 40
0.3478260869565217
 40
0.3478260869565217
 40
0.3478260869565217
 40
0.391304347826087
 40
0.391304347826087
 40
0.391304347826087
 40
0.391304347826087
 40
0.4347826086956522
 40
0.4347826086956522
 40
0.4347826086956522
 40
0.4347826086956522
 40
0.4782608695652174
 40
0.4782608695652174
 40
0.4782608695652174
 40
0.4782608695652174
 40
0.5217391304347826
 40
0.5217391304347826
 40
0.5217391304347826
 40
0.5217391304347826
 40
0.5652173913043478
 40
0.5652173913043478
 40
0.5652173913043478
 40
0.5652173913043478
 40
0.6086956521739131
 40
0.6086956521739131
 40
0.6086956521739131
 40
0.6086956521739131
 40
0.6521739130434783
 40
0.6521739130434783
 40
0.6521739130434783
 40
0.6521739130434783
 40
0.6956521739130435
 40
0.6956521739130435
 40
0.6956521739130435
 40
0.6956521739130435
 40
0.7391304347826086
 40
0.7391304347826086
 40
0.7391304347826086
 40
0.7391304347826086
 40
0.782608695652174
 40
0.782608695652174
 40
0.782608695652174
 40
0.782608695652174
 40
0.8260869565217391
 40
0.8260869565217391
 40
0.8260869565217391
 40
0.8260869565217391
 40
0.8695652173913043
 40
0.8695652173913043
 40
0.8695652173913043
 40
0.8695652173913043
 40
0.9130434782608695
 40
0.9130434782608695
 40
0.9130434782608695
 40
0.9130434782608695
 40
1.0
 40
1.0
 40
1.0
 40
1.0
 10
-11.32658
 20
-5.44295
 30
0.0
 10
-11.32658
 20
-5.44295
 30
0.0
 10
-11.29312
 20
-5.41058
 30
0.0
 10
-11.29312
 20
-5.41058
 30
0.0
 10
-11.29312
 20
-5.41058
 30
0.0
 10
-11.27602
 20
-5.42579
 30
0.0
 10
-11.25902
 20
-5.43375
 30
0.0
 10
-11.24214
 20
-5.43461
 30
0.0
 10
-11.24214
 20
-5.43461
 30
0.0
 10
-11.22531
 20
-5.43539
 30
0.0
 10
-11.20994
 20
-5.43007
 30
0.0
 10
-11.19616
 20
-5.41863
 30
0.0
 10
-11.19616
 20
-5.41863
 30
0.0
 10
-11.17953
 20
-5.40483
 30
0.0
 10
-11.17078
 20
-5.38706
 30
0.0
 10
-11.16971
 20
-5.36531
 30
0.0
 10
-11.16971
 20
-5.36531
 30
0.0
 10
-11.16876
 20
-5.34354
 30
0.0
 10
-11.17678
 20
-5.32243
 30
0.0
 10
-11.19375
 20
-5.30198
 30
0.0
 10
-11.19375
 20
-5.30198
 30
0.0
 10
-11.20992
 20
-5.2825
 30
0.0
 10
-11.22802
 20
-5.27162
 30
0.0
 10
-11.24817
 20
-5.26934
 30
0.0
 10
-11.24817
 20
-5.26934
 30
0.0
 10
-11.26833
 20
-5.26705
 30
0.0
 10
-11.2873
 20
-5.27329
 30
0.0
 10
-11.3051
 20
-5.28806
 30
0.0
 10
-11.3051
 20
-5.28806
 30
0.0
 10
-11.31616
 20
-5.29725
 30
0.0
 10
-11.32397
 20
-5.30799
 30
0.0
 10
-11.32858
 20
-5.32034
 30
0.0
 10
-11.32858
 20
-5.32034
 30
0.0
 10
-11.33312
 20
-5.33264
 30
0.0
 10
-11.33456
 20
-5.34487
 30
0.0
 10
-11.33294
 20
-5.35708
 30
0.0
 10
-11.33294
 20
-5.35708
 30
0.0
 10
-11.33294
 20
-5.35708
 30
0.0
 10
-11.36903
 20
-5.37917
 30
0.0
 10
-11.36903
 20
-5.37917
 30
0.0
 10
-11.36903
 20
-5.37917
 30
0.0
 10
-11.36903
 20
-5.37917
 30
0.0
 10
-11.46084
 20
-5.21406
 30
0.0
 10
-11.46084
 20
-5.21406
 30
0.0
 10
-11.46084
 20
-5.21406
 30
0.0
 10
-11.46084
 20
-5.21406
 30
0.0
 10
-11.32302
 20
-5.09965
 30
0.0
 10
-11.32302
 20
-5.09965
 30
0.0
 10
-11.32302
 20
-5.09965
 30
0.0
 10
-11.32302
 20
-5.09965
 30
0.0
 10
-11.29594
 20
-5.13226
 30
0.0
 10
-11.29594
 20
-5.13226
 30
0.0
 10
-11.29594
 20
-5.13226
 30
0.0
 10
-11.29594
 20
-5.13226
 30
0.0
 10
-11.40653
 20
-5.22406
 30
0.0
 10
-11.40653
 20
-5.22406
 30
0.0
 10
-11.40653
 20
-5.22406
 30
0.0
 10
-11.40653
 20
-5.22406
 30
0.0
 10
-11.35909
 20
-5.31136
 30
0.0
 10
-11.35909
 20
-5.31136
 30
0.0
 10
-11.35909
 20
-5.31136
 30
0.0
 10
-11.35219
 20
-5.28584
 30
0.0
 10
-11.33955
 20
-5.26551
 30
0.0
 10
-11.3213
 20
-5.25036
 30
0.0
 10
-11.3213
 20
-5.25036
 30
0.0
 10
-11.2971
 20
-5.23027
 30
0.0
 10
-11.26967
 20
-5.22172
 30
0.0
 10
-11.23907
 20
-5.22473
 30
0.0
 10
-11.23907
 20
-5.22473
 30
0.0
 10
-11.20848
 20
-5.22775
 30
0.0
 10
-11.18219
 20
-5.24244
 30
0.0
 10
-11.16028
 20
-5.26884
 30
0.0
 10
-11.16028
 20
-5.26884
 30
0.0
 10
-11.13938
 20
-5.29401
 30
0.0
 10
-11.12865
 20
-5.32182
 30
0.0
 10
-11.12807
 20
-5.35227
 30
0.0
 10
-11.12807
 20
-5.35227
 30
0.0
 10
-11.12717
 20
-5.38956
 30
0.0
 10
-11.14215
 20
-5.42102
 30
0.0
 10
-11.17296
 20
-5.44658
 30
0.0
 10
-11.17296
 20
-5.44658
 30
0.0
 10
-11.19819
 20
-5.46753
 30
0.0
 10
-11.22468
 20
-5.47749
 30
0.0
 10
-11.25242
 20
-5.47659
 30
0.0
 10
-11.25242
 20
-5.47659
 30
0.0
 10
-11.28017
 20
-5.47569
 30
0.0
 10
-11.30487
 20
-5.4645
 30
0.0
 10
-11.32658
 20
-5.44295
 30
0.0
  0
SPLINE
  5
7A
330
1F
100
AcDbEntity
  8
layer 2
 62
     1
370
     0
100
AcDbSpline
210
0.0
220
0.0
230
1.0
 70
    24
 71
     3
 72
     8
 73
     4
 74
     0
 42
0.0000000001
 43
0.0000000001
 12
1.0
 22
0.0
 32
0.0
 13
1.0
 23
0.0
 33
0.0
 40
0.0
 40
0.0
 40
0.0
 40
0.0
 40
1.0
 40
1.0
 40
1.0
 40
1.0
 10
-9.87583
 20
-5.44774
 30
0.0
 10
-9.87583
 20
-5.44774
 30
0.0
 10
-10.19234
 20
-5.71048
 30
0.0
 10
-10.19234
 20
-5.71048
 30
0.0
  0
SPLINE
  5
7B
330
1F
100
AcDbEntity
  8
layer 2
 62
     1
100
AcDbSpline
210
0.0
220
0.0
230
1.0
 70
    27
 71
     3
 72
    12
 73
     8
 74
     0
 42
0.0000000001
 43
0.0000000001
 12
1.0
 22
0.0
 32
0.0
 13
1.0
 23
0.0
 33
0.0
 40
0.0
 40
0.0
 40
0.0
 40
0.0
 40
0.3333333333333333
 40
0.3333333333333333
 40
0.3333333333333333
 40
0.3333333333333333
 40
1.0
 40
1.0
 40
1.0
 40
1.0
 10
-10.48057
 20
-5.87846
 30
0.0
 10
-10.48057
 20
-5.87846
 30
0.0
 10
-10.19234
 20
-5.71048
 30
0.0
 10
-10.19234
 20
-5.71048
 30
0.0
 10
-10.19234
 20
-5.71048
 30
0.0
 10
-10.19234
 20
-5.71048
 30
0.0
 10
-10.48057
 20
-5.87846
 30
0.0
 10
-10.48057
 20
-5.87846
 30
0.0
  0
SPLINE
  5
7C
330
1F
100
AcDbEntity
  8
layer 2
 62
     1
100
AcDbSpline
210
0.0
220
0.0
230
1.0
 70
     8
 71
     3
 72
    12
 73
     8
 74
     0
 42
0.0000000001
 43
0.0000000001
 12
1.0
 22
0.0
 32
0.0
 13
1.0
 23
0.0
 33
0.0
 40
0.0
 40
0.0
 40
0.0
 40
0.0
 40
0.3333333333333333
 40
0.3333333333333333
 40
0.3333333333333333
 40
0.3333333333333333
 40
1.0
 40
1.0
 40
1.0
 40
1.0
 10
-10.19234
 20
-5.71048
 30
0.0
 10
-10.19234
 20
-5.71048
 30
0.0
 10
-10.41051
 20
-5.96286
 30
0.0
 10
-10.41051
 20
-5.96286
 30
0.0
 10
-10.41051
 20
-5.96286
 30
0.0
 10
-10.41051
 20
-5.96286
 30
0.0
 10
-10.48057
 20
-5.87846
 30
0.0
 10
-10.48057
 20
-5.87846
 30
0.0
  0
SPLINE
  5
7D
330
1F
100
AcDbEntity
  8
layer 2
 62
     1
370
     9
100
AcDbSpline
210
0.0
220
0.0
230
1.0
 70
    24
 71
     3
 72
     8
 73
     4
 74
     0
 42
0.0000000001
 43
0.0000000001
 12
1.0
 22
0.0
 32
0.0
 13
1.0
 23
0.0
 33
0.0
 40
0.0
 40
0.0
 40
0.0
 40
0.0
 40
1.0
 40
1.0
 40
1.0
 40
1.0
 10
-10.48057
 20
-5.87846
 30
0.0
 10
-10.48057
 20
-5.87846
 30
0.0
 10
-10.19234
 20
-5.71048
 30
0.0
 10
-10.19234
 20
-5.71048
 30
0.0
  0
SPLINE
  5
7E
330
1F
100
AcDbEntity
  8
layer 2
 62
     1
370
     9
100
AcDbSpline
210
0.0
220
0.0
230
1.0
 70
     8
 71
     3
 72
    12
 73
     8
 74
     0
 42
0.0000000001
 43
0.0000000001
 12
1.0
 22
0.0
 32
0.0
 13
1.0
 23
0.0
 33
0.0
 40
0.0
 40
0.0
 40
0.0
 40
0.0
 40
0.3333333333333333
 40
0.3333333333333333
 40
0.3333333333333333
 40
0.3333333333333333
 40
1.0
 40
1.0
 40
1.0
 40
1.0
 10
-10.19234
 20
-5.71048
 30
0.0
 10
-10.19234
 20
-5.71048
 30
0.0
 10
-10.41051
 20
-5.96286
 30
0.0
 10
-10.41051
 20
-5.96286
 30
0.0
 10
-10.41051
 20
-5.96286
 30
0.0
 10
-10.41051
 20
-5.96286
 30
0.0
 10
-10.48057
 20
-5.87846
 30
0.0
 10
-10.48057
 20
-5.87846
 30
0.0
  0
ENDSEC
  0
SECTION
  2
OBJECTS
  0
DICTIONARY
  5
C
330
0
100
AcDbDictionary
281
     1
  3
ACAD_GROUP
350
D
  3
ACAD_LAYOUT
350
1A
  3
ACAD_MATERIAL
350
3B
  3
ACAD_MLEADERSTYLE
350
A0
  3
ACAD_MLINESTYLE
350
17
  3
ACAD_PLOTSETTINGS
350
19
  3
ACAD_PLOTSTYLENAME
350
E
  3
ACAD_TABLESTYLE
350
9F
  3
ACAD_VISUALSTYLE
350
2A
  0
DICTIONARY
  5
D
102
{ACAD_REACTORS
330
C
102
}
330
C
100
AcDbDictionary
281
     1
  0
DICTIONARY
  5
1A
102
{ACAD_REACTORS
330
C
102
}
330
C
100
AcDbDictionary
281
     1
  3
Layout1
350
1E
  3
Layout2
350
26
  3
Model
350
22
  0
DICTIONARY
  5
3B
102
{ACAD_REACTORS
330
C
102
}
330
C
100
AcDbDictionary
281
     1
  3
ByBlock
350
3D
  3
ByLayer
350
3C
  3
Global
350
3E
  0
DICTIONARY
  5
A0
102
{ACAD_REACTORS
330
C
102
}
330
C
100
AcDbDictionary
281
     1
  0
DICTIONARY
  5
17
102
{ACAD_REACTORS
330
C
102
}
330
C
100
AcDbDictionary
281
     1
  3
Standard
350
18
  0
DICTIONARY
  5
19
102
{ACAD_REACTORS
330
C
102
}
330
C
100
AcDbDictionary
281
     1
  0
ACDBDICTIONARYWDFLT
  5
E
102
{ACAD_REACTORS
330
C
102
}
330
C
100
AcDbDictionary
281
     1
  3
Normal
350
F
100
AcDbDictionaryWithDefault
340
F
  0
DICTIONARY
  5
9F
102
{ACAD_REACTORS
330
C
102
}
330
C
100
AcDbDictionary
281
     1
  0
DICTIONARY
  5
2A
102
{ACAD_REACTORS
330
C
102
}
330
C
100
AcDbDictionary
281
     1
  3
2dWireframe
350
2F
  3
3D Hidden
350
31
  3
3dWireframe
350
30
  3
Basic
350
32
  3
Brighten
350
36
  3
ColorChange
350
3A
  3
Conceptual
350
34
  3
Dim
350
35
  3
Facepattern
350
39
  3
Flat
350
2B
  3
FlatWithEdges
350
2C
  3
Gouraud
350
2D
  3
GouraudWithEdges
350
2E
  3
Linepattern
350
38
  3
Realistic
350
33
  3
Thicken
350
37
  0
LAYOUT
  5
1E
102
{ACAD_REACTORS
330
1A
102
}
330
1A
100
AcDbPlotSettings
  1

  2
none_device
  4

  6

 40
0.0
 41
0.0
 42
0.0
 43
0.0
 44
0.0
 45
0.0
 46
0.0
 47
0.0
 48
0.0
 49
0.0
140
0.0
141
0.0
142
1.0
143
1.0
 70
   688
 72
     0
 73
     0
 74
     5
  7

 75
    16
 76
     0
 77
     2
 78
   300
147
1.0
148
0.0
149
0.0
100
AcDbLayout
  1
Layout1
 70
     1
 71
     1
 10
0.0
 20
0.0
 11
12.0
 21
9.0
 12
0.0
 22
0.0
 32
0.0
 14
1.000000000000000E+20
 24
1.000000000000000E+20
 34
1.000000000000000E+20
 15
-1.000000000000000E+20
 25
-1.000000000000000E+20
 35
-1.000000000000000E+20
146
0.0
 13
0.0
 23
0.0
 33
0.0
 16
1.0
 26
0.0
 36
0.0
 17
0.0
 27
1.0
 37
0.0
 76
     0
330
1B
  0
LAYOUT
  5
26
102
{ACAD_REACTORS
330
1A
102
}
330
1A
100
AcDbPlotSettings
  1

  2
none_device
  4

  6

 40
0.0
 41
0.0
 42
0.0
 43
0.0
 44
0.0
 45
0.0
 46
0.0
 47
0.0
 48
0.0
 49
0.0
140
0.0
141
0.0
142
1.0
143
1.0
 70
   688
 72
     0
 73
     0
 74
     5
  7

 75
    16
 76
     0
 77
     2
 78
   300
147
1.0
148
0.0
149
0.0
100
AcDbLayout
  1
Layout2
 70
     1
 71
     2
 10
0.0
 20
0.0
 11
0.0
 21
0.0
 12
0.0
 22
0.0
 32
0.0
 14
0.0
 24
0.0
 34
0.0
 15
0.0
 25
0.0
 35
0.0
146
0.0
 13
0.0
 23
0.0
 33
0.0
 16
1.0
 26
0.0
 36
0.0
 17
0.0
 27
1.0
 37
0.0
 76
     0
330
23
  0
LAYOUT
  5
22
102
{ACAD_REACTORS
330
1A
102
}
330
1A
100
AcDbPlotSettings
  1

  2
none_device
  4

  6

 40
0.0
 41
0.0
 42
0.0
 43
0.0
 44
0.0
 45
0.0
 46
0.0
 47
0.0
 48
0.0
 49
0.0
140
0.0
141
0.0
142
1.0
143
1.0
 70
  1712
 72
     0
 73
     0
 74
     0
  7

 75
     0
 76
     0
 77
     2
 78
   300
147
1.0
148
0.0
149
0.0
100
AcDbLayout
  1
Model
 70
     1
 71
     0
 10
0.0
 20
0.0
 11
12.0
 21
9.0
 12
0.0
 22
0.0
 32
0.0
 14
-11.97869
 24
-8.07146
 34
0.0
 15
12.91771
 25
6.70847
 35
0.0
146
0.0
 13
0.0
 23
0.0
 33
0.0
 16
1.0
 26
0.0
 36
0.0
 17
0.0
 27
1.0
 37
0.0
 76
     0
330
1F
331
29
  0
MATERIAL
  5
3D
102
{ACAD_REACTORS
330
3B
102
}
330
3B
100
AcDbMaterial
  1
ByBlock
 72
     1
 94
      127
  0
MATERIAL
  5
3C
102
{ACAD_REACTORS
330
3B
102
}
330
3B
100
AcDbMaterial
  1
ByLayer
 72
     1
 94
      127
  0
MATERIAL
  5
3E
102
{ACAD_REACTORS
330
3B
102
}
330
3B
100
AcDbMaterial
  1
Global
 72
     1
 94
      127
  0
MLINESTYLE
  5
18
102
{ACAD_REACTORS
330
17
102
}
330
17
100
AcDbMlineStyle
  2
Standard
 70
     0
  3

 62
   256
 51
90.0
 52
90.0
 71
     2
 49
0.5
 62
   256
  6
BYLAYER
 49
-0.5
 62
   256
  6
BYLAYER
  0
ACDBPLACEHOLDER
  5
F
102
{ACAD_REACTORS
330
E
102
}
330
E
  0
VISUALSTYLE
  5
2F
102
{ACAD_REACTORS
330
2A
102
}
102
{ACAD_XDICTIONARY
360
87
102
}
330
2A
100
AcDbVisualStyle
  2
2dWireframe
 70
     4
 71
     0
 72
     2
 73
     0
 90
        0
 40
-0.6
 41
-30.0
 62
     5
 63
     7
421
 16777215
 74
     1
 91
        4
 64
     7
 65
   257
 75
     1
175
     1
 42
1.0
 92
        0
 66
   257
 43
1.0
 76
     1
 77
     6
 78
     2
 67
     7
 79
     5
170
     0
171
     0
290
     0
174
     0
 93
        1
 44
0.0
173
     0
291
     0
 45
0.0
  0
VISUALSTYLE
  5
31
102
{ACAD_REACTORS
330
2A
102
}
102
{ACAD_XDICTIONARY
360
8B
102
}
330
2A
100
AcDbVisualStyle
  2
3D Hidden
 70
     6
 71
     1
 72
     2
 73
     2
 90
        0
 40
-0.6
 41
-30.0
 62
     5
 63
     7
421
 16777215
 74
     2
 91
        2
 64
     7
 65
   257
 75
     2
175
     1
 42
40.0
 92
        0
 66
   257
 43
1.0
 76
     1
 77
     6
 78
     2
 67
     7
 79
     3
170
     0
171
     0
290
     0
174
     0
 93
        1
 44
0.0
173
     0
291
     0
 45
0.0
  0
VISUALSTYLE
  5
30
102
{ACAD_REACTORS
330
2A
102
}
102
{ACAD_XDICTIONARY
360
89
102
}
330
2A
100
AcDbVisualStyle
  2
3dWireframe
 70
     5
 71
     0
 72
     2
 73
     0
 90
        0
 40
-0.6
 41
-30.0
 62
     5
 63
     7
421
 16777215
 74
     1
 91
        4
 64
     7
 65
   257
 75
     1
175
     1
 42
1.0
 92
        0
 66
   257
 43
1.0
 76
     1
 77
     6
 78
     2
 67
     7
 79
     5
170
     0
171
     0
290
     0
174
     0
 93
        1
 44
0.0
173
     0
291
     0
 45
0.0
  0
VISUALSTYLE
  5
32
102
{ACAD_REACTORS
330
2A
102
}
102
{ACAD_XDICTIONARY
360
8D
102
}
330
2A
100
AcDbVisualStyle
  2
Basic
 70
     7
 71
     1
 72
     0
 73
     1
 90
        0
 40
-0.6
 41
-30.0
 62
     5
 63
     7
421
 16777215
 74
     0
 91
        4
 64
     7
 65
   257
 75
     1
175
     1
 42
1.0
 92
        8
 66
     7
 43
1.0
 76
     1
 77
     6
 78
     2
 67
     7
 79
     5
170
     0
171
     0
290
     0
174
     0
 93
        1
 44
0.0
173
     0
291
     1
 45
0.0
  0
VISUALSTYLE
  5
36
102
{ACAD_REACTORS
330
2A
102
}
102
{ACAD_XDICTIONARY
360
95
102
}
330
2A
100
AcDbVisualStyle
  2
Brighten
 70
    12
 71
     2
 72
     2
 73
     0
 90
        0
 40
-0.6
 41
-30.0
 62
     5
 63
     7
421
 16777215
 74
     1
 91
        4
 64
     7
 65
   257
 75
     1
175
     1
 42
1.0
 92
        8
 66
     7
 43
1.0
 76
     1
 77
     6
 78
     2
 67
     7
 79
     5
170
     0
171
     0
290
     0
174
     0
 93
        1
 44
50.0
173
     0
291
     1
 45
0.0
  0
VISUALSTYLE
  5
3A
102
{ACAD_REACTORS
330
2A
102
}
102
{ACAD_XDICTIONARY
360
9D
102
}
330
2A
100
AcDbVisualStyle
  2
ColorChange
 70
    16
 71
     2
 72
     2
 73
     3
 90
        0
 40
-0.6
 41
-30.0
 62
     5
 63
     8
421
  8421504
 74
     1
 91
        4
 64
     7
 65
   257
 75
     1
175
     1
 42
1.0
 92
        8
 66
     8
424
  8421504
 43
1.0
 76
     1
 77
     6
 78
     2
 67
     7
 79
     5
170
     0
171
     0
290
     0
174
     0
 93
        1
 44
0.0
173
     0
291
     1
 45
0.0
  0
VISUALSTYLE
  5
34
102
{ACAD_REACTORS
330
2A
102
}
102
{ACAD_XDICTIONARY
360
91
102
}
330
2A
100
AcDbVisualStyle
  2
Conceptual
 70
     9
 71
     3
 72
     2
 73
     0
 90
        0
 40
-0.6
 41
-30.0
 62
     5
 63
     7
421
 16777215
 74
     2
 91
        2
 64
     7
 65
   257
 75
     1
175
     1
 42
40.0
 92
        8
 66
     7
 43
1.0
 76
     1
 77
     6
 78
     2
 67
     7
 79
     3
170
     0
171
     0
290
     0
174
     0
 93
        1
 44
0.0
173
     0
291
     0
 45
0.0
  0
VISUALSTYLE
  5
35
102
{ACAD_REACTORS
330
2A
102
}
102
{ACAD_XDICTIONARY
360
93
102
}
330
2A
100
AcDbVisualStyle
  2
Dim
 70
    11
 71
     2
 72
     2
 73
     0
 90
        0
 40
-0.6
 41
-30.0
 62
     5
 63
     7
421
 16777215
 74
     1
 91
        4
 64
     7
 65
   257
 75
     1
175
     1
 42
1.0
 92
        8
 66
     7
 43
1.0
 76
     1
 77
     6
 78
     2
 67
     7
 79
     5
170
     0
171
     0
290
     0
174
     0
 93
        1
 44
-50.0
173
     0
291
     1
 45
0.0
  0
VISUALSTYLE
  5
39
102
{ACAD_REACTORS
330
2A
102
}
102
{ACAD_XDICTIONARY
360
9B
102
}
330
2A
100
AcDbVisualStyle
  2
Facepattern
 70
    15
 71
     2
 72
     2
 73
     0
 90
        0
 40
-0.6
 41
-30.0
 62
     5
 63
     7
421
 16777215
 74
     1
 91
        4
 64
     7
 65
   257
 75
     1
175
     1
 42
1.0
 92
        8
 66
     7
 43
1.0
 76
     1
 77
     6
 78
     2
 67
     7
 79
     5
170
     0
171
     0
290
     0
174
     0
 93
        1
 44
0.0
173
     0
291
     1
 45
0.0
  0
VISUALSTYLE
  5
2B
102
{ACAD_REACTORS
330
2A
102
}
102
{ACAD_XDICTIONARY
360
7F
102
}
330
2A
100
AcDbVisualStyle
  2
Flat
 70
     0
 71
     2
 72
     1
 73
     1
 90
        2
 40
-0.6
 41
30.0
 62
     5
 63
     7
421
 16777215
 74
     0
 91
        4
 64
     7
 65
   257
 75
     1
175
     1
 42
1.0
 92
        8
 66
     7
 43
1.0
 76
     1
 77
     6
 78
     2
 67
     7
 79
     5
170
     0
171
     0
290
     0
174
     0
 93
       13
 44
0.0
173
     0
291
     1
 45
0.0
  0
VISUALSTYLE
  5
2C
102
{ACAD_REACTORS
330
2A
102
}
102
{ACAD_XDICTIONARY
360
81
102
}
330
2A
100
AcDbVisualStyle
  2
FlatWithEdges
 70
     1
 71
     2
 72
     1
 73
     1
 90
        2
 40
-0.6
 41
30.0
 62
     5
 63
     7
421
 16777215
 74
     1
 91
        4
 64
     7
 65
   257
 75
     1
175
     1
 42
1.0
 92
        0
 66
   257
 43
1.0
 76
     1
 77
     6
 78
     2
 67
     7
 79
     5
170
     0
171
     0
290
     0
174
     0
 93
       13
 44
0.0
173
     0
291
     1
 45
0.0
  0
VISUALSTYLE
  5
2D
102
{ACAD_REACTORS
330
2A
102
}
102
{ACAD_XDICTIONARY
360
83
102
}
330
2A
100
AcDbVisualStyle
  2
Gouraud
 70
     2
 71
     2
 72
     2
 73
     1
 90
        2
 40
-0.6
 41
30.0
 62
     5
 63
     7
421
 16777215
 74
     0
 91
        4
 64
     7
 65
   257
 75
     1
175
     1
 42
1.0
 92
        0
 66
     7
 43
1.0
 76
     1
 77
     6
 78
     2
 67
     7
 79
     5
170
     0
171
     0
290
     0
174
     0
 93
       13
 44
0.0
173
     0
291
     1
 45
0.0
  0
VISUALSTYLE
  5
2E
102
{ACAD_REACTORS
330
2A
102
}
102
{ACAD_XDICTIONARY
360
85
102
}
330
2A
100
AcDbVisualStyle
  2
GouraudWithEdges
 70
     3
 71
     2
 72
     2
 73
     1
 90
        2
 40
-0.6
 41
30.0
 62
     5
 63
     7
421
 16777215
 74
     1
 91
        4
 64
     7
 65
   257
 75
     1
175
     1
 42
1.0
 92
        0
 66
   257
 43
1.0
 76
     1
 77
     6
 78
     2
 67
     7
 79
     5
170
     0
171
     0
290
     0
174
     0
 93
       13
 44
0.0
173
     0
291
     1
 45
0.0
  0
VISUALSTYLE
  5
38
102
{ACAD_REACTORS
330
2A
102
}
102
{ACAD_XDICTIONARY
360
99
102
}
330
2A
100
AcDbVisualStyle
  2
Linepattern
 70
    14
 71
     2
 72
     2
 73
     0
 90
        0
 40
-0.6
 41
-30.0
 62
     5
 63
     7
421
 16777215
 74
     1
 91
        4
 64
     7
 65
   257
 75
     7
175
     7
 42
1.0
 92
        8
 66
     7
 43
1.0
 76
     1
 77
     6
 78
     2
 67
     7
 79
     5
170
     0
171
     0
290
     0
174
     0
 93
        1
 44
0.0
173
     0
291
     1
 45
0.0
  0
VISUALSTYLE
  5
33
102
{ACAD_REACTORS
330
2A
102
}
102
{ACAD_XDICTIONARY
360
8F
102
}
330
2A
100
AcDbVisualStyle
  2
Realistic
 70
     8
 71
     2
 72
     2
 73
     0
 90
        0
 40
-0.6
 41
-30.0
 62
     5
 63
     7
421
 16777215
 74
     1
 91
        0
 64
     7
 65
   257
 75
     1
175
     1
 42
1.0
 92
        8
 66
     8
424
  7895160
 43
1.0
 76
     1
 77
     6
 78
     2
 67
     7
 79
     5
170
     0
171
     0
290
     0
174
     0
 93
       13
 44
0.0
173
     0
291
     0
 45
0.0
  0
VISUALSTYLE
  5
37
102
{ACAD_REACTORS
330
2A
102
}
102
{ACAD_XDICTIONARY
360
97
102
}
330
2A
100
AcDbVisualStyle
  2
Thicken
 70
    13
 71
     2
 72
     2
 73
     0
 90
        0
 40
-0.6
 41
-30.0
 62
     5
 63
     7
421
 16777215
 74
     1
 91
        4
 64
     7
 65
   257
 75
     1
175
     1
 42
1.0
 92
       12
 66
     7
 43
1.0
 76
     1
 77
     6
 78
     2
 67
     7
 79
     5
170
     0
171
     0
290
     0
174
     0
 93
        1
 44
0.0
173
     0
291
     1
 45
0.0
  0
DICTIONARY
  5
87
330
2F
100
AcDbDictionary
280
     1
281
     1
  3
ACAD_XREC_ROUNDTRIP
360
88
  0
DICTIONARY
  5
8B
330
31
100
AcDbDictionary
280
     1
281
     1
  3
ACAD_XREC_ROUNDTRIP
360
8C
  0
DICTIONARY
  5
89
330
30
100
AcDbDictionary
280
     1
281
     1
  3
ACAD_XREC_ROUNDTRIP
360
8A
  0
DICTIONARY
  5
8D
330
32
100
AcDbDictionary
280
     1
281
     1
  3
ACAD_XREC_ROUNDTRIP
360
8E
  0
DICTIONARY
  5
95
330
36
100
AcDbDictionary
280
     1
281
     1
  3
ACAD_XREC_ROUNDTRIP
360
96
  0
DICTIONARY
  5
9D
330
3A
100
AcDbDictionary
280
     1
281
     1
  3
ACAD_XREC_ROUNDTRIP
360
9E
  0
DICTIONARY
  5
91
330
34
100
AcDbDictionary
280
     1
281
     1
  3
ACAD_XREC_ROUNDTRIP
360
92
  0
DICTIONARY
  5
93
330
35
100
AcDbDictionary
280
     1
281
     1
  3
ACAD_XREC_ROUNDTRIP
360
94
  0
DICTIONARY
  5
9B
330
39
100
AcDbDictionary
280
     1
281
     1
  3
ACAD_XREC_ROUNDTRIP
360
9C
  0
DICTIONARY
  5
7F
330
2B
100
AcDbDictionary
280
     1
281
     1
  3
ACAD_XREC_ROUNDTRIP
360
80
  0
DICTIONARY
  5
81
330
2C
100
AcDbDictionary
280
     1
281
     1
  3
ACAD_XREC_ROUNDTRIP
360
82
  0
DICTIONARY
  5
83
330
2D
100
AcDbDictionary
280
     1
281
     1
  3
ACAD_XREC_ROUNDTRIP
360
84
  0
DICTIONARY
  5
85
330
2E
100
AcDbDictionary
280
     1
281
     1
  3
ACAD_XREC_ROUNDTRIP
360
86
  0
DICTIONARY
  5
99
330
38
100
AcDbDictionary
280
     1
281
     1
  3
ACAD_XREC_ROUNDTRIP
360
9A
  0
DICTIONARY
  5
8F
330
33
100
AcDbDictionary
280
     1
281
     1
  3
ACAD_XREC_ROUNDTRIP
360
90
  0
DICTIONARY
  5
97
330
37
100
AcDbDictionary
280
     1
281
     1
  3
ACAD_XREC_ROUNDTRIP
360
98
  0
XRECORD
  5
88
102
{ACAD_REACTORS
330
87
102
}
330
87
100
AcDbXrecord
280
     1
102
RTVSPropertyOp0
 70
     1
102
RTVSPropertyOp1
 70
     1
102
RTVSPropertyOp2
 70
     1
102
RTVSPropertyOp3
 70
     1
102
RTVSPropertyOp4
 70
     1
102
RTVSPropertyOp5
 70
     1
102
RTVSPropertyOp6
 70
     1
102
RTVSPropertyOp7
 70
     1
102
RTVSPropertyOp8
 70
     1
102
RTVSPropertyOp9
 70
     1
102
RTVSPropertyOp10
 70
     1
102
RTVSPropertyOp11
 70
     1
102
RTVSPropertyOp12
 70
     1
102
RTVSPropertyOp13
 70
     1
102
RTVSPropertyOp14
 70
     1
102
RTVSPropertyOp15
 70
     1
102
RTVSPropertyOp16
 70
     1
102
RTVSPropertyOp17
 70
     1
102
RTVSPropertyOp18
 70
     1
102
RTVSPropertyOp19
 70
     1
102
RTVSPropertyOp20
 70
     1
102
RTVSPropertyOp21
 70
     1
102
RTVSPropertyOp22
 70
     1
102
RTVSPropertyOp23
 70
     1
102
RTVSPropertyOp24
 70
     1
102
RTVSPropertyOp25
 70
     1
102
RTVSPropertyOp26
 70
     1
102
RTVSPropertyOp27
 70
     1
102
RTVSPropertyOp28
 70
     1
102
RTVSPropertyOp29
 70
     1
102
RTVSPropertyOp30
 70
     1
102
RTVSPropertyOp31
 70
     1
102
RTVSPropertyOp32
 70
     1
  0
XRECORD
  5
8C
102
{ACAD_REACTORS
330
8B
102
}
330
8B
100
AcDbXrecord
280
     1
102
RTVSPropertyOp0
 70
     1
102
RTVSPropertyOp1
 70
     1
102
RTVSPropertyOp2
 70
     1
102
RTVSPropertyOp3
 70
     1
102
RTVSPropertyOp4
 70
     1
102
RTVSPropertyOp5
 70
     1
102
RTVSPropertyOp6
 70
     1
102
RTVSPropertyOp7
 70
     1
102
RTVSPropertyOp8
 70
     1
102
RTVSPropertyOp9
 70
     1
102
RTVSPropertyOp10
 70
     1
102
RTVSPropertyOp11
 70
     1
102
RTVSPropertyOp12
 70
     1
102
RTVSPropertyOp13
 70
     1
102
RTVSPropertyOp14
 70
     1
102
RTVSPropertyOp15
 70
     1
102
RTVSPropertyOp16
 70
     1
102
RTVSPropertyOp17
 70
     1
102
RTVSPropertyOp18
 70
     1
102
RTVSPropertyOp19
 70
     1
102
RTVSPropertyOp20
 70
     1
102
RTVSPropertyOp21
 70
     1
102
RTVSPropertyOp22
 70
     1
102
RTVSPropertyOp23
 70
     1
102
RTVSPropertyOp24
 70
     1
102
RTVSPropertyOp25
 70
     1
102
RTVSPropertyOp26
 70
     1
102
RTVSPropertyOp27
 70
     1
102
RTVSPropertyOp28
 70
     1
102
RTVSPropertyOp29
 70
     1
102
RTVSPropertyOp30
 70
     1
102
RTVSPropertyOp31
 70
     1
102
RTVSPropertyOp32
 70
     1
  0
XRECORD
  5
8A
102
{ACAD_REACTORS
330
89
102
}
330
89
100
AcDbXrecord
280
     1
102
RTVSPropertyOp0
 70
     1
102
RTVSPropertyOp1
 70
     1
102
RTVSPropertyOp2
 70
     1
102
RTVSPropertyOp3
 70
     1
102
RTVSPropertyOp4
 70
     1
102
RTVSPropertyOp5
 70
     1
102
RTVSPropertyOp6
 70
     1
102
RTVSPropertyOp7
 70
     1
102
RTVSPropertyOp8
 70
     1
102
RTVSPropertyOp9
 70
     1
102
RTVSPropertyOp10
 70
     1
102
RTVSPropertyOp11
 70
     1
102
RTVSPropertyOp12
 70
     1
102
RTVSPropertyOp13
 70
     1
102
RTVSPropertyOp14
 70
     1
102
RTVSPropertyOp15
 70
     1
102
RTVSPropertyOp16
 70
     1
102
RTVSPropertyOp17
 70
     1
102
RTVSPropertyOp18
 70
     1
102
RTVSPropertyOp19
 70
     1
102
RTVSPropertyOp20
 70
     1
102
RTVSPropertyOp21
 70
     1
102
RTVSPropertyOp22
 70
     1
102
RTVSPropertyOp23
 70
     1
102
RTVSPropertyOp24
 70
     1
102
RTVSPropertyOp25
 70
     1
102
RTVSPropertyOp26
 70
     1
102
RTVSPropertyOp27
 70
     1
102
RTVSPropertyOp28
 70
     1
102
RTVSPropertyOp29
 70
     1
102
RTVSPropertyOp30
 70
     1
102
RTVSPropertyOp31
 70
     1
102
RTVSPropertyOp32
 70
     1
  0
XRECORD
  5
8E
102
{ACAD_REACTORS
330
8D
102
}
330
8D
100
AcDbXrecord
280
     1
102
RTVSPropertyOp0
 70
     1
102
RTVSPropertyOp1
 70
     1
102
RTVSPropertyOp2
 70
     1
102
RTVSPropertyOp3
 70
     1
102
RTVSPropertyOp4
 70
     1
102
RTVSPropertyOp5
 70
     1
102
RTVSPropertyOp6
 70
     1
102
RTVSPropertyOp7
 70
     1
102
RTVSPropertyOp8
 70
     1
102
RTVSPropertyOp9
 70
     1
102
RTVSPropertyOp10
 70
     1
102
RTVSPropertyOp11
 70
     1
102
RTVSPropertyOp12
 70
     1
102
RTVSPropertyOp13
 70
     1
102
RTVSPropertyOp14
 70
     1
102
RTVSPropertyOp15
 70
     1
102
RTVSPropertyOp16
 70
     1
102
RTVSPropertyOp17
 70
     1
102
RTVSPropertyOp18
 70
     1
102
RTVSPropertyOp19
 70
     1
102
RTVSPropertyOp20
 70
     1
102
RTVSPropertyOp21
 70
     1
102
RTVSPropertyOp22
 70
     1
102
RTVSPropertyOp23
 70
     1
102
RTVSPropertyOp24
 70
     1
102
RTVSPropertyOp25
 70
     1
102
RTVSPropertyOp26
 70
     1
102
RTVSPropertyOp27
 70
     1
102
RTVSPropertyOp28
 70
     1
102
RTVSPropertyOp29
 70
     1
102
RTVSPropertyOp30
 70
     1
102
RTVSPropertyOp31
 70
     1
102
RTVSPropertyOp32
 70
     1
  0
XRECORD
  5
96
102
{ACAD_REACTORS
330
95
102
}
330
95
100
AcDbXrecord
280
     1
102
RTVSPropertyOp0
 70
     1
102
RTVSPropertyOp1
 70
     1
102
RTVSPropertyOp2
 70
     1
102
RTVSPropertyOp3
 70
     1
102
RTVSPropertyOp4
 70
     1
102
RTVSPropertyOp5
 70
     1
102
RTVSPropertyOp6
 70
     1
102
RTVSPropertyOp7
 70
     1
102
RTVSPropertyOp8
 70
     1
102
RTVSPropertyOp9
 70
     1
102
RTVSPropertyOp10
 70
     1
102
RTVSPropertyOp11
 70
     1
102
RTVSPropertyOp12
 70
     1
102
RTVSPropertyOp13
 70
     1
102
RTVSPropertyOp14
 70
     1
102
RTVSPropertyOp15
 70
     1
102
RTVSPropertyOp16
 70
     1
102
RTVSPropertyOp17
 70
     1
102
RTVSPropertyOp18
 70
     1
102
RTVSPropertyOp19
 70
     1
102
RTVSPropertyOp20
 70
     1
102
RTVSPropertyOp21
 70
     1
102
RTVSPropertyOp22
 70
     1
102
RTVSPropertyOp23
 70
     1
102
RTVSPropertyOp24
 70
     1
102
RTVSPropertyOp25
 70
     1
102
RTVSPropertyOp26
 70
     1
102
RTVSPropertyOp27
 70
     1
102
RTVSPropertyOp28
 70
     1
102
RTVSPropertyOp29
 70
     1
102
RTVSPropertyOp30
 70
     1
102
RTVSPropertyOp31
 70
     1
102
RTVSPropertyOp32
 70
     1
  0
XRECORD
  5
9E
102
{ACAD_REACTORS
330
9D
102
}
330
9D
100
AcDbXrecord
280
     1
102
RTVSPropertyOp0
 70
     1
102
RTVSPropertyOp1
 70
     1
102
RTVSPropertyOp2
 70
     1
102
RTVSPropertyOp3
 70
     1
102
RTVSPropertyOp4
 70
     1
102
RTVSPropertyOp5
 70
     1
102
RTVSPropertyOp6
 70
     1
102
RTVSPropertyOp7
 70
     1
102
RTVSPropertyOp8
 70
     1
102
RTVSPropertyOp9
 70
     1
102
RTVSPropertyOp10
 70
     1
102
RTVSPropertyOp11
 70
     1
102
RTVSPropertyOp12
 70
     1
102
RTVSPropertyOp13
 70
     1
102
RTVSPropertyOp14
 70
     1
102
RTVSPropertyOp15
 70
     1
102
RTVSPropertyOp16
 70
     1
102
RTVSPropertyOp17
 70
     1
102
RTVSPropertyOp18
 70
     1
102
RTVSPropertyOp19
 70
     1
102
RTVSPropertyOp20
 70
     1
102
RTVSPropertyOp21
 70
     1
102
RTVSPropertyOp22
 70
     1
102
RTVSPropertyOp23
 70
     1
102
RTVSPropertyOp24
 70
     1
102
RTVSPropertyOp25
 70
     1
102
RTVSPropertyOp26
 70
     1
102
RTVSPropertyOp27
 70
     1
102
RTVSPropertyOp28
 70
     1
102
RTVSPropertyOp29
 70
     1
102
RTVSPropertyOp30
 70
     1
102
RTVSPropertyOp31
 70
     1
102
RTVSPropertyOp32
 70
     1
  0
XRECORD
  5
92
102
{ACAD_REACTORS
330
91
102
}
330
91
100
AcDbXrecord
280
     1
102
RTVSPropertyOp0
 70
     1
102
RTVSPropertyOp1
 70
     1
102
RTVSPropertyOp2
 70
     1
102
RTVSPropertyOp3
 70
     1
102
RTVSPropertyOp4
 70
     1
102
RTVSPropertyOp5
 70
     1
102
RTVSPropertyOp6
 70
     1
102
RTVSPropertyOp7
 70
     1
102
RTVSPropertyOp8
 70
     1
102
RTVSPropertyOp9
 70
     1
102
RTVSPropertyOp10
 70
     1
102
RTVSPropertyOp11
 70
     1
102
RTVSPropertyOp12
 70
     1
102
RTVSPropertyOp13
 70
     1
102
RTVSPropertyOp14
 70
     1
102
RTVSPropertyOp15
 70
     1
102
RTVSPropertyOp16
 70
     1
102
RTVSPropertyOp17
 70
     1
102
RTVSPropertyOp18
 70
     1
102
RTVSPropertyOp19
 70
     1
102
RTVSPropertyOp20
 70
     1
102
RTVSPropertyOp21
 70
     1
102
RTVSPropertyOp22
 70
     1
102
RTVSPropertyOp23
 70
     1
102
RTVSPropertyOp24
 70
     1
102
RTVSPropertyOp25
 70
     1
102
RTVSPropertyOp26
 70
     1
102
RTVSPropertyOp27
 70
     1
102
RTVSPropertyOp28
 70
     1
102
RTVSPropertyOp29
 70
     1
102
RTVSPropertyOp30
 70
     1
102
RTVSPropertyOp31
 70
     1
102
RTVSPropertyOp32
 70
     1
  0
XRECORD
  5
94
102
{ACAD_REACTORS
330
93
102
}
330
93
100
AcDbXrecord
280
     1
102
RTVSPropertyOp0
 70
     1
102
RTVSPropertyOp1
 70
     1
102
RTVSPropertyOp2
 70
     1
102
RTVSPropertyOp3
 70
     1
102
RTVSPropertyOp4
 70
     1
102
RTVSPropertyOp5
 70
     1
102
RTVSPropertyOp6
 70
     1
102
RTVSPropertyOp7
 70
     1
102
RTVSPropertyOp8
 70
     1
102
RTVSPropertyOp9
 70
     1
102
RTVSPropertyOp10
 70
     1
102
RTVSPropertyOp11
 70
     1
102
RTVSPropertyOp12
 70
     1
102
RTVSPropertyOp13
 70
     1
102
RTVSPropertyOp14
 70
     1
102
RTVSPropertyOp15
 70
     1
102
RTVSPropertyOp16
 70
     1
102
RTVSPropertyOp17
 70
     1
102
RTVSPropertyOp18
 70
     1
102
RTVSPropertyOp19
 70
     1
102
RTVSPropertyOp20
 70
     1
102
RTVSPropertyOp21
 70
     1
102
RTVSPropertyOp22
 70
     1
102
RTVSPropertyOp23
 70
     1
102
RTVSPropertyOp24
 70
     1
102
RTVSPropertyOp25
 70
     1
102
RTVSPropertyOp26
 70
     1
102
RTVSPropertyOp27
 70
     1
102
RTVSPropertyOp28
 70
     1
102
RTVSPropertyOp29
 70
     1
102
RTVSPropertyOp30
 70
     1
102
RTVSPropertyOp31
 70
     1
102
RTVSPropertyOp32
 70
     1
  0
XRECORD
  5
9C
102
{ACAD_REACTORS
330
9B
102
}
330
9B
100
AcDbXrecord
280
     1
102
RTVSPropertyOp0
 70
     1
102
RTVSPropertyOp1
 70
     1
102
RTVSPropertyOp2
 70
     1
102
RTVSPropertyOp3
 70
     1
102
RTVSPropertyOp4
 70
     1
102
RTVSPropertyOp5
 70
     1
102
RTVSPropertyOp6
 70
     1
102
RTVSPropertyOp7
 70
     1
102
RTVSPropertyOp8
 70
     1
102
RTVSPropertyOp9
 70
     1
102
RTVSPropertyOp10
 70
     1
102
RTVSPropertyOp11
 70
     1
102
RTVSPropertyOp12
 70
     1
102
RTVSPropertyOp13
 70
     1
102
RTVSPropertyOp14
 70
     1
102
RTVSPropertyOp15
 70
     1
102
RTVSPropertyOp16
 70
     1
102
RTVSPropertyOp17
 70
     1
102
RTVSPropertyOp18
 70
     1
102
RTVSPropertyOp19
 70
     1
102
RTVSPropertyOp20
 70
     1
102
RTVSPropertyOp21
 70
     1
102
RTVSPropertyOp22
 70
     1
102
RTVSPropertyOp23
 70
     1
102
RTVSPropertyOp24
 70
     1
102
RTVSPropertyOp25
 70
     1
102
RTVSPropertyOp26
 70
     1
102
RTVSPropertyOp27
 70
     1
102
RTVSPropertyOp28
 70
     1
102
RTVSPropertyOp29
 70
     1
102
RTVSPropertyOp30
 70
     1
102
RTVSPropertyOp31
 70
     1
102
RTVSPropertyOp32
 70
     1
  0
XRECORD
  5
80
102
{ACAD_REACTORS
330
7F
102
}
330
7F
100
AcDbXrecord
280
     1
102
RTVSPropertyOp0
 70
     1
102
RTVSPropertyOp1
 70
     1
102
RTVSPropertyOp2
 70
     1
102
RTVSPropertyOp3
 70
     1
102
RTVSPropertyOp4
 70
     1
102
RTVSPropertyOp5
 70
     1
102
RTVSPropertyOp6
 70
     1
102
RTVSPropertyOp7
 70
     1
102
RTVSPropertyOp8
 70
     1
102
RTVSPropertyOp9
 70
     1
102
RTVSPropertyOp10
 70
     1
102
RTVSPropertyOp11
 70
     1
102
RTVSPropertyOp12
 70
     1
102
RTVSPropertyOp13
 70
     1
102
RTVSPropertyOp14
 70
     1
102
RTVSPropertyOp15
 70
     1
102
RTVSPropertyOp16
 70
     1
102
RTVSPropertyOp17
 70
     1
102
RTVSPropertyOp18
 70
     1
102
RTVSPropertyOp19
 70
     1
102
RTVSPropertyOp20
 70
     1
102
RTVSPropertyOp21
 70
     1
102
RTVSPropertyOp22
 70
     1
102
RTVSPropertyOp23
 70
     1
102
RTVSPropertyOp24
 70
     1
102
RTVSPropertyOp25
 70
     1
102
RTVSPropertyOp26
 70
     1
102
RTVSPropertyOp27
 70
     1
102
RTVSPropertyOp28
 70
     1
102
RTVSPropertyOp29
 70
     1
102
RTVSPropertyOp30
 70
     1
102
RTVSPropertyOp31
 70
     1
102
RTVSPropertyOp32
 70
     1
  0
XRECORD
  5
82
102
{ACAD_REACTORS
330
81
102
}
330
81
100
AcDbXrecord
280
     1
102
RTVSPropertyOp0
 70
     1
102
RTVSPropertyOp1
 70
     1
102
RTVSPropertyOp2
 70
     1
102
RTVSPropertyOp3
 70
     1
102
RTVSPropertyOp4
 70
     1
102
RTVSPropertyOp5
 70
     1
102
RTVSPropertyOp6
 70
     1
102
RTVSPropertyOp7
 70
     1
102
RTVSPropertyOp8
 70
     1
102
RTVSPropertyOp9
 70
     1
102
RTVSPropertyOp10
 70
     1
102
RTVSPropertyOp11
 70
     1
102
RTVSPropertyOp12
 70
     1
102
RTVSPropertyOp13
 70
     1
102
RTVSPropertyOp14
 70
     1
102
RTVSPropertyOp15
 70
     1
102
RTVSPropertyOp16
 70
     1
102
RTVSPropertyOp17
 70
     1
102
RTVSPropertyOp18
 70
     1
102
RTVSPropertyOp19
 70
     1
102
RTVSPropertyOp20
 70
     1
102
RTVSPropertyOp21
 70
     1
102
RTVSPropertyOp22
 70
     1
102
RTVSPropertyOp23
 70
     1
102
RTVSPropertyOp24
 70
     1
102
RTVSPropertyOp25
 70
     1
102
RTVSPropertyOp26
 70
     1
102
RTVSPropertyOp27
 70
     1
102
RTVSPropertyOp28
 70
     1
102
RTVSPropertyOp29
 70
     1
102
RTVSPropertyOp30
 70
     1
102
RTVSPropertyOp31
 70
     1
102
RTVSPropertyOp32
 70
     1
  0
XRECORD
  5
84
102
{ACAD_REACTORS
330
83
102
}
330
83
100
AcDbXrecord
280
     1
102
RTVSPropertyOp0
 70
     1
102
RTVSPropertyOp1
 70
     1
102
RTVSPropertyOp2
 70
     1
102
RTVSPropertyOp3
 70
     1
102
RTVSPropertyOp4
 70
     1
102
RTVSPropertyOp5
 70
     1
102
RTVSPropertyOp6
 70
     1
102
RTVSPropertyOp7
 70
     1
102
RTVSPropertyOp8
 70
     1
102
RTVSPropertyOp9
 70
     1
102
RTVSPropertyOp10
 70
     1
102
RTVSPropertyOp11
 70
     1
102
RTVSPropertyOp12
 70
     1
102
RTVSPropertyOp13
 70
     1
102
RTVSPropertyOp14
 70
     1
102
RTVSPropertyOp15
 70
     1
102
RTVSPropertyOp16
 70
     1
102
RTVSPropertyOp17
 70
     1
102
RTVSPropertyOp18
 70
     1
102
RTVSPropertyOp19
 70
     1
102
RTVSPropertyOp20
 70
     1
102
RTVSPropertyOp21
 70
     1
102
RTVSPropertyOp22
 70
     1
102
RTVSPropertyOp23
 70
     1
102
RTVSPropertyOp24
 70
     1
102
RTVSPropertyOp25
 70
     1
102
RTVSPropertyOp26
 70
     1
102
RTVSPropertyOp27
 70
     1
102
RTVSPropertyOp28
 70
     1
102
RTVSPropertyOp29
 70
     1
102
RTVSPropertyOp30
 70
     1
102
RTVSPropertyOp31
 70
     1
102
RTVSPropertyOp32
 70
     1
  0
XRECORD
  5
86
102
{ACAD_REACTORS
330
85
102
}
330
85
100
AcDbXrecord
280
     1
102
RTVSPropertyOp0
 70
     1
102
RTVSPropertyOp1
 70
     1
102
RTVSPropertyOp2
 70
     1
102
RTVSPropertyOp3
 70
     1
102
RTVSPropertyOp4
 70
     1
102
RTVSPropertyOp5
 70
     1
102
RTVSPropertyOp6
 70
     1
102
RTVSPropertyOp7
 70
     1
102
RTVSPropertyOp8
 70
     1
102
RTVSPropertyOp9
 70
     1
102
RTVSPropertyOp10
 70
     1
102
RTVSPropertyOp11
 70
     1
102
RTVSPropertyOp12
 70
     1
102
RTVSPropertyOp13
 70
     1
102
RTVSPropertyOp14
 70
     1
102
RTVSPropertyOp15
 70
     1
102
RTVSPropertyOp16
 70
     1
102
RTVSPropertyOp17
 70
     1
102
RTVSPropertyOp18
 70
     1
102
RTVSPropertyOp19
 70
     1
102
RTVSPropertyOp20
 70
     1
102
RTVSPropertyOp21
 70
     1
102
RTVSPropertyOp22
 70
     1
102
RTVSPropertyOp23
 70
     1
102
RTVSPropertyOp24
 70
     1
102
RTVSPropertyOp25
 70
     1
102
RTVSPropertyOp26
 70
     1
102
RTVSPropertyOp27
 70
     1
102
RTVSPropertyOp28
 70
     1
102
RTVSPropertyOp29
 70
     1
102
RTVSPropertyOp30
 70
     1
102
RTVSPropertyOp31
 70
     1
102
RTVSPropertyOp32
 70
     1
  0
XRECORD
  5
9A
102
{ACAD_REACTORS
330
99
102
}
330
99
100
AcDbXrecord
280
     1
102
RTVSPropertyOp0
 70
     1
102
RTVSPropertyOp1
 70
     1
102
RTVSPropertyOp2
 70
     1
102
RTVSPropertyOp3
 70
     1
102
RTVSPropertyOp4
 70
     1
102
RTVSPropertyOp5
 70
     1
102
RTVSPropertyOp6
 70
     1
102
RTVSPropertyOp7
 70
     1
102
RTVSPropertyOp8
 70
     1
102
RTVSPropertyOp9
 70
     1
102
RTVSPropertyOp10
 70
     1
102
RTVSPropertyOp11
 70
     1
102
RTVSPropertyOp12
 70
     1
102
RTVSPropertyOp13
 70
     1
102
RTVSPropertyOp14
 70
     1
102
RTVSPropertyOp15
 70
     1
102
RTVSPropertyOp16
 70
     1
102
RTVSPropertyOp17
 70
     1
102
RTVSPropertyOp18
 70
     1
102
RTVSPropertyOp19
 70
     1
102
RTVSPropertyOp20
 70
     1
102
RTVSPropertyOp21
 70
     1
102
RTVSPropertyOp22
 70
     1
102
RTVSPropertyOp23
 70
     1
102
RTVSPropertyOp24
 70
     1
102
RTVSPropertyOp25
 70
     1
102
RTVSPropertyOp26
 70
     1
102
RTVSPropertyOp27
 70
     1
102
RTVSPropertyOp28
 70
     1
102
RTVSPropertyOp29
 70
     1
102
RTVSPropertyOp30
 70
     1
102
RTVSPropertyOp31
 70
     1
102
RTVSPropertyOp32
 70
     1
  0
XRECORD
  5
90
102
{ACAD_REACTORS
330
8F
102
}
330
8F
100
AcDbXrecord
280
     1
102
RTVSPropertyOp0
 70
     1
102
RTVSPropertyOp1
 70
     1
102
RTVSPropertyOp2
 70
     1
102
RTVSPropertyOp3
 70
     1
102
RTVSPropertyOp4
 70
     1
102
RTVSPropertyOp5
 70
     1
102
RTVSPropertyOp6
 70
     1
102
RTVSPropertyOp7
 70
     1
102
RTVSPropertyOp8
 70
     1
102
RTVSPropertyOp9
 70
     1
102
RTVSPropertyOp10
 70
     1
102
RTVSPropertyOp11
 70
     1
102
RTVSPropertyOp12
 70
     1
102
RTVSPropertyOp13
 70
     1
102
RTVSPropertyOp14
 70
     1
102
RTVSPropertyOp15
 70
     1
102
RTVSPropertyOp16
 70
     1
102
RTVSPropertyOp17
 70
     1
102
RTVSPropertyOp18
 70
     1
102
RTVSPropertyOp19
 70
     1
102
RTVSPropertyOp20
 70
     1
102
RTVSPropertyOp21
 70
     1
102
RTVSPropertyOp22
 70
     1
102
RTVSPropertyOp23
 70
     1
102
RTVSPropertyOp24
 70
     1
102
RTVSPropertyOp25
 70
     1
102
RTVSPropertyOp26
 70
     1
102
RTVSPropertyOp27
 70
     1
102
RTVSPropertyOp28
 70
     1
102
RTVSPropertyOp29
 70
     1
102
RTVSPropertyOp30
 70
     1
102
RTVSPropertyOp31
 70
     1
102
RTVSPropertyOp32
 70
     1
  0
XRECORD
  5
98
102
{ACAD_REACTORS
330
97
102
}
330
97
100
AcDbXrecord
280
     1
102
RTVSPropertyOp0
 70
     1
102
RTVSPropertyOp1
 70
     1
102
RTVSPropertyOp2
 70
     1
102
RTVSPropertyOp3
 70
     1
102
RTVSPropertyOp4
 70
     1
102
RTVSPropertyOp5
 70
     1
102
RTVSPropertyOp6
 70
     1
102
RTVSPropertyOp7
 70
     1
102
RTVSPropertyOp8
 70
     1
102
RTVSPropertyOp9
 70
     1
102
RTVSPropertyOp10
 70
     1
102
RTVSPropertyOp11
 70
     1
102
RTVSPropertyOp12
 70
     1
102
RTVSPropertyOp13
 70
     1
102
RTVSPropertyOp14
 70
     1
102
RTVSPropertyOp15
 70
     1
102
RTVSPropertyOp16
 70
     1
102
RTVSPropertyOp17
 70
     1
102
RTVSPropertyOp18
 70
     1
102
RTVSPropertyOp19
 70
     1
102
RTVSPropertyOp20
 70
     1
102
RTVSPropertyOp21
 70
     1
102
RTVSPropertyOp22
 70
     1
102
RTVSPropertyOp23
 70
     1
102
RTVSPropertyOp24
 70
     1
102
RTVSPropertyOp25
 70
     1
102
RTVSPropertyOp26
 70
     1
102
RTVSPropertyOp27
 70
     1
102
RTVSPropertyOp28
 70
     1
102
RTVSPropertyOp29
 70
     1
102
RTVSPropertyOp30
 70
     1
102
RTVSPropertyOp31
 70
     1
102
RTVSPropertyOp32
 70
     1
  0
ENDSEC
  0
EOF
