  0
SECTION
  2
HEADER
  9
$ACADVER
  1
AC1021
  9
$ACADMAINTVER
 70
    25
  9
$DWGCODEPAGE
  3
ANSI_1252
  9
$INSBASE
 10
0.0
 20
0.0
 30
0.0
  9
$EXTMIN
 10
-12.54377
 20
-7.75805
 30
0.0
  9
$EXTMAX
 10
12.60999
 20
8.98723
 30
0.0
  9
$LIMMIN
 10
0.0
 20
0.0
  9
$LIMMAX
 10
12.0
 20
9.0
  9
$ORTHOMODE
 70
     0
  9
$REGENMODE
 70
     1
  9
$FILLMODE
 70
     1
  9
$QTEXTMODE
 70
     0
  9
$MIRRTEXT
 70
     1
  9
$LTSCALE
 40
1.0
  9
$ATTMODE
 70
     1
  9
$TEXTSIZE
 40
0.2
  9
$TRACEWID
 40
0.05
  9
$TEXTSTYLE
  7
Standard
  9
$CLAYER
  8
0
  9
$CELTYPE
  6
ByLayer
  9
$CECOLOR
 62
   256
  9
$CELTSCALE
 40
1.0
  9
$DISPSILH
 70
     0
  9
$DIMSCALE
 40
1.0
  9
$DIMASZ
 40
0.18
  9
$DIMEXO
 40
0.0625
  9
$DIMDLI
 40
0.38
  9
$DIMRND
 40
0.0
  9
$DIMDLE
 40
0.0
  9
$DIMEXE
 40
0.18
  9
$DIMTP
 40
0.0
  9
$DIMTM
 40
0.0
  9
$DIMTXT
 40
0.18
  9
$DIMCEN
 40
0.09
  9
$DIMTSZ
 40
0.0
  9
$DIMTOL
 70
     0
  9
$DIMLIM
 70
     0
  9
$DIMTIH
 70
     1
  9
$DIMTOH
 70
     1
  9
$DIMSE1
 70
     0
  9
$DIMSE2
 70
     0
  9
$DIMTAD
 70
     0
  9
$DIMZIN
 70
     0
  9
$DIMBLK
  1

  9
$DIMASO
 70
     1
  9
$DIMSHO
 70
     1
  9
$DIMPOST
  1

  9
$DIMAPOST
  1

  9
$DIMALT
 70
     0
  9
$DIMALTD
 70
     2
  9
$DIMALTF
 40
25.4
  9
$DIMLFAC
 40
1.0
  9
$DIMTOFL
 70
     0
  9
$DIMTVP
 40
0.0
  9
$DIMTIX
 70
     0
  9
$DIMSOXD
 70
     0
  9
$DIMSAH
 70
     0
  9
$DIMBLK1
  1

  9
$DIMBLK2
  1

  9
$DIMSTYLE
  2
Standard
  9
$DIMCLRD
 70
     0
  9
$DIMCLRE
 70
     0
  9
$DIMCLRT
 70
     0
  9
$DIMTFAC
 40
1.0
  9
$DIMGAP
 40
0.09
  9
$DIMJUST
 70
     0
  9
$DIMSD1
 70
     0
  9
$DIMSD2
 70
     0
  9
$DIMTOLJ
 70
     1
  9
$DIMTZIN
 70
     0
  9
$DIMALTZ
 70
     0
  9
$DIMALTTZ
 70
     0
  9
$DIMUPT
 70
     0
  9
$DIMDEC
 70
     4
  9
$DIMTDEC
 70
     4
  9
$DIMALTU
 70
     2
  9
$DIMALTTD
 70
     2
  9
$DIMTXSTY
  7
Standard
  9
$DIMAUNIT
 70
     0
  9
$DIMADEC
 70
     0
  9
$DIMALTRND
 40
0.0
  9
$DIMAZIN
 70
     0
  9
$DIMDSEP
 70
    46
  9
$DIMATFIT
 70
     3
  9
$DIMFRAC
 70
     0
  9
$DIMLDRBLK
  1

  9
$DIMLUNIT
 70
     2
  9
$DIMLWD
 70
    -2
  9
$DIMLWE
 70
    -2
  9
$DIMTMOVE
 70
     0
  9
$DIMFXL
 40
1.0
  9
$DIMFXLON
 70
     0
  9
$DIMJOGANG
 40
0.7853981633974483
  9
$DIMTFILL
 70
     0
  9
$DIMTFILLCLR
 70
     0
  9
$DIMARCSYM
 70
     0
  9
$DIMLTYPE
  6

  9
$DIMLTEX1
  6

  9
$DIMLTEX2
  6

  9
$LUNITS
 70
     2
  9
$LUPREC
 70
     4
  9
$SKETCHINC
 40
0.1
  9
$FILLETRAD
 40
0.5
  9
$AUNITS
 70
     0
  9
$AUPREC
 70
     0
  9
$MENU
  1
.
  9
$ELEVATION
 40
0.0
  9
$PELEVATION
 40
0.0
  9
$THICKNESS
 40
0.0
  9
$LIMCHECK
 70
     0
  9
$CHAMFERA
 40
0.5
  9
$CHAMFERB
 40
0.5
  9
$CHAMFERC
 40
1.0
  9
$CHAMFERD
 40
0.0
  9
$SKPOLY
 70
     0
  9
$TDCREATE
 40
2456231.956818195
  9
$TDUCREATE
 40
2456232.123484861
  9
$TDUPDATE
 40
2456231.956818264
  9
$TDUUPDATE
 40
2456232.12348493
  9
$TDINDWG
 40
0.0000000116
  9
$TDUSRTIMER
 40
0.0000000116
  9
$USRTIMER
 70
     1
  9
$ANGBASE
 50
0.0
  9
$ANGDIR
 70
     0
  9
$PDMODE
 70
     0
  9
$PDSIZE
 40
0.0
  9
$PLINEWID
 40
0.0
  9
$SPLFRAME
 70
     0
  9
$SPLINETYPE
 70
     6
  9
$SPLINESEGS
 70
     8
  9
$HANDSEED
  5
AA
  9
$SURFTAB1
 70
     6
  9
$SURFTAB2
 70
     6
  9
$SURFTYPE
 70
     6
  9
$SURFU
 70
     6
  9
$SURFV
 70
     6
  9
$UCSBASE
  2

  9
$UCSNAME
  2

  9
$UCSORG
 10
0.0
 20
0.0
 30
0.0
  9
$UCSXDIR
 10
1.0
 20
0.0
 30
0.0
  9
$UCSYDIR
 10
0.0
 20
1.0
 30
0.0
  9
$UCSORTHOREF
  2

  9
$UCSORTHOVIEW
 70
     0
  9
$UCSORGTOP
 10
0.0
 20
0.0
 30
0.0
  9
$UCSORGBOTTOM
 10
0.0
 20
0.0
 30
0.0
  9
$UCSORGLEFT
 10
0.0
 20
0.0
 30
0.0
  9
$UCSORGRIGHT
 10
0.0
 20
0.0
 30
0.0
  9
$UCSORGFRONT
 10
0.0
 20
0.0
 30
0.0
  9
$UCSORGBACK
 10
0.0
 20
0.0
 30
0.0
  9
$PUCSBASE
  2

  9
$PUCSNAME
  2

  9
$PUCSORG
 10
0.0
 20
0.0
 30
0.0
  9
$PUCSXDIR
 10
1.0
 20
0.0
 30
0.0
  9
$PUCSYDIR
 10
0.0
 20
1.0
 30
0.0
  9
$PUCSORTHOREF
  2

  9
$PUCSORTHOVIEW
 70
     0
  9
$PUCSORGTOP
 10
0.0
 20
0.0
 30
0.0
  9
$PUCSORGBOTTOM
 10
0.0
 20
0.0
 30
0.0
  9
$PUCSORGLEFT
 10
0.0
 20
0.0
 30
0.0
  9
$PUCSORGRIGHT
 10
0.0
 20
0.0
 30
0.0
  9
$PUCSORGFRONT
 10
0.0
 20
0.0
 30
0.0
  9
$PUCSORGBACK
 10
0.0
 20
0.0
 30
0.0
  9
$USERI1
 70
     0
  9
$USERI2
 70
     0
  9
$USERI3
 70
     0
  9
$USERI4
 70
     0
  9
$USERI5
 70
     0
  9
$USERR1
 40
0.0
  9
$USERR2
 40
0.0
  9
$USERR3
 40
0.0
  9
$USERR4
 40
0.0
  9
$USERR5
 40
0.0
  9
$WORLDVIEW
 70
     1
  9
$SHADEDGE
 70
     3
  9
$SHADEDIF
 70
    70
  9
$TILEMODE
 70
     1
  9
$MAXACTVP
 70
    64
  9
$PINSBASE
 10
0.0
 20
0.0
 30
0.0
  9
$PLIMCHECK
 70
     0
  9
$PEXTMIN
 10
1.000000000000000E+20
 20
1.000000000000000E+20
 30
1.000000000000000E+20
  9
$PEXTMAX
 10
-1.000000000000000E+20
 20
-1.000000000000000E+20
 30
-1.000000000000000E+20
  9
$PLIMMIN
 10
0.0
 20
0.0
  9
$PLIMMAX
 10
12.0
 20
9.0
  9
$UNITMODE
 70
     0
  9
$VISRETAIN
 70
     1
  9
$PLINEGEN
 70
     0
  9
$PSLTSCALE
 70
     1
  9
$TREEDEPTH
 70
  3020
  9
$CMLSTYLE
  2
Standard
  9
$CMLJUST
 70
     0
  9
$CMLSCALE
 40
1.0
  9
$PROXYGRAPHICS
 70
     1
  9
$MEASUREMENT
 70
     0
  9
$CELWEIGHT
370
    -1
  9
$ENDCAPS
280
     0
  9
$JOINSTYLE
280
     0
  9
$LWDISPLAY
290
     0
  9
$INSUNITS
 70
     5
  9
$HYPERLINKBASE
  1

  9
$STYLESHEET
  1

  9
$XEDIT
290
     1
  9
$CEPSNTYPE
380
     0
  9
$PSTYLEMODE
290
     1
  9
$FINGERPRINTGUID
  2
{7BF18B3C-509B-4D8F-96DC-582E3F68FBA0}
  9
$VERSIONGUID
  2
{FAEB1C32-E019-11D5-929B-00C0DF256EC4}
  9
$EXTNAMES
290
     1
  9
$PSVPSCALE
 40
0.0
  9
$OLESTARTUP
290
     0
  9
$SORTENTS
280
   127
  9
$INDEXCTL
280
     0
  9
$HIDETEXT
280
     1
  9
$XCLIPFRAME
290
     0
  9
$HALOGAP
280
     0
  9
$OBSCOLOR
 70
   257
  9
$OBSLTYPE
280
     0
  9
$INTERSECTIONDISPLAY
280
     0
  9
$INTERSECTIONCOLOR
 70
   257
  9
$DIMASSOC
280
     2
  9
$PROJECTNAME
  1

  9
$CAMERADISPLAY
290
     0
  9
$LENSLENGTH
 40
50.0
  9
$CAMERAHEIGHT
 40
0.0
  9
$STEPSPERSEC
 40
2.0
  9
$STEPSIZE
 40
6.0
  9
$3DDWFPREC
 40
2.0
  9
$PSOLWIDTH
 40
0.25
  9
$PSOLHEIGHT
 40
4.0
  9
$LOFTANG1
 40
1.570796326794897
  9
$LOFTANG2
 40
1.570796326794897
  9
$LOFTMAG1
 40
0.0
  9
$LOFTMAG2
 40
0.0
  9
$LOFTPARAM
 70
     7
  9
$LOFTNORMALS
280
     1
  9
$LATITUDE
 40
37.795
  9
$LONGITUDE
 40
-122.394
  9
$NORTHDIRECTION
 40
0.0
  9
$TIMEZONE
 70
 -8000
  9
$LIGHTGLYPHDISPLAY
280
     1
  9
$TILEMODELIGHTSYNCH
280
     1
  9
$SOLIDHIST
280
     1
  9
$SHOWHIST
280
     1
  9
$DWFFRAME
280
     2
  9
$DGNFRAME
280
     2
  9
$REALWORLDSCALE
290
     1
  9
$INTERFERECOLOR
 62
   256
  9
$CSHADOW
280
     0
  9
$SHADOWPLANELOCATION
 40
0.0
  0
ENDSEC
  0
SECTION
  2
CLASSES
  0
CLASS
  1
ACDBDICTIONARYWDFLT
  2
AcDbDictionaryWithDefault
  3
ObjectDBX Classes
 90
        0
 91
        4
280
     0
281
     0
  0
CLASS
  1
VISUALSTYLE
  2
AcDbVisualStyle
  3
ObjectDBX Classes
 90
     4095
 91
        4
280
     0
281
     0
  0
CLASS
  1
MATERIAL
  2
AcDbMaterial
  3
ObjectDBX Classes
 90
     1153
 91
        4
280
     0
281
     0
  0
ENDSEC
  0
SECTION
  2
TABLES
  0
TABLE
  2
VPORT
  5
8
330
0
100
AcDbSymbolTable
 70
     1
  0
VPORT
  5
29
330
8
100
AcDbSymbolTableRecord
100
AcDbViewportTableRecord
  2
*Active
 70
     0
 10
0.0
 20
0.0
 11
1.0
 21
1.0
 12
10.42990654205607
 22
4.5
 13
0.0
 23
0.0
 14
0.5
 24
0.5
 15
0.5
 25
0.5
 16
0.0
 26
0.0
 36
1.0
 17
0.0
 27
0.0
 37
0.0
 40
9.0
 41
1.972972972850329
 42
50.0
 43
0.0
 44
0.0
 50
0.0
 51
0.0
 71
     0
 72
   100
 73
     1
 74
     3
 75
     0
 76
     0
 77
     0
 78
     0
281
     0
 65
     1
110
0.0
120
0.0
130
0.0
111
1.0
121
0.0
131
0.0
112
0.0
122
1.0
132
0.0
 79
     0
146
0.0
 60
     3
 61
     5
292
     1
282
     1
141
0.0
142
0.0
 63
   250
  0
ENDTAB
  0
TABLE
  2
LTYPE
  5
5
330
0
100
AcDbSymbolTable
 70
     1
  0
LTYPE
  5
14
330
5
100
AcDbSymbolTableRecord
100
AcDbLinetypeTableRecord
  2
ByBlock
 70
     0
  3

 72
    65
 73
     0
 40
0.0
  0
LTYPE
  5
15
330
5
100
AcDbSymbolTableRecord
100
AcDbLinetypeTableRecord
  2
ByLayer
 70
     0
  3

 72
    65
 73
     0
 40
0.0
  0
LTYPE
  5
16
330
5
100
AcDbSymbolTableRecord
100
AcDbLinetypeTableRecord
  2
Continuous
 70
     0
  3
Solid line
 72
    65
 73
     0
 40
0.0
  0
ENDTAB
  0
TABLE
  2
LAYER
  5
2
330
0
100
AcDbSymbolTable
 70
     3
  0
LAYER
  5
10
330
2
100
AcDbSymbolTableRecord
100
AcDbLayerTableRecord
  2
0
 70
     0
 62
     7
  6
Continuous
370
    -3
390
F
347
3E
  0
LAYER
  5
40
330
2
100
AcDbSymbolTableRecord
100
AcDbLayerTableRecord
  2
Layer 1
 70
     0
 62
     7
  6
Continuous
370
    -3
390
F
347
3E
  0
LAYER
  5
5C
330
2
100
AcDbSymbolTableRecord
100
AcDbLayerTableRecord
  2
layer 2
 70
     0
 62
     7
  6
Continuous
370
    -3
390
F
347
3E
  0
ENDTAB
  0
TABLE
  2
STYLE
  5
3
330
0
100
AcDbSymbolTable
 70
     1
  0
STYLE
  5
11
330
3
100
AcDbSymbolTableRecord
100
AcDbTextStyleTableRecord
  2
Standard
 70
     0
 40
0.0
 41
1.0
 50
0.0
 71
     0
 42
0.2
  3
txt
  4

  0
ENDTAB
  0
TABLE
  2
VIEW
  5
6
330
0
100
AcDbSymbolTable
 70
     0
  0
ENDTAB
  0
TABLE
  2
UCS
  5
7
330
0
100
AcDbSymbolTable
 70
     0
  0
ENDTAB
  0
TABLE
  2
APPID
  5
9
330
0
100
AcDbSymbolTable
 70
     2
  0
APPID
  5
12
330
9
100
AcDbSymbolTableRecord
100
AcDbRegAppTableRecord
  2
ACAD
 70
     0
  0
APPID
  5
3F
330
9
100
AcDbSymbolTableRecord
100
AcDbRegAppTableRecord
  2
ODA
 70
     0
  0
ENDTAB
  0
TABLE
  2
DIMSTYLE
  5
A
330
0
100
AcDbSymbolTable
 70
     1
100
AcDbDimStyleTable
  0
DIMSTYLE
105
27
330
A
100
AcDbSymbolTableRecord
100
AcDbDimStyleTableRecord
  2
Standard
 70
     0
178
     0
340
11
  0
ENDTAB
  0
TABLE
  2
BLOCK_RECORD
  5
1
330
0
100
AcDbSymbolTable
 70
     1
  0
BLOCK_RECORD
  5
1F
330
1
100
AcDbSymbolTableRecord
100
AcDbBlockTableRecord
  2
*Model_Space
340
22
 70
     0
280
     1
281
     0
  0
BLOCK_RECORD
  5
1B
330
1
100
AcDbSymbolTableRecord
100
AcDbBlockTableRecord
  2
*Paper_Space
340
1E
 70
     0
280
     1
281
     0
  0
BLOCK_RECORD
  5
23
330
1
100
AcDbSymbolTableRecord
100
AcDbBlockTableRecord
  2
*Paper_Space0
340
26
 70
     0
280
     1
281
     0
  0
ENDTAB
  0
ENDSEC
  0
SECTION
  2
BLOCKS
  0
BLOCK
  5
20
330
1F
100
AcDbEntity
  8
0
100
AcDbBlockBegin
  2
*Model_Space
 70
     0
 10
0.0
 20
0.0
 30
0.0
  3
*Model_Space
  1

  0
ENDBLK
  5
21
330
1F
100
AcDbEntity
  8
0
100
AcDbBlockEnd
  0
BLOCK
  5
1C
330
1B
100
AcDbEntity
 67
     1
  8
0
100
AcDbBlockBegin
  2
*Paper_Space
 70
     0
 10
0.0
 20
0.0
 30
0.0
  3
*Paper_Space
  1

  0
ENDBLK
  5
1D
330
1B
100
AcDbEntity
 67
     1
  8
0
100
AcDbBlockEnd
  0
BLOCK
  5
24
330
23
100
AcDbEntity
  8
0
100
AcDbBlockBegin
  2
*Paper_Space0
 70
     0
 10
0.0
 20
0.0
 30
0.0
  3
*Paper_Space0
  1

  0
ENDBLK
  5
25
330
23
100
AcDbEntity
  8
0
100
AcDbBlockEnd
  0
ENDSEC
  0
SECTION
  2
ENTITIES
  0
SPLINE
  5
41
330
1F
100
AcDbEntity
  8
Layer 1
 62
   250
100
AcDbSpline
210
0.0
220
0.0
230
1.0
 70
    11
 71
     3
 72
    92
 73
    88
 74
     0
 42
0.0000000001
 43
0.0000000001
 12
1.0
 22
0.0
 32
0.0
 13
1.0
 23
0.0
 33
0.0
 40
0.0
 40
0.0
 40
0.0
 40
0.0
 40
0.0434782608695652
 40
0.0434782608695652
 40
0.0434782608695652
 40
0.0434782608695652
 40
0.0869565217391304
 40
0.0869565217391304
 40
0.0869565217391304
 40
0.0869565217391304
 40
0.1304347826086956
 40
0.1304347826086956
 40
0.1304347826086956
 40
0.1304347826086956
 40
0.1739130434782609
 40
0.1739130434782609
 40
0.1739130434782609
 40
0.1739130434782609
 40
0.2173913043478261
 40
0.2173913043478261
 40
0.2173913043478261
 40
0.2173913043478261
 40
0.2608695652173913
 40
0.2608695652173913
 40
0.2608695652173913
 40
0.2608695652173913
 40
0.3043478260869565
 40
0.3043478260869565
 40
0.3043478260869565
 40
0.3043478260869565
 40
0.3478260869565217
 40
0.3478260869565217
 40
0.3478260869565217
 40
0.3478260869565217
 40
0.391304347826087
 40
0.391304347826087
 40
0.391304347826087
 40
0.391304347826087
 40
0.4347826086956522
 40
0.4347826086956522
 40
0.4347826086956522
 40
0.4347826086956522
 40
0.4782608695652174
 40
0.4782608695652174
 40
0.4782608695652174
 40
0.4782608695652174
 40
0.5217391304347826
 40
0.5217391304347826
 40
0.5217391304347826
 40
0.5217391304347826
 40
0.5652173913043478
 40
0.5652173913043478
 40
0.5652173913043478
 40
0.5652173913043478
 40
0.6086956521739131
 40
0.6086956521739131
 40
0.6086956521739131
 40
0.6086956521739131
 40
0.6521739130434783
 40
0.6521739130434783
 40
0.6521739130434783
 40
0.6521739130434783
 40
0.6956521739130435
 40
0.6956521739130435
 40
0.6956521739130435
 40
0.6956521739130435
 40
0.7391304347826086
 40
0.7391304347826086
 40
0.7391304347826086
 40
0.7391304347826086
 40
0.782608695652174
 40
0.782608695652174
 40
0.782608695652174
 40
0.782608695652174
 40
0.8260869565217391
 40
0.8260869565217391
 40
0.8260869565217391
 40
0.8260869565217391
 40
0.8695652173913043
 40
0.8695652173913043
 40
0.8695652173913043
 40
0.8695652173913043
 40
0.9130434782608695
 40
0.9130434782608695
 40
0.9130434782608695
 40
0.9130434782608695
 40
1.0
 40
1.0
 40
1.0
 40
1.0
 10
-2.4961
 20
-7.67677
 30
0.0
 10
-2.4961
 20
-7.67677
 30
0.0
 10
-2.4961
 20
-7.74789
 30
0.0
 10
-2.4961
 20
-7.74789
 30
0.0
 10
-2.4961
 20
-7.74789
 30
0.0
 10
-2.4961
 20
-7.74789
 30
0.0
 10
-2.89743
 20
-7.74789
 30
0.0
 10
-2.89743
 20
-7.74789
 30
0.0
 10
-2.89743
 20
-7.74789
 30
0.0
 10
-2.89799
 20
-7.72997
 30
0.0
 10
-2.89503
 20
-7.71275
 30
0.0
 10
-2.88868
 20
-7.6961
 30
0.0
 10
-2.88868
 20
-7.6961
 30
0.0
 10
-2.87838
 20
-7.66887
 30
0.0
 10
-2.86187
 20
-7.64192
 30
0.0
 10
-2.83915
 20
-7.61553
 30
0.0
 10
-2.83915
 20
-7.61553
 30
0.0
 10
-2.81643
 20
-7.58914
 30
0.0
 10
-2.78397
 20
-7.55866
 30
0.0
 10
-2.74178
 20
-7.52409
 30
0.0
 10
-2.74178
 20
-7.52409
 30
0.0
 10
-2.67616
 20
-7.47004
 30
0.0
 10
-2.63157
 20
-7.42728
 30
0.0
 10
-2.60829
 20
-7.39568
 30
0.0
 10
-2.60829
 20
-7.39568
 30
0.0
 10
-2.58486
 20
-7.36407
 30
0.0
 10
-2.57315
 20
-7.33415
 30
0.0
 10
-2.57315
 20
-7.30593
 30
0.0
 10
-2.57315
 20
-7.30593
 30
0.0
 10
-2.57315
 20
-7.27644
 30
0.0
 10
-2.58374
 20
-7.2516
 30
0.0
 10
-2.6049
 20
-7.23128
 30
0.0
 10
-2.6049
 20
-7.23128
 30
0.0
 10
-2.62607
 20
-7.2111
 30
0.0
 10
-2.65373
 20
-7.20094
 30
0.0
 10
-2.68773
 20
-7.20094
 30
0.0
 10
-2.68773
 20
-7.20094
 30
0.0
 10
-2.72372
 20
-7.20094
 30
0.0
 10
-2.7525
 20
-7.21167
 30
0.0
 10
-2.77409
 20
-7.23311
 30
0.0
 10
-2.77409
 20
-7.23311
 30
0.0
 10
-2.79569
 20
-7.25442
 30
0.0
 10
-2.80655
 20
-7.28406
 30
0.0
 10
-2.80683
 20
-7.32201
 30
0.0
 10
-2.80683
 20
-7.32201
 30
0.0
 10
-2.80683
 20
-7.32201
 30
0.0
 10
-2.88303
 20
-7.31439
 30
0.0
 10
-2.88303
 20
-7.31439
 30
0.0
 10
-2.88303
 20
-7.31439
 30
0.0
 10
-2.87781
 20
-7.25739
 30
0.0
 10
-2.85806
 20
-7.21392
 30
0.0
 10
-2.82391
 20
-7.18401
 30
0.0
 10
-2.82391
 20
-7.18401
 30
0.0
 10
-2.78962
 20
-7.15409
 30
0.0
 10
-2.74376
 20
-7.13913
 30
0.0
 10
-2.68604
 20
-7.13913
 30
0.0
 10
-2.68604
 20
-7.13913
 30
0.0
 10
-2.6279
 20
-7.13913
 30
0.0
 10
-2.58176
 20
-7.15522
 30
0.0
 10
-2.54789
 20
-7.18754
 30
0.0
 10
-2.54789
 20
-7.18754
 30
0.0
 10
-2.51389
 20
-7.21985
 30
0.0
 10
-2.49695
 20
-7.25993
 30
0.0
 10
-2.49695
 20
-7.30762
 30
0.0
 10
-2.49695
 20
-7.30762
 30
0.0
 10
-2.49695
 20
-7.33189
 30
0.0
 10
-2.50189
 20
-7.35574
 30
0.0
 10
-2.51191
 20
-7.37917
 30
0.0
 10
-2.51191
 20
-7.37917
 30
0.0
 10
-2.52179
 20
-7.40273
 30
0.0
 10
-2.5383
 20
-7.42743
 30
0.0
 10
-2.5613
 20
-7.45339
 30
0.0
 10
-2.5613
 20
-7.45339
 30
0.0
 10
-2.58444
 20
-7.47921
 30
0.0
 10
-2.62268
 20
-7.51491
 30
0.0
 10
-2.67602
 20
-7.56007
 30
0.0
 10
-2.67602
 20
-7.56007
 30
0.0
 10
-2.72075
 20
-7.59761
 30
0.0
 10
-2.74954
 20
-7.62301
 30
0.0
 10
-2.76224
 20
-7.63641
 30
0.0
 10
-2.76224
 20
-7.63641
 30
0.0
 10
-2.77494
 20
-7.64982
 30
0.0
 10
-2.78538
 20
-7.66322
 30
0.0
 10
-2.79371
 20
-7.67677
 30
0.0
 10
-2.79371
 20
-7.67677
 30
0.0
 10
-2.79371
 20
-7.67677
 30
0.0
 10
-2.4961
 20
-7.67677
 30
0.0
 10
-2.4961
 20
-7.67677
 30
0.0
  0
SPLINE
  5
42
330
1F
100
AcDbEntity
  8
Layer 1
 62
   250
100
AcDbSpline
210
0.0
220
0.0
230
1.0
 70
    11
 71
     3
 72
    52
 73
    48
 74
     0
 42
0.0000000001
 43
0.0000000001
 12
1.0
 22
0.0
 32
0.0
 13
1.0
 23
0.0
 33
0.0
 40
0.0
 40
0.0
 40
0.0
 40
0.0
 40
0.0769230769230769
 40
0.0769230769230769
 40
0.0769230769230769
 40
0.0769230769230769
 40
0.1538461538461539
 40
0.1538461538461539
 40
0.1538461538461539
 40
0.1538461538461539
 40
0.2307692307692308
 40
0.2307692307692308
 40
0.2307692307692308
 40
0.2307692307692308
 40
0.3076923076923077
 40
0.3076923076923077
 40
0.3076923076923077
 40
0.3076923076923077
 40
0.3846153846153846
 40
0.3846153846153846
 40
0.3846153846153846
 40
0.3846153846153846
 40
0.4615384615384616
 40
0.4615384615384616
 40
0.4615384615384616
 40
0.4615384615384616
 40
0.5384615384615384
 40
0.5384615384615384
 40
0.5384615384615384
 40
0.5384615384615384
 40
0.6153846153846154
 40
0.6153846153846154
 40
0.6153846153846154
 40
0.6153846153846154
 40
0.6923076923076923
 40
0.6923076923076923
 40
0.6923076923076923
 40
0.6923076923076923
 40
0.7692307692307693
 40
0.7692307692307693
 40
0.7692307692307693
 40
0.7692307692307693
 40
0.8461538461538461
 40
0.8461538461538461
 40
0.8461538461538461
 40
0.8461538461538461
 40
1.0
 40
1.0
 40
1.0
 40
1.0
 10
-2.41553
 20
-7.44873
 30
0.0
 10
-2.41553
 20
-7.37719
 30
0.0
 10
-2.40819
 20
-7.31933
 30
0.0
 10
-2.39352
 20
-7.27559
 30
0.0
 10
-2.39352
 20
-7.27559
 30
0.0
 10
-2.3787
 20
-7.2317
 30
0.0
 10
-2.35683
 20
-7.19798
 30
0.0
 10
-2.32776
 20
-7.17441
 30
0.0
 10
-2.32776
 20
-7.17441
 30
0.0
 10
-2.29883
 20
-7.15085
 30
0.0
 10
-2.26228
 20
-7.13913
 30
0.0
 10
-2.21826
 20
-7.13913
 30
0.0
 10
-2.21826
 20
-7.13913
 30
0.0
 10
-2.1858
 20
-7.13913
 30
0.0
 10
-2.1573
 20
-7.14563
 30
0.0
 10
-2.1326
 20
-7.15875
 30
0.0
 10
-2.1326
 20
-7.15875
 30
0.0
 10
-2.10805
 20
-7.17187
 30
0.0
 10
-2.08773
 20
-7.19078
 30
0.0
 10
-2.07192
 20
-7.21548
 30
0.0
 10
-2.07192
 20
-7.21548
 30
0.0
 10
-2.05612
 20
-7.24003
 30
0.0
 10
-2.0437
 20
-7.27009
 30
0.0
 10
-2.03467
 20
-7.3055
 30
0.0
 10
-2.03467
 20
-7.3055
 30
0.0
 10
-2.0255
 20
-7.34092
 30
0.0
 10
-2.02098
 20
-7.38876
 30
0.0
 10
-2.02098
 20
-7.44873
 30
0.0
 10
-2.02098
 20
-7.44873
 30
0.0
 10
-2.02098
 20
-7.51985
 30
0.0
 10
-2.02832
 20
-7.57743
 30
0.0
 10
-2.04285
 20
-7.62117
 30
0.0
 10
-2.04285
 20
-7.62117
 30
0.0
 10
-2.05739
 20
-7.66506
 30
0.0
 10
-2.07926
 20
-7.69878
 30
0.0
 10
-2.10833
 20
-7.72249
 30
0.0
 10
-2.10833
 20
-7.72249
 30
0.0
 10
-2.13726
 20
-7.7462
 30
0.0
 10
-2.17395
 20
-7.75805
 30
0.0
 10
-2.21826
 20
-7.75805
 30
0.0
 10
-2.21826
 20
-7.75805
 30
0.0
 10
-2.27653
 20
-7.75805
 30
0.0
 10
-2.3224
 20
-7.73731
 30
0.0
 10
-2.3557
 20
-7.69568
 30
0.0
 10
-2.3557
 20
-7.69568
 30
0.0
 10
-2.39563
 20
-7.64488
 30
0.0
 10
-2.41553
 20
-7.56261
 30
0.0
 10
-2.41553
 20
-7.44873
 30
0.0
  0
SPLINE
  5
43
330
1F
100
AcDbEntity
  8
Layer 1
 62
   250
100
AcDbSpline
210
0.0
220
0.0
230
1.0
 70
    11
 71
     3
 72
    36
 73
    32
 74
     0
 42
0.0000000001
 43
0.0000000001
 12
1.0
 22
0.0
 32
0.0
 13
1.0
 23
0.0
 33
0.0
 40
0.0
 40
0.0
 40
0.0
 40
0.0
 40
0.1111111111111111
 40
0.1111111111111111
 40
0.1111111111111111
 40
0.1111111111111111
 40
0.2222222222222222
 40
0.2222222222222222
 40
0.2222222222222222
 40
0.2222222222222222
 40
0.3333333333333333
 40
0.3333333333333333
 40
0.3333333333333333
 40
0.3333333333333333
 40
0.4444444444444444
 40
0.4444444444444444
 40
0.4444444444444444
 40
0.4444444444444444
 40
0.5555555555555556
 40
0.5555555555555556
 40
0.5555555555555556
 40
0.5555555555555556
 40
0.6666666666666666
 40
0.6666666666666666
 40
0.6666666666666666
 40
0.6666666666666666
 40
0.7777777777777778
 40
0.7777777777777778
 40
0.7777777777777778
 40
0.7777777777777778
 40
1.0
 40
1.0
 40
1.0
 40
1.0
 10
-2.33933
 20
-7.44902
 30
0.0
 10
-2.33933
 20
-7.54878
 30
0.0
 10
-2.32776
 20
-7.6151
 30
0.0
 10
-2.30447
 20
-7.64784
 30
0.0
 10
-2.30447
 20
-7.64784
 30
0.0
 10
-2.28119
 20
-7.68072
 30
0.0
 10
-2.2524
 20
-7.69709
 30
0.0
 10
-2.21826
 20
-7.69709
 30
0.0
 10
-2.21826
 20
-7.69709
 30
0.0
 10
-2.18411
 20
-7.69709
 30
0.0
 10
-2.15532
 20
-7.68058
 30
0.0
 10
-2.13204
 20
-7.6477
 30
0.0
 10
-2.13204
 20
-7.6477
 30
0.0
 10
-2.10875
 20
-7.61468
 30
0.0
 10
-2.09718
 20
-7.5485
 30
0.0
 10
-2.09718
 20
-7.44902
 30
0.0
 10
-2.09718
 20
-7.44902
 30
0.0
 10
-2.09718
 20
-7.34925
 30
0.0
 10
-2.10875
 20
-7.28293
 30
0.0
 10
-2.13204
 20
-7.25019
 30
0.0
 10
-2.13204
 20
-7.25019
 30
0.0
 10
-2.15518
 20
-7.21731
 30
0.0
 10
-2.18425
 20
-7.20094
 30
0.0
 10
-2.2191
 20
-7.20094
 30
0.0
 10
-2.2191
 20
-7.20094
 30
0.0
 10
-2.25325
 20
-7.20094
 30
0.0
 10
-2.28063
 20
-7.21548
 30
0.0
 10
-2.30109
 20
-7.2444
 30
0.0
 10
-2.30109
 20
-7.2444
 30
0.0
 10
-2.32663
 20
-7.28123
 30
0.0
 10
-2.33933
 20
-7.34953
 30
0.0
 10
-2.33933
 20
-7.44902
 30
0.0
  0
SPLINE
  5
44
330
1F
100
AcDbEntity
  8
Layer 1
 62
   250
100
AcDbSpline
210
0.0
220
0.0
230
1.0
 70
    11
 71
     3
 72
   124
 73
   120
 74
     0
 42
0.0000000001
 43
0.0000000001
 12
1.0
 22
0.0
 32
0.0
 13
1.0
 23
0.0
 33
0.0
 40
0.0
 40
0.0
 40
0.0
 40
0.0
 40
0.032258064516129
 40
0.032258064516129
 40
0.032258064516129
 40
0.032258064516129
 40
0.0645161290322581
 40
0.0645161290322581
 40
0.0645161290322581
 40
0.0645161290322581
 40
0.0967741935483871
 40
0.0967741935483871
 40
0.0967741935483871
 40
0.0967741935483871
 40
0.1290322580645161
 40
0.1290322580645161
 40
0.1290322580645161
 40
0.1290322580645161
 40
0.1612903225806452
 40
0.1612903225806452
 40
0.1612903225806452
 40
0.1612903225806452
 40
0.1935483870967742
 40
0.1935483870967742
 40
0.1935483870967742
 40
0.1935483870967742
 40
0.2258064516129032
 40
0.2258064516129032
 40
0.2258064516129032
 40
0.2258064516129032
 40
0.2580645161290323
 40
0.2580645161290323
 40
0.2580645161290323
 40
0.2580645161290323
 40
0.2903225806451613
 40
0.2903225806451613
 40
0.2903225806451613
 40
0.2903225806451613
 40
0.3225806451612903
 40
0.3225806451612903
 40
0.3225806451612903
 40
0.3225806451612903
 40
0.3548387096774194
 40
0.3548387096774194
 40
0.3548387096774194
 40
0.3548387096774194
 40
0.3870967741935484
 40
0.3870967741935484
 40
0.3870967741935484
 40
0.3870967741935484
 40
0.4193548387096774
 40
0.4193548387096774
 40
0.4193548387096774
 40
0.4193548387096774
 40
0.4516129032258064
 40
0.4516129032258064
 40
0.4516129032258064
 40
0.4516129032258064
 40
0.4838709677419355
 40
0.4838709677419355
 40
0.4838709677419355
 40
0.4838709677419355
 40
0.5161290322580645
 40
0.5161290322580645
 40
0.5161290322580645
 40
0.5161290322580645
 40
0.5483870967741935
 40
0.5483870967741935
 40
0.5483870967741935
 40
0.5483870967741935
 40
0.5806451612903226
 40
0.5806451612903226
 40
0.5806451612903226
 40
0.5806451612903226
 40
0.6129032258064516
 40
0.6129032258064516
 40
0.6129032258064516
 40
0.6129032258064516
 40
0.6451612903225806
 40
0.6451612903225806
 40
0.6451612903225806
 40
0.6451612903225806
 40
0.6774193548387096
 40
0.6774193548387096
 40
0.6774193548387096
 40
0.6774193548387096
 40
0.7096774193548387
 40
0.7096774193548387
 40
0.7096774193548387
 40
0.7096774193548387
 40
0.7419354838709677
 40
0.7419354838709677
 40
0.7419354838709677
 40
0.7419354838709677
 40
0.7741935483870968
 40
0.7741935483870968
 40
0.7741935483870968
 40
0.7741935483870968
 40
0.8064516129032258
 40
0.8064516129032258
 40
0.8064516129032258
 40
0.8064516129032258
 40
0.8387096774193549
 40
0.8387096774193549
 40
0.8387096774193549
 40
0.8387096774193549
 40
0.8709677419354839
 40
0.8709677419354839
 40
0.8709677419354839
 40
0.8709677419354839
 40
0.9032258064516129
 40
0.9032258064516129
 40
0.9032258064516129
 40
0.9032258064516129
 40
0.9354838709677419
 40
0.9354838709677419
 40
0.9354838709677419
 40
0.9354838709677419
 40
1.0
 40
1.0
 40
1.0
 40
1.0
 10
-1.94464
 20
-7.58702
 30
0.0
 10
-1.94464
 20
-7.58702
 30
0.0
 10
-1.87013
 20
-7.57686
 30
0.0
 10
-1.87013
 20
-7.57686
 30
0.0
 10
-1.87013
 20
-7.57686
 30
0.0
 10
-1.86153
 20
-7.6192
 30
0.0
 10
-1.84713
 20
-7.64968
 30
0.0
 10
-1.82667
 20
-7.6683
 30
0.0
 10
-1.82667
 20
-7.6683
 30
0.0
 10
-1.80621
 20
-7.68693
 30
0.0
 10
-1.78109
 20
-7.69624
 30
0.0
 10
-1.75132
 20
-7.69624
 30
0.0
 10
-1.75132
 20
-7.69624
 30
0.0
 10
-1.71604
 20
-7.69624
 30
0.0
 10
-1.68626
 20
-7.68411
 30
0.0
 10
-1.66228
 20
-7.65984
 30
0.0
 10
-1.66228
 20
-7.65984
 30
0.0
 10
-1.63829
 20
-7.63557
 30
0.0
 10
-1.62629
 20
-7.60551
 30
0.0
 10
-1.62629
 20
-7.56967
 30
0.0
 10
-1.62629
 20
-7.56967
 30
0.0
 10
-1.62629
 20
-7.53552
 30
0.0
 10
-1.63744
 20
-7.50729
 30
0.0
 10
-1.65988
 20
-7.485
 30
0.0
 10
-1.65988
 20
-7.485
 30
0.0
 10
-1.68217
 20
-7.46284
 30
0.0
 10
-1.71054
 20
-7.4517
 30
0.0
 10
-1.74511
 20
-7.4517
 30
0.0
 10
-1.74511
 20
-7.4517
 30
0.0
 10
-1.75922
 20
-7.4517
 30
0.0
 10
-1.77672
 20
-7.45452
 30
0.0
 10
-1.79774
 20
-7.46002
 30
0.0
 10
-1.79774
 20
-7.46002
 30
0.0
 10
-1.79774
 20
-7.46002
 30
0.0
 10
-1.78942
 20
-7.39483
 30
0.0
 10
-1.78942
 20
-7.39483
 30
0.0
 10
-1.78942
 20
-7.39483
 30
0.0
 10
-1.78448
 20
-7.39539
 30
0.0
 10
-1.78039
 20
-7.39568
 30
0.0
 10
-1.77742
 20
-7.39568
 30
0.0
 10
-1.77742
 20
-7.39568
 30
0.0
 10
-1.74553
 20
-7.39568
 30
0.0
 10
-1.71703
 20
-7.38735
 30
0.0
 10
-1.69149
 20
-7.37084
 30
0.0
 10
-1.69149
 20
-7.37084
 30
0.0
 10
-1.66609
 20
-7.35433
 30
0.0
 10
-1.65339
 20
-7.32893
 30
0.0
 10
-1.65339
 20
-7.29464
 30
0.0
 10
-1.65339
 20
-7.29464
 30
0.0
 10
-1.65339
 20
-7.2674
 30
0.0
 10
-1.6627
 20
-7.24483
 30
0.0
 10
-1.68118
 20
-7.22691
 30
0.0
 10
-1.68118
 20
-7.22691
 30
0.0
 10
-1.69967
 20
-7.20898
 30
0.0
 10
-1.72352
 20
-7.20009
 30
0.0
 10
-1.75273
 20
-7.20009
 30
0.0
 10
-1.75273
 20
-7.20009
 30
0.0
 10
-1.7818
 20
-7.20009
 30
0.0
 10
-1.80593
 20
-7.20927
 30
0.0
 10
-1.82526
 20
-7.22761
 30
0.0
 10
-1.82526
 20
-7.22761
 30
0.0
 10
-1.84459
 20
-7.24596
 30
0.0
 10
-1.85701
 20
-7.27347
 30
0.0
 10
-1.86251
 20
-7.31016
 30
0.0
 10
-1.86251
 20
-7.31016
 30
0.0
 10
-1.86251
 20
-7.31016
 30
0.0
 10
-1.93702
 20
-7.29661
 30
0.0
 10
-1.93702
 20
-7.29661
 30
0.0
 10
-1.93702
 20
-7.29661
 30
0.0
 10
-1.92785
 20
-7.24666
 30
0.0
 10
-1.90725
 20
-7.20786
 30
0.0
 10
-1.87493
 20
-7.18034
 30
0.0
 10
-1.87493
 20
-7.18034
 30
0.0
 10
-1.84276
 20
-7.15282
 30
0.0
 10
-1.80254
 20
-7.13913
 30
0.0
 10
-1.75456
 20
-7.13913
 30
0.0
 10
-1.75456
 20
-7.13913
 30
0.0
 10
-1.72154
 20
-7.13913
 30
0.0
 10
-1.69106
 20
-7.14619
 30
0.0
 10
-1.66326
 20
-7.16044
 30
0.0
 10
-1.66326
 20
-7.16044
 30
0.0
 10
-1.63532
 20
-7.17455
 30
0.0
 10
-1.61402
 20
-7.19389
 30
0.0
 10
-1.59934
 20
-7.2183
 30
0.0
 10
-1.59934
 20
-7.2183
 30
0.0
 10
-1.58452
 20
-7.24285
 30
0.0
 10
-1.57719
 20
-7.26882
 30
0.0
 10
-1.57719
 20
-7.29633
 30
0.0
 10
-1.57719
 20
-7.29633
 30
0.0
 10
-1.57719
 20
-7.32244
 30
0.0
 10
-1.58424
 20
-7.34615
 30
0.0
 10
-1.59821
 20
-7.36759
 30
0.0
 10
-1.59821
 20
-7.36759
 30
0.0
 10
-1.61232
 20
-7.38904
 30
0.0
 10
-1.63321
 20
-7.40612
 30
0.0
 10
-1.66072
 20
-7.41882
 30
0.0
 10
-1.66072
 20
-7.41882
 30
0.0
 10
-1.62488
 20
-7.427
 30
0.0
 10
-1.59708
 20
-7.44422
 30
0.0
 10
-1.57719
 20
-7.47032
 30
0.0
 10
-1.57719
 20
-7.47032
 30
0.0
 10
-1.55743
 20
-7.49629
 30
0.0
 10
-1.54755
 20
-7.52903
 30
0.0
 10
-1.54755
 20
-7.56811
 30
0.0
 10
-1.54755
 20
-7.56811
 30
0.0
 10
-1.54755
 20
-7.62103
 30
0.0
 10
-1.56688
 20
-7.66605
 30
0.0
 10
-1.60541
 20
-7.70288
 30
0.0
 10
-1.60541
 20
-7.70288
 30
0.0
 10
-1.64407
 20
-7.73971
 30
0.0
 10
-1.6929
 20
-7.75805
 30
0.0
 10
-1.75188
 20
-7.75805
 30
0.0
 10
-1.75188
 20
-7.75805
 30
0.0
 10
-1.80508
 20
-7.75805
 30
0.0
 10
-1.84925
 20
-7.7421
 30
0.0
 10
-1.88439
 20
-7.71035
 30
0.0
 10
-1.88439
 20
-7.71035
 30
0.0
 10
-1.91966
 20
-7.6786
 30
0.0
 10
-1.9397
 20
-7.63754
 30
0.0
 10
-1.94464
 20
-7.58702
 30
0.0
  0
SPLINE
  5
45
330
1F
100
AcDbEntity
  8
Layer 1
 62
   250
100
AcDbSpline
210
0.0
220
0.0
230
1.0
 70
    11
 71
     3
 72
   124
 73
   120
 74
     0
 42
0.0000000001
 43
0.0000000001
 12
1.0
 22
0.0
 32
0.0
 13
1.0
 23
0.0
 33
0.0
 40
0.0
 40
0.0
 40
0.0
 40
0.0
 40
0.032258064516129
 40
0.032258064516129
 40
0.032258064516129
 40
0.032258064516129
 40
0.0645161290322581
 40
0.0645161290322581
 40
0.0645161290322581
 40
0.0645161290322581
 40
0.0967741935483871
 40
0.0967741935483871
 40
0.0967741935483871
 40
0.0967741935483871
 40
0.1290322580645161
 40
0.1290322580645161
 40
0.1290322580645161
 40
0.1290322580645161
 40
0.1612903225806452
 40
0.1612903225806452
 40
0.1612903225806452
 40
0.1612903225806452
 40
0.1935483870967742
 40
0.1935483870967742
 40
0.1935483870967742
 40
0.1935483870967742
 40
0.2258064516129032
 40
0.2258064516129032
 40
0.2258064516129032
 40
0.2258064516129032
 40
0.2580645161290323
 40
0.2580645161290323
 40
0.2580645161290323
 40
0.2580645161290323
 40
0.2903225806451613
 40
0.2903225806451613
 40
0.2903225806451613
 40
0.2903225806451613
 40
0.3225806451612903
 40
0.3225806451612903
 40
0.3225806451612903
 40
0.3225806451612903
 40
0.3548387096774194
 40
0.3548387096774194
 40
0.3548387096774194
 40
0.3548387096774194
 40
0.3870967741935484
 40
0.3870967741935484
 40
0.3870967741935484
 40
0.3870967741935484
 40
0.4193548387096774
 40
0.4193548387096774
 40
0.4193548387096774
 40
0.4193548387096774
 40
0.4516129032258064
 40
0.4516129032258064
 40
0.4516129032258064
 40
0.4516129032258064
 40
0.4838709677419355
 40
0.4838709677419355
 40
0.4838709677419355
 40
0.4838709677419355
 40
0.5161290322580645
 40
0.5161290322580645
 40
0.5161290322580645
 40
0.5161290322580645
 40
0.5483870967741935
 40
0.5483870967741935
 40
0.5483870967741935
 40
0.5483870967741935
 40
0.5806451612903226
 40
0.5806451612903226
 40
0.5806451612903226
 40
0.5806451612903226
 40
0.6129032258064516
 40
0.6129032258064516
 40
0.6129032258064516
 40
0.6129032258064516
 40
0.6451612903225806
 40
0.6451612903225806
 40
0.6451612903225806
 40
0.6451612903225806
 40
0.6774193548387096
 40
0.6774193548387096
 40
0.6774193548387096
 40
0.6774193548387096
 40
0.7096774193548387
 40
0.7096774193548387
 40
0.7096774193548387
 40
0.7096774193548387
 40
0.7419354838709677
 40
0.7419354838709677
 40
0.7419354838709677
 40
0.7419354838709677
 40
0.7741935483870968
 40
0.7741935483870968
 40
0.7741935483870968
 40
0.7741935483870968
 40
0.8064516129032258
 40
0.8064516129032258
 40
0.8064516129032258
 40
0.8064516129032258
 40
0.8387096774193549
 40
0.8387096774193549
 40
0.8387096774193549
 40
0.8387096774193549
 40
0.8709677419354839
 40
0.8709677419354839
 40
0.8709677419354839
 40
0.8709677419354839
 40
0.9032258064516129
 40
0.9032258064516129
 40
0.9032258064516129
 40
0.9032258064516129
 40
0.9354838709677419
 40
0.9354838709677419
 40
0.9354838709677419
 40
0.9354838709677419
 40
1.0
 40
1.0
 40
1.0
 40
1.0
 10
-1.47375
 20
-7.58702
 30
0.0
 10
-1.47375
 20
-7.58702
 30
0.0
 10
-1.39924
 20
-7.57686
 30
0.0
 10
-1.39924
 20
-7.57686
 30
0.0
 10
-1.39924
 20
-7.57686
 30
0.0
 10
-1.39064
 20
-7.6192
 30
0.0
 10
-1.37624
 20
-7.64968
 30
0.0
 10
-1.35578
 20
-7.6683
 30
0.0
 10
-1.35578
 20
-7.6683
 30
0.0
 10
-1.33532
 20
-7.68693
 30
0.0
 10
-1.3102
 20
-7.69624
 30
0.0
 10
-1.28043
 20
-7.69624
 30
0.0
 10
-1.28043
 20
-7.69624
 30
0.0
 10
-1.24515
 20
-7.69624
 30
0.0
 10
-1.21537
 20
-7.68411
 30
0.0
 10
-1.19139
 20
-7.65984
 30
0.0
 10
-1.19139
 20
-7.65984
 30
0.0
 10
-1.1674
 20
-7.63557
 30
0.0
 10
-1.1554
 20
-7.60551
 30
0.0
 10
-1.1554
 20
-7.56967
 30
0.0
 10
-1.1554
 20
-7.56967
 30
0.0
 10
-1.1554
 20
-7.53552
 30
0.0
 10
-1.16655
 20
-7.50729
 30
0.0
 10
-1.18899
 20
-7.485
 30
0.0
 10
-1.18899
 20
-7.485
 30
0.0
 10
-1.21128
 20
-7.46284
 30
0.0
 10
-1.23965
 20
-7.4517
 30
0.0
 10
-1.27422
 20
-7.4517
 30
0.0
 10
-1.27422
 20
-7.4517
 30
0.0
 10
-1.28833
 20
-7.4517
 30
0.0
 10
-1.30583
 20
-7.45452
 30
0.0
 10
-1.32685
 20
-7.46002
 30
0.0
 10
-1.32685
 20
-7.46002
 30
0.0
 10
-1.32685
 20
-7.46002
 30
0.0
 10
-1.31853
 20
-7.39483
 30
0.0
 10
-1.31853
 20
-7.39483
 30
0.0
 10
-1.31853
 20
-7.39483
 30
0.0
 10
-1.31359
 20
-7.39539
 30
0.0
 10
-1.3095
 20
-7.39568
 30
0.0
 10
-1.30653
 20
-7.39568
 30
0.0
 10
-1.30653
 20
-7.39568
 30
0.0
 10
-1.27464
 20
-7.39568
 30
0.0
 10
-1.24614
 20
-7.38735
 30
0.0
 10
-1.2206
 20
-7.37084
 30
0.0
 10
-1.2206
 20
-7.37084
 30
0.0
 10
-1.1952
 20
-7.35433
 30
0.0
 10
-1.1825
 20
-7.32893
 30
0.0
 10
-1.1825
 20
-7.29464
 30
0.0
 10
-1.1825
 20
-7.29464
 30
0.0
 10
-1.1825
 20
-7.2674
 30
0.0
 10
-1.19181
 20
-7.24483
 30
0.0
 10
-1.21029
 20
-7.22691
 30
0.0
 10
-1.21029
 20
-7.22691
 30
0.0
 10
-1.22878
 20
-7.20898
 30
0.0
 10
-1.25263
 20
-7.20009
 30
0.0
 10
-1.28184
 20
-7.20009
 30
0.0
 10
-1.28184
 20
-7.20009
 30
0.0
 10
-1.31091
 20
-7.20009
 30
0.0
 10
-1.33504
 20
-7.20927
 30
0.0
 10
-1.35437
 20
-7.22761
 30
0.0
 10
-1.35437
 20
-7.22761
 30
0.0
 10
-1.3737
 20
-7.24596
 30
0.0
 10
-1.38612
 20
-7.27347
 30
0.0
 10
-1.39162
 20
-7.31016
 30
0.0
 10
-1.39162
 20
-7.31016
 30
0.0
 10
-1.39162
 20
-7.31016
 30
0.0
 10
-1.46613
 20
-7.29661
 30
0.0
 10
-1.46613
 20
-7.29661
 30
0.0
 10
-1.46613
 20
-7.29661
 30
0.0
 10
-1.45696
 20
-7.24666
 30
0.0
 10
-1.43636
 20
-7.20786
 30
0.0
 10
-1.40404
 20
-7.18034
 30
0.0
 10
-1.40404
 20
-7.18034
 30
0.0
 10
-1.37187
 20
-7.15282
 30
0.0
 10
-1.33165
 20
-7.13913
 30
0.0
 10
-1.28367
 20
-7.13913
 30
0.0
 10
-1.28367
 20
-7.13913
 30
0.0
 10
-1.25065
 20
-7.13913
 30
0.0
 10
-1.22017
 20
-7.14619
 30
0.0
 10
-1.19237
 20
-7.16044
 30
0.0
 10
-1.19237
 20
-7.16044
 30
0.0
 10
-1.16443
 20
-7.17455
 30
0.0
 10
-1.14313
 20
-7.19389
 30
0.0
 10
-1.12845
 20
-7.2183
 30
0.0
 10
-1.12845
 20
-7.2183
 30
0.0
 10
-1.11363
 20
-7.24285
 30
0.0
 10
-1.1063
 20
-7.26882
 30
0.0
 10
-1.1063
 20
-7.29633
 30
0.0
 10
-1.1063
 20
-7.29633
 30
0.0
 10
-1.1063
 20
-7.32244
 30
0.0
 10
-1.11335
 20
-7.34615
 30
0.0
 10
-1.12732
 20
-7.36759
 30
0.0
 10
-1.12732
 20
-7.36759
 30
0.0
 10
-1.14143
 20
-7.38904
 30
0.0
 10
-1.16232
 20
-7.40612
 30
0.0
 10
-1.18983
 20
-7.41882
 30
0.0
 10
-1.18983
 20
-7.41882
 30
0.0
 10
-1.15399
 20
-7.427
 30
0.0
 10
-1.12619
 20
-7.44422
 30
0.0
 10
-1.1063
 20
-7.47032
 30
0.0
 10
-1.1063
 20
-7.47032
 30
0.0
 10
-1.08654
 20
-7.49629
 30
0.0
 10
-1.07666
 20
-7.52903
 30
0.0
 10
-1.07666
 20
-7.56811
 30
0.0
 10
-1.07666
 20
-7.56811
 30
0.0
 10
-1.07666
 20
-7.62103
 30
0.0
 10
-1.09599
 20
-7.66605
 30
0.0
 10
-1.13452
 20
-7.70288
 30
0.0
 10
-1.13452
 20
-7.70288
 30
0.0
 10
-1.17318
 20
-7.73971
 30
0.0
 10
-1.22201
 20
-7.75805
 30
0.0
 10
-1.28099
 20
-7.75805
 30
0.0
 10
-1.28099
 20
-7.75805
 30
0.0
 10
-1.33419
 20
-7.75805
 30
0.0
 10
-1.37836
 20
-7.7421
 30
0.0
 10
-1.4135
 20
-7.71035
 30
0.0
 10
-1.4135
 20
-7.71035
 30
0.0
 10
-1.44877
 20
-7.6786
 30
0.0
 10
-1.46881
 20
-7.63754
 30
0.0
 10
-1.47375
 20
-7.58702
 30
0.0
  0
SPLINE
  5
46
330
1F
100
AcDbEntity
  8
Layer 1
 62
   250
100
AcDbSpline
210
0.0
220
0.0
230
1.0
 70
    11
 71
     3
 72
    40
 73
    36
 74
     0
 42
0.0000000001
 43
0.0000000001
 12
1.0
 22
0.0
 32
0.0
 13
1.0
 23
0.0
 33
0.0
 40
0.0
 40
0.0
 40
0.0
 40
0.0
 40
0.1
 40
0.1
 40
0.1
 40
0.1
 40
0.2
 40
0.2
 40
0.2
 40
0.2
 40
0.3
 40
0.3
 40
0.3
 40
0.3
 40
0.4
 40
0.4
 40
0.4
 40
0.4
 40
0.5
 40
0.5
 40
0.5
 40
0.5
 40
0.6
 40
0.6
 40
0.6
 40
0.6
 40
0.7
 40
0.7
 40
0.7
 40
0.7
 40
0.8
 40
0.8
 40
0.8
 40
0.8
 40
1.0
 40
1.0
 40
1.0
 40
1.0
 10
-0.72346
 20
-7.74789
 30
0.0
 10
-0.72346
 20
-7.74789
 30
0.0
 10
-0.79797
 20
-7.74789
 30
0.0
 10
-0.79797
 20
-7.74789
 30
0.0
 10
-0.79797
 20
-7.74789
 30
0.0
 10
-0.79797
 20
-7.74789
 30
0.0
 10
-0.79797
 20
-7.27347
 30
0.0
 10
-0.79797
 20
-7.27347
 30
0.0
 10
-0.79797
 20
-7.27347
 30
0.0
 10
-0.81589
 20
-7.29069
 30
0.0
 10
-0.83945
 20
-7.30776
 30
0.0
 10
-0.86852
 20
-7.32484
 30
0.0
 10
-0.86852
 20
-7.32484
 30
0.0
 10
-0.89759
 20
-7.34191
 30
0.0
 10
-0.92384
 20
-7.35475
 30
0.0
 10
-0.94698
 20
-7.36322
 30
0.0
 10
-0.94698
 20
-7.36322
 30
0.0
 10
-0.94698
 20
-7.36322
 30
0.0
 10
-0.94698
 20
-7.29125
 30
0.0
 10
-0.94698
 20
-7.29125
 30
0.0
 10
-0.94698
 20
-7.29125
 30
0.0
 10
-0.90535
 20
-7.27178
 30
0.0
 10
-0.86894
 20
-7.24807
 30
0.0
 10
-0.83776
 20
-7.22013
 30
0.0
 10
-0.83776
 20
-7.22013
 30
0.0
 10
-0.80657
 20
-7.19233
 30
0.0
 10
-0.78442
 20
-7.16538
 30
0.0
 10
-0.77144
 20
-7.13913
 30
0.0
 10
-0.77144
 20
-7.13913
 30
0.0
 10
-0.77144
 20
-7.13913
 30
0.0
 10
-0.72346
 20
-7.13913
 30
0.0
 10
-0.72346
 20
-7.13913
 30
0.0
 10
-0.72346
 20
-7.13913
 30
0.0
 10
-0.72346
 20
-7.13913
 30
0.0
 10
-0.72346
 20
-7.74789
 30
0.0
 10
-0.72346
 20
-7.74789
 30
0.0
  0
SPLINE
  5
47
330
1F
100
AcDbEntity
  8
Layer 1
 62
   250
100
AcDbSpline
210
0.0
220
0.0
230
1.0
 70
    11
 71
     3
 72
    92
 73
    88
 74
     0
 42
0.0000000001
 43
0.0000000001
 12
1.0
 22
0.0
 32
0.0
 13
1.0
 23
0.0
 33
0.0
 40
0.0
 40
0.0
 40
0.0
 40
0.0
 40
0.0434782608695652
 40
0.0434782608695652
 40
0.0434782608695652
 40
0.0434782608695652
 40
0.0869565217391304
 40
0.0869565217391304
 40
0.0869565217391304
 40
0.0869565217391304
 40
0.1304347826086956
 40
0.1304347826086956
 40
0.1304347826086956
 40
0.1304347826086956
 40
0.1739130434782609
 40
0.1739130434782609
 40
0.1739130434782609
 40
0.1739130434782609
 40
0.2173913043478261
 40
0.2173913043478261
 40
0.2173913043478261
 40
0.2173913043478261
 40
0.2608695652173913
 40
0.2608695652173913
 40
0.2608695652173913
 40
0.2608695652173913
 40
0.3043478260869565
 40
0.3043478260869565
 40
0.3043478260869565
 40
0.3043478260869565
 40
0.3478260869565217
 40
0.3478260869565217
 40
0.3478260869565217
 40
0.3478260869565217
 40
0.391304347826087
 40
0.391304347826087
 40
0.391304347826087
 40
0.391304347826087
 40
0.4347826086956522
 40
0.4347826086956522
 40
0.4347826086956522
 40
0.4347826086956522
 40
0.4782608695652174
 40
0.4782608695652174
 40
0.4782608695652174
 40
0.4782608695652174
 40
0.5217391304347826
 40
0.5217391304347826
 40
0.5217391304347826
 40
0.5217391304347826
 40
0.5652173913043478
 40
0.5652173913043478
 40
0.5652173913043478
 40
0.5652173913043478
 40
0.6086956521739131
 40
0.6086956521739131
 40
0.6086956521739131
 40
0.6086956521739131
 40
0.6521739130434783
 40
0.6521739130434783
 40
0.6521739130434783
 40
0.6521739130434783
 40
0.6956521739130435
 40
0.6956521739130435
 40
0.6956521739130435
 40
0.6956521739130435
 40
0.7391304347826086
 40
0.7391304347826086
 40
0.7391304347826086
 40
0.7391304347826086
 40
0.782608695652174
 40
0.782608695652174
 40
0.782608695652174
 40
0.782608695652174
 40
0.8260869565217391
 40
0.8260869565217391
 40
0.8260869565217391
 40
0.8260869565217391
 40
0.8695652173913043
 40
0.8695652173913043
 40
0.8695652173913043
 40
0.8695652173913043
 40
0.9130434782608695
 40
0.9130434782608695
 40
0.9130434782608695
 40
0.9130434782608695
 40
1.0
 40
1.0
 40
1.0
 40
1.0
 10
-0.52096
 20
-7.60734
 30
0.0
 10
-0.52096
 20
-7.60734
 30
0.0
 10
-0.44984
 20
-7.60142
 30
0.0
 10
-0.44984
 20
-7.60142
 30
0.0
 10
-0.44984
 20
-7.60142
 30
0.0
 10
-0.44378
 20
-7.635
 30
0.0
 10
-0.4322
 20
-7.65927
 30
0.0
 10
-0.41513
 20
-7.67437
 30
0.0
 10
-0.41513
 20
-7.67437
 30
0.0
 10
-0.39805
 20
-7.68947
 30
0.0
 10
-0.37618
 20
-7.69709
 30
0.0
 10
-0.34937
 20
-7.69709
 30
0.0
 10
-0.34937
 20
-7.69709
 30
0.0
 10
-0.32651
 20
-7.69709
 30
0.0
 10
-0.30647
 20
-7.69187
 30
0.0
 10
-0.28912
 20
-7.68129
 30
0.0
 10
-0.28912
 20
-7.68129
 30
0.0
 10
-0.27176
 20
-7.67084
 30
0.0
 10
-0.25765
 20
-7.65687
 30
0.0
 10
-0.24678
 20
-7.63923
 30
0.0
 10
-0.24678
 20
-7.63923
 30
0.0
 10
-0.23592
 20
-7.62174
 30
0.0
 10
-0.22675
 20
-7.59803
 30
0.0
 10
-0.21927
 20
-7.56825
 30
0.0
 10
-0.21927
 20
-7.56825
 30
0.0
 10
-0.21179
 20
-7.53848
 30
0.0
 10
-0.20812
 20
-7.50814
 30
0.0
 10
-0.20812
 20
-7.47724
 30
0.0
 10
-0.20812
 20
-7.47724
 30
0.0
 10
-0.20812
 20
-7.47399
 30
0.0
 10
-0.20826
 20
-7.46891
 30
0.0
 10
-0.20854
 20
-7.46228
 30
0.0
 10
-0.20854
 20
-7.46228
 30
0.0
 10
-0.22336
 20
-7.48599
 30
0.0
 10
-0.24368
 20
-7.50532
 30
0.0
 10
-0.26936
 20
-7.51999
 30
0.0
 10
-0.26936
 20
-7.51999
 30
0.0
 10
-0.29504
 20
-7.53481
 30
0.0
 10
-0.32298
 20
-7.54215
 30
0.0
 10
-0.3529
 20
-7.54215
 30
0.0
 10
-0.3529
 20
-7.54215
 30
0.0
 10
-0.40299
 20
-7.54215
 30
0.0
 10
-0.44533
 20
-7.52395
 30
0.0
 10
-0.48004
 20
-7.48754
 30
0.0
 10
-0.48004
 20
-7.48754
 30
0.0
 10
-0.51461
 20
-7.45127
 30
0.0
 10
-0.53197
 20
-7.4033
 30
0.0
 10
-0.53197
 20
-7.34375
 30
0.0
 10
-0.53197
 20
-7.34375
 30
0.0
 10
-0.53197
 20
-7.28222
 30
0.0
 10
-0.51391
 20
-7.23283
 30
0.0
 10
-0.47764
 20
-7.1953
 30
0.0
 10
-0.47764
 20
-7.1953
 30
0.0
 10
-0.44152
 20
-7.1579
 30
0.0
 10
-0.39622
 20
-7.13913
 30
0.0
 10
-0.34161
 20
-7.13913
 30
0.0
 10
-0.34161
 20
-7.13913
 30
0.0
 10
-0.30238
 20
-7.13913
 30
0.0
 10
-0.2664
 20
-7.14972
 30
0.0
 10
-0.23366
 20
-7.17103
 30
0.0
 10
-0.23366
 20
-7.17103
 30
0.0
 10
-0.20106
 20
-7.19219
 30
0.0
 10
-0.17637
 20
-7.22239
 30
0.0
 10
-0.15944
 20
-7.26176
 30
0.0
 10
-0.15944
 20
-7.26176
 30
0.0
 10
-0.1425
 20
-7.30099
 30
0.0
 10
-0.13403
 20
-7.35786
 30
0.0
 10
-0.13403
 20
-7.43222
 30
0.0
 10
-0.13403
 20
-7.43222
 30
0.0
 10
-0.13403
 20
-7.50969
 30
0.0
 10
-0.14236
 20
-7.57136
 30
0.0
 10
-0.15915
 20
-7.61722
 30
0.0
 10
-0.15915
 20
-7.61722
 30
0.0
 10
-0.17595
 20
-7.66322
 30
0.0
 10
-0.20106
 20
-7.69808
 30
0.0
 10
-0.23422
 20
-7.72207
 30
0.0
 10
-0.23422
 20
-7.72207
 30
0.0
 10
-0.26739
 20
-7.74606
 30
0.0
 10
-0.30619
 20
-7.75805
 30
0.0
 10
-0.35078
 20
-7.75805
 30
0.0
 10
-0.35078
 20
-7.75805
 30
0.0
 10
-0.3982
 20
-7.75805
 30
0.0
 10
-0.43686
 20
-7.74493
 30
0.0
 10
-0.46692
 20
-7.71854
 30
0.0
 10
-0.46692
 20
-7.71854
 30
0.0
 10
-0.49683
 20
-7.69215
 30
0.0
 10
-0.5149
 20
-7.65504
 30
0.0
 10
-0.52096
 20
-7.60734
 30
0.0
  0
SPLINE
  5
48
330
1F
100
AcDbEntity
  8
Layer 1
 62
   250
100
AcDbSpline
210
0.0
220
0.0
230
1.0
 70
    11
 71
     3
 72
    36
 73
    32
 74
     0
 42
0.0000000001
 43
0.0000000001
 12
1.0
 22
0.0
 32
0.0
 13
1.0
 23
0.0
 33
0.0
 40
0.0
 40
0.0
 40
0.0
 40
0.0
 40
0.1111111111111111
 40
0.1111111111111111
 40
0.1111111111111111
 40
0.1111111111111111
 40
0.2222222222222222
 40
0.2222222222222222
 40
0.2222222222222222
 40
0.2222222222222222
 40
0.3333333333333333
 40
0.3333333333333333
 40
0.3333333333333333
 40
0.3333333333333333
 40
0.4444444444444444
 40
0.4444444444444444
 40
0.4444444444444444
 40
0.4444444444444444
 40
0.5555555555555556
 40
0.5555555555555556
 40
0.5555555555555556
 40
0.5555555555555556
 40
0.6666666666666666
 40
0.6666666666666666
 40
0.6666666666666666
 40
0.6666666666666666
 40
0.7777777777777778
 40
0.7777777777777778
 40
0.7777777777777778
 40
0.7777777777777778
 40
1.0
 40
1.0
 40
1.0
 40
1.0
 10
-0.21701
 20
-7.33994
 30
0.0
 10
-0.21701
 20
-7.29732
 30
0.0
 10
-0.2283
 20
-7.26345
 30
0.0
 10
-0.25088
 20
-7.23848
 30
0.0
 10
-0.25088
 20
-7.23848
 30
0.0
 10
-0.27331
 20
-7.2135
 30
0.0
 10
-0.30069
 20
-7.20094
 30
0.0
 10
-0.33286
 20
-7.20094
 30
0.0
 10
-0.33286
 20
-7.20094
 30
0.0
 10
-0.36616
 20
-7.20094
 30
0.0
 10
-0.39495
 20
-7.21435
 30
0.0
 10
-0.41922
 20
-7.2413
 30
0.0
 10
-0.41922
 20
-7.2413
 30
0.0
 10
-0.44363
 20
-7.26825
 30
0.0
 10
-0.45577
 20
-7.30325
 30
0.0
 10
-0.45577
 20
-7.34615
 30
0.0
 10
-0.45577
 20
-7.34615
 30
0.0
 10
-0.45577
 20
-7.38467
 30
0.0
 10
-0.4442
 20
-7.416
 30
0.0
 10
-0.4212
 20
-7.43998
 30
0.0
 10
-0.4212
 20
-7.43998
 30
0.0
 10
-0.39805
 20
-7.46411
 30
0.0
 10
-0.36927
 20
-7.47611
 30
0.0
 10
-0.33498
 20
-7.47611
 30
0.0
 10
-0.33498
 20
-7.47611
 30
0.0
 10
-0.30055
 20
-7.47611
 30
0.0
 10
-0.27232
 20
-7.46411
 30
0.0
 10
-0.25017
 20
-7.43998
 30
0.0
 10
-0.25017
 20
-7.43998
 30
0.0
 10
-0.22802
 20
-7.416
 30
0.0
 10
-0.21701
 20
-7.38255
 30
0.0
 10
-0.21701
 20
-7.33994
 30
0.0
  0
SPLINE
  5
49
330
1F
100
AcDbEntity
  8
Layer 1
 62
   250
100
AcDbSpline
210
0.0
220
0.0
230
1.0
 70
    11
 71
     3
 72
    64
 73
    60
 74
     0
 42
0.0000000001
 43
0.0000000001
 12
1.0
 22
0.0
 32
0.0
 13
1.0
 23
0.0
 33
0.0
 40
0.0
 40
0.0
 40
0.0
 40
0.0
 40
0.0625
 40
0.0625
 40
0.0625
 40
0.0625
 40
0.125
 40
0.125
 40
0.125
 40
0.125
 40
0.1875
 40
0.1875
 40
0.1875
 40
0.1875
 40
0.25
 40
0.25
 40
0.25
 40
0.25
 40
0.3125
 40
0.3125
 40
0.3125
 40
0.3125
 40
0.375
 40
0.375
 40
0.375
 40
0.375
 40
0.4375
 40
0.4375
 40
0.4375
 40
0.4375
 40
0.5
 40
0.5
 40
0.5
 40
0.5
 40
0.5625
 40
0.5625
 40
0.5625
 40
0.5625
 40
0.625
 40
0.625
 40
0.625
 40
0.625
 40
0.6875
 40
0.6875
 40
0.6875
 40
0.6875
 40
0.75
 40
0.75
 40
0.75
 40
0.75
 40
0.8125
 40
0.8125
 40
0.8125
 40
0.8125
 40
0.875
 40
0.875
 40
0.875
 40
0.875
 40
1.0
 40
1.0
 40
1.0
 40
1.0
 10
-0.03314
 20
-7.74789
 30
0.0
 10
-0.03314
 20
-7.74789
 30
0.0
 10
-0.03314
 20
-7.14167
 30
0.0
 10
-0.03314
 20
-7.14167
 30
0.0
 10
-0.03314
 20
-7.14167
 30
0.0
 10
-0.03314
 20
-7.14167
 30
0.0
 10
0.08709
 20
-7.14167
 30
0.0
 10
0.08709
 20
-7.14167
 30
0.0
 10
0.08709
 20
-7.14167
 30
0.0
 10
0.08709
 20
-7.14167
 30
0.0
 10
0.23046
 20
-7.57079
 30
0.0
 10
0.23046
 20
-7.57079
 30
0.0
 10
0.23046
 20
-7.57079
 30
0.0
 10
0.24372
 20
-7.61073
 30
0.0
 10
0.25332
 20
-7.64065
 30
0.0
 10
0.25938
 20
-7.66054
 30
0.0
 10
0.25938
 20
-7.66054
 30
0.0
 10
0.2663
 20
-7.63853
 30
0.0
 10
0.27716
 20
-7.60607
 30
0.0
 10
0.29184
 20
-7.56332
 30
0.0
 10
0.29184
 20
-7.56332
 30
0.0
 10
0.29184
 20
-7.56332
 30
0.0
 10
0.43775
 20
-7.14167
 30
0.0
 10
0.43775
 20
-7.14167
 30
0.0
 10
0.43775
 20
-7.14167
 30
0.0
 10
0.43775
 20
-7.14167
 30
0.0
 10
0.54514
 20
-7.14167
 30
0.0
 10
0.54514
 20
-7.14167
 30
0.0
 10
0.54514
 20
-7.14167
 30
0.0
 10
0.54514
 20
-7.14167
 30
0.0
 10
0.54514
 20
-7.74789
 30
0.0
 10
0.54514
 20
-7.74789
 30
0.0
 10
0.54514
 20
-7.74789
 30
0.0
 10
0.54514
 20
-7.74789
 30
0.0
 10
0.46809
 20
-7.74789
 30
0.0
 10
0.46809
 20
-7.74789
 30
0.0
 10
0.46809
 20
-7.74789
 30
0.0
 10
0.46809
 20
-7.74789
 30
0.0
 10
0.46809
 20
-7.24073
 30
0.0
 10
0.46809
 20
-7.24073
 30
0.0
 10
0.46809
 20
-7.24073
 30
0.0
 10
0.46809
 20
-7.24073
 30
0.0
 10
0.29113
 20
-7.74789
 30
0.0
 10
0.29113
 20
-7.74789
 30
0.0
 10
0.29113
 20
-7.74789
 30
0.0
 10
0.29113
 20
-7.74789
 30
0.0
 10
0.21889
 20
-7.74789
 30
0.0
 10
0.21889
 20
-7.74789
 30
0.0
 10
0.21889
 20
-7.74789
 30
0.0
 10
0.21889
 20
-7.74789
 30
0.0
 10
0.04391
 20
-7.23142
 30
0.0
 10
0.04391
 20
-7.23142
 30
0.0
 10
0.04391
 20
-7.23142
 30
0.0
 10
0.04391
 20
-7.23142
 30
0.0
 10
0.04391
 20
-7.74789
 30
0.0
 10
0.04391
 20
-7.74789
 30
0.0
 10
0.04391
 20
-7.74789
 30
0.0
 10
0.04391
 20
-7.74789
 30
0.0
 10
-0.03314
 20
-7.74789
 30
0.0
 10
-0.03314
 20
-7.74789
 30
0.0
  0
SPLINE
  5
4A
330
1F
100
AcDbEntity
  8
Layer 1
 62
   250
100
AcDbSpline
210
0.0
220
0.0
230
1.0
 70
    11
 71
     3
 72
    36
 73
    32
 74
     0
 42
0.0000000001
 43
0.0000000001
 12
1.0
 22
0.0
 32
0.0
 13
1.0
 23
0.0
 33
0.0
 40
0.0
 40
0.0
 40
0.0
 40
0.0
 40
0.1111111111111111
 40
0.1111111111111111
 40
0.1111111111111111
 40
0.1111111111111111
 40
0.2222222222222222
 40
0.2222222222222222
 40
0.2222222222222222
 40
0.2222222222222222
 40
0.3333333333333333
 40
0.3333333333333333
 40
0.3333333333333333
 40
0.3333333333333333
 40
0.4444444444444444
 40
0.4444444444444444
 40
0.4444444444444444
 40
0.4444444444444444
 40
0.5555555555555556
 40
0.5555555555555556
 40
0.5555555555555556
 40
0.5555555555555556
 40
0.6666666666666666
 40
0.6666666666666666
 40
0.6666666666666666
 40
0.6666666666666666
 40
0.7777777777777778
 40
0.7777777777777778
 40
0.7777777777777778
 40
0.7777777777777778
 40
1.0
 40
1.0
 40
1.0
 40
1.0
 10
1.04792
 20
-7.74789
 30
0.0
 10
1.04792
 20
-7.74789
 30
0.0
 10
1.04792
 20
-7.21279
 30
0.0
 10
1.04792
 20
-7.21279
 30
0.0
 10
1.04792
 20
-7.21279
 30
0.0
 10
1.04792
 20
-7.21279
 30
0.0
 10
0.8481
 20
-7.21279
 30
0.0
 10
0.8481
 20
-7.21279
 30
0.0
 10
0.8481
 20
-7.21279
 30
0.0
 10
0.8481
 20
-7.21279
 30
0.0
 10
0.8481
 20
-7.14167
 30
0.0
 10
0.8481
 20
-7.14167
 30
0.0
 10
0.8481
 20
-7.14167
 30
0.0
 10
0.8481
 20
-7.14167
 30
0.0
 10
1.32817
 20
-7.14167
 30
0.0
 10
1.32817
 20
-7.14167
 30
0.0
 10
1.32817
 20
-7.14167
 30
0.0
 10
1.32817
 20
-7.14167
 30
0.0
 10
1.32817
 20
-7.21279
 30
0.0
 10
1.32817
 20
-7.21279
 30
0.0
 10
1.32817
 20
-7.21279
 30
0.0
 10
1.32817
 20
-7.21279
 30
0.0
 10
1.12835
 20
-7.21279
 30
0.0
 10
1.12835
 20
-7.21279
 30
0.0
 10
1.12835
 20
-7.21279
 30
0.0
 10
1.12835
 20
-7.21279
 30
0.0
 10
1.12835
 20
-7.74789
 30
0.0
 10
1.12835
 20
-7.74789
 30
0.0
 10
1.12835
 20
-7.74789
 30
0.0
 10
1.12835
 20
-7.74789
 30
0.0
 10
1.04792
 20
-7.74789
 30
0.0
 10
1.04792
 20
-7.74789
 30
0.0
  0
SPLINE
  5
4B
330
1F
100
AcDbEntity
  8
Layer 1
 62
   250
100
AcDbSpline
210
0.0
220
0.0
230
1.0
 70
    11
 71
     3
 72
    52
 73
    48
 74
     0
 42
0.0000000001
 43
0.0000000001
 12
1.0
 22
0.0
 32
0.0
 13
1.0
 23
0.0
 33
0.0
 40
0.0
 40
0.0
 40
0.0
 40
0.0
 40
0.0769230769230769
 40
0.0769230769230769
 40
0.0769230769230769
 40
0.0769230769230769
 40
0.1538461538461539
 40
0.1538461538461539
 40
0.1538461538461539
 40
0.1538461538461539
 40
0.2307692307692308
 40
0.2307692307692308
 40
0.2307692307692308
 40
0.2307692307692308
 40
0.3076923076923077
 40
0.3076923076923077
 40
0.3076923076923077
 40
0.3076923076923077
 40
0.3846153846153846
 40
0.3846153846153846
 40
0.3846153846153846
 40
0.3846153846153846
 40
0.4615384615384616
 40
0.4615384615384616
 40
0.4615384615384616
 40
0.4615384615384616
 40
0.5384615384615384
 40
0.5384615384615384
 40
0.5384615384615384
 40
0.5384615384615384
 40
0.6153846153846154
 40
0.6153846153846154
 40
0.6153846153846154
 40
0.6153846153846154
 40
0.6923076923076923
 40
0.6923076923076923
 40
0.6923076923076923
 40
0.6923076923076923
 40
0.7692307692307693
 40
0.7692307692307693
 40
0.7692307692307693
 40
0.7692307692307693
 40
0.8461538461538461
 40
0.8461538461538461
 40
0.8461538461538461
 40
0.8461538461538461
 40
1.0
 40
1.0
 40
1.0
 40
1.0
 10
1.41269
 20
-7.74789
 30
0.0
 10
1.41269
 20
-7.74789
 30
0.0
 10
1.41269
 20
-7.14167
 30
0.0
 10
1.41269
 20
-7.14167
 30
0.0
 10
1.41269
 20
-7.14167
 30
0.0
 10
1.41269
 20
-7.14167
 30
0.0
 10
1.85042
 20
-7.14167
 30
0.0
 10
1.85042
 20
-7.14167
 30
0.0
 10
1.85042
 20
-7.14167
 30
0.0
 10
1.85042
 20
-7.14167
 30
0.0
 10
1.85042
 20
-7.21279
 30
0.0
 10
1.85042
 20
-7.21279
 30
0.0
 10
1.85042
 20
-7.21279
 30
0.0
 10
1.85042
 20
-7.21279
 30
0.0
 10
1.49312
 20
-7.21279
 30
0.0
 10
1.49312
 20
-7.21279
 30
0.0
 10
1.49312
 20
-7.21279
 30
0.0
 10
1.49312
 20
-7.21279
 30
0.0
 10
1.49312
 20
-7.39906
 30
0.0
 10
1.49312
 20
-7.39906
 30
0.0
 10
1.49312
 20
-7.39906
 30
0.0
 10
1.49312
 20
-7.39906
 30
0.0
 10
1.82756
 20
-7.39906
 30
0.0
 10
1.82756
 20
-7.39906
 30
0.0
 10
1.82756
 20
-7.39906
 30
0.0
 10
1.82756
 20
-7.39906
 30
0.0
 10
1.82756
 20
-7.47018
 30
0.0
 10
1.82756
 20
-7.47018
 30
0.0
 10
1.82756
 20
-7.47018
 30
0.0
 10
1.82756
 20
-7.47018
 30
0.0
 10
1.49312
 20
-7.47018
 30
0.0
 10
1.49312
 20
-7.47018
 30
0.0
 10
1.49312
 20
-7.47018
 30
0.0
 10
1.49312
 20
-7.47018
 30
0.0
 10
1.49312
 20
-7.67677
 30
0.0
 10
1.49312
 20
-7.67677
 30
0.0
 10
1.49312
 20
-7.67677
 30
0.0
 10
1.49312
 20
-7.67677
 30
0.0
 10
1.86481
 20
-7.67677
 30
0.0
 10
1.86481
 20
-7.67677
 30
0.0
 10
1.86481
 20
-7.67677
 30
0.0
 10
1.86481
 20
-7.67677
 30
0.0
 10
1.86481
 20
-7.74789
 30
0.0
 10
1.86481
 20
-7.74789
 30
0.0
 10
1.86481
 20
-7.74789
 30
0.0
 10
1.86481
 20
-7.74789
 30
0.0
 10
1.41269
 20
-7.74789
 30
0.0
 10
1.41269
 20
-7.74789
 30
0.0
  0
SPLINE
  5
4C
330
1F
100
AcDbEntity
  8
Layer 1
 62
   250
100
AcDbSpline
210
0.0
220
0.0
230
1.0
 70
    11
 71
     3
 72
    64
 73
    60
 74
     0
 42
0.0000000001
 43
0.0000000001
 12
1.0
 22
0.0
 32
0.0
 13
1.0
 23
0.0
 33
0.0
 40
0.0
 40
0.0
 40
0.0
 40
0.0
 40
0.0625
 40
0.0625
 40
0.0625
 40
0.0625
 40
0.125
 40
0.125
 40
0.125
 40
0.125
 40
0.1875
 40
0.1875
 40
0.1875
 40
0.1875
 40
0.25
 40
0.25
 40
0.25
 40
0.25
 40
0.3125
 40
0.3125
 40
0.3125
 40
0.3125
 40
0.375
 40
0.375
 40
0.375
 40
0.375
 40
0.4375
 40
0.4375
 40
0.4375
 40
0.4375
 40
0.5
 40
0.5
 40
0.5
 40
0.5
 40
0.5625
 40
0.5625
 40
0.5625
 40
0.5625
 40
0.625
 40
0.625
 40
0.625
 40
0.625
 40
0.6875
 40
0.6875
 40
0.6875
 40
0.6875
 40
0.75
 40
0.75
 40
0.75
 40
0.75
 40
0.8125
 40
0.8125
 40
0.8125
 40
0.8125
 40
0.875
 40
0.875
 40
0.875
 40
0.875
 40
1.0
 40
1.0
 40
1.0
 40
1.0
 10
1.97403
 20
-7.74789
 30
0.0
 10
1.97403
 20
-7.74789
 30
0.0
 10
1.97403
 20
-7.14167
 30
0.0
 10
1.97403
 20
-7.14167
 30
0.0
 10
1.97403
 20
-7.14167
 30
0.0
 10
1.97403
 20
-7.14167
 30
0.0
 10
2.09426
 20
-7.14167
 30
0.0
 10
2.09426
 20
-7.14167
 30
0.0
 10
2.09426
 20
-7.14167
 30
0.0
 10
2.09426
 20
-7.14167
 30
0.0
 10
2.23763
 20
-7.57079
 30
0.0
 10
2.23763
 20
-7.57079
 30
0.0
 10
2.23763
 20
-7.57079
 30
0.0
 10
2.25089
 20
-7.61073
 30
0.0
 10
2.26049
 20
-7.64065
 30
0.0
 10
2.26655
 20
-7.66054
 30
0.0
 10
2.26655
 20
-7.66054
 30
0.0
 10
2.27347
 20
-7.63853
 30
0.0
 10
2.28433
 20
-7.60607
 30
0.0
 10
2.29901
 20
-7.56332
 30
0.0
 10
2.29901
 20
-7.56332
 30
0.0
 10
2.29901
 20
-7.56332
 30
0.0
 10
2.44492
 20
-7.14167
 30
0.0
 10
2.44492
 20
-7.14167
 30
0.0
 10
2.44492
 20
-7.14167
 30
0.0
 10
2.44492
 20
-7.14167
 30
0.0
 10
2.55231
 20
-7.14167
 30
0.0
 10
2.55231
 20
-7.14167
 30
0.0
 10
2.55231
 20
-7.14167
 30
0.0
 10
2.55231
 20
-7.14167
 30
0.0
 10
2.55231
 20
-7.74789
 30
0.0
 10
2.55231
 20
-7.74789
 30
0.0
 10
2.55231
 20
-7.74789
 30
0.0
 10
2.55231
 20
-7.74789
 30
0.0
 10
2.47526
 20
-7.74789
 30
0.0
 10
2.47526
 20
-7.74789
 30
0.0
 10
2.47526
 20
-7.74789
 30
0.0
 10
2.47526
 20
-7.74789
 30
0.0
 10
2.47526
 20
-7.24073
 30
0.0
 10
2.47526
 20
-7.24073
 30
0.0
 10
2.47526
 20
-7.24073
 30
0.0
 10
2.47526
 20
-7.24073
 30
0.0
 10
2.2983
 20
-7.74789
 30
0.0
 10
2.2983
 20
-7.74789
 30
0.0
 10
2.2983
 20
-7.74789
 30
0.0
 10
2.2983
 20
-7.74789
 30
0.0
 10
2.22606
 20
-7.74789
 30
0.0
 10
2.22606
 20
-7.74789
 30
0.0
 10
2.22606
 20
-7.74789
 30
0.0
 10
2.22606
 20
-7.74789
 30
0.0
 10
2.05108
 20
-7.23142
 30
0.0
 10
2.05108
 20
-7.23142
 30
0.0
 10
2.05108
 20
-7.23142
 30
0.0
 10
2.05108
 20
-7.23142
 30
0.0
 10
2.05108
 20
-7.74789
 30
0.0
 10
2.05108
 20
-7.74789
 30
0.0
 10
2.05108
 20
-7.74789
 30
0.0
 10
2.05108
 20
-7.74789
 30
0.0
 10
1.97403
 20
-7.74789
 30
0.0
 10
1.97403
 20
-7.74789
 30
0.0
  0
SPLINE
  5
4D
330
1F
100
AcDbEntity
  8
Layer 1
 62
   250
100
AcDbSpline
210
0.0
220
0.0
230
1.0
 70
    11
 71
     3
 72
    48
 73
    44
 74
     0
 42
0.0000000001
 43
0.0000000001
 12
1.0
 22
0.0
 32
0.0
 13
1.0
 23
0.0
 33
0.0
 40
0.0
 40
0.0
 40
0.0
 40
0.0
 40
0.0833333333333333
 40
0.0833333333333333
 40
0.0833333333333333
 40
0.0833333333333333
 40
0.1666666666666667
 40
0.1666666666666667
 40
0.1666666666666667
 40
0.1666666666666667
 40
0.25
 40
0.25
 40
0.25
 40
0.25
 40
0.3333333333333333
 40
0.3333333333333333
 40
0.3333333333333333
 40
0.3333333333333333
 40
0.4166666666666667
 40
0.4166666666666667
 40
0.4166666666666667
 40
0.4166666666666667
 40
0.5
 40
0.5
 40
0.5
 40
0.5
 40
0.5833333333333334
 40
0.5833333333333334
 40
0.5833333333333334
 40
0.5833333333333334
 40
0.6666666666666666
 40
0.6666666666666666
 40
0.6666666666666666
 40
0.6666666666666666
 40
0.75
 40
0.75
 40
0.75
 40
0.75
 40
0.8333333333333334
 40
0.8333333333333334
 40
0.8333333333333334
 40
0.8333333333333334
 40
1.0
 40
1.0
 40
1.0
 40
1.0
 10
2.681
 20
-7.74789
 30
0.0
 10
2.681
 20
-7.74789
 30
0.0
 10
2.681
 20
-7.14167
 30
0.0
 10
2.681
 20
-7.14167
 30
0.0
 10
2.681
 20
-7.14167
 30
0.0
 10
2.681
 20
-7.14167
 30
0.0
 10
2.90989
 20
-7.14167
 30
0.0
 10
2.90989
 20
-7.14167
 30
0.0
 10
2.90989
 20
-7.14167
 30
0.0
 10
2.9501
 20
-7.14167
 30
0.0
 10
2.98087
 20
-7.14365
 30
0.0
 10
3.00217
 20
-7.14746
 30
0.0
 10
3.00217
 20
-7.14746
 30
0.0
 10
3.03195
 20
-7.1524
 30
0.0
 10
3.05693
 20
-7.16185
 30
0.0
 10
3.0771
 20
-7.17568
 30
0.0
 10
3.0771
 20
-7.17568
 30
0.0
 10
3.09728
 20
-7.18965
 30
0.0
 10
3.11351
 20
-7.20913
 30
0.0
 10
3.12579
 20
-7.2341
 30
0.0
 10
3.12579
 20
-7.2341
 30
0.0
 10
3.13806
 20
-7.25908
 30
0.0
 10
3.14413
 20
-7.2866
 30
0.0
 10
3.14413
 20
-7.31665
 30
0.0
 10
3.14413
 20
-7.31665
 30
0.0
 10
3.14413
 20
-7.36802
 30
0.0
 10
3.12776
 20
-7.41162
 30
0.0
 10
3.09488
 20
-7.44718
 30
0.0
 10
3.09488
 20
-7.44718
 30
0.0
 10
3.06215
 20
-7.48288
 30
0.0
 10
3.00274
 20
-7.50066
 30
0.0
 10
2.91694
 20
-7.50066
 30
0.0
 10
2.91694
 20
-7.50066
 30
0.0
 10
2.91694
 20
-7.50066
 30
0.0
 10
2.76144
 20
-7.50066
 30
0.0
 10
2.76144
 20
-7.50066
 30
0.0
 10
2.76144
 20
-7.50066
 30
0.0
 10
2.76144
 20
-7.50066
 30
0.0
 10
2.76144
 20
-7.74789
 30
0.0
 10
2.76144
 20
-7.74789
 30
0.0
 10
2.76144
 20
-7.74789
 30
0.0
 10
2.76144
 20
-7.74789
 30
0.0
 10
2.681
 20
-7.74789
 30
0.0
 10
2.681
 20
-7.74789
 30
0.0
  0
SPLINE
  5
4E
330
1F
100
AcDbEntity
  8
Layer 1
 62
   250
100
AcDbSpline
210
0.0
220
0.0
230
1.0
 70
    11
 71
     3
 72
    36
 73
    32
 74
     0
 42
0.0000000001
 43
0.0000000001
 12
1.0
 22
0.0
 32
0.0
 13
1.0
 23
0.0
 33
0.0
 40
0.0
 40
0.0
 40
0.0
 40
0.0
 40
0.1111111111111111
 40
0.1111111111111111
 40
0.1111111111111111
 40
0.1111111111111111
 40
0.2222222222222222
 40
0.2222222222222222
 40
0.2222222222222222
 40
0.2222222222222222
 40
0.3333333333333333
 40
0.3333333333333333
 40
0.3333333333333333
 40
0.3333333333333333
 40
0.4444444444444444
 40
0.4444444444444444
 40
0.4444444444444444
 40
0.4444444444444444
 40
0.5555555555555556
 40
0.5555555555555556
 40
0.5555555555555556
 40
0.5555555555555556
 40
0.6666666666666666
 40
0.6666666666666666
 40
0.6666666666666666
 40
0.6666666666666666
 40
0.7777777777777778
 40
0.7777777777777778
 40
0.7777777777777778
 40
0.7777777777777778
 40
1.0
 40
1.0
 40
1.0
 40
1.0
 10
2.76144
 20
-7.42954
 30
0.0
 10
2.76144
 20
-7.42954
 30
0.0
 10
2.91807
 20
-7.42954
 30
0.0
 10
2.91807
 20
-7.42954
 30
0.0
 10
2.91807
 20
-7.42954
 30
0.0
 10
2.97
 20
-7.42954
 30
0.0
 10
3.00669
 20
-7.41995
 30
0.0
 10
3.02856
 20
-7.40061
 30
0.0
 10
3.02856
 20
-7.40061
 30
0.0
 10
3.05029
 20
-7.38128
 30
0.0
 10
3.06116
 20
-7.35419
 30
0.0
 10
3.06116
 20
-7.31905
 30
0.0
 10
3.06116
 20
-7.31905
 30
0.0
 10
3.06116
 20
-7.29379
 30
0.0
 10
3.05481
 20
-7.27206
 30
0.0
 10
3.04197
 20
-7.254
 30
0.0
 10
3.04197
 20
-7.254
 30
0.0
 10
3.02913
 20
-7.23594
 30
0.0
 10
3.01219
 20
-7.22394
 30
0.0
 10
2.99131
 20
-7.21816
 30
0.0
 10
2.99131
 20
-7.21816
 30
0.0
 10
2.97776
 20
-7.21463
 30
0.0
 10
2.95278
 20
-7.21279
 30
0.0
 10
2.91652
 20
-7.21279
 30
0.0
 10
2.91652
 20
-7.21279
 30
0.0
 10
2.91652
 20
-7.21279
 30
0.0
 10
2.76144
 20
-7.21279
 30
0.0
 10
2.76144
 20
-7.21279
 30
0.0
 10
2.76144
 20
-7.21279
 30
0.0
 10
2.76144
 20
-7.21279
 30
0.0
 10
2.76144
 20
-7.42954
 30
0.0
 10
2.76144
 20
-7.42954
 30
0.0
  0
SPLINE
  5
4F
330
1F
100
AcDbEntity
  8
Layer 1
 62
   250
100
AcDbSpline
210
0.0
220
0.0
230
1.0
 70
    11
 71
     3
 72
    28
 73
    24
 74
     0
 42
0.0000000001
 43
0.0000000001
 12
1.0
 22
0.0
 32
0.0
 13
1.0
 23
0.0
 33
0.0
 40
0.0
 40
0.0
 40
0.0
 40
0.0
 40
0.1428571428571428
 40
0.1428571428571428
 40
0.1428571428571428
 40
0.1428571428571428
 40
0.2857142857142857
 40
0.2857142857142857
 40
0.2857142857142857
 40
0.2857142857142857
 40
0.4285714285714285
 40
0.4285714285714285
 40
0.4285714285714285
 40
0.4285714285714285
 40
0.5714285714285714
 40
0.5714285714285714
 40
0.5714285714285714
 40
0.5714285714285714
 40
0.7142857142857143
 40
0.7142857142857143
 40
0.7142857142857143
 40
0.7142857142857143
 40
1.0
 40
1.0
 40
1.0
 40
1.0
 10
3.24235
 20
-7.74789
 30
0.0
 10
3.24235
 20
-7.74789
 30
0.0
 10
3.24235
 20
-7.14167
 30
0.0
 10
3.24235
 20
-7.14167
 30
0.0
 10
3.24235
 20
-7.14167
 30
0.0
 10
3.24235
 20
-7.14167
 30
0.0
 10
3.32278
 20
-7.14167
 30
0.0
 10
3.32278
 20
-7.14167
 30
0.0
 10
3.32278
 20
-7.14167
 30
0.0
 10
3.32278
 20
-7.14167
 30
0.0
 10
3.32278
 20
-7.67677
 30
0.0
 10
3.32278
 20
-7.67677
 30
0.0
 10
3.32278
 20
-7.67677
 30
0.0
 10
3.32278
 20
-7.67677
 30
0.0
 10
3.62081
 20
-7.67677
 30
0.0
 10
3.62081
 20
-7.67677
 30
0.0
 10
3.62081
 20
-7.67677
 30
0.0
 10
3.62081
 20
-7.67677
 30
0.0
 10
3.62081
 20
-7.74789
 30
0.0
 10
3.62081
 20
-7.74789
 30
0.0
 10
3.62081
 20
-7.74789
 30
0.0
 10
3.62081
 20
-7.74789
 30
0.0
 10
3.24235
 20
-7.74789
 30
0.0
 10
3.24235
 20
-7.74789
 30
0.0
  0
SPLINE
  5
50
330
1F
100
AcDbEntity
  8
Layer 1
 62
   250
100
AcDbSpline
210
0.0
220
0.0
230
1.0
 70
    11
 71
     3
 72
    36
 73
    32
 74
     0
 42
0.0000000001
 43
0.0000000001
 12
1.0
 22
0.0
 32
0.0
 13
1.0
 23
0.0
 33
0.0
 40
0.0
 40
0.0
 40
0.0
 40
0.0
 40
0.1111111111111111
 40
0.1111111111111111
 40
0.1111111111111111
 40
0.1111111111111111
 40
0.2222222222222222
 40
0.2222222222222222
 40
0.2222222222222222
 40
0.2222222222222222
 40
0.3333333333333333
 40
0.3333333333333333
 40
0.3333333333333333
 40
0.3333333333333333
 40
0.4444444444444444
 40
0.4444444444444444
 40
0.4444444444444444
 40
0.4444444444444444
 40
0.5555555555555556
 40
0.5555555555555556
 40
0.5555555555555556
 40
0.5555555555555556
 40
0.6666666666666666
 40
0.6666666666666666
 40
0.6666666666666666
 40
0.6666666666666666
 40
0.7777777777777778
 40
0.7777777777777778
 40
0.7777777777777778
 40
0.7777777777777778
 40
1.0
 40
1.0
 40
1.0
 40
1.0
 10
3.65016
 20
-7.74789
 30
0.0
 10
3.65016
 20
-7.74789
 30
0.0
 10
3.88271
 20
-7.14167
 30
0.0
 10
3.88271
 20
-7.14167
 30
0.0
 10
3.88271
 20
-7.14167
 30
0.0
 10
3.88271
 20
-7.14167
 30
0.0
 10
3.97091
 20
-7.14167
 30
0.0
 10
3.97091
 20
-7.14167
 30
0.0
 10
3.97091
 20
-7.14167
 30
0.0
 10
3.97091
 20
-7.14167
 30
0.0
 10
4.21771
 20
-7.74789
 30
0.0
 10
4.21771
 20
-7.74789
 30
0.0
 10
4.21771
 20
-7.74789
 30
0.0
 10
4.21771
 20
-7.74789
 30
0.0
 10
4.12641
 20
-7.74789
 30
0.0
 10
4.12641
 20
-7.74789
 30
0.0
 10
4.12641
 20
-7.74789
 30
0.0
 10
4.12641
 20
-7.74789
 30
0.0
 10
4.05628
 20
-7.56416
 30
0.0
 10
4.05628
 20
-7.56416
 30
0.0
 10
4.05628
 20
-7.56416
 30
0.0
 10
4.05628
 20
-7.56416
 30
0.0
 10
3.80101
 20
-7.56416
 30
0.0
 10
3.80101
 20
-7.56416
 30
0.0
 10
3.80101
 20
-7.56416
 30
0.0
 10
3.80101
 20
-7.56416
 30
0.0
 10
3.73525
 20
-7.74789
 30
0.0
 10
3.73525
 20
-7.74789
 30
0.0
 10
3.73525
 20
-7.74789
 30
0.0
 10
3.73525
 20
-7.74789
 30
0.0
 10
3.65016
 20
-7.74789
 30
0.0
 10
3.65016
 20
-7.74789
 30
0.0
  0
SPLINE
  5
51
330
1F
100
AcDbEntity
  8
Layer 1
 62
   250
100
AcDbSpline
210
0.0
220
0.0
230
1.0
 70
    11
 71
     3
 72
    24
 73
    20
 74
     0
 42
0.0000000001
 43
0.0000000001
 12
1.0
 22
0.0
 32
0.0
 13
1.0
 23
0.0
 33
0.0
 40
0.0
 40
0.0
 40
0.0
 40
0.0
 40
0.1666666666666667
 40
0.1666666666666667
 40
0.1666666666666667
 40
0.1666666666666667
 40
0.3333333333333333
 40
0.3333333333333333
 40
0.3333333333333333
 40
0.3333333333333333
 40
0.5
 40
0.5
 40
0.5
 40
0.5
 40
0.6666666666666666
 40
0.6666666666666666
 40
0.6666666666666666
 40
0.6666666666666666
 40
1.0
 40
1.0
 40
1.0
 40
1.0
 10
3.82457
 20
-7.49897
 30
0.0
 10
3.82457
 20
-7.49897
 30
0.0
 10
4.03116
 20
-7.49897
 30
0.0
 10
4.03116
 20
-7.49897
 30
0.0
 10
4.03116
 20
-7.49897
 30
0.0
 10
4.03116
 20
-7.49897
 30
0.0
 10
3.96794
 20
-7.33091
 30
0.0
 10
3.96794
 20
-7.33091
 30
0.0
 10
3.96794
 20
-7.33091
 30
0.0
 10
3.94889
 20
-7.27982
 30
0.0
 10
3.9345
 20
-7.23763
 30
0.0
 10
3.92448
 20
-7.20433
 30
0.0
 10
3.92448
 20
-7.20433
 30
0.0
 10
3.91616
 20
-7.24384
 30
0.0
 10
3.90501
 20
-7.28264
 30
0.0
 10
3.89104
 20
-7.32103
 30
0.0
 10
3.89104
 20
-7.32103
 30
0.0
 10
3.89104
 20
-7.32103
 30
0.0
 10
3.82457
 20
-7.49897
 30
0.0
 10
3.82457
 20
-7.49897
 30
0.0
  0
SPLINE
  5
52
330
1F
100
AcDbEntity
  8
Layer 1
 62
   250
100
AcDbSpline
210
0.0
220
0.0
230
1.0
 70
    11
 71
     3
 72
    36
 73
    32
 74
     0
 42
0.0000000001
 43
0.0000000001
 12
1.0
 22
0.0
 32
0.0
 13
1.0
 23
0.0
 33
0.0
 40
0.0
 40
0.0
 40
0.0
 40
0.0
 40
0.1111111111111111
 40
0.1111111111111111
 40
0.1111111111111111
 40
0.1111111111111111
 40
0.2222222222222222
 40
0.2222222222222222
 40
0.2222222222222222
 40
0.2222222222222222
 40
0.3333333333333333
 40
0.3333333333333333
 40
0.3333333333333333
 40
0.3333333333333333
 40
0.4444444444444444
 40
0.4444444444444444
 40
0.4444444444444444
 40
0.4444444444444444
 40
0.5555555555555556
 40
0.5555555555555556
 40
0.5555555555555556
 40
0.5555555555555556
 40
0.6666666666666666
 40
0.6666666666666666
 40
0.6666666666666666
 40
0.6666666666666666
 40
0.7777777777777778
 40
0.7777777777777778
 40
0.7777777777777778
 40
0.7777777777777778
 40
1.0
 40
1.0
 40
1.0
 40
1.0
 10
4.37266
 20
-7.74789
 30
0.0
 10
4.37266
 20
-7.74789
 30
0.0
 10
4.37266
 20
-7.21279
 30
0.0
 10
4.37266
 20
-7.21279
 30
0.0
 10
4.37266
 20
-7.21279
 30
0.0
 10
4.37266
 20
-7.21279
 30
0.0
 10
4.17284
 20
-7.21279
 30
0.0
 10
4.17284
 20
-7.21279
 30
0.0
 10
4.17284
 20
-7.21279
 30
0.0
 10
4.17284
 20
-7.21279
 30
0.0
 10
4.17284
 20
-7.14167
 30
0.0
 10
4.17284
 20
-7.14167
 30
0.0
 10
4.17284
 20
-7.14167
 30
0.0
 10
4.17284
 20
-7.14167
 30
0.0
 10
4.65291
 20
-7.14167
 30
0.0
 10
4.65291
 20
-7.14167
 30
0.0
 10
4.65291
 20
-7.14167
 30
0.0
 10
4.65291
 20
-7.14167
 30
0.0
 10
4.65291
 20
-7.21279
 30
0.0
 10
4.65291
 20
-7.21279
 30
0.0
 10
4.65291
 20
-7.21279
 30
0.0
 10
4.65291
 20
-7.21279
 30
0.0
 10
4.45309
 20
-7.21279
 30
0.0
 10
4.45309
 20
-7.21279
 30
0.0
 10
4.45309
 20
-7.21279
 30
0.0
 10
4.45309
 20
-7.21279
 30
0.0
 10
4.45309
 20
-7.74789
 30
0.0
 10
4.45309
 20
-7.74789
 30
0.0
 10
4.45309
 20
-7.74789
 30
0.0
 10
4.45309
 20
-7.74789
 30
0.0
 10
4.37266
 20
-7.74789
 30
0.0
 10
4.37266
 20
-7.74789
 30
0.0
  0
SPLINE
  5
53
330
1F
100
AcDbEntity
  8
Layer 1
 62
   250
100
AcDbSpline
210
0.0
220
0.0
230
1.0
 70
    11
 71
     3
 72
    52
 73
    48
 74
     0
 42
0.0000000001
 43
0.0000000001
 12
1.0
 22
0.0
 32
0.0
 13
1.0
 23
0.0
 33
0.0
 40
0.0
 40
0.0
 40
0.0
 40
0.0
 40
0.0769230769230769
 40
0.0769230769230769
 40
0.0769230769230769
 40
0.0769230769230769
 40
0.1538461538461539
 40
0.1538461538461539
 40
0.1538461538461539
 40
0.1538461538461539
 40
0.2307692307692308
 40
0.2307692307692308
 40
0.2307692307692308
 40
0.2307692307692308
 40
0.3076923076923077
 40
0.3076923076923077
 40
0.3076923076923077
 40
0.3076923076923077
 40
0.3846153846153846
 40
0.3846153846153846
 40
0.3846153846153846
 40
0.3846153846153846
 40
0.4615384615384616
 40
0.4615384615384616
 40
0.4615384615384616
 40
0.4615384615384616
 40
0.5384615384615384
 40
0.5384615384615384
 40
0.5384615384615384
 40
0.5384615384615384
 40
0.6153846153846154
 40
0.6153846153846154
 40
0.6153846153846154
 40
0.6153846153846154
 40
0.6923076923076923
 40
0.6923076923076923
 40
0.6923076923076923
 40
0.6923076923076923
 40
0.7692307692307693
 40
0.7692307692307693
 40
0.7692307692307693
 40
0.7692307692307693
 40
0.8461538461538461
 40
0.8461538461538461
 40
0.8461538461538461
 40
0.8461538461538461
 40
1.0
 40
1.0
 40
1.0
 40
1.0
 10
4.73743
 20
-7.74789
 30
0.0
 10
4.73743
 20
-7.74789
 30
0.0
 10
4.73743
 20
-7.14167
 30
0.0
 10
4.73743
 20
-7.14167
 30
0.0
 10
4.73743
 20
-7.14167
 30
0.0
 10
4.73743
 20
-7.14167
 30
0.0
 10
5.17516
 20
-7.14167
 30
0.0
 10
5.17516
 20
-7.14167
 30
0.0
 10
5.17516
 20
-7.14167
 30
0.0
 10
5.17516
 20
-7.14167
 30
0.0
 10
5.17516
 20
-7.21279
 30
0.0
 10
5.17516
 20
-7.21279
 30
0.0
 10
5.17516
 20
-7.21279
 30
0.0
 10
5.17516
 20
-7.21279
 30
0.0
 10
4.81786
 20
-7.21279
 30
0.0
 10
4.81786
 20
-7.21279
 30
0.0
 10
4.81786
 20
-7.21279
 30
0.0
 10
4.81786
 20
-7.21279
 30
0.0
 10
4.81786
 20
-7.39906
 30
0.0
 10
4.81786
 20
-7.39906
 30
0.0
 10
4.81786
 20
-7.39906
 30
0.0
 10
4.81786
 20
-7.39906
 30
0.0
 10
5.1523
 20
-7.39906
 30
0.0
 10
5.1523
 20
-7.39906
 30
0.0
 10
5.1523
 20
-7.39906
 30
0.0
 10
5.1523
 20
-7.39906
 30
0.0
 10
5.1523
 20
-7.47018
 30
0.0
 10
5.1523
 20
-7.47018
 30
0.0
 10
5.1523
 20
-7.47018
 30
0.0
 10
5.1523
 20
-7.47018
 30
0.0
 10
4.81786
 20
-7.47018
 30
0.0
 10
4.81786
 20
-7.47018
 30
0.0
 10
4.81786
 20
-7.47018
 30
0.0
 10
4.81786
 20
-7.47018
 30
0.0
 10
4.81786
 20
-7.67677
 30
0.0
 10
4.81786
 20
-7.67677
 30
0.0
 10
4.81786
 20
-7.67677
 30
0.0
 10
4.81786
 20
-7.67677
 30
0.0
 10
5.18955
 20
-7.67677
 30
0.0
 10
5.18955
 20
-7.67677
 30
0.0
 10
5.18955
 20
-7.67677
 30
0.0
 10
5.18955
 20
-7.67677
 30
0.0
 10
5.18955
 20
-7.74789
 30
0.0
 10
5.18955
 20
-7.74789
 30
0.0
 10
5.18955
 20
-7.74789
 30
0.0
 10
5.18955
 20
-7.74789
 30
0.0
 10
4.73743
 20
-7.74789
 30
0.0
 10
4.73743
 20
-7.74789
 30
0.0
  0
SPLINE
  5
54
330
1F
100
AcDbEntity
  8
Layer 1
 62
     3
370
     9
100
AcDbSpline
210
0.0
220
0.0
230
1.0
 70
    24
 71
     3
 72
     8
 73
     4
 74
     0
 42
0.0000000001
 43
0.0000000001
 12
1.0
 22
0.0
 32
0.0
 13
1.0
 23
0.0
 33
0.0
 40
0.0
 40
0.0
 40
0.0
 40
0.0
 40
1.0
 40
1.0
 40
1.0
 40
1.0
 10
10.58952
 20
-4.90662
 30
0.0
 10
10.58952
 20
-4.90662
 30
0.0
 10
-10.13276
 20
-4.90662
 30
0.0
 10
-10.13276
 20
-4.90662
 30
0.0
  0
SPLINE
  5
55
330
1F
100
AcDbEntity
  8
Layer 1
 62
     3
370
     9
100
AcDbSpline
210
0.0
220
0.0
230
1.0
 70
     8
 71
     3
 72
    12
 73
     8
 74
     0
 42
0.0000000001
 43
0.0000000001
 12
1.0
 22
0.0
 32
0.0
 13
1.0
 23
0.0
 33
0.0
 40
0.0
 40
0.0
 40
0.0
 40
0.0
 40
0.3333333333333333
 40
0.3333333333333333
 40
0.3333333333333333
 40
0.3333333333333333
 40
1.0
 40
1.0
 40
1.0
 40
1.0
 10
-10.58908
 20
-4.45032
 30
0.0
 10
-10.58908
 20
-4.57134
 30
0.0
 10
-10.54099
 20
-4.6874
 30
0.0
 10
-10.45543
 20
-4.77298
 30
0.0
 10
-10.45543
 20
-4.77298
 30
0.0
 10
-10.36985
 20
-4.85855
 30
0.0
 10
-10.25379
 20
-4.90662
 30
0.0
 10
-10.13276
 20
-4.90662
 30
0.0
  0
SPLINE
  5
56
330
1F
100
AcDbEntity
  8
Layer 1
 62
     3
370
     9
100
AcDbSpline
210
0.0
220
0.0
230
1.0
 70
    24
 71
     3
 72
     8
 73
     4
 74
     0
 42
0.0000000001
 43
0.0000000001
 12
1.0
 22
0.0
 32
0.0
 13
1.0
 23
0.0
 33
0.0
 40
0.0
 40
0.0
 40
0.0
 40
0.0
 40
1.0
 40
1.0
 40
1.0
 40
1.0
 10
-10.58908
 20
-4.45032
 30
0.0
 10
-10.58908
 20
-4.45032
 30
0.0
 10
-10.58908
 20
6.99987
 30
0.0
 10
-10.58908
 20
6.99987
 30
0.0
  0
SPLINE
  5
57
330
1F
100
AcDbEntity
  8
Layer 1
 62
     3
370
     9
100
AcDbSpline
210
0.0
220
0.0
230
1.0
 70
     8
 71
     3
 72
    12
 73
     8
 74
     0
 42
0.0000000001
 43
0.0000000001
 12
1.0
 22
0.0
 32
0.0
 13
1.0
 23
0.0
 33
0.0
 40
0.0
 40
0.0
 40
0.0
 40
0.0
 40
0.3333333333333333
 40
0.3333333333333333
 40
0.3333333333333333
 40
0.3333333333333333
 40
1.0
 40
1.0
 40
1.0
 40
1.0
 10
-10.13276
 20
7.45617
 30
0.0
 10
-10.25379
 20
7.45617
 30
0.0
 10
-10.36985
 20
7.4081
 30
0.0
 10
-10.45543
 20
7.32253
 30
0.0
 10
-10.45543
 20
7.32253
 30
0.0
 10
-10.54099
 20
7.23695
 30
0.0
 10
-10.58908
 20
7.12089
 30
0.0
 10
-10.58908
 20
6.99987
 30
0.0
  0
SPLINE
  5
58
330
1F
100
AcDbEntity
  8
Layer 1
 62
     3
370
     9
100
AcDbSpline
210
0.0
220
0.0
230
1.0
 70
    24
 71
     3
 72
     8
 73
     4
 74
     0
 42
0.0000000001
 43
0.0000000001
 12
1.0
 22
0.0
 32
0.0
 13
1.0
 23
0.0
 33
0.0
 40
0.0
 40
0.0
 40
0.0
 40
0.0
 40
1.0
 40
1.0
 40
1.0
 40
1.0
 10
10.58952
 20
7.45617
 30
0.0
 10
10.58952
 20
7.45617
 30
0.0
 10
-10.13276
 20
7.45617
 30
0.0
 10
-10.13276
 20
7.45617
 30
0.0
  0
SPLINE
  5
59
330
1F
100
AcDbEntity
  8
Layer 1
 62
     3
370
     9
100
AcDbSpline
210
0.0
220
0.0
230
1.0
 70
     8
 71
     3
 72
     8
 73
     4
 74
     0
 42
0.0000000001
 43
0.0000000001
 12
1.0
 22
0.0
 32
0.0
 13
1.0
 23
0.0
 33
0.0
 40
0.0
 40
0.0
 40
0.0
 40
0.0
 40
1.0
 40
1.0
 40
1.0
 40
1.0
 10
10.58952
 20
-4.90662
 30
0.0
 10
10.84154
 20
-4.90662
 30
0.0
 10
11.04582
 20
-4.70234
 30
0.0
 10
11.04584
 20
-4.45032
 30
0.0
  0
SPLINE
  5
5A
330
1F
100
AcDbEntity
  8
Layer 1
 62
     3
370
     9
100
AcDbSpline
210
0.0
220
0.0
230
1.0
 70
    24
 71
     3
 72
     8
 73
     4
 74
     0
 42
0.0000000001
 43
0.0000000001
 12
1.0
 22
0.0
 32
0.0
 13
1.0
 23
0.0
 33
0.0
 40
0.0
 40
0.0
 40
0.0
 40
0.0
 40
1.0
 40
1.0
 40
1.0
 40
1.0
 10
11.04584
 20
-4.45032
 30
0.0
 10
11.04584
 20
-4.45032
 30
0.0
 10
11.04584
 20
6.99987
 30
0.0
 10
11.04584
 20
6.99987
 30
0.0
  0
SPLINE
  5
5B
330
1F
100
AcDbEntity
  8
Layer 1
 62
     3
370
     9
100
AcDbSpline
210
0.0
220
0.0
230
1.0
 70
     8
 71
     3
 72
    12
 73
     8
 74
     0
 42
0.0000000001
 43
0.0000000001
 12
1.0
 22
0.0
 32
0.0
 13
1.0
 23
0.0
 33
0.0
 40
0.0
 40
0.0
 40
0.0
 40
0.0
 40
0.3333333333333333
 40
0.3333333333333333
 40
0.3333333333333333
 40
0.3333333333333333
 40
1.0
 40
1.0
 40
1.0
 40
1.0
 10
11.04584
 20
6.99987
 30
0.0
 10
11.04584
 20
7.12089
 30
0.0
 10
10.99775
 20
7.23695
 30
0.0
 10
10.91218
 20
7.32253
 30
0.0
 10
10.91218
 20
7.32253
 30
0.0
 10
10.82661
 20
7.4081
 30
0.0
 10
10.71055
 20
7.45617
 30
0.0
 10
10.58952
 20
7.45617
 30
0.0
  0
SPLINE
  5
5D
330
1F
100
AcDbEntity
  8
layer 2
 62
     1
370
     0
100
AcDbSpline
210
0.0
220
0.0
230
1.0
 70
    24
 71
     3
 72
     8
 73
     4
 74
     0
 42
0.0000000001
 43
0.0000000001
 12
1.0
 22
0.0
 32
0.0
 13
1.0
 23
0.0
 33
0.0
 40
0.0
 40
0.0
 40
0.0
 40
0.0
 40
1.0
 40
1.0
 40
1.0
 40
1.0
 10
-10.58908
 20
7.15198
 30
0.0
 10
-10.58908
 20
7.15198
 30
0.0
 10
-10.58908
 20
8.6289
 30
0.0
 10
-10.58908
 20
8.6289
 30
0.0
  0
SPLINE
  5
5E
330
1F
100
AcDbEntity
  8
layer 2
 62
     1
370
     0
100
AcDbSpline
210
0.0
220
0.0
230
1.0
 70
    24
 71
     3
 72
     8
 73
     4
 74
     0
 42
0.0000000001
 43
0.0000000001
 12
1.0
 22
0.0
 32
0.0
 13
1.0
 23
0.0
 33
0.0
 40
0.0
 40
0.0
 40
0.0
 40
0.0
 40
1.0
 40
1.0
 40
1.0
 40
1.0
 10
11.04584
 20
7.15198
 30
0.0
 10
11.04584
 20
7.15198
 30
0.0
 10
11.04584
 20
8.6289
 30
0.0
 10
11.04584
 20
8.6289
 30
0.0
  0
SPLINE
  5
5F
330
1F
100
AcDbEntity
  8
layer 2
 62
     1
370
     0
100
AcDbSpline
210
0.0
220
0.0
230
1.0
 70
    24
 71
     3
 72
     8
 73
     4
 74
     0
 42
0.0000000001
 43
0.0000000001
 12
1.0
 22
0.0
 32
0.0
 13
1.0
 23
0.0
 33
0.0
 40
0.0
 40
0.0
 40
0.0
 40
0.0
 40
1.0
 40
1.0
 40
1.0
 40
1.0
 10
-9.98067
 20
8.32469
 30
0.0
 10
-9.98067
 20
8.32469
 30
0.0
 10
10.43743
 20
8.32469
 30
0.0
 10
10.43743
 20
8.32469
 30
0.0
  0
SPLINE
  5
60
330
1F
100
AcDbEntity
  8
layer 2
 62
     1
100
AcDbSpline
210
0.0
220
0.0
230
1.0
 70
    27
 71
     3
 72
    12
 73
     8
 74
     0
 42
0.0000000001
 43
0.0000000001
 12
1.0
 22
0.0
 32
0.0
 13
1.0
 23
0.0
 33
0.0
 40
0.0
 40
0.0
 40
0.0
 40
0.0
 40
0.3333333333333333
 40
0.3333333333333333
 40
0.3333333333333333
 40
0.3333333333333333
 40
1.0
 40
1.0
 40
1.0
 40
1.0
 10
-9.98067
 20
8.4261
 30
0.0
 10
-9.98067
 20
8.4261
 30
0.0
 10
-10.58908
 20
8.32469
 30
0.0
 10
-10.58908
 20
8.32469
 30
0.0
 10
-10.58908
 20
8.32469
 30
0.0
 10
-10.58908
 20
8.32469
 30
0.0
 10
-9.98067
 20
8.4261
 30
0.0
 10
-9.98067
 20
8.4261
 30
0.0
  0
SPLINE
  5
61
330
1F
100
AcDbEntity
  8
layer 2
 62
     1
100
AcDbSpline
210
0.0
220
0.0
230
1.0
 70
     8
 71
     3
 72
    12
 73
     8
 74
     0
 42
0.0000000001
 43
0.0000000001
 12
1.0
 22
0.0
 32
0.0
 13
1.0
 23
0.0
 33
0.0
 40
0.0
 40
0.0
 40
0.0
 40
0.0
 40
0.3333333333333333
 40
0.3333333333333333
 40
0.3333333333333333
 40
0.3333333333333333
 40
1.0
 40
1.0
 40
1.0
 40
1.0
 10
-10.58908
 20
8.32469
 30
0.0
 10
-10.58908
 20
8.32469
 30
0.0
 10
-9.98067
 20
8.22329
 30
0.0
 10
-9.98067
 20
8.22329
 30
0.0
 10
-9.98067
 20
8.22329
 30
0.0
 10
-9.98067
 20
8.22329
 30
0.0
 10
-9.98067
 20
8.4261
 30
0.0
 10
-9.98067
 20
8.4261
 30
0.0
  0
SPLINE
  5
62
330
1F
100
AcDbEntity
  8
layer 2
 62
     1
370
     9
100
AcDbSpline
210
0.0
220
0.0
230
1.0
 70
    24
 71
     3
 72
     8
 73
     4
 74
     0
 42
0.0000000001
 43
0.0000000001
 12
1.0
 22
0.0
 32
0.0
 13
1.0
 23
0.0
 33
0.0
 40
0.0
 40
0.0
 40
0.0
 40
0.0
 40
1.0
 40
1.0
 40
1.0
 40
1.0
 10
-9.98067
 20
8.4261
 30
0.0
 10
-9.98067
 20
8.4261
 30
0.0
 10
-10.58908
 20
8.32469
 30
0.0
 10
-10.58908
 20
8.32469
 30
0.0
  0
SPLINE
  5
63
330
1F
100
AcDbEntity
  8
layer 2
 62
     1
370
     9
100
AcDbSpline
210
0.0
220
0.0
230
1.0
 70
     8
 71
     3
 72
    12
 73
     8
 74
     0
 42
0.0000000001
 43
0.0000000001
 12
1.0
 22
0.0
 32
0.0
 13
1.0
 23
0.0
 33
0.0
 40
0.0
 40
0.0
 40
0.0
 40
0.0
 40
0.3333333333333333
 40
0.3333333333333333
 40
0.3333333333333333
 40
0.3333333333333333
 40
1.0
 40
1.0
 40
1.0
 40
1.0
 10
-10.58908
 20
8.32469
 30
0.0
 10
-10.58908
 20
8.32469
 30
0.0
 10
-9.98067
 20
8.22329
 30
0.0
 10
-9.98067
 20
8.22329
 30
0.0
 10
-9.98067
 20
8.22329
 30
0.0
 10
-9.98067
 20
8.22329
 30
0.0
 10
-9.98067
 20
8.4261
 30
0.0
 10
-9.98067
 20
8.4261
 30
0.0
  0
SPLINE
  5
64
330
1F
100
AcDbEntity
  8
layer 2
 62
     1
100
AcDbSpline
210
0.0
220
0.0
230
1.0
 70
    27
 71
     3
 72
    12
 73
     8
 74
     0
 42
0.0000000001
 43
0.0000000001
 12
1.0
 22
0.0
 32
0.0
 13
1.0
 23
0.0
 33
0.0
 40
0.0
 40
0.0
 40
0.0
 40
0.0
 40
0.3333333333333333
 40
0.3333333333333333
 40
0.3333333333333333
 40
0.3333333333333333
 40
1.0
 40
1.0
 40
1.0
 40
1.0
 10
10.43743
 20
8.4261
 30
0.0
 10
10.43743
 20
8.4261
 30
0.0
 10
11.04584
 20
8.32469
 30
0.0
 10
11.04584
 20
8.32469
 30
0.0
 10
11.04584
 20
8.32469
 30
0.0
 10
11.04584
 20
8.32469
 30
0.0
 10
10.43743
 20
8.4261
 30
0.0
 10
10.43743
 20
8.4261
 30
0.0
  0
SPLINE
  5
65
330
1F
100
AcDbEntity
  8
layer 2
 62
     1
100
AcDbSpline
210
0.0
220
0.0
230
1.0
 70
     8
 71
     3
 72
    12
 73
     8
 74
     0
 42
0.0000000001
 43
0.0000000001
 12
1.0
 22
0.0
 32
0.0
 13
1.0
 23
0.0
 33
0.0
 40
0.0
 40
0.0
 40
0.0
 40
0.0
 40
0.3333333333333333
 40
0.3333333333333333
 40
0.3333333333333333
 40
0.3333333333333333
 40
1.0
 40
1.0
 40
1.0
 40
1.0
 10
11.04584
 20
8.32469
 30
0.0
 10
11.04584
 20
8.32469
 30
0.0
 10
10.43743
 20
8.22329
 30
0.0
 10
10.43743
 20
8.22329
 30
0.0
 10
10.43743
 20
8.22329
 30
0.0
 10
10.43743
 20
8.22329
 30
0.0
 10
10.43743
 20
8.4261
 30
0.0
 10
10.43743
 20
8.4261
 30
0.0
  0
SPLINE
  5
66
330
1F
100
AcDbEntity
  8
layer 2
 62
     1
370
     9
100
AcDbSpline
210
0.0
220
0.0
230
1.0
 70
    24
 71
     3
 72
     8
 73
     4
 74
     0
 42
0.0000000001
 43
0.0000000001
 12
1.0
 22
0.0
 32
0.0
 13
1.0
 23
0.0
 33
0.0
 40
0.0
 40
0.0
 40
0.0
 40
0.0
 40
1.0
 40
1.0
 40
1.0
 40
1.0
 10
10.43743
 20
8.4261
 30
0.0
 10
10.43743
 20
8.4261
 30
0.0
 10
11.04584
 20
8.32469
 30
0.0
 10
11.04584
 20
8.32469
 30
0.0
  0
SPLINE
  5
67
330
1F
100
AcDbEntity
  8
layer 2
 62
     1
370
     9
100
AcDbSpline
210
0.0
220
0.0
230
1.0
 70
     8
 71
     3
 72
    12
 73
     8
 74
     0
 42
0.0000000001
 43
0.0000000001
 12
1.0
 22
0.0
 32
0.0
 13
1.0
 23
0.0
 33
0.0
 40
0.0
 40
0.0
 40
0.0
 40
0.0
 40
0.3333333333333333
 40
0.3333333333333333
 40
0.3333333333333333
 40
0.3333333333333333
 40
1.0
 40
1.0
 40
1.0
 40
1.0
 10
11.04584
 20
8.32469
 30
0.0
 10
11.04584
 20
8.32469
 30
0.0
 10
10.43743
 20
8.22329
 30
0.0
 10
10.43743
 20
8.22329
 30
0.0
 10
10.43743
 20
8.22329
 30
0.0
 10
10.43743
 20
8.22329
 30
0.0
 10
10.43743
 20
8.4261
 30
0.0
 10
10.43743
 20
8.4261
 30
0.0
  0
SPLINE
  5
68
330
1F
100
AcDbEntity
  8
layer 2
 62
     1
100
AcDbSpline
210
0.0
220
0.0
230
1.0
 70
    11
 71
     3
 72
    92
 73
    88
 74
     0
 42
0.0000000001
 43
0.0000000001
 12
1.0
 22
0.0
 32
0.0
 13
1.0
 23
0.0
 33
0.0
 40
0.0
 40
0.0
 40
0.0
 40
0.0
 40
0.0434782608695652
 40
0.0434782608695652
 40
0.0434782608695652
 40
0.0434782608695652
 40
0.0869565217391304
 40
0.0869565217391304
 40
0.0869565217391304
 40
0.0869565217391304
 40
0.1304347826086956
 40
0.1304347826086956
 40
0.1304347826086956
 40
0.1304347826086956
 40
0.1739130434782609
 40
0.1739130434782609
 40
0.1739130434782609
 40
0.1739130434782609
 40
0.2173913043478261
 40
0.2173913043478261
 40
0.2173913043478261
 40
0.2173913043478261
 40
0.2608695652173913
 40
0.2608695652173913
 40
0.2608695652173913
 40
0.2608695652173913
 40
0.3043478260869565
 40
0.3043478260869565
 40
0.3043478260869565
 40
0.3043478260869565
 40
0.3478260869565217
 40
0.3478260869565217
 40
0.3478260869565217
 40
0.3478260869565217
 40
0.391304347826087
 40
0.391304347826087
 40
0.391304347826087
 40
0.391304347826087
 40
0.4347826086956522
 40
0.4347826086956522
 40
0.4347826086956522
 40
0.4347826086956522
 40
0.4782608695652174
 40
0.4782608695652174
 40
0.4782608695652174
 40
0.4782608695652174
 40
0.5217391304347826
 40
0.5217391304347826
 40
0.5217391304347826
 40
0.5217391304347826
 40
0.5652173913043478
 40
0.5652173913043478
 40
0.5652173913043478
 40
0.5652173913043478
 40
0.6086956521739131
 40
0.6086956521739131
 40
0.6086956521739131
 40
0.6086956521739131
 40
0.6521739130434783
 40
0.6521739130434783
 40
0.6521739130434783
 40
0.6521739130434783
 40
0.6956521739130435
 40
0.6956521739130435
 40
0.6956521739130435
 40
0.6956521739130435
 40
0.7391304347826086
 40
0.7391304347826086
 40
0.7391304347826086
 40
0.7391304347826086
 40
0.782608695652174
 40
0.782608695652174
 40
0.782608695652174
 40
0.782608695652174
 40
0.8260869565217391
 40
0.8260869565217391
 40
0.8260869565217391
 40
0.8260869565217391
 40
0.8695652173913043
 40
0.8695652173913043
 40
0.8695652173913043
 40
0.8695652173913043
 40
0.9130434782608695
 40
0.9130434782608695
 40
0.9130434782608695
 40
0.9130434782608695
 40
1.0
 40
1.0
 40
1.0
 40
1.0
 10
0.09926
 20
8.6318
 30
0.0
 10
0.09926
 20
8.6318
 30
0.0
 10
0.09926
 20
8.58478
 30
0.0
 10
0.09926
 20
8.58478
 30
0.0
 10
0.09926
 20
8.58478
 30
0.0
 10
0.09926
 20
8.58478
 30
0.0
 10
-0.16605
 20
8.58478
 30
0.0
 10
-0.16605
 20
8.58478
 30
0.0
 10
-0.16605
 20
8.58478
 30
0.0
 10
-0.16642
 20
8.59664
 30
0.0
 10
-0.16447
 20
8.60801
 30
0.0
 10
-0.16027
 20
8.61902
 30
0.0
 10
-0.16027
 20
8.61902
 30
0.0
 10
-0.15346
 20
8.63702
 30
0.0
 10
-0.14254
 20
8.65484
 30
0.0
 10
-0.12753
 20
8.67229
 30
0.0
 10
-0.12753
 20
8.67229
 30
0.0
 10
-0.1125
 20
8.68973
 30
0.0
 10
-0.09104
 20
8.70989
 30
0.0
 10
-0.06316
 20
8.73273
 30
0.0
 10
-0.06316
 20
8.73273
 30
0.0
 10
-0.01978
 20
8.76847
 30
0.0
 10
0.0097
 20
8.79674
 30
0.0
 10
0.0251
 20
8.81764
 30
0.0
 10
0.0251
 20
8.81764
 30
0.0
 10
0.04058
 20
8.83852
 30
0.0
 10
0.04833
 20
8.8583
 30
0.0
 10
0.04833
 20
8.87696
 30
0.0
 10
0.04833
 20
8.87696
 30
0.0
 10
0.04833
 20
8.89646
 30
0.0
 10
0.04133
 20
8.91288
 30
0.0
 10
0.02734
 20
8.92631
 30
0.0
 10
0.02734
 20
8.92631
 30
0.0
 10
0.01334
 20
8.93966
 30
0.0
 10
-0.00494
 20
8.94636
 30
0.0
 10
-0.02742
 20
8.94636
 30
0.0
 10
-0.02742
 20
8.94636
 30
0.0
 10
-0.05122
 20
8.94636
 30
0.0
 10
-0.07024
 20
8.93928
 30
0.0
 10
-0.08451
 20
8.9251
 30
0.0
 10
-0.08451
 20
8.9251
 30
0.0
 10
-0.09879
 20
8.91101
 30
0.0
 10
-0.10597
 20
8.89142
 30
0.0
 10
-0.10615
 20
8.86633
 30
0.0
 10
-0.10615
 20
8.86633
 30
0.0
 10
-0.10615
 20
8.86633
 30
0.0
 10
-0.15653
 20
8.87136
 30
0.0
 10
-0.15653
 20
8.87136
 30
0.0
 10
-0.15653
 20
8.87136
 30
0.0
 10
-0.15308
 20
8.90906
 30
0.0
 10
-0.14002
 20
8.93778
 30
0.0
 10
-0.11745
 20
8.95756
 30
0.0
 10
-0.11745
 20
8.95756
 30
0.0
 10
-0.09478
 20
8.97734
 30
0.0
 10
-0.06445
 20
8.98723
 30
0.0
 10
-0.0263
 20
8.98723
 30
0.0
 10
-0.0263
 20
8.98723
 30
0.0
 10
0.01213
 20
8.98723
 30
0.0
 10
0.04264
 20
8.9766
 30
0.0
 10
0.06503
 20
8.95523
 30
0.0
 10
0.06503
 20
8.95523
 30
0.0
 10
0.08751
 20
8.93387
 30
0.0
 10
0.09871
 20
8.90737
 30
0.0
 10
0.09871
 20
8.87584
 30
0.0
 10
0.09871
 20
8.87584
 30
0.0
 10
0.09871
 20
8.8598
 30
0.0
 10
0.09544
 20
8.84403
 30
0.0
 10
0.08882
 20
8.82855
 30
0.0
 10
0.08882
 20
8.82855
 30
0.0
 10
0.08229
 20
8.81297
 30
0.0
 10
0.07137
 20
8.79664
 30
0.0
 10
0.05617
 20
8.77948
 30
0.0
 10
0.05617
 20
8.77948
 30
0.0
 10
0.04087
 20
8.7624
 30
0.0
 10
0.01558
 20
8.7388
 30
0.0
 10
-0.01968
 20
8.70894
 30
0.0
 10
-0.01968
 20
8.70894
 30
0.0
 10
-0.04925
 20
8.68413
 30
0.0
 10
-0.06828
 20
8.66735
 30
0.0
 10
-0.07667
 20
8.65848
 30
0.0
 10
-0.07667
 20
8.65848
 30
0.0
 10
-0.08507
 20
8.64962
 30
0.0
 10
-0.09197
 20
8.64076
 30
0.0
 10
-0.09748
 20
8.6318
 30
0.0
 10
-0.09748
 20
8.6318
 30
0.0
 10
-0.09748
 20
8.6318
 30
0.0
 10
0.09926
 20
8.6318
 30
0.0
 10
0.09926
 20
8.6318
 30
0.0
  0
SPLINE
  5
69
330
1F
100
AcDbEntity
  8
layer 2
 62
     1
100
AcDbSpline
210
0.0
220
0.0
230
1.0
 70
    11
 71
     3
 72
    68
 73
    64
 74
     0
 42
0.0000000001
 43
0.0000000001
 12
1.0
 22
0.0
 32
0.0
 13
1.0
 23
0.0
 33
0.0
 40
0.0
 40
0.0
 40
0.0
 40
0.0
 40
0.0588235294117647
 40
0.0588235294117647
 40
0.0588235294117647
 40
0.0588235294117647
 40
0.1176470588235294
 40
0.1176470588235294
 40
0.1176470588235294
 40
0.1176470588235294
 40
0.1764705882352941
 40
0.1764705882352941
 40
0.1764705882352941
 40
0.1764705882352941
 40
0.2352941176470588
 40
0.2352941176470588
 40
0.2352941176470588
 40
0.2352941176470588
 40
0.2941176470588235
 40
0.2941176470588235
 40
0.2941176470588235
 40
0.2941176470588235
 40
0.3529411764705883
 40
0.3529411764705883
 40
0.3529411764705883
 40
0.3529411764705883
 40
0.4117647058823529
 40
0.4117647058823529
 40
0.4117647058823529
 40
0.4117647058823529
 40
0.4705882352941176
 40
0.4705882352941176
 40
0.4705882352941176
 40
0.4705882352941176
 40
0.5294117647058824
 40
0.5294117647058824
 40
0.5294117647058824
 40
0.5294117647058824
 40
0.5882352941176471
 40
0.5882352941176471
 40
0.5882352941176471
 40
0.5882352941176471
 40
0.6470588235294118
 40
0.6470588235294118
 40
0.6470588235294118
 40
0.6470588235294118
 40
0.7058823529411765
 40
0.7058823529411765
 40
0.7058823529411765
 40
0.7058823529411765
 40
0.7647058823529411
 40
0.7647058823529411
 40
0.7647058823529411
 40
0.7647058823529411
 40
0.8235294117647058
 40
0.8235294117647058
 40
0.8235294117647058
 40
0.8235294117647058
 40
0.8823529411764706
 40
0.8823529411764706
 40
0.8823529411764706
 40
0.8823529411764706
 40
1.0
 40
1.0
 40
1.0
 40
1.0
 10
0.22838
 20
8.80205
 30
0.0
 10
0.20795
 20
8.80951
 30
0.0
 10
0.19283
 20
8.82024
 30
0.0
 10
0.18294
 20
8.83404
 30
0.0
 10
0.18294
 20
8.83404
 30
0.0
 10
0.17314
 20
8.84795
 30
0.0
 10
0.16821
 20
8.86456
 30
0.0
 10
0.16821
 20
8.88387
 30
0.0
 10
0.16821
 20
8.88387
 30
0.0
 10
0.16821
 20
8.91306
 30
0.0
 10
0.17866
 20
8.93751
 30
0.0
 10
0.19955
 20
8.95737
 30
0.0
 10
0.19955
 20
8.95737
 30
0.0
 10
0.22054
 20
8.97725
 30
0.0
 10
0.24835
 20
8.98723
 30
0.0
 10
0.28314
 20
8.98723
 30
0.0
 10
0.28314
 20
8.98723
 30
0.0
 10
0.31803
 20
8.98723
 30
0.0
 10
0.34621
 20
8.97706
 30
0.0
 10
0.36747
 20
8.95672
 30
0.0
 10
0.36747
 20
8.95672
 30
0.0
 10
0.38875
 20
8.93639
 30
0.0
 10
0.39938
 20
8.91166
 30
0.0
 10
0.39938
 20
8.88246
 30
0.0
 10
0.39938
 20
8.88246
 30
0.0
 10
0.39938
 20
8.8639
 30
0.0
 10
0.39452
 20
8.84767
 30
0.0
 10
0.38482
 20
8.83396
 30
0.0
 10
0.38482
 20
8.83396
 30
0.0
 10
0.37512
 20
8.82015
 30
0.0
 10
0.36039
 20
8.80951
 30
0.0
 10
0.34051
 20
8.80205
 30
0.0
 10
0.34051
 20
8.80205
 30
0.0
 10
0.36504
 20
8.79402
 30
0.0
 10
0.38361
 20
8.78115
 30
0.0
 10
0.3964
 20
8.76324
 30
0.0
 10
0.3964
 20
8.76324
 30
0.0
 10
0.40917
 20
8.74543
 30
0.0
 10
0.41561
 20
8.72415
 30
0.0
 10
0.41561
 20
8.69934
 30
0.0
 10
0.41561
 20
8.69934
 30
0.0
 10
0.41561
 20
8.66511
 30
0.0
 10
0.40348
 20
8.63637
 30
0.0
 10
0.37931
 20
8.61304
 30
0.0
 10
0.37931
 20
8.61304
 30
0.0
 10
0.35507
 20
8.58973
 30
0.0
 10
0.32326
 20
8.57807
 30
0.0
 10
0.28379
 20
8.57807
 30
0.0
 10
0.28379
 20
8.57807
 30
0.0
 10
0.24433
 20
8.57807
 30
0.0
 10
0.21251
 20
8.58973
 30
0.0
 10
0.18827
 20
8.61314
 30
0.0
 10
0.18827
 20
8.61314
 30
0.0
 10
0.1641
 20
8.63656
 30
0.0
 10
0.15197
 20
8.66576
 30
0.0
 10
0.15197
 20
8.70074
 30
0.0
 10
0.15197
 20
8.70074
 30
0.0
 10
0.15197
 20
8.72677
 30
0.0
 10
0.1586
 20
8.7486
 30
0.0
 10
0.17185
 20
8.76614
 30
0.0
 10
0.17185
 20
8.76614
 30
0.0
 10
0.1851
 20
8.78377
 30
0.0
 10
0.20393
 20
8.79571
 30
0.0
 10
0.22838
 20
8.80205
 30
0.0
  0
SPLINE
  5
6A
330
1F
100
AcDbEntity
  8
layer 2
 62
     1
100
AcDbSpline
210
0.0
220
0.0
230
1.0
 70
    11
 71
     3
 72
    36
 73
    32
 74
     0
 42
0.0000000001
 43
0.0000000001
 12
1.0
 22
0.0
 32
0.0
 13
1.0
 23
0.0
 33
0.0
 40
0.0
 40
0.0
 40
0.0
 40
0.0
 40
0.1111111111111111
 40
0.1111111111111111
 40
0.1111111111111111
 40
0.1111111111111111
 40
0.2222222222222222
 40
0.2222222222222222
 40
0.2222222222222222
 40
0.2222222222222222
 40
0.3333333333333333
 40
0.3333333333333333
 40
0.3333333333333333
 40
0.3333333333333333
 40
0.4444444444444444
 40
0.4444444444444444
 40
0.4444444444444444
 40
0.4444444444444444
 40
0.5555555555555556
 40
0.5555555555555556
 40
0.5555555555555556
 40
0.5555555555555556
 40
0.6666666666666666
 40
0.6666666666666666
 40
0.6666666666666666
 40
0.6666666666666666
 40
0.7777777777777778
 40
0.7777777777777778
 40
0.7777777777777778
 40
0.7777777777777778
 40
1.0
 40
1.0
 40
1.0
 40
1.0
 10
0.21858
 20
8.88564
 30
0.0
 10
0.21858
 20
8.86661
 30
0.0
 10
0.22464
 20
8.85112
 30
0.0
 10
0.23668
 20
8.83909
 30
0.0
 10
0.23668
 20
8.83909
 30
0.0
 10
0.24881
 20
8.82705
 30
0.0
 10
0.26466
 20
8.821
 30
0.0
 10
0.28434
 20
8.821
 30
0.0
 10
0.28434
 20
8.821
 30
0.0
 10
0.30348
 20
8.821
 30
0.0
 10
0.31897
 20
8.82696
 30
0.0
 10
0.331
 20
8.8389
 30
0.0
 10
0.331
 20
8.8389
 30
0.0
 10
0.34303
 20
8.85084
 30
0.0
 10
0.349
 20
8.86549
 30
0.0
 10
0.349
 20
8.88284
 30
0.0
 10
0.349
 20
8.88284
 30
0.0
 10
0.349
 20
8.90094
 30
0.0
 10
0.34285
 20
8.91614
 30
0.0
 10
0.33043
 20
8.92846
 30
0.0
 10
0.33043
 20
8.92846
 30
0.0
 10
0.31812
 20
8.94078
 30
0.0
 10
0.30255
 20
8.94693
 30
0.0
 10
0.28379
 20
8.94693
 30
0.0
 10
0.28379
 20
8.94693
 30
0.0
 10
0.26485
 20
8.94693
 30
0.0
 10
0.24928
 20
8.94087
 30
0.0
 10
0.23696
 20
8.92884
 30
0.0
 10
0.23696
 20
8.92884
 30
0.0
 10
0.22474
 20
8.9168
 30
0.0
 10
0.21858
 20
8.90243
 30
0.0
 10
0.21858
 20
8.88564
 30
0.0
  0
SPLINE
  5
6B
330
1F
100
AcDbEntity
  8
layer 2
 62
     1
100
AcDbSpline
210
0.0
220
0.0
230
1.0
 70
    11
 71
     3
 72
    40
 73
    36
 74
     0
 42
0.0000000001
 43
0.0000000001
 12
1.0
 22
0.0
 32
0.0
 13
1.0
 23
0.0
 33
0.0
 40
0.0
 40
0.0
 40
0.0
 40
0.0
 40
0.1
 40
0.1
 40
0.1
 40
0.1
 40
0.2
 40
0.2
 40
0.2
 40
0.2
 40
0.3
 40
0.3
 40
0.3
 40
0.3
 40
0.4
 40
0.4
 40
0.4
 40
0.4
 40
0.5
 40
0.5
 40
0.5
 40
0.5
 40
0.6
 40
0.6
 40
0.6
 40
0.6
 40
0.7
 40
0.7
 40
0.7
 40
0.7
 40
0.8
 40
0.8
 40
0.8
 40
0.8
 40
1.0
 40
1.0
 40
1.0
 40
1.0
 10
0.20235
 20
8.70036
 30
0.0
 10
0.20235
 20
8.68628
 30
0.0
 10
0.20562
 20
8.67276
 30
0.0
 10
0.21215
 20
8.6596
 30
0.0
 10
0.21215
 20
8.6596
 30
0.0
 10
0.21868
 20
8.64654
 30
0.0
 10
0.22857
 20
8.63637
 30
0.0
 10
0.24182
 20
8.62919
 30
0.0
 10
0.24182
 20
8.62919
 30
0.0
 10
0.25496
 20
8.622
 30
0.0
 10
0.26914
 20
8.61837
 30
0.0
 10
0.28417
 20
8.61837
 30
0.0
 10
0.28417
 20
8.61837
 30
0.0
 10
0.30786
 20
8.61837
 30
0.0
 10
0.32726
 20
8.62593
 30
0.0
 10
0.34247
 20
8.64104
 30
0.0
 10
0.34247
 20
8.64104
 30
0.0
 10
0.35767
 20
8.65615
 30
0.0
 10
0.36523
 20
8.67536
 30
0.0
 10
0.36523
 20
8.69869
 30
0.0
 10
0.36523
 20
8.69869
 30
0.0
 10
0.36523
 20
8.72238
 30
0.0
 10
0.35739
 20
8.74197
 30
0.0
 10
0.34182
 20
8.75746
 30
0.0
 10
0.34182
 20
8.75746
 30
0.0
 10
0.32614
 20
8.77295
 30
0.0
 10
0.30636
 20
8.78069
 30
0.0
 10
0.28258
 20
8.78069
 30
0.0
 10
0.28258
 20
8.78069
 30
0.0
 10
0.25926
 20
8.78069
 30
0.0
 10
0.24013
 20
8.77303
 30
0.0
 10
0.22502
 20
8.75774
 30
0.0
 10
0.22502
 20
8.75774
 30
0.0
 10
0.20991
 20
8.74244
 30
0.0
 10
0.20235
 20
8.72331
 30
0.0
 10
0.20235
 20
8.70036
 30
0.0
  0
SPLINE
  5
6C
330
1F
100
AcDbEntity
  8
layer 2
 62
     1
100
AcDbSpline
210
0.0
220
0.0
230
1.0
 70
    11
 71
     3
 72
    28
 73
    24
 74
     0
 42
0.0000000001
 43
0.0000000001
 12
1.0
 22
0.0
 32
0.0
 13
1.0
 23
0.0
 33
0.0
 40
0.0
 40
0.0
 40
0.0
 40
0.0
 40
0.1428571428571428
 40
0.1428571428571428
 40
0.1428571428571428
 40
0.1428571428571428
 40
0.2857142857142857
 40
0.2857142857142857
 40
0.2857142857142857
 40
0.2857142857142857
 40
0.4285714285714285
 40
0.4285714285714285
 40
0.4285714285714285
 40
0.4285714285714285
 40
0.5714285714285714
 40
0.5714285714285714
 40
0.5714285714285714
 40
0.5714285714285714
 40
0.7142857142857143
 40
0.7142857142857143
 40
0.7142857142857143
 40
0.7142857142857143
 40
1.0
 40
1.0
 40
1.0
 40
1.0
 10
0.4797
 20
8.84393
 30
0.0
 10
0.4797
 20
8.84393
 30
0.0
 10
0.46608
 20
8.92007
 30
0.0
 10
0.46608
 20
8.92007
 30
0.0
 10
0.46608
 20
8.92007
 30
0.0
 10
0.46608
 20
8.92007
 30
0.0
 10
0.46608
 20
8.98556
 30
0.0
 10
0.46608
 20
8.98556
 30
0.0
 10
0.46608
 20
8.98556
 30
0.0
 10
0.46608
 20
8.98556
 30
0.0
 10
0.52205
 20
8.98556
 30
0.0
 10
0.52205
 20
8.98556
 30
0.0
 10
0.52205
 20
8.98556
 30
0.0
 10
0.52205
 20
8.98556
 30
0.0
 10
0.52205
 20
8.92007
 30
0.0
 10
0.52205
 20
8.92007
 30
0.0
 10
0.52205
 20
8.92007
 30
0.0
 10
0.52205
 20
8.92007
 30
0.0
 10
0.50974
 20
8.84393
 30
0.0
 10
0.50974
 20
8.84393
 30
0.0
 10
0.50974
 20
8.84393
 30
0.0
 10
0.50974
 20
8.84393
 30
0.0
 10
0.4797
 20
8.84393
 30
0.0
 10
0.4797
 20
8.84393
 30
0.0
  0
SPLINE
  5
6D
330
1F
100
AcDbEntity
  8
layer 2
 62
     1
100
AcDbSpline
210
0.0
220
0.0
230
1.0
 70
    11
 71
     3
 72
    28
 73
    24
 74
     0
 42
0.0000000001
 43
0.0000000001
 12
1.0
 22
0.0
 32
0.0
 13
1.0
 23
0.0
 33
0.0
 40
0.0
 40
0.0
 40
0.0
 40
0.0
 40
0.1428571428571428
 40
0.1428571428571428
 40
0.1428571428571428
 40
0.1428571428571428
 40
0.2857142857142857
 40
0.2857142857142857
 40
0.2857142857142857
 40
0.2857142857142857
 40
0.4285714285714285
 40
0.4285714285714285
 40
0.4285714285714285
 40
0.4285714285714285
 40
0.5714285714285714
 40
0.5714285714285714
 40
0.5714285714285714
 40
0.5714285714285714
 40
0.7142857142857143
 40
0.7142857142857143
 40
0.7142857142857143
 40
0.7142857142857143
 40
1.0
 40
1.0
 40
1.0
 40
1.0
 10
0.57009
 20
8.84393
 30
0.0
 10
0.57009
 20
8.84393
 30
0.0
 10
0.55676
 20
8.92007
 30
0.0
 10
0.55676
 20
8.92007
 30
0.0
 10
0.55676
 20
8.92007
 30
0.0
 10
0.55676
 20
8.92007
 30
0.0
 10
0.55676
 20
8.98556
 30
0.0
 10
0.55676
 20
8.98556
 30
0.0
 10
0.55676
 20
8.98556
 30
0.0
 10
0.55676
 20
8.98556
 30
0.0
 10
0.61273
 20
8.98556
 30
0.0
 10
0.61273
 20
8.98556
 30
0.0
 10
0.61273
 20
8.98556
 30
0.0
 10
0.61273
 20
8.98556
 30
0.0
 10
0.61273
 20
8.92007
 30
0.0
 10
0.61273
 20
8.92007
 30
0.0
 10
0.61273
 20
8.92007
 30
0.0
 10
0.61273
 20
8.92007
 30
0.0
 10
0.59957
 20
8.84393
 30
0.0
 10
0.59957
 20
8.84393
 30
0.0
 10
0.59957
 20
8.84393
 30
0.0
 10
0.59957
 20
8.84393
 30
0.0
 10
0.57009
 20
8.84393
 30
0.0
 10
0.57009
 20
8.84393
 30
0.0
  0
SPLINE
  5
6E
330
1F
100
AcDbEntity
  8
layer 2
 62
     1
370
     0
100
AcDbSpline
210
0.0
220
0.0
230
1.0
 70
    24
 71
     3
 72
     8
 73
     4
 74
     0
 42
0.0000000001
 43
0.0000000001
 12
1.0
 22
0.0
 32
0.0
 13
1.0
 23
0.0
 33
0.0
 40
0.0
 40
0.0
 40
0.0
 40
0.0
 40
1.0
 40
1.0
 40
1.0
 40
1.0
 10
10.74163
 20
7.45617
 30
0.0
 10
10.74163
 20
7.45617
 30
0.0
 10
12.60999
 20
7.45617
 30
0.0
 10
12.60999
 20
7.45617
 30
0.0
  0
SPLINE
  5
6F
330
1F
100
AcDbEntity
  8
layer 2
 62
     1
370
     0
100
AcDbSpline
210
0.0
220
0.0
230
1.0
 70
    24
 71
     3
 72
     8
 73
     4
 74
     0
 42
0.0000000001
 43
0.0000000001
 12
1.0
 22
0.0
 32
0.0
 13
1.0
 23
0.0
 33
0.0
 40
0.0
 40
0.0
 40
0.0
 40
0.0
 40
1.0
 40
1.0
 40
1.0
 40
1.0
 10
10.74163
 20
-4.90662
 30
0.0
 10
10.74163
 20
-4.90662
 30
0.0
 10
12.60999
 20
-4.90662
 30
0.0
 10
12.60999
 20
-4.90662
 30
0.0
  0
SPLINE
  5
70
330
1F
100
AcDbEntity
  8
layer 2
 62
     1
370
     0
100
AcDbSpline
210
0.0
220
0.0
230
1.0
 70
    24
 71
     3
 72
     8
 73
     4
 74
     0
 42
0.0000000001
 43
0.0000000001
 12
1.0
 22
0.0
 32
0.0
 13
1.0
 23
0.0
 33
0.0
 40
0.0
 40
0.0
 40
0.0
 40
0.0
 40
1.0
 40
1.0
 40
1.0
 40
1.0
 10
12.30579
 20
6.84778
 30
0.0
 10
12.30579
 20
6.84778
 30
0.0
 10
12.30579
 20
-4.29822
 30
0.0
 10
12.30579
 20
-4.29822
 30
0.0
  0
SPLINE
  5
71
330
1F
100
AcDbEntity
  8
layer 2
 62
     1
100
AcDbSpline
210
0.0
220
0.0
230
1.0
 70
    27
 71
     3
 72
    12
 73
     8
 74
     0
 42
0.0000000001
 43
0.0000000001
 12
1.0
 22
0.0
 32
0.0
 13
1.0
 23
0.0
 33
0.0
 40
0.0
 40
0.0
 40
0.0
 40
0.0
 40
0.3333333333333333
 40
0.3333333333333333
 40
0.3333333333333333
 40
0.3333333333333333
 40
1.0
 40
1.0
 40
1.0
 40
1.0
 10
12.20439
 20
6.84778
 30
0.0
 10
12.20439
 20
6.84778
 30
0.0
 10
12.30579
 20
7.45617
 30
0.0
 10
12.30579
 20
7.45617
 30
0.0
 10
12.30579
 20
7.45617
 30
0.0
 10
12.30579
 20
7.45617
 30
0.0
 10
12.20439
 20
6.84778
 30
0.0
 10
12.20439
 20
6.84778
 30
0.0
  0
SPLINE
  5
72
330
1F
100
AcDbEntity
  8
layer 2
 62
     1
100
AcDbSpline
210
0.0
220
0.0
230
1.0
 70
     8
 71
     3
 72
    12
 73
     8
 74
     0
 42
0.0000000001
 43
0.0000000001
 12
1.0
 22
0.0
 32
0.0
 13
1.0
 23
0.0
 33
0.0
 40
0.0
 40
0.0
 40
0.0
 40
0.0
 40
0.3333333333333333
 40
0.3333333333333333
 40
0.3333333333333333
 40
0.3333333333333333
 40
1.0
 40
1.0
 40
1.0
 40
1.0
 10
12.30579
 20
7.45617
 30
0.0
 10
12.30579
 20
7.45617
 30
0.0
 10
12.40719
 20
6.84778
 30
0.0
 10
12.40719
 20
6.84778
 30
0.0
 10
12.40719
 20
6.84778
 30
0.0
 10
12.40719
 20
6.84778
 30
0.0
 10
12.20439
 20
6.84778
 30
0.0
 10
12.20439
 20
6.84778
 30
0.0
  0
SPLINE
  5
73
330
1F
100
AcDbEntity
  8
layer 2
 62
     1
370
     9
100
AcDbSpline
210
0.0
220
0.0
230
1.0
 70
    24
 71
     3
 72
     8
 73
     4
 74
     0
 42
0.0000000001
 43
0.0000000001
 12
1.0
 22
0.0
 32
0.0
 13
1.0
 23
0.0
 33
0.0
 40
0.0
 40
0.0
 40
0.0
 40
0.0
 40
1.0
 40
1.0
 40
1.0
 40
1.0
 10
12.20439
 20
6.84778
 30
0.0
 10
12.20439
 20
6.84778
 30
0.0
 10
12.30579
 20
7.45617
 30
0.0
 10
12.30579
 20
7.45617
 30
0.0
  0
SPLINE
  5
74
330
1F
100
AcDbEntity
  8
layer 2
 62
     1
370
     9
100
AcDbSpline
210
0.0
220
0.0
230
1.0
 70
     8
 71
     3
 72
    12
 73
     8
 74
     0
 42
0.0000000001
 43
0.0000000001
 12
1.0
 22
0.0
 32
0.0
 13
1.0
 23
0.0
 33
0.0
 40
0.0
 40
0.0
 40
0.0
 40
0.0
 40
0.3333333333333333
 40
0.3333333333333333
 40
0.3333333333333333
 40
0.3333333333333333
 40
1.0
 40
1.0
 40
1.0
 40
1.0
 10
12.30579
 20
7.45617
 30
0.0
 10
12.30579
 20
7.45617
 30
0.0
 10
12.40719
 20
6.84778
 30
0.0
 10
12.40719
 20
6.84778
 30
0.0
 10
12.40719
 20
6.84778
 30
0.0
 10
12.40719
 20
6.84778
 30
0.0
 10
12.20439
 20
6.84778
 30
0.0
 10
12.20439
 20
6.84778
 30
0.0
  0
SPLINE
  5
75
330
1F
100
AcDbEntity
  8
layer 2
 62
     1
100
AcDbSpline
210
0.0
220
0.0
230
1.0
 70
    27
 71
     3
 72
    12
 73
     8
 74
     0
 42
0.0000000001
 43
0.0000000001
 12
1.0
 22
0.0
 32
0.0
 13
1.0
 23
0.0
 33
0.0
 40
0.0
 40
0.0
 40
0.0
 40
0.0
 40
0.3333333333333333
 40
0.3333333333333333
 40
0.3333333333333333
 40
0.3333333333333333
 40
1.0
 40
1.0
 40
1.0
 40
1.0
 10
12.20439
 20
-4.29822
 30
0.0
 10
12.20439
 20
-4.29822
 30
0.0
 10
12.30579
 20
-4.90662
 30
0.0
 10
12.30579
 20
-4.90662
 30
0.0
 10
12.30579
 20
-4.90662
 30
0.0
 10
12.30579
 20
-4.90662
 30
0.0
 10
12.20439
 20
-4.29822
 30
0.0
 10
12.20439
 20
-4.29822
 30
0.0
  0
SPLINE
  5
76
330
1F
100
AcDbEntity
  8
layer 2
 62
     1
100
AcDbSpline
210
0.0
220
0.0
230
1.0
 70
     8
 71
     3
 72
    12
 73
     8
 74
     0
 42
0.0000000001
 43
0.0000000001
 12
1.0
 22
0.0
 32
0.0
 13
1.0
 23
0.0
 33
0.0
 40
0.0
 40
0.0
 40
0.0
 40
0.0
 40
0.3333333333333333
 40
0.3333333333333333
 40
0.3333333333333333
 40
0.3333333333333333
 40
1.0
 40
1.0
 40
1.0
 40
1.0
 10
12.30579
 20
-4.90662
 30
0.0
 10
12.30579
 20
-4.90662
 30
0.0
 10
12.40719
 20
-4.29822
 30
0.0
 10
12.40719
 20
-4.29822
 30
0.0
 10
12.40719
 20
-4.29822
 30
0.0
 10
12.40719
 20
-4.29822
 30
0.0
 10
12.20439
 20
-4.29822
 30
0.0
 10
12.20439
 20
-4.29822
 30
0.0
  0
SPLINE
  5
77
330
1F
100
AcDbEntity
  8
layer 2
 62
     1
370
     9
100
AcDbSpline
210
0.0
220
0.0
230
1.0
 70
    24
 71
     3
 72
     8
 73
     4
 74
     0
 42
0.0000000001
 43
0.0000000001
 12
1.0
 22
0.0
 32
0.0
 13
1.0
 23
0.0
 33
0.0
 40
0.0
 40
0.0
 40
0.0
 40
0.0
 40
1.0
 40
1.0
 40
1.0
 40
1.0
 10
12.20439
 20
-4.29822
 30
0.0
 10
12.20439
 20
-4.29822
 30
0.0
 10
12.30579
 20
-4.90662
 30
0.0
 10
12.30579
 20
-4.90662
 30
0.0
  0
SPLINE
  5
78
330
1F
100
AcDbEntity
  8
layer 2
 62
     1
370
     9
100
AcDbSpline
210
0.0
220
0.0
230
1.0
 70
     8
 71
     3
 72
    12
 73
     8
 74
     0
 42
0.0000000001
 43
0.0000000001
 12
1.0
 22
0.0
 32
0.0
 13
1.0
 23
0.0
 33
0.0
 40
0.0
 40
0.0
 40
0.0
 40
0.0
 40
0.3333333333333333
 40
0.3333333333333333
 40
0.3333333333333333
 40
0.3333333333333333
 40
1.0
 40
1.0
 40
1.0
 40
1.0
 10
12.30579
 20
-4.90662
 30
0.0
 10
12.30579
 20
-4.90662
 30
0.0
 10
12.40719
 20
-4.29822
 30
0.0
 10
12.40719
 20
-4.29822
 30
0.0
 10
12.40719
 20
-4.29822
 30
0.0
 10
12.40719
 20
-4.29822
 30
0.0
 10
12.20439
 20
-4.29822
 30
0.0
 10
12.20439
 20
-4.29822
 30
0.0
  0
SPLINE
  5
79
330
1F
100
AcDbEntity
  8
layer 2
 62
     1
100
AcDbSpline
210
0.0
220
0.0
230
1.0
 70
    11
 71
     3
 72
    40
 73
    36
 74
     0
 42
0.0000000001
 43
0.0000000001
 12
1.0
 22
0.0
 32
0.0
 13
1.0
 23
0.0
 33
0.0
 40
0.0
 40
0.0
 40
0.0
 40
0.0
 40
0.1
 40
0.1
 40
0.1
 40
0.1
 40
0.2
 40
0.2
 40
0.2
 40
0.2
 40
0.3
 40
0.3
 40
0.3
 40
0.3
 40
0.4
 40
0.4
 40
0.4
 40
0.4
 40
0.5
 40
0.5
 40
0.5
 40
0.5
 40
0.6
 40
0.6
 40
0.6
 40
0.6
 40
0.7
 40
0.7
 40
0.7
 40
0.7
 40
0.8
 40
0.8
 40
0.8
 40
0.8
 40
1.0
 40
1.0
 40
1.0
 40
1.0
 10
12.0457
 20
2.29842
 30
0.0
 10
12.0457
 20
2.29842
 30
0.0
 10
12.0457
 20
2.24916
 30
0.0
 10
12.0457
 20
2.24916
 30
0.0
 10
12.0457
 20
2.24916
 30
0.0
 10
12.0457
 20
2.24916
 30
0.0
 10
11.73207
 20
2.24916
 30
0.0
 10
11.73207
 20
2.24916
 30
0.0
 10
11.73207
 20
2.24916
 30
0.0
 10
11.74344
 20
2.23732
 30
0.0
 10
11.75473
 20
2.22173
 30
0.0
 10
11.76601
 20
2.20252
 30
0.0
 10
11.76601
 20
2.20252
 30
0.0
 10
11.77731
 20
2.18329
 30
0.0
 10
11.78579
 20
2.16594
 30
0.0
 10
11.79139
 20
2.15064
 30
0.0
 10
11.79139
 20
2.15064
 30
0.0
 10
11.79139
 20
2.15064
 30
0.0
 10
11.74382
 20
2.15064
 30
0.0
 10
11.74382
 20
2.15064
 30
0.0
 10
11.74382
 20
2.15064
 30
0.0
 10
11.73095
 20
2.17817
 30
0.0
 10
11.71527
 20
2.20224
 30
0.0
 10
11.6968
 20
2.22285
 30
0.0
 10
11.6968
 20
2.22285
 30
0.0
 10
11.67842
 20
2.24347
 30
0.0
 10
11.6606
 20
2.25812
 30
0.0
 10
11.64325
 20
2.2667
 30
0.0
 10
11.64325
 20
2.2667
 30
0.0
 10
11.64325
 20
2.2667
 30
0.0
 10
11.64325
 20
2.29842
 30
0.0
 10
11.64325
 20
2.29842
 30
0.0
 10
11.64325
 20
2.29842
 30
0.0
 10
11.64325
 20
2.29842
 30
0.0
 10
12.0457
 20
2.29842
 30
0.0
 10
12.0457
 20
2.29842
 30
0.0
  0
SPLINE
  5
7A
330
1F
100
AcDbEntity
  8
layer 2
 62
     1
100
AcDbSpline
210
0.0
220
0.0
230
1.0
 70
    11
 71
     3
 72
    80
 73
    76
 74
     0
 42
0.0000000001
 43
0.0000000001
 12
1.0
 22
0.0
 32
0.0
 13
1.0
 23
0.0
 33
0.0
 40
0.0
 40
0.0
 40
0.0
 40
0.0
 40
0.05
 40
0.05
 40
0.05
 40
0.05
 40
0.1
 40
0.1
 40
0.1
 40
0.1
 40
0.15
 40
0.15
 40
0.15
 40
0.15
 40
0.2
 40
0.2
 40
0.2
 40
0.2
 40
0.25
 40
0.25
 40
0.25
 40
0.25
 40
0.3
 40
0.3
 40
0.3
 40
0.3
 40
0.35
 40
0.35
 40
0.35
 40
0.35
 40
0.4
 40
0.4
 40
0.4
 40
0.4
 40
0.45
 40
0.45
 40
0.45
 40
0.45
 40
0.5
 40
0.5
 40
0.5
 40
0.5
 40
0.55
 40
0.55
 40
0.55
 40
0.55
 40
0.6
 40
0.6
 40
0.6
 40
0.6
 40
0.65
 40
0.65
 40
0.65
 40
0.65
 40
0.7
 40
0.7
 40
0.7
 40
0.7
 40
0.75
 40
0.75
 40
0.75
 40
0.75
 40
0.8
 40
0.8
 40
0.8
 40
0.8
 40
0.85
 40
0.85
 40
0.85
 40
0.85
 40
0.9
 40
0.9
 40
0.9
 40
0.9
 40
1.0
 40
1.0
 40
1.0
 40
1.0
 10
11.74289
 20
2.68081
 30
0.0
 10
11.74289
 20
2.68081
 30
0.0
 10
11.7468
 20
2.63212
 30
0.0
 10
11.7468
 20
2.63212
 30
0.0
 10
11.7468
 20
2.63212
 30
0.0
 10
11.72749
 20
2.62773
 30
0.0
 10
11.71341
 20
2.62147
 30
0.0
 10
11.70464
 20
2.61336
 30
0.0
 10
11.70464
 20
2.61336
 30
0.0
 10
11.69055
 20
2.60002
 30
0.0
 10
11.68355
 20
2.58351
 30
0.0
 10
11.68355
 20
2.56392
 30
0.0
 10
11.68355
 20
2.56392
 30
0.0
 10
11.68355
 20
2.54816
 30
0.0
 10
11.68793
 20
2.53417
 30
0.0
 10
11.6967
 20
2.52213
 30
0.0
 10
11.6967
 20
2.52213
 30
0.0
 10
11.708
 20
2.50664
 30
0.0
 10
11.72442
 20
2.49451
 30
0.0
 10
11.74606
 20
2.48546
 30
0.0
 10
11.74606
 20
2.48546
 30
0.0
 10
11.76779
 20
2.4765
 30
0.0
 10
11.79866
 20
2.47185
 30
0.0
 10
11.83869
 20
2.47147
 30
0.0
 10
11.83869
 20
2.47147
 30
0.0
 10
11.82068
 20
2.48332
 30
0.0
 10
11.80726
 20
2.49787
 30
0.0
 10
11.79857
 20
2.51504
 30
0.0
 10
11.79857
 20
2.51504
 30
0.0
 10
11.7898
 20
2.5322
 30
0.0
 10
11.78543
 20
2.55011
 30
0.0
 10
11.78543
 20
2.56896
 30
0.0
 10
11.78543
 20
2.56896
 30
0.0
 10
11.78543
 20
2.60179
 30
0.0
 10
11.79756
 20
2.62978
 30
0.0
 10
11.82171
 20
2.65292
 30
0.0
 10
11.82171
 20
2.65292
 30
0.0
 10
11.84587
 20
2.67595
 30
0.0
 10
11.87704
 20
2.68753
 30
0.0
 10
11.91537
 20
2.68753
 30
0.0
 10
11.91537
 20
2.68753
 30
0.0
 10
11.94056
 20
2.68753
 30
0.0
 10
11.96389
 20
2.68212
 30
0.0
 10
11.98553
 20
2.6713
 30
0.0
 10
11.98553
 20
2.6713
 30
0.0
 10
12.00717
 20
2.66038
 30
0.0
 10
12.02368
 20
2.64554
 30
0.0
 10
12.03515
 20
2.62652
 30
0.0
 10
12.03515
 20
2.62652
 30
0.0
 10
12.04663
 20
2.60758
 30
0.0
 10
12.05242
 20
2.58603
 30
0.0
 10
12.05242
 20
2.56196
 30
0.0
 10
12.05242
 20
2.56196
 30
0.0
 10
12.05242
 20
2.52101
 30
0.0
 10
12.0373
 20
2.48751
 30
0.0
 10
12.00717
 20
2.46158
 30
0.0
 10
12.00717
 20
2.46158
 30
0.0
 10
11.97704
 20
2.43574
 30
0.0
 10
11.92731
 20
2.42278
 30
0.0
 10
11.8581
 20
2.42278
 30
0.0
 10
11.8581
 20
2.42278
 30
0.0
 10
11.78067
 20
2.42278
 30
0.0
 10
11.72432
 20
2.43715
 30
0.0
 10
11.68915
 20
2.46578
 30
0.0
 10
11.68915
 20
2.46578
 30
0.0
 10
11.65855
 20
2.49078
 30
0.0
 10
11.64325
 20
2.52447
 30
0.0
 10
11.64325
 20
2.56691
 30
0.0
 10
11.64325
 20
2.56691
 30
0.0
 10
11.64325
 20
2.59844
 30
0.0
 10
11.65211
 20
2.62437
 30
0.0
 10
11.66975
 20
2.64452
 30
0.0
 10
11.66975
 20
2.64452
 30
0.0
 10
11.68737
 20
2.66467
 30
0.0
 10
11.71172
 20
2.6768
 30
0.0
 10
11.74289
 20
2.68081
 30
0.0
  0
SPLINE
  5
7B
330
1F
100
AcDbEntity
  8
layer 2
 62
     1
100
AcDbSpline
210
0.0
220
0.0
230
1.0
 70
    11
 71
     3
 72
    40
 73
    36
 74
     0
 42
0.0000000001
 43
0.0000000001
 12
1.0
 22
0.0
 32
0.0
 13
1.0
 23
0.0
 33
0.0
 40
0.0
 40
0.0
 40
0.0
 40
0.0
 40
0.1
 40
0.1
 40
0.1
 40
0.1
 40
0.2
 40
0.2
 40
0.2
 40
0.2
 40
0.3
 40
0.3
 40
0.3
 40
0.3
 40
0.4
 40
0.4
 40
0.4
 40
0.4
 40
0.5
 40
0.5
 40
0.5
 40
0.5
 40
0.6
 40
0.6
 40
0.6
 40
0.6
 40
0.7
 40
0.7
 40
0.7
 40
0.7
 40
0.8
 40
0.8
 40
0.8
 40
0.8
 40
1.0
 40
1.0
 40
1.0
 40
1.0
 10
11.91584
 20
2.47931
 30
0.0
 10
11.93281
 20
2.47931
 30
0.0
 10
11.94905
 20
2.48295
 30
0.0
 10
11.96453
 20
2.49013
 30
0.0
 10
11.96453
 20
2.49013
 30
0.0
 10
11.98002
 20
2.49731
 30
0.0
 10
11.99177
 20
2.50739
 30
0.0
 10
11.9999
 20
2.52016
 30
0.0
 10
11.9999
 20
2.52016
 30
0.0
 10
12.00801
 20
2.53305
 30
0.0
 10
12.01212
 20
2.54666
 30
0.0
 10
12.01212
 20
2.56112
 30
0.0
 10
12.01212
 20
2.56112
 30
0.0
 10
12.01212
 20
2.58212
 30
0.0
 10
12.00371
 20
2.60002
 30
0.0
 10
11.98693
 20
2.61486
 30
0.0
 10
11.98693
 20
2.61486
 30
0.0
 10
11.97013
 20
2.62969
 30
0.0
 10
11.94737
 20
2.63715
 30
0.0
 10
11.91854
 20
2.63715
 30
0.0
 10
11.91854
 20
2.63715
 30
0.0
 10
11.89084
 20
2.63715
 30
0.0
 10
11.86901
 20
2.62978
 30
0.0
 10
11.85305
 20
2.61513
 30
0.0
 10
11.85305
 20
2.61513
 30
0.0
 10
11.8371
 20
2.60049
 30
0.0
 10
11.82909
 20
2.58183
 30
0.0
 10
11.82909
 20
2.55917
 30
0.0
 10
11.82909
 20
2.55917
 30
0.0
 10
11.82909
 20
2.53696
 30
0.0
 10
11.8371
 20
2.51802
 30
0.0
 10
11.85305
 20
2.50254
 30
0.0
 10
11.85305
 20
2.50254
 30
0.0
 10
11.86901
 20
2.48705
 30
0.0
 10
11.88991
 20
2.47931
 30
0.0
 10
11.91584
 20
2.47931
 30
0.0
  0
SPLINE
  5
7C
330
1F
100
AcDbEntity
  8
layer 2
 62
     1
100
AcDbSpline
210
0.0
220
0.0
230
1.0
 70
    11
 71
     3
 72
    28
 73
    24
 74
     0
 42
0.0000000001
 43
0.0000000001
 12
1.0
 22
0.0
 32
0.0
 13
1.0
 23
0.0
 33
0.0
 40
0.0
 40
0.0
 40
0.0
 40
0.0
 40
0.1428571428571428
 40
0.1428571428571428
 40
0.1428571428571428
 40
0.1428571428571428
 40
0.2857142857142857
 40
0.2857142857142857
 40
0.2857142857142857
 40
0.2857142857142857
 40
0.4285714285714285
 40
0.4285714285714285
 40
0.4285714285714285
 40
0.4285714285714285
 40
0.5714285714285714
 40
0.5714285714285714
 40
0.5714285714285714
 40
0.5714285714285714
 40
0.7142857142857143
 40
0.7142857142857143
 40
0.7142857142857143
 40
0.7142857142857143
 40
1.0
 40
1.0
 40
1.0
 40
1.0
 10
11.78655
 20
2.75217
 30
0.0
 10
11.78655
 20
2.75217
 30
0.0
 10
11.71041
 20
2.73856
 30
0.0
 10
11.71041
 20
2.73856
 30
0.0
 10
11.71041
 20
2.73856
 30
0.0
 10
11.71041
 20
2.73856
 30
0.0
 10
11.64494
 20
2.73856
 30
0.0
 10
11.64494
 20
2.73856
 30
0.0
 10
11.64494
 20
2.73856
 30
0.0
 10
11.64494
 20
2.73856
 30
0.0
 10
11.64494
 20
2.79454
 30
0.0
 10
11.64494
 20
2.79454
 30
0.0
 10
11.64494
 20
2.79454
 30
0.0
 10
11.64494
 20
2.79454
 30
0.0
 10
11.71041
 20
2.79454
 30
0.0
 10
11.71041
 20
2.79454
 30
0.0
 10
11.71041
 20
2.79454
 30
0.0
 10
11.71041
 20
2.79454
 30
0.0
 10
11.78655
 20
2.78222
 30
0.0
 10
11.78655
 20
2.78222
 30
0.0
 10
11.78655
 20
2.78222
 30
0.0
 10
11.78655
 20
2.78222
 30
0.0
 10
11.78655
 20
2.75217
 30
0.0
 10
11.78655
 20
2.75217
 30
0.0
  0
SPLINE
  5
7D
330
1F
100
AcDbEntity
  8
layer 2
 62
     1
100
AcDbSpline
210
0.0
220
0.0
230
1.0
 70
    11
 71
     3
 72
    28
 73
    24
 74
     0
 42
0.0000000001
 43
0.0000000001
 12
1.0
 22
0.0
 32
0.0
 13
1.0
 23
0.0
 33
0.0
 40
0.0
 40
0.0
 40
0.0
 40
0.0
 40
0.1428571428571428
 40
0.1428571428571428
 40
0.1428571428571428
 40
0.1428571428571428
 40
0.2857142857142857
 40
0.2857142857142857
 40
0.2857142857142857
 40
0.2857142857142857
 40
0.4285714285714285
 40
0.4285714285714285
 40
0.4285714285714285
 40
0.4285714285714285
 40
0.5714285714285714
 40
0.5714285714285714
 40
0.5714285714285714
 40
0.5714285714285714
 40
0.7142857142857143
 40
0.7142857142857143
 40
0.7142857142857143
 40
0.7142857142857143
 40
1.0
 40
1.0
 40
1.0
 40
1.0
 10
11.78655
 20
2.84258
 30
0.0
 10
11.78655
 20
2.84258
 30
0.0
 10
11.71041
 20
2.82924
 30
0.0
 10
11.71041
 20
2.82924
 30
0.0
 10
11.71041
 20
2.82924
 30
0.0
 10
11.71041
 20
2.82924
 30
0.0
 10
11.64494
 20
2.82924
 30
0.0
 10
11.64494
 20
2.82924
 30
0.0
 10
11.64494
 20
2.82924
 30
0.0
 10
11.64494
 20
2.82924
 30
0.0
 10
11.64494
 20
2.8852
 30
0.0
 10
11.64494
 20
2.8852
 30
0.0
 10
11.64494
 20
2.8852
 30
0.0
 10
11.64494
 20
2.8852
 30
0.0
 10
11.71041
 20
2.8852
 30
0.0
 10
11.71041
 20
2.8852
 30
0.0
 10
11.71041
 20
2.8852
 30
0.0
 10
11.71041
 20
2.8852
 30
0.0
 10
11.78655
 20
2.87206
 30
0.0
 10
11.78655
 20
2.87206
 30
0.0
 10
11.78655
 20
2.87206
 30
0.0
 10
11.78655
 20
2.87206
 30
0.0
 10
11.78655
 20
2.84258
 30
0.0
 10
11.78655
 20
2.84258
 30
0.0
  0
SPLINE
  5
7E
330
1F
100
AcDbEntity
  8
layer 2
 62
     1
370
     0
100
AcDbSpline
210
0.0
220
0.0
230
1.0
 70
    24
 71
     3
 72
     8
 73
     4
 74
     0
 42
0.0000000001
 43
0.0000000001
 12
1.0
 22
0.0
 32
0.0
 13
1.0
 23
0.0
 33
0.0
 40
0.0
 40
0.0
 40
0.0
 40
0.0
 40
1.0
 40
1.0
 40
1.0
 40
1.0
 10
-12.51918
 20
-6.15015
 30
0.0
 10
-12.51918
 20
-6.15015
 30
0.0
 10
-10.80175
 20
-4.92684
 30
0.0
 10
-10.80175
 20
-4.92684
 30
0.0
  0
SPLINE
  5
7F
330
1F
100
AcDbEntity
  8
layer 2
 62
     1
100
AcDbSpline
210
0.0
220
0.0
230
1.0
 70
    11
 71
     3
 72
    80
 73
    76
 74
     0
 42
0.0000000001
 43
0.0000000001
 12
1.0
 22
0.0
 32
0.0
 13
1.0
 23
0.0
 33
0.0
 40
0.0
 40
0.0
 40
0.0
 40
0.0
 40
0.05
 40
0.05
 40
0.05
 40
0.05
 40
0.1
 40
0.1
 40
0.1
 40
0.1
 40
0.15
 40
0.15
 40
0.15
 40
0.15
 40
0.2
 40
0.2
 40
0.2
 40
0.2
 40
0.25
 40
0.25
 40
0.25
 40
0.25
 40
0.3
 40
0.3
 40
0.3
 40
0.3
 40
0.35
 40
0.35
 40
0.35
 40
0.35
 40
0.4
 40
0.4
 40
0.4
 40
0.4
 40
0.45
 40
0.45
 40
0.45
 40
0.45
 40
0.5
 40
0.5
 40
0.5
 40
0.5
 40
0.55
 40
0.55
 40
0.55
 40
0.55
 40
0.6
 40
0.6
 40
0.6
 40
0.6
 40
0.65
 40
0.65
 40
0.65
 40
0.65
 40
0.7
 40
0.7
 40
0.7
 40
0.7
 40
0.75
 40
0.75
 40
0.75
 40
0.75
 40
0.8
 40
0.8
 40
0.8
 40
0.8
 40
0.85
 40
0.85
 40
0.85
 40
0.85
 40
0.9
 40
0.9
 40
0.9
 40
0.9
 40
1.0
 40
1.0
 40
1.0
 40
1.0
 10
-12.31125
 20
-4.87964
 30
0.0
 10
-12.31125
 20
-4.87964
 30
0.0
 10
-12.54377
 20
-4.55321
 30
0.0
 10
-12.54377
 20
-4.55321
 30
0.0
 10
-12.54377
 20
-4.55321
 30
0.0
 10
-12.54377
 20
-4.55321
 30
0.0
 10
-12.3991
 20
-4.45016
 30
0.0
 10
-12.3991
 20
-4.45016
 30
0.0
 10
-12.3991
 20
-4.45016
 30
0.0
 10
-12.36999
 20
-4.42942
 30
0.0
 10
-12.34578
 20
-4.41664
 30
0.0
 10
-12.32648
 20
-4.41172
 30
0.0
 10
-12.32648
 20
-4.41172
 30
0.0
 10
-12.30719
 20
-4.40681
 30
0.0
 10
-12.28776
 20
-4.40853
 30
0.0
 10
-12.26816
 20
-4.4169
 30
0.0
 10
-12.26816
 20
-4.4169
 30
0.0
 10
-12.24857
 20
-4.42528
 30
0.0
 10
-12.23239
 20
-4.4385
 30
0.0
 10
-12.21961
 20
-4.45643
 30
0.0
 10
-12.21961
 20
-4.45643
 30
0.0
 10
-12.20311
 20
-4.47961
 30
0.0
 10
-12.19672
 20
-4.50449
 30
0.0
 10
-12.20037
 20
-4.53104
 30
0.0
 10
-12.20037
 20
-4.53104
 30
0.0
 10
-12.20404
 20
-4.55758
 30
0.0
 10
-12.21999
 20
-4.58407
 30
0.0
 10
-12.24822
 20
-4.61069
 30
0.0
 10
-12.24822
 20
-4.61069
 30
0.0
 10
-12.23283
 20
-4.60799
 30
0.0
 10
-12.22029
 20
-4.60729
 30
0.0
 10
-12.21056
 20
-4.60839
 30
0.0
 10
-12.21056
 20
-4.60839
 30
0.0
 10
-12.18973
 20
-4.61096
 30
0.0
 10
-12.16747
 20
-4.61697
 30
0.0
 10
-12.1439
 20
-4.62642
 30
0.0
 10
-12.1439
 20
-4.62642
 30
0.0
 10
-12.1439
 20
-4.62642
 30
0.0
 10
-12.02411
 20
-4.67511
 30
0.0
 10
-12.02411
 20
-4.67511
 30
0.0
 10
-12.02411
 20
-4.67511
 30
0.0
 10
-12.02411
 20
-4.67511
 30
0.0
 10
-12.07807
 20
-4.71354
 30
0.0
 10
-12.07807
 20
-4.71354
 30
0.0
 10
-12.07807
 20
-4.71354
 30
0.0
 10
-12.07807
 20
-4.71354
 30
0.0
 10
-12.16961
 20
-4.67634
 30
0.0
 10
-12.16961
 20
-4.67634
 30
0.0
 10
-12.16961
 20
-4.67634
 30
0.0
 10
-12.19616
 20
-4.6656
 30
0.0
 10
-12.21724
 20
-4.65804
 30
0.0
 10
-12.23278
 20
-4.65341
 30
0.0
 10
-12.23278
 20
-4.65341
 30
0.0
 10
-12.2484
 20
-4.64885
 30
0.0
 10
-12.26084
 20
-4.64683
 30
0.0
 10
-12.27028
 20
-4.64725
 30
0.0
 10
-12.27028
 20
-4.64725
 30
0.0
 10
-12.27958
 20
-4.64769
 30
0.0
 10
-12.28825
 20
-4.64952
 30
0.0
 10
-12.29613
 20
-4.65261
 30
0.0
 10
-12.29613
 20
-4.65261
 30
0.0
 10
-12.30168
 20
-4.65509
 30
0.0
 10
-12.31005
 20
-4.66024
 30
0.0
 10
-12.32122
 20
-4.66819
 30
0.0
 10
-12.32122
 20
-4.66819
 30
0.0
 10
-12.32122
 20
-4.66819
 30
0.0
 10
-12.37121
 20
-4.70381
 30
0.0
 10
-12.37121
 20
-4.70381
 30
0.0
 10
-12.37121
 20
-4.70381
 30
0.0
 10
-12.37121
 20
-4.70381
 30
0.0
 10
-12.26794
 20
-4.84878
 30
0.0
 10
-12.26794
 20
-4.84878
 30
0.0
 10
-12.26794
 20
-4.84878
 30
0.0
 10
-12.26794
 20
-4.84878
 30
0.0
 10
-12.31125
 20
-4.87964
 30
0.0
 10
-12.31125
 20
-4.87964
 30
0.0
  0
SPLINE
  5
80
330
1F
100
AcDbEntity
  8
layer 2
 62
     1
100
AcDbSpline
210
0.0
220
0.0
230
1.0
 70
    11
 71
     3
 72
    36
 73
    32
 74
     0
 42
0.0000000001
 43
0.0000000001
 12
1.0
 22
0.0
 32
0.0
 13
1.0
 23
0.0
 33
0.0
 40
0.0
 40
0.0
 40
0.0
 40
0.0
 40
0.1111111111111111
 40
0.1111111111111111
 40
0.1111111111111111
 40
0.1111111111111111
 40
0.2222222222222222
 40
0.2222222222222222
 40
0.2222222222222222
 40
0.2222222222222222
 40
0.3333333333333333
 40
0.3333333333333333
 40
0.3333333333333333
 40
0.3333333333333333
 40
0.4444444444444444
 40
0.4444444444444444
 40
0.4444444444444444
 40
0.4444444444444444
 40
0.5555555555555556
 40
0.5555555555555556
 40
0.5555555555555556
 40
0.5555555555555556
 40
0.6666666666666666
 40
0.6666666666666666
 40
0.6666666666666666
 40
0.6666666666666666
 40
0.7777777777777778
 40
0.7777777777777778
 40
0.7777777777777778
 40
0.7777777777777778
 40
1.0
 40
1.0
 40
1.0
 40
1.0
 10
-12.39784
 20
-4.66642
 30
0.0
 10
-12.39784
 20
-4.66642
 30
0.0
 10
-12.30514
 20
-4.60039
 30
0.0
 10
-12.30514
 20
-4.60039
 30
0.0
 10
-12.30514
 20
-4.60039
 30
0.0
 10
-12.28539
 20
-4.58632
 30
0.0
 10
-12.2715
 20
-4.57334
 30
0.0
 10
-12.26333
 20
-4.56133
 30
0.0
 10
-12.26333
 20
-4.56133
 30
0.0
 10
-12.25511
 20
-4.5494
 30
0.0
 10
-12.25132
 20
-4.53686
 30
0.0
 10
-12.25206
 20
-4.52376
 30
0.0
 10
-12.25206
 20
-4.52376
 30
0.0
 10
-12.25268
 20
-4.51068
 30
0.0
 10
-12.25672
 20
-4.49889
 30
0.0
 10
-12.26424
 20
-4.48833
 30
0.0
 10
-12.26424
 20
-4.48833
 30
0.0
 10
-12.27523
 20
-4.47291
 30
0.0
 10
-12.28987
 20
-4.4641
 30
0.0
 10
-12.30812
 20
-4.4621
 30
0.0
 10
-12.30812
 20
-4.4621
 30
0.0
 10
-12.32639
 20
-4.4601
 30
0.0
 10
-12.34753
 20
-4.46771
 30
0.0
 10
-12.37161
 20
-4.48487
 30
0.0
 10
-12.37161
 20
-4.48487
 30
0.0
 10
-12.37161
 20
-4.48487
 30
0.0
 10
-12.4748
 20
-4.55838
 30
0.0
 10
-12.4748
 20
-4.55838
 30
0.0
 10
-12.4748
 20
-4.55838
 30
0.0
 10
-12.4748
 20
-4.55838
 30
0.0
 10
-12.39784
 20
-4.66642
 30
0.0
 10
-12.39784
 20
-4.66642
 30
0.0
  0
SPLINE
  5
81
330
1F
100
AcDbEntity
  8
layer 2
 62
     1
100
AcDbSpline
210
0.0
220
0.0
230
1.0
 70
    11
 71
     3
 72
    40
 73
    36
 74
     0
 42
0.0000000001
 43
0.0000000001
 12
1.0
 22
0.0
 32
0.0
 13
1.0
 23
0.0
 33
0.0
 40
0.0
 40
0.0
 40
0.0
 40
0.0
 40
0.1
 40
0.1
 40
0.1
 40
0.1
 40
0.2
 40
0.2
 40
0.2
 40
0.2
 40
0.3
 40
0.3
 40
0.3
 40
0.3
 40
0.4
 40
0.4
 40
0.4
 40
0.4
 40
0.5
 40
0.5
 40
0.5
 40
0.5
 40
0.6
 40
0.6
 40
0.6
 40
0.6
 40
0.7
 40
0.7
 40
0.7
 40
0.7
 40
0.8
 40
0.8
 40
0.8
 40
0.8
 40
1.0
 40
1.0
 40
1.0
 40
1.0
 10
-11.84843
 20
-4.54997
 30
0.0
 10
-11.84843
 20
-4.54997
 30
0.0
 10
-11.88856
 20
-4.57855
 30
0.0
 10
-11.88856
 20
-4.57855
 30
0.0
 10
-11.88856
 20
-4.57855
 30
0.0
 10
-11.88856
 20
-4.57855
 30
0.0
 10
-12.07053
 20
-4.32309
 30
0.0
 10
-12.07053
 20
-4.32309
 30
0.0
 10
-12.07053
 20
-4.32309
 30
0.0
 10
-12.07356
 20
-4.33924
 30
0.0
 10
-12.07971
 20
-4.35747
 30
0.0
 10
-12.08881
 20
-4.3778
 30
0.0
 10
-12.08881
 20
-4.3778
 30
0.0
 10
-12.09791
 20
-4.39815
 30
0.0
 10
-12.10713
 20
-4.41513
 30
0.0
 10
-12.11634
 20
-4.42857
 30
0.0
 10
-12.11634
 20
-4.42857
 30
0.0
 10
-12.11634
 20
-4.42857
 30
0.0
 10
-12.14394
 20
-4.38982
 30
0.0
 10
-12.14394
 20
-4.38982
 30
0.0
 10
-12.14394
 20
-4.38982
 30
0.0
 10
-12.12899
 20
-4.36336
 30
0.0
 10
-12.11848
 20
-4.33664
 30
0.0
 10
-12.11241
 20
-4.30964
 30
0.0
 10
-12.11241
 20
-4.30964
 30
0.0
 10
-12.10628
 20
-4.2827
 30
0.0
 10
-12.10469
 20
-4.25969
 30
0.0
 10
-12.10776
 20
-4.24057
 30
0.0
 10
-12.10776
 20
-4.24057
 30
0.0
 10
-12.10776
 20
-4.24057
 30
0.0
 10
-12.08193
 20
-4.22218
 30
0.0
 10
-12.08193
 20
-4.22218
 30
0.0
 10
-12.08193
 20
-4.22218
 30
0.0
 10
-12.08193
 20
-4.22218
 30
0.0
 10
-11.84843
 20
-4.54997
 30
0.0
 10
-11.84843
 20
-4.54997
 30
0.0
  0
SPLINE
  5
82
330
1F
100
AcDbEntity
  8
layer 2
 62
     1
100
AcDbSpline
210
0.0
220
0.0
230
1.0
 70
    11
 71
     3
 72
    92
 73
    88
 74
     0
 42
0.0000000001
 43
0.0000000001
 12
1.0
 22
0.0
 32
0.0
 13
1.0
 23
0.0
 33
0.0
 40
0.0
 40
0.0
 40
0.0
 40
0.0
 40
0.0434782608695652
 40
0.0434782608695652
 40
0.0434782608695652
 40
0.0434782608695652
 40
0.0869565217391304
 40
0.0869565217391304
 40
0.0869565217391304
 40
0.0869565217391304
 40
0.1304347826086956
 40
0.1304347826086956
 40
0.1304347826086956
 40
0.1304347826086956
 40
0.1739130434782609
 40
0.1739130434782609
 40
0.1739130434782609
 40
0.1739130434782609
 40
0.2173913043478261
 40
0.2173913043478261
 40
0.2173913043478261
 40
0.2173913043478261
 40
0.2608695652173913
 40
0.2608695652173913
 40
0.2608695652173913
 40
0.2608695652173913
 40
0.3043478260869565
 40
0.3043478260869565
 40
0.3043478260869565
 40
0.3043478260869565
 40
0.3478260869565217
 40
0.3478260869565217
 40
0.3478260869565217
 40
0.3478260869565217
 40
0.391304347826087
 40
0.391304347826087
 40
0.391304347826087
 40
0.391304347826087
 40
0.4347826086956522
 40
0.4347826086956522
 40
0.4347826086956522
 40
0.4347826086956522
 40
0.4782608695652174
 40
0.4782608695652174
 40
0.4782608695652174
 40
0.4782608695652174
 40
0.5217391304347826
 40
0.5217391304347826
 40
0.5217391304347826
 40
0.5217391304347826
 40
0.5652173913043478
 40
0.5652173913043478
 40
0.5652173913043478
 40
0.5652173913043478
 40
0.6086956521739131
 40
0.6086956521739131
 40
0.6086956521739131
 40
0.6086956521739131
 40
0.6521739130434783
 40
0.6521739130434783
 40
0.6521739130434783
 40
0.6521739130434783
 40
0.6956521739130435
 40
0.6956521739130435
 40
0.6956521739130435
 40
0.6956521739130435
 40
0.7391304347826086
 40
0.7391304347826086
 40
0.7391304347826086
 40
0.7391304347826086
 40
0.782608695652174
 40
0.782608695652174
 40
0.782608695652174
 40
0.782608695652174
 40
0.8260869565217391
 40
0.8260869565217391
 40
0.8260869565217391
 40
0.8260869565217391
 40
0.8695652173913043
 40
0.8695652173913043
 40
0.8695652173913043
 40
0.8695652173913043
 40
0.9130434782608695
 40
0.9130434782608695
 40
0.9130434782608695
 40
0.9130434782608695
 40
1.0
 40
1.0
 40
1.0
 40
1.0
 10
-11.80638
 20
-4.39082
 30
0.0
 10
-11.80638
 20
-4.39082
 30
0.0
 10
-11.76671
 20
-4.35775
 30
0.0
 10
-11.76671
 20
-4.35775
 30
0.0
 10
-11.76671
 20
-4.35775
 30
0.0
 10
-11.74904
 20
-4.37597
 30
0.0
 10
-11.73088
 20
-4.38618
 30
0.0
 10
-11.71227
 20
-4.3885
 30
0.0
 10
-11.71227
 20
-4.3885
 30
0.0
 10
-11.69372
 20
-4.39075
 30
0.0
 10
-11.67629
 20
-4.38611
 30
0.0
 10
-11.66011
 20
-4.37459
 30
0.0
 10
-11.66011
 20
-4.37459
 30
0.0
 10
-11.64058
 20
-4.36068
 30
0.0
 10
-11.62945
 20
-4.34175
 30
0.0
 10
-11.62648
 20
-4.31776
 30
0.0
 10
-11.62648
 20
-4.31776
 30
0.0
 10
-11.62366
 20
-4.29376
 30
0.0
 10
-11.63079
 20
-4.26974
 30
0.0
 10
-11.64789
 20
-4.24574
 30
0.0
 10
-11.64789
 20
-4.24574
 30
0.0
 10
-11.66419
 20
-4.22287
 30
0.0
 10
-11.68332
 20
-4.20935
 30
0.0
 10
-11.70542
 20
-4.20517
 30
0.0
 10
-11.70542
 20
-4.20517
 30
0.0
 10
-11.72753
 20
-4.20099
 30
0.0
 10
-11.74903
 20
-4.20633
 30
0.0
 10
-11.76992
 20
-4.22123
 30
0.0
 10
-11.76992
 20
-4.22123
 30
0.0
 10
-11.78292
 20
-4.23048
 30
0.0
 10
-11.79243
 20
-4.24172
 30
0.0
 10
-11.79854
 20
-4.25501
 30
0.0
 10
-11.79854
 20
-4.25501
 30
0.0
 10
-11.80459
 20
-4.26825
 30
0.0
 10
-11.80718
 20
-4.28166
 30
0.0
 10
-11.80638
 20
-4.2953
 30
0.0
 10
-11.80638
 20
-4.2953
 30
0.0
 10
-11.80638
 20
-4.2953
 30
0.0
 10
-11.84812
 20
-4.31678
 30
0.0
 10
-11.84812
 20
-4.31678
 30
0.0
 10
-11.84812
 20
-4.31678
 30
0.0
 10
-11.84812
 20
-4.31678
 30
0.0
 10
-11.93617
 20
-4.12659
 30
0.0
 10
-11.93617
 20
-4.12659
 30
0.0
 10
-11.93617
 20
-4.12659
 30
0.0
 10
-11.93617
 20
-4.12659
 30
0.0
 10
-11.77432
 20
-4.01132
 30
0.0
 10
-11.77432
 20
-4.01132
 30
0.0
 10
-11.77432
 20
-4.01132
 30
0.0
 10
-11.77432
 20
-4.01132
 30
0.0
 10
-11.74704
 20
-4.04961
 30
0.0
 10
-11.74704
 20
-4.04961
 30
0.0
 10
-11.74704
 20
-4.04961
 30
0.0
 10
-11.74704
 20
-4.04961
 30
0.0
 10
-11.8769
 20
-4.14211
 30
0.0
 10
-11.8769
 20
-4.14211
 30
0.0
 10
-11.8769
 20
-4.14211
 30
0.0
 10
-11.8769
 20
-4.14211
 30
0.0
 10
-11.83157
 20
-4.24257
 30
0.0
 10
-11.83157
 20
-4.24257
 30
0.0
 10
-11.83157
 20
-4.24257
 30
0.0
 10
-11.82184
 20
-4.21491
 30
0.0
 10
-11.8062
 20
-4.19346
 30
0.0
 10
-11.78477
 20
-4.17819
 30
0.0
 10
-11.78477
 20
-4.17819
 30
0.0
 10
-11.75635
 20
-4.15795
 30
0.0
 10
-11.72531
 20
-4.15073
 30
0.0
 10
-11.69171
 20
-4.15657
 30
0.0
 10
-11.69171
 20
-4.15657
 30
0.0
 10
-11.6581
 20
-4.16241
 30
0.0
 10
-11.63023
 20
-4.18082
 30
0.0
 10
-11.60814
 20
-4.21182
 30
0.0
 10
-11.60814
 20
-4.21182
 30
0.0
 10
-11.58709
 20
-4.24137
 30
0.0
 10
-11.57749
 20
-4.27302
 30
0.0
 10
-11.57935
 20
-4.30675
 30
0.0
 10
-11.57935
 20
-4.30675
 30
0.0
 10
-11.58141
 20
-4.34808
 30
0.0
 10
-11.60056
 20
-4.38165
 30
0.0
 10
-11.63673
 20
-4.40742
 30
0.0
 10
-11.63673
 20
-4.40742
 30
0.0
 10
-11.66636
 20
-4.42852
 30
0.0
 10
-11.69647
 20
-4.43738
 30
0.0
 10
-11.7271
 20
-4.4341
 30
0.0
 10
-11.7271
 20
-4.4341
 30
0.0
 10
-11.75771
 20
-4.43084
 30
0.0
 10
-11.78413
 20
-4.41643
 30
0.0
 10
-11.80638
 20
-4.39082
 30
0.0
  0
SPLINE
  5
83
330
1F
100
AcDbEntity
  8
layer 2
 62
     1
370
     0
100
AcDbSpline
210
0.0
220
0.0
230
1.0
 70
    24
 71
     3
 72
     8
 73
     4
 74
     0
 42
0.0000000001
 43
0.0000000001
 12
1.0
 22
0.0
 32
0.0
 13
1.0
 23
0.0
 33
0.0
 40
0.0
 40
0.0
 40
0.0
 40
0.0
 40
1.0
 40
1.0
 40
1.0
 40
1.0
 10
-10.13276
 20
-4.45032
 30
0.0
 10
-10.13276
 20
-4.45032
 30
0.0
 10
-10.50443
 20
-4.71505
 30
0.0
 10
-10.50443
 20
-4.71505
 30
0.0
  0
SPLINE
  5
84
330
1F
100
AcDbEntity
  8
layer 2
 62
     1
100
AcDbSpline
210
0.0
220
0.0
230
1.0
 70
    27
 71
     3
 72
    12
 73
     8
 74
     0
 42
0.0000000001
 43
0.0000000001
 12
1.0
 22
0.0
 32
0.0
 13
1.0
 23
0.0
 33
0.0
 40
0.0
 40
0.0
 40
0.0
 40
0.0
 40
0.3333333333333333
 40
0.3333333333333333
 40
0.3333333333333333
 40
0.3333333333333333
 40
1.0
 40
1.0
 40
1.0
 40
1.0
 10
-10.83706
 20
-4.87729
 30
0.0
 10
-10.83706
 20
-4.87729
 30
0.0
 10
-10.50443
 20
-4.71505
 30
0.0
 10
-10.50443
 20
-4.71505
 30
0.0
 10
-10.50443
 20
-4.71505
 30
0.0
 10
-10.50443
 20
-4.71505
 30
0.0
 10
-10.83706
 20
-4.87729
 30
0.0
 10
-10.83706
 20
-4.87729
 30
0.0
  0
SPLINE
  5
85
330
1F
100
AcDbEntity
  8
layer 2
 62
     1
100
AcDbSpline
210
0.0
220
0.0
230
1.0
 70
     8
 71
     3
 72
    12
 73
     8
 74
     0
 42
0.0000000001
 43
0.0000000001
 12
1.0
 22
0.0
 32
0.0
 13
1.0
 23
0.0
 33
0.0
 40
0.0
 40
0.0
 40
0.0
 40
0.0
 40
0.3333333333333333
 40
0.3333333333333333
 40
0.3333333333333333
 40
0.3333333333333333
 40
1.0
 40
1.0
 40
1.0
 40
1.0
 10
-10.50443
 20
-4.71505
 30
0.0
 10
-10.50443
 20
-4.71505
 30
0.0
 10
-10.76646
 20
-4.97639
 30
0.0
 10
-10.76646
 20
-4.97639
 30
0.0
 10
-10.76646
 20
-4.97639
 30
0.0
 10
-10.76646
 20
-4.97639
 30
0.0
 10
-10.83706
 20
-4.87729
 30
0.0
 10
-10.83706
 20
-4.87729
 30
0.0
  0
SPLINE
  5
86
330
1F
100
AcDbEntity
  8
layer 2
 62
     1
370
     9
100
AcDbSpline
210
0.0
220
0.0
230
1.0
 70
    24
 71
     3
 72
     8
 73
     4
 74
     0
 42
0.0000000001
 43
0.0000000001
 12
1.0
 22
0.0
 32
0.0
 13
1.0
 23
0.0
 33
0.0
 40
0.0
 40
0.0
 40
0.0
 40
0.0
 40
1.0
 40
1.0
 40
1.0
 40
1.0
 10
-10.83706
 20
-4.87729
 30
0.0
 10
-10.83706
 20
-4.87729
 30
0.0
 10
-10.50443
 20
-4.71505
 30
0.0
 10
-10.50443
 20
-4.71505
 30
0.0
  0
SPLINE
  5
87
330
1F
100
AcDbEntity
  8
layer 2
 62
     1
370
     9
100
AcDbSpline
210
0.0
220
0.0
230
1.0
 70
     8
 71
     3
 72
    12
 73
     8
 74
     0
 42
0.0000000001
 43
0.0000000001
 12
1.0
 22
0.0
 32
0.0
 13
1.0
 23
0.0
 33
0.0
 40
0.0
 40
0.0
 40
0.0
 40
0.0
 40
0.3333333333333333
 40
0.3333333333333333
 40
0.3333333333333333
 40
0.3333333333333333
 40
1.0
 40
1.0
 40
1.0
 40
1.0
 10
-10.50443
 20
-4.71505
 30
0.0
 10
-10.50443
 20
-4.71505
 30
0.0
 10
-10.76646
 20
-4.97639
 30
0.0
 10
-10.76646
 20
-4.97639
 30
0.0
 10
-10.76646
 20
-4.97639
 30
0.0
 10
-10.76646
 20
-4.97639
 30
0.0
 10
-10.83706
 20
-4.87729
 30
0.0
 10
-10.83706
 20
-4.87729
 30
0.0
  0
ENDSEC
  0
SECTION
  2
OBJECTS
  0
DICTIONARY
  5
C
330
0
100
AcDbDictionary
281
     1
  3
ACAD_GROUP
350
D
  3
ACAD_LAYOUT
350
1A
  3
ACAD_MATERIAL
350
3B
  3
ACAD_MLEADERSTYLE
350
A9
  3
ACAD_MLINESTYLE
350
17
  3
ACAD_PLOTSETTINGS
350
19
  3
ACAD_PLOTSTYLENAME
350
E
  3
ACAD_TABLESTYLE
350
A8
  3
ACAD_VISUALSTYLE
350
2A
  0
DICTIONARY
  5
D
102
{ACAD_REACTORS
330
C
102
}
330
C
100
AcDbDictionary
281
     1
  0
DICTIONARY
  5
1A
102
{ACAD_REACTORS
330
C
102
}
330
C
100
AcDbDictionary
281
     1
  3
Layout1
350
1E
  3
Layout2
350
26
  3
Model
350
22
  0
DICTIONARY
  5
3B
102
{ACAD_REACTORS
330
C
102
}
330
C
100
AcDbDictionary
281
     1
  3
ByBlock
350
3D
  3
ByLayer
350
3C
  3
Global
350
3E
  0
DICTIONARY
  5
A9
102
{ACAD_REACTORS
330
C
102
}
330
C
100
AcDbDictionary
281
     1
  0
DICTIONARY
  5
17
102
{ACAD_REACTORS
330
C
102
}
330
C
100
AcDbDictionary
281
     1
  3
Standard
350
18
  0
DICTIONARY
  5
19
102
{ACAD_REACTORS
330
C
102
}
330
C
100
AcDbDictionary
281
     1
  0
ACDBDICTIONARYWDFLT
  5
E
102
{ACAD_REACTORS
330
C
102
}
330
C
100
AcDbDictionary
281
     1
  3
Normal
350
F
100
AcDbDictionaryWithDefault
340
F
  0
DICTIONARY
  5
A8
102
{ACAD_REACTORS
330
C
102
}
330
C
100
AcDbDictionary
281
     1
  0
DICTIONARY
  5
2A
102
{ACAD_REACTORS
330
C
102
}
330
C
100
AcDbDictionary
281
     1
  3
2dWireframe
350
2F
  3
3D Hidden
350
31
  3
3dWireframe
350
30
  3
Basic
350
32
  3
Brighten
350
36
  3
ColorChange
350
3A
  3
Conceptual
350
34
  3
Dim
350
35
  3
Facepattern
350
39
  3
Flat
350
2B
  3
FlatWithEdges
350
2C
  3
Gouraud
350
2D
  3
GouraudWithEdges
350
2E
  3
Linepattern
350
38
  3
Realistic
350
33
  3
Thicken
350
37
  0
LAYOUT
  5
1E
102
{ACAD_REACTORS
330
1A
102
}
330
1A
100
AcDbPlotSettings
  1

  2
none_device
  4

  6

 40
0.0
 41
0.0
 42
0.0
 43
0.0
 44
0.0
 45
0.0
 46
0.0
 47
0.0
 48
0.0
 49
0.0
140
0.0
141
0.0
142
1.0
143
1.0
 70
   688
 72
     0
 73
     0
 74
     5
  7

 75
    16
 76
     0
 77
     2
 78
   300
147
1.0
148
0.0
149
0.0
100
AcDbLayout
  1
Layout1
 70
     1
 71
     1
 10
0.0
 20
0.0
 11
12.0
 21
9.0
 12
0.0
 22
0.0
 32
0.0
 14
1.000000000000000E+20
 24
1.000000000000000E+20
 34
1.000000000000000E+20
 15
-1.000000000000000E+20
 25
-1.000000000000000E+20
 35
-1.000000000000000E+20
146
0.0
 13
0.0
 23
0.0
 33
0.0
 16
1.0
 26
0.0
 36
0.0
 17
0.0
 27
1.0
 37
0.0
 76
     0
330
1B
  0
LAYOUT
  5
26
102
{ACAD_REACTORS
330
1A
102
}
330
1A
100
AcDbPlotSettings
  1

  2
none_device
  4

  6

 40
0.0
 41
0.0
 42
0.0
 43
0.0
 44
0.0
 45
0.0
 46
0.0
 47
0.0
 48
0.0
 49
0.0
140
0.0
141
0.0
142
1.0
143
1.0
 70
   688
 72
     0
 73
     0
 74
     5
  7

 75
    16
 76
     0
 77
     2
 78
   300
147
1.0
148
0.0
149
0.0
100
AcDbLayout
  1
Layout2
 70
     1
 71
     2
 10
0.0
 20
0.0
 11
0.0
 21
0.0
 12
0.0
 22
0.0
 32
0.0
 14
0.0
 24
0.0
 34
0.0
 15
0.0
 25
0.0
 35
0.0
146
0.0
 13
0.0
 23
0.0
 33
0.0
 16
1.0
 26
0.0
 36
0.0
 17
0.0
 27
1.0
 37
0.0
 76
     0
330
23
  0
LAYOUT
  5
22
102
{ACAD_REACTORS
330
1A
102
}
330
1A
100
AcDbPlotSettings
  1

  2
none_device
  4

  6

 40
0.0
 41
0.0
 42
0.0
 43
0.0
 44
0.0
 45
0.0
 46
0.0
 47
0.0
 48
0.0
 49
0.0
140
0.0
141
0.0
142
1.0
143
1.0
 70
  1712
 72
     0
 73
     0
 74
     0
  7

 75
     0
 76
     0
 77
     2
 78
   300
147
1.0
148
0.0
149
0.0
100
AcDbLayout
  1
Model
 70
     1
 71
     0
 10
0.0
 20
0.0
 11
12.0
 21
9.0
 12
0.0
 22
0.0
 32
0.0
 14
-12.54377
 24
-7.75805
 34
0.0
 15
12.60999
 25
8.98723
 35
0.0
146
0.0
 13
0.0
 23
0.0
 33
0.0
 16
1.0
 26
0.0
 36
0.0
 17
0.0
 27
1.0
 37
0.0
 76
     0
330
1F
331
29
  0
MATERIAL
  5
3D
102
{ACAD_REACTORS
330
3B
102
}
330
3B
100
AcDbMaterial
  1
ByBlock
 72
     1
 94
      127
  0
MATERIAL
  5
3C
102
{ACAD_REACTORS
330
3B
102
}
330
3B
100
AcDbMaterial
  1
ByLayer
 72
     1
 94
      127
  0
MATERIAL
  5
3E
102
{ACAD_REACTORS
330
3B
102
}
330
3B
100
AcDbMaterial
  1
Global
 72
     1
 94
      127
  0
MLINESTYLE
  5
18
102
{ACAD_REACTORS
330
17
102
}
330
17
100
AcDbMlineStyle
  2
Standard
 70
     0
  3

 62
   256
 51
90.0
 52
90.0
 71
     2
 49
0.5
 62
   256
  6
BYLAYER
 49
-0.5
 62
   256
  6
BYLAYER
  0
ACDBPLACEHOLDER
  5
F
102
{ACAD_REACTORS
330
E
102
}
330
E
  0
VISUALSTYLE
  5
2F
102
{ACAD_REACTORS
330
2A
102
}
102
{ACAD_XDICTIONARY
360
90
102
}
330
2A
100
AcDbVisualStyle
  2
2dWireframe
 70
     4
 71
     0
 72
     2
 73
     0
 90
        0
 40
-0.6
 41
-30.0
 62
     5
 63
     7
421
 16777215
 74
     1
 91
        4
 64
     7
 65
   257
 75
     1
175
     1
 42
1.0
 92
        0
 66
   257
 43
1.0
 76
     1
 77
     6
 78
     2
 67
     7
 79
     5
170
     0
171
     0
290
     0
174
     0
 93
        1
 44
0.0
173
     0
291
     0
 45
0.0
  0
VISUALSTYLE
  5
31
102
{ACAD_REACTORS
330
2A
102
}
102
{ACAD_XDICTIONARY
360
94
102
}
330
2A
100
AcDbVisualStyle
  2
3D Hidden
 70
     6
 71
     1
 72
     2
 73
     2
 90
        0
 40
-0.6
 41
-30.0
 62
     5
 63
     7
421
 16777215
 74
     2
 91
        2
 64
     7
 65
   257
 75
     2
175
     1
 42
40.0
 92
        0
 66
   257
 43
1.0
 76
     1
 77
     6
 78
     2
 67
     7
 79
     3
170
     0
171
     0
290
     0
174
     0
 93
        1
 44
0.0
173
     0
291
     0
 45
0.0
  0
VISUALSTYLE
  5
30
102
{ACAD_REACTORS
330
2A
102
}
102
{ACAD_XDICTIONARY
360
92
102
}
330
2A
100
AcDbVisualStyle
  2
3dWireframe
 70
     5
 71
     0
 72
     2
 73
     0
 90
        0
 40
-0.6
 41
-30.0
 62
     5
 63
     7
421
 16777215
 74
     1
 91
        4
 64
     7
 65
   257
 75
     1
175
     1
 42
1.0
 92
        0
 66
   257
 43
1.0
 76
     1
 77
     6
 78
     2
 67
     7
 79
     5
170
     0
171
     0
290
     0
174
     0
 93
        1
 44
0.0
173
     0
291
     0
 45
0.0
  0
VISUALSTYLE
  5
32
102
{ACAD_REACTORS
330
2A
102
}
102
{ACAD_XDICTIONARY
360
96
102
}
330
2A
100
AcDbVisualStyle
  2
Basic
 70
     7
 71
     1
 72
     0
 73
     1
 90
        0
 40
-0.6
 41
-30.0
 62
     5
 63
     7
421
 16777215
 74
     0
 91
        4
 64
     7
 65
   257
 75
     1
175
     1
 42
1.0
 92
        8
 66
     7
 43
1.0
 76
     1
 77
     6
 78
     2
 67
     7
 79
     5
170
     0
171
     0
290
     0
174
     0
 93
        1
 44
0.0
173
     0
291
     1
 45
0.0
  0
VISUALSTYLE
  5
36
102
{ACAD_REACTORS
330
2A
102
}
102
{ACAD_XDICTIONARY
360
9E
102
}
330
2A
100
AcDbVisualStyle
  2
Brighten
 70
    12
 71
     2
 72
     2
 73
     0
 90
        0
 40
-0.6
 41
-30.0
 62
     5
 63
     7
421
 16777215
 74
     1
 91
        4
 64
     7
 65
   257
 75
     1
175
     1
 42
1.0
 92
        8
 66
     7
 43
1.0
 76
     1
 77
     6
 78
     2
 67
     7
 79
     5
170
     0
171
     0
290
     0
174
     0
 93
        1
 44
50.0
173
     0
291
     1
 45
0.0
  0
VISUALSTYLE
  5
3A
102
{ACAD_REACTORS
330
2A
102
}
102
{ACAD_XDICTIONARY
360
A6
102
}
330
2A
100
AcDbVisualStyle
  2
ColorChange
 70
    16
 71
     2
 72
     2
 73
     3
 90
        0
 40
-0.6
 41
-30.0
 62
     5
 63
     8
421
  8421504
 74
     1
 91
        4
 64
     7
 65
   257
 75
     1
175
     1
 42
1.0
 92
        8
 66
     8
424
  8421504
 43
1.0
 76
     1
 77
     6
 78
     2
 67
     7
 79
     5
170
     0
171
     0
290
     0
174
     0
 93
        1
 44
0.0
173
     0
291
     1
 45
0.0
  0
VISUALSTYLE
  5
34
102
{ACAD_REACTORS
330
2A
102
}
102
{ACAD_XDICTIONARY
360
9A
102
}
330
2A
100
AcDbVisualStyle
  2
Conceptual
 70
     9
 71
     3
 72
     2
 73
     0
 90
        0
 40
-0.6
 41
-30.0
 62
     5
 63
     7
421
 16777215
 74
     2
 91
        2
 64
     7
 65
   257
 75
     1
175
     1
 42
40.0
 92
        8
 66
     7
 43
1.0
 76
     1
 77
     6
 78
     2
 67
     7
 79
     3
170
     0
171
     0
290
     0
174
     0
 93
        1
 44
0.0
173
     0
291
     0
 45
0.0
  0
VISUALSTYLE
  5
35
102
{ACAD_REACTORS
330
2A
102
}
102
{ACAD_XDICTIONARY
360
9C
102
}
330
2A
100
AcDbVisualStyle
  2
Dim
 70
    11
 71
     2
 72
     2
 73
     0
 90
        0
 40
-0.6
 41
-30.0
 62
     5
 63
     7
421
 16777215
 74
     1
 91
        4
 64
     7
 65
   257
 75
     1
175
     1
 42
1.0
 92
        8
 66
     7
 43
1.0
 76
     1
 77
     6
 78
     2
 67
     7
 79
     5
170
     0
171
     0
290
     0
174
     0
 93
        1
 44
-50.0
173
     0
291
     1
 45
0.0
  0
VISUALSTYLE
  5
39
102
{ACAD_REACTORS
330
2A
102
}
102
{ACAD_XDICTIONARY
360
A4
102
}
330
2A
100
AcDbVisualStyle
  2
Facepattern
 70
    15
 71
     2
 72
     2
 73
     0
 90
        0
 40
-0.6
 41
-30.0
 62
     5
 63
     7
421
 16777215
 74
     1
 91
        4
 64
     7
 65
   257
 75
     1
175
     1
 42
1.0
 92
        8
 66
     7
 43
1.0
 76
     1
 77
     6
 78
     2
 67
     7
 79
     5
170
     0
171
     0
290
     0
174
     0
 93
        1
 44
0.0
173
     0
291
     1
 45
0.0
  0
VISUALSTYLE
  5
2B
102
{ACAD_REACTORS
330
2A
102
}
102
{ACAD_XDICTIONARY
360
88
102
}
330
2A
100
AcDbVisualStyle
  2
Flat
 70
     0
 71
     2
 72
     1
 73
     1
 90
        2
 40
-0.6
 41
30.0
 62
     5
 63
     7
421
 16777215
 74
     0
 91
        4
 64
     7
 65
   257
 75
     1
175
     1
 42
1.0
 92
        8
 66
     7
 43
1.0
 76
     1
 77
     6
 78
     2
 67
     7
 79
     5
170
     0
171
     0
290
     0
174
     0
 93
       13
 44
0.0
173
     0
291
     1
 45
0.0
  0
VISUALSTYLE
  5
2C
102
{ACAD_REACTORS
330
2A
102
}
102
{ACAD_XDICTIONARY
360
8A
102
}
330
2A
100
AcDbVisualStyle
  2
FlatWithEdges
 70
     1
 71
     2
 72
     1
 73
     1
 90
        2
 40
-0.6
 41
30.0
 62
     5
 63
     7
421
 16777215
 74
     1
 91
        4
 64
     7
 65
   257
 75
     1
175
     1
 42
1.0
 92
        0
 66
   257
 43
1.0
 76
     1
 77
     6
 78
     2
 67
     7
 79
     5
170
     0
171
     0
290
     0
174
     0
 93
       13
 44
0.0
173
     0
291
     1
 45
0.0
  0
VISUALSTYLE
  5
2D
102
{ACAD_REACTORS
330
2A
102
}
102
{ACAD_XDICTIONARY
360
8C
102
}
330
2A
100
AcDbVisualStyle
  2
Gouraud
 70
     2
 71
     2
 72
     2
 73
     1
 90
        2
 40
-0.6
 41
30.0
 62
     5
 63
     7
421
 16777215
 74
     0
 91
        4
 64
     7
 65
   257
 75
     1
175
     1
 42
1.0
 92
        0
 66
     7
 43
1.0
 76
     1
 77
     6
 78
     2
 67
     7
 79
     5
170
     0
171
     0
290
     0
174
     0
 93
       13
 44
0.0
173
     0
291
     1
 45
0.0
  0
VISUALSTYLE
  5
2E
102
{ACAD_REACTORS
330
2A
102
}
102
{ACAD_XDICTIONARY
360
8E
102
}
330
2A
100
AcDbVisualStyle
  2
GouraudWithEdges
 70
     3
 71
     2
 72
     2
 73
     1
 90
        2
 40
-0.6
 41
30.0
 62
     5
 63
     7
421
 16777215
 74
     1
 91
        4
 64
     7
 65
   257
 75
     1
175
     1
 42
1.0
 92
        0
 66
   257
 43
1.0
 76
     1
 77
     6
 78
     2
 67
     7
 79
     5
170
     0
171
     0
290
     0
174
     0
 93
       13
 44
0.0
173
     0
291
     1
 45
0.0
  0
VISUALSTYLE
  5
38
102
{ACAD_REACTORS
330
2A
102
}
102
{ACAD_XDICTIONARY
360
A2
102
}
330
2A
100
AcDbVisualStyle
  2
Linepattern
 70
    14
 71
     2
 72
     2
 73
     0
 90
        0
 40
-0.6
 41
-30.0
 62
     5
 63
     7
421
 16777215
 74
     1
 91
        4
 64
     7
 65
   257
 75
     7
175
     7
 42
1.0
 92
        8
 66
     7
 43
1.0
 76
     1
 77
     6
 78
     2
 67
     7
 79
     5
170
     0
171
     0
290
     0
174
     0
 93
        1
 44
0.0
173
     0
291
     1
 45
0.0
  0
VISUALSTYLE
  5
33
102
{ACAD_REACTORS
330
2A
102
}
102
{ACAD_XDICTIONARY
360
98
102
}
330
2A
100
AcDbVisualStyle
  2
Realistic
 70
     8
 71
     2
 72
     2
 73
     0
 90
        0
 40
-0.6
 41
-30.0
 62
     5
 63
     7
421
 16777215
 74
     1
 91
        0
 64
     7
 65
   257
 75
     1
175
     1
 42
1.0
 92
        8
 66
     8
424
  7895160
 43
1.0
 76
     1
 77
     6
 78
     2
 67
     7
 79
     5
170
     0
171
     0
290
     0
174
     0
 93
       13
 44
0.0
173
     0
291
     0
 45
0.0
  0
VISUALSTYLE
  5
37
102
{ACAD_REACTORS
330
2A
102
}
102
{ACAD_XDICTIONARY
360
A0
102
}
330
2A
100
AcDbVisualStyle
  2
Thicken
 70
    13
 71
     2
 72
     2
 73
     0
 90
        0
 40
-0.6
 41
-30.0
 62
     5
 63
     7
421
 16777215
 74
     1
 91
        4
 64
     7
 65
   257
 75
     1
175
     1
 42
1.0
 92
       12
 66
     7
 43
1.0
 76
     1
 77
     6
 78
     2
 67
     7
 79
     5
170
     0
171
     0
290
     0
174
     0
 93
        1
 44
0.0
173
     0
291
     1
 45
0.0
  0
DICTIONARY
  5
90
330
2F
100
AcDbDictionary
280
     1
281
     1
  3
ACAD_XREC_ROUNDTRIP
360
91
  0
DICTIONARY
  5
94
330
31
100
AcDbDictionary
280
     1
281
     1
  3
ACAD_XREC_ROUNDTRIP
360
95
  0
DICTIONARY
  5
92
330
30
100
AcDbDictionary
280
     1
281
     1
  3
ACAD_XREC_ROUNDTRIP
360
93
  0
DICTIONARY
  5
96
330
32
100
AcDbDictionary
280
     1
281
     1
  3
ACAD_XREC_ROUNDTRIP
360
97
  0
DICTIONARY
  5
9E
330
36
100
AcDbDictionary
280
     1
281
     1
  3
ACAD_XREC_ROUNDTRIP
360
9F
  0
DICTIONARY
  5
A6
330
3A
100
AcDbDictionary
280
     1
281
     1
  3
ACAD_XREC_ROUNDTRIP
360
A7
  0
DICTIONARY
  5
9A
330
34
100
AcDbDictionary
280
     1
281
     1
  3
ACAD_XREC_ROUNDTRIP
360
9B
  0
DICTIONARY
  5
9C
330
35
100
AcDbDictionary
280
     1
281
     1
  3
ACAD_XREC_ROUNDTRIP
360
9D
  0
DICTIONARY
  5
A4
330
39
100
AcDbDictionary
280
     1
281
     1
  3
ACAD_XREC_ROUNDTRIP
360
A5
  0
DICTIONARY
  5
88
330
2B
100
AcDbDictionary
280
     1
281
     1
  3
ACAD_XREC_ROUNDTRIP
360
89
  0
DICTIONARY
  5
8A
330
2C
100
AcDbDictionary
280
     1
281
     1
  3
ACAD_XREC_ROUNDTRIP
360
8B
  0
DICTIONARY
  5
8C
330
2D
100
AcDbDictionary
280
     1
281
     1
  3
ACAD_XREC_ROUNDTRIP
360
8D
  0
DICTIONARY
  5
8E
330
2E
100
AcDbDictionary
280
     1
281
     1
  3
ACAD_XREC_ROUNDTRIP
360
8F
  0
DICTIONARY
  5
A2
330
38
100
AcDbDictionary
280
     1
281
     1
  3
ACAD_XREC_ROUNDTRIP
360
A3
  0
DICTIONARY
  5
98
330
33
100
AcDbDictionary
280
     1
281
     1
  3
ACAD_XREC_ROUNDTRIP
360
99
  0
DICTIONARY
  5
A0
330
37
100
AcDbDictionary
280
     1
281
     1
  3
ACAD_XREC_ROUNDTRIP
360
A1
  0
XRECORD
  5
91
102
{ACAD_REACTORS
330
90
102
}
330
90
100
AcDbXrecord
280
     1
102
RTVSPropertyOp0
 70
     1
102
RTVSPropertyOp1
 70
     1
102
RTVSPropertyOp2
 70
     1
102
RTVSPropertyOp3
 70
     1
102
RTVSPropertyOp4
 70
     1
102
RTVSPropertyOp5
 70
     1
102
RTVSPropertyOp6
 70
     1
102
RTVSPropertyOp7
 70
     1
102
RTVSPropertyOp8
 70
     1
102
RTVSPropertyOp9
 70
     1
102
RTVSPropertyOp10
 70
     1
102
RTVSPropertyOp11
 70
     1
102
RTVSPropertyOp12
 70
     1
102
RTVSPropertyOp13
 70
     1
102
RTVSPropertyOp14
 70
     1
102
RTVSPropertyOp15
 70
     1
102
RTVSPropertyOp16
 70
     1
102
RTVSPropertyOp17
 70
     1
102
RTVSPropertyOp18
 70
     1
102
RTVSPropertyOp19
 70
     1
102
RTVSPropertyOp20
 70
     1
102
RTVSPropertyOp21
 70
     1
102
RTVSPropertyOp22
 70
     1
102
RTVSPropertyOp23
 70
     1
102
RTVSPropertyOp24
 70
     1
102
RTVSPropertyOp25
 70
     1
102
RTVSPropertyOp26
 70
     1
102
RTVSPropertyOp27
 70
     1
102
RTVSPropertyOp28
 70
     1
102
RTVSPropertyOp29
 70
     1
102
RTVSPropertyOp30
 70
     1
102
RTVSPropertyOp31
 70
     1
102
RTVSPropertyOp32
 70
     1
  0
XRECORD
  5
95
102
{ACAD_REACTORS
330
94
102
}
330
94
100
AcDbXrecord
280
     1
102
RTVSPropertyOp0
 70
     1
102
RTVSPropertyOp1
 70
     1
102
RTVSPropertyOp2
 70
     1
102
RTVSPropertyOp3
 70
     1
102
RTVSPropertyOp4
 70
     1
102
RTVSPropertyOp5
 70
     1
102
RTVSPropertyOp6
 70
     1
102
RTVSPropertyOp7
 70
     1
102
RTVSPropertyOp8
 70
     1
102
RTVSPropertyOp9
 70
     1
102
RTVSPropertyOp10
 70
     1
102
RTVSPropertyOp11
 70
     1
102
RTVSPropertyOp12
 70
     1
102
RTVSPropertyOp13
 70
     1
102
RTVSPropertyOp14
 70
     1
102
RTVSPropertyOp15
 70
     1
102
RTVSPropertyOp16
 70
     1
102
RTVSPropertyOp17
 70
     1
102
RTVSPropertyOp18
 70
     1
102
RTVSPropertyOp19
 70
     1
102
RTVSPropertyOp20
 70
     1
102
RTVSPropertyOp21
 70
     1
102
RTVSPropertyOp22
 70
     1
102
RTVSPropertyOp23
 70
     1
102
RTVSPropertyOp24
 70
     1
102
RTVSPropertyOp25
 70
     1
102
RTVSPropertyOp26
 70
     1
102
RTVSPropertyOp27
 70
     1
102
RTVSPropertyOp28
 70
     1
102
RTVSPropertyOp29
 70
     1
102
RTVSPropertyOp30
 70
     1
102
RTVSPropertyOp31
 70
     1
102
RTVSPropertyOp32
 70
     1
  0
XRECORD
  5
93
102
{ACAD_REACTORS
330
92
102
}
330
92
100
AcDbXrecord
280
     1
102
RTVSPropertyOp0
 70
     1
102
RTVSPropertyOp1
 70
     1
102
RTVSPropertyOp2
 70
     1
102
RTVSPropertyOp3
 70
     1
102
RTVSPropertyOp4
 70
     1
102
RTVSPropertyOp5
 70
     1
102
RTVSPropertyOp6
 70
     1
102
RTVSPropertyOp7
 70
     1
102
RTVSPropertyOp8
 70
     1
102
RTVSPropertyOp9
 70
     1
102
RTVSPropertyOp10
 70
     1
102
RTVSPropertyOp11
 70
     1
102
RTVSPropertyOp12
 70
     1
102
RTVSPropertyOp13
 70
     1
102
RTVSPropertyOp14
 70
     1
102
RTVSPropertyOp15
 70
     1
102
RTVSPropertyOp16
 70
     1
102
RTVSPropertyOp17
 70
     1
102
RTVSPropertyOp18
 70
     1
102
RTVSPropertyOp19
 70
     1
102
RTVSPropertyOp20
 70
     1
102
RTVSPropertyOp21
 70
     1
102
RTVSPropertyOp22
 70
     1
102
RTVSPropertyOp23
 70
     1
102
RTVSPropertyOp24
 70
     1
102
RTVSPropertyOp25
 70
     1
102
RTVSPropertyOp26
 70
     1
102
RTVSPropertyOp27
 70
     1
102
RTVSPropertyOp28
 70
     1
102
RTVSPropertyOp29
 70
     1
102
RTVSPropertyOp30
 70
     1
102
RTVSPropertyOp31
 70
     1
102
RTVSPropertyOp32
 70
     1
  0
XRECORD
  5
97
102
{ACAD_REACTORS
330
96
102
}
330
96
100
AcDbXrecord
280
     1
102
RTVSPropertyOp0
 70
     1
102
RTVSPropertyOp1
 70
     1
102
RTVSPropertyOp2
 70
     1
102
RTVSPropertyOp3
 70
     1
102
RTVSPropertyOp4
 70
     1
102
RTVSPropertyOp5
 70
     1
102
RTVSPropertyOp6
 70
     1
102
RTVSPropertyOp7
 70
     1
102
RTVSPropertyOp8
 70
     1
102
RTVSPropertyOp9
 70
     1
102
RTVSPropertyOp10
 70
     1
102
RTVSPropertyOp11
 70
     1
102
RTVSPropertyOp12
 70
     1
102
RTVSPropertyOp13
 70
     1
102
RTVSPropertyOp14
 70
     1
102
RTVSPropertyOp15
 70
     1
102
RTVSPropertyOp16
 70
     1
102
RTVSPropertyOp17
 70
     1
102
RTVSPropertyOp18
 70
     1
102
RTVSPropertyOp19
 70
     1
102
RTVSPropertyOp20
 70
     1
102
RTVSPropertyOp21
 70
     1
102
RTVSPropertyOp22
 70
     1
102
RTVSPropertyOp23
 70
     1
102
RTVSPropertyOp24
 70
     1
102
RTVSPropertyOp25
 70
     1
102
RTVSPropertyOp26
 70
     1
102
RTVSPropertyOp27
 70
     1
102
RTVSPropertyOp28
 70
     1
102
RTVSPropertyOp29
 70
     1
102
RTVSPropertyOp30
 70
     1
102
RTVSPropertyOp31
 70
     1
102
RTVSPropertyOp32
 70
     1
  0
XRECORD
  5
9F
102
{ACAD_REACTORS
330
9E
102
}
330
9E
100
AcDbXrecord
280
     1
102
RTVSPropertyOp0
 70
     1
102
RTVSPropertyOp1
 70
     1
102
RTVSPropertyOp2
 70
     1
102
RTVSPropertyOp3
 70
     1
102
RTVSPropertyOp4
 70
     1
102
RTVSPropertyOp5
 70
     1
102
RTVSPropertyOp6
 70
     1
102
RTVSPropertyOp7
 70
     1
102
RTVSPropertyOp8
 70
     1
102
RTVSPropertyOp9
 70
     1
102
RTVSPropertyOp10
 70
     1
102
RTVSPropertyOp11
 70
     1
102
RTVSPropertyOp12
 70
     1
102
RTVSPropertyOp13
 70
     1
102
RTVSPropertyOp14
 70
     1
102
RTVSPropertyOp15
 70
     1
102
RTVSPropertyOp16
 70
     1
102
RTVSPropertyOp17
 70
     1
102
RTVSPropertyOp18
 70
     1
102
RTVSPropertyOp19
 70
     1
102
RTVSPropertyOp20
 70
     1
102
RTVSPropertyOp21
 70
     1
102
RTVSPropertyOp22
 70
     1
102
RTVSPropertyOp23
 70
     1
102
RTVSPropertyOp24
 70
     1
102
RTVSPropertyOp25
 70
     1
102
RTVSPropertyOp26
 70
     1
102
RTVSPropertyOp27
 70
     1
102
RTVSPropertyOp28
 70
     1
102
RTVSPropertyOp29
 70
     1
102
RTVSPropertyOp30
 70
     1
102
RTVSPropertyOp31
 70
     1
102
RTVSPropertyOp32
 70
     1
  0
XRECORD
  5
A7
102
{ACAD_REACTORS
330
A6
102
}
330
A6
100
AcDbXrecord
280
     1
102
RTVSPropertyOp0
 70
     1
102
RTVSPropertyOp1
 70
     1
102
RTVSPropertyOp2
 70
     1
102
RTVSPropertyOp3
 70
     1
102
RTVSPropertyOp4
 70
     1
102
RTVSPropertyOp5
 70
     1
102
RTVSPropertyOp6
 70
     1
102
RTVSPropertyOp7
 70
     1
102
RTVSPropertyOp8
 70
     1
102
RTVSPropertyOp9
 70
     1
102
RTVSPropertyOp10
 70
     1
102
RTVSPropertyOp11
 70
     1
102
RTVSPropertyOp12
 70
     1
102
RTVSPropertyOp13
 70
     1
102
RTVSPropertyOp14
 70
     1
102
RTVSPropertyOp15
 70
     1
102
RTVSPropertyOp16
 70
     1
102
RTVSPropertyOp17
 70
     1
102
RTVSPropertyOp18
 70
     1
102
RTVSPropertyOp19
 70
     1
102
RTVSPropertyOp20
 70
     1
102
RTVSPropertyOp21
 70
     1
102
RTVSPropertyOp22
 70
     1
102
RTVSPropertyOp23
 70
     1
102
RTVSPropertyOp24
 70
     1
102
RTVSPropertyOp25
 70
     1
102
RTVSPropertyOp26
 70
     1
102
RTVSPropertyOp27
 70
     1
102
RTVSPropertyOp28
 70
     1
102
RTVSPropertyOp29
 70
     1
102
RTVSPropertyOp30
 70
     1
102
RTVSPropertyOp31
 70
     1
102
RTVSPropertyOp32
 70
     1
  0
XRECORD
  5
9B
102
{ACAD_REACTORS
330
9A
102
}
330
9A
100
AcDbXrecord
280
     1
102
RTVSPropertyOp0
 70
     1
102
RTVSPropertyOp1
 70
     1
102
RTVSPropertyOp2
 70
     1
102
RTVSPropertyOp3
 70
     1
102
RTVSPropertyOp4
 70
     1
102
RTVSPropertyOp5
 70
     1
102
RTVSPropertyOp6
 70
     1
102
RTVSPropertyOp7
 70
     1
102
RTVSPropertyOp8
 70
     1
102
RTVSPropertyOp9
 70
     1
102
RTVSPropertyOp10
 70
     1
102
RTVSPropertyOp11
 70
     1
102
RTVSPropertyOp12
 70
     1
102
RTVSPropertyOp13
 70
     1
102
RTVSPropertyOp14
 70
     1
102
RTVSPropertyOp15
 70
     1
102
RTVSPropertyOp16
 70
     1
102
RTVSPropertyOp17
 70
     1
102
RTVSPropertyOp18
 70
     1
102
RTVSPropertyOp19
 70
     1
102
RTVSPropertyOp20
 70
     1
102
RTVSPropertyOp21
 70
     1
102
RTVSPropertyOp22
 70
     1
102
RTVSPropertyOp23
 70
     1
102
RTVSPropertyOp24
 70
     1
102
RTVSPropertyOp25
 70
     1
102
RTVSPropertyOp26
 70
     1
102
RTVSPropertyOp27
 70
     1
102
RTVSPropertyOp28
 70
     1
102
RTVSPropertyOp29
 70
     1
102
RTVSPropertyOp30
 70
     1
102
RTVSPropertyOp31
 70
     1
102
RTVSPropertyOp32
 70
     1
  0
XRECORD
  5
9D
102
{ACAD_REACTORS
330
9C
102
}
330
9C
100
AcDbXrecord
280
     1
102
RTVSPropertyOp0
 70
     1
102
RTVSPropertyOp1
 70
     1
102
RTVSPropertyOp2
 70
     1
102
RTVSPropertyOp3
 70
     1
102
RTVSPropertyOp4
 70
     1
102
RTVSPropertyOp5
 70
     1
102
RTVSPropertyOp6
 70
     1
102
RTVSPropertyOp7
 70
     1
102
RTVSPropertyOp8
 70
     1
102
RTVSPropertyOp9
 70
     1
102
RTVSPropertyOp10
 70
     1
102
RTVSPropertyOp11
 70
     1
102
RTVSPropertyOp12
 70
     1
102
RTVSPropertyOp13
 70
     1
102
RTVSPropertyOp14
 70
     1
102
RTVSPropertyOp15
 70
     1
102
RTVSPropertyOp16
 70
     1
102
RTVSPropertyOp17
 70
     1
102
RTVSPropertyOp18
 70
     1
102
RTVSPropertyOp19
 70
     1
102
RTVSPropertyOp20
 70
     1
102
RTVSPropertyOp21
 70
     1
102
RTVSPropertyOp22
 70
     1
102
RTVSPropertyOp23
 70
     1
102
RTVSPropertyOp24
 70
     1
102
RTVSPropertyOp25
 70
     1
102
RTVSPropertyOp26
 70
     1
102
RTVSPropertyOp27
 70
     1
102
RTVSPropertyOp28
 70
     1
102
RTVSPropertyOp29
 70
     1
102
RTVSPropertyOp30
 70
     1
102
RTVSPropertyOp31
 70
     1
102
RTVSPropertyOp32
 70
     1
  0
XRECORD
  5
A5
102
{ACAD_REACTORS
330
A4
102
}
330
A4
100
AcDbXrecord
280
     1
102
RTVSPropertyOp0
 70
     1
102
RTVSPropertyOp1
 70
     1
102
RTVSPropertyOp2
 70
     1
102
RTVSPropertyOp3
 70
     1
102
RTVSPropertyOp4
 70
     1
102
RTVSPropertyOp5
 70
     1
102
RTVSPropertyOp6
 70
     1
102
RTVSPropertyOp7
 70
     1
102
RTVSPropertyOp8
 70
     1
102
RTVSPropertyOp9
 70
     1
102
RTVSPropertyOp10
 70
     1
102
RTVSPropertyOp11
 70
     1
102
RTVSPropertyOp12
 70
     1
102
RTVSPropertyOp13
 70
     1
102
RTVSPropertyOp14
 70
     1
102
RTVSPropertyOp15
 70
     1
102
RTVSPropertyOp16
 70
     1
102
RTVSPropertyOp17
 70
     1
102
RTVSPropertyOp18
 70
     1
102
RTVSPropertyOp19
 70
     1
102
RTVSPropertyOp20
 70
     1
102
RTVSPropertyOp21
 70
     1
102
RTVSPropertyOp22
 70
     1
102
RTVSPropertyOp23
 70
     1
102
RTVSPropertyOp24
 70
     1
102
RTVSPropertyOp25
 70
     1
102
RTVSPropertyOp26
 70
     1
102
RTVSPropertyOp27
 70
     1
102
RTVSPropertyOp28
 70
     1
102
RTVSPropertyOp29
 70
     1
102
RTVSPropertyOp30
 70
     1
102
RTVSPropertyOp31
 70
     1
102
RTVSPropertyOp32
 70
     1
  0
XRECORD
  5
89
102
{ACAD_REACTORS
330
88
102
}
330
88
100
AcDbXrecord
280
     1
102
RTVSPropertyOp0
 70
     1
102
RTVSPropertyOp1
 70
     1
102
RTVSPropertyOp2
 70
     1
102
RTVSPropertyOp3
 70
     1
102
RTVSPropertyOp4
 70
     1
102
RTVSPropertyOp5
 70
     1
102
RTVSPropertyOp6
 70
     1
102
RTVSPropertyOp7
 70
     1
102
RTVSPropertyOp8
 70
     1
102
RTVSPropertyOp9
 70
     1
102
RTVSPropertyOp10
 70
     1
102
RTVSPropertyOp11
 70
     1
102
RTVSPropertyOp12
 70
     1
102
RTVSPropertyOp13
 70
     1
102
RTVSPropertyOp14
 70
     1
102
RTVSPropertyOp15
 70
     1
102
RTVSPropertyOp16
 70
     1
102
RTVSPropertyOp17
 70
     1
102
RTVSPropertyOp18
 70
     1
102
RTVSPropertyOp19
 70
     1
102
RTVSPropertyOp20
 70
     1
102
RTVSPropertyOp21
 70
     1
102
RTVSPropertyOp22
 70
     1
102
RTVSPropertyOp23
 70
     1
102
RTVSPropertyOp24
 70
     1
102
RTVSPropertyOp25
 70
     1
102
RTVSPropertyOp26
 70
     1
102
RTVSPropertyOp27
 70
     1
102
RTVSPropertyOp28
 70
     1
102
RTVSPropertyOp29
 70
     1
102
RTVSPropertyOp30
 70
     1
102
RTVSPropertyOp31
 70
     1
102
RTVSPropertyOp32
 70
     1
  0
XRECORD
  5
8B
102
{ACAD_REACTORS
330
8A
102
}
330
8A
100
AcDbXrecord
280
     1
102
RTVSPropertyOp0
 70
     1
102
RTVSPropertyOp1
 70
     1
102
RTVSPropertyOp2
 70
     1
102
RTVSPropertyOp3
 70
     1
102
RTVSPropertyOp4
 70
     1
102
RTVSPropertyOp5
 70
     1
102
RTVSPropertyOp6
 70
     1
102
RTVSPropertyOp7
 70
     1
102
RTVSPropertyOp8
 70
     1
102
RTVSPropertyOp9
 70
     1
102
RTVSPropertyOp10
 70
     1
102
RTVSPropertyOp11
 70
     1
102
RTVSPropertyOp12
 70
     1
102
RTVSPropertyOp13
 70
     1
102
RTVSPropertyOp14
 70
     1
102
RTVSPropertyOp15
 70
     1
102
RTVSPropertyOp16
 70
     1
102
RTVSPropertyOp17
 70
     1
102
RTVSPropertyOp18
 70
     1
102
RTVSPropertyOp19
 70
     1
102
RTVSPropertyOp20
 70
     1
102
RTVSPropertyOp21
 70
     1
102
RTVSPropertyOp22
 70
     1
102
RTVSPropertyOp23
 70
     1
102
RTVSPropertyOp24
 70
     1
102
RTVSPropertyOp25
 70
     1
102
RTVSPropertyOp26
 70
     1
102
RTVSPropertyOp27
 70
     1
102
RTVSPropertyOp28
 70
     1
102
RTVSPropertyOp29
 70
     1
102
RTVSPropertyOp30
 70
     1
102
RTVSPropertyOp31
 70
     1
102
RTVSPropertyOp32
 70
     1
  0
XRECORD
  5
8D
102
{ACAD_REACTORS
330
8C
102
}
330
8C
100
AcDbXrecord
280
     1
102
RTVSPropertyOp0
 70
     1
102
RTVSPropertyOp1
 70
     1
102
RTVSPropertyOp2
 70
     1
102
RTVSPropertyOp3
 70
     1
102
RTVSPropertyOp4
 70
     1
102
RTVSPropertyOp5
 70
     1
102
RTVSPropertyOp6
 70
     1
102
RTVSPropertyOp7
 70
     1
102
RTVSPropertyOp8
 70
     1
102
RTVSPropertyOp9
 70
     1
102
RTVSPropertyOp10
 70
     1
102
RTVSPropertyOp11
 70
     1
102
RTVSPropertyOp12
 70
     1
102
RTVSPropertyOp13
 70
     1
102
RTVSPropertyOp14
 70
     1
102
RTVSPropertyOp15
 70
     1
102
RTVSPropertyOp16
 70
     1
102
RTVSPropertyOp17
 70
     1
102
RTVSPropertyOp18
 70
     1
102
RTVSPropertyOp19
 70
     1
102
RTVSPropertyOp20
 70
     1
102
RTVSPropertyOp21
 70
     1
102
RTVSPropertyOp22
 70
     1
102
RTVSPropertyOp23
 70
     1
102
RTVSPropertyOp24
 70
     1
102
RTVSPropertyOp25
 70
     1
102
RTVSPropertyOp26
 70
     1
102
RTVSPropertyOp27
 70
     1
102
RTVSPropertyOp28
 70
     1
102
RTVSPropertyOp29
 70
     1
102
RTVSPropertyOp30
 70
     1
102
RTVSPropertyOp31
 70
     1
102
RTVSPropertyOp32
 70
     1
  0
XRECORD
  5
8F
102
{ACAD_REACTORS
330
8E
102
}
330
8E
100
AcDbXrecord
280
     1
102
RTVSPropertyOp0
 70
     1
102
RTVSPropertyOp1
 70
     1
102
RTVSPropertyOp2
 70
     1
102
RTVSPropertyOp3
 70
     1
102
RTVSPropertyOp4
 70
     1
102
RTVSPropertyOp5
 70
     1
102
RTVSPropertyOp6
 70
     1
102
RTVSPropertyOp7
 70
     1
102
RTVSPropertyOp8
 70
     1
102
RTVSPropertyOp9
 70
     1
102
RTVSPropertyOp10
 70
     1
102
RTVSPropertyOp11
 70
     1
102
RTVSPropertyOp12
 70
     1
102
RTVSPropertyOp13
 70
     1
102
RTVSPropertyOp14
 70
     1
102
RTVSPropertyOp15
 70
     1
102
RTVSPropertyOp16
 70
     1
102
RTVSPropertyOp17
 70
     1
102
RTVSPropertyOp18
 70
     1
102
RTVSPropertyOp19
 70
     1
102
RTVSPropertyOp20
 70
     1
102
RTVSPropertyOp21
 70
     1
102
RTVSPropertyOp22
 70
     1
102
RTVSPropertyOp23
 70
     1
102
RTVSPropertyOp24
 70
     1
102
RTVSPropertyOp25
 70
     1
102
RTVSPropertyOp26
 70
     1
102
RTVSPropertyOp27
 70
     1
102
RTVSPropertyOp28
 70
     1
102
RTVSPropertyOp29
 70
     1
102
RTVSPropertyOp30
 70
     1
102
RTVSPropertyOp31
 70
     1
102
RTVSPropertyOp32
 70
     1
  0
XRECORD
  5
A3
102
{ACAD_REACTORS
330
A2
102
}
330
A2
100
AcDbXrecord
280
     1
102
RTVSPropertyOp0
 70
     1
102
RTVSPropertyOp1
 70
     1
102
RTVSPropertyOp2
 70
     1
102
RTVSPropertyOp3
 70
     1
102
RTVSPropertyOp4
 70
     1
102
RTVSPropertyOp5
 70
     1
102
RTVSPropertyOp6
 70
     1
102
RTVSPropertyOp7
 70
     1
102
RTVSPropertyOp8
 70
     1
102
RTVSPropertyOp9
 70
     1
102
RTVSPropertyOp10
 70
     1
102
RTVSPropertyOp11
 70
     1
102
RTVSPropertyOp12
 70
     1
102
RTVSPropertyOp13
 70
     1
102
RTVSPropertyOp14
 70
     1
102
RTVSPropertyOp15
 70
     1
102
RTVSPropertyOp16
 70
     1
102
RTVSPropertyOp17
 70
     1
102
RTVSPropertyOp18
 70
     1
102
RTVSPropertyOp19
 70
     1
102
RTVSPropertyOp20
 70
     1
102
RTVSPropertyOp21
 70
     1
102
RTVSPropertyOp22
 70
     1
102
RTVSPropertyOp23
 70
     1
102
RTVSPropertyOp24
 70
     1
102
RTVSPropertyOp25
 70
     1
102
RTVSPropertyOp26
 70
     1
102
RTVSPropertyOp27
 70
     1
102
RTVSPropertyOp28
 70
     1
102
RTVSPropertyOp29
 70
     1
102
RTVSPropertyOp30
 70
     1
102
RTVSPropertyOp31
 70
     1
102
RTVSPropertyOp32
 70
     1
  0
XRECORD
  5
99
102
{ACAD_REACTORS
330
98
102
}
330
98
100
AcDbXrecord
280
     1
102
RTVSPropertyOp0
 70
     1
102
RTVSPropertyOp1
 70
     1
102
RTVSPropertyOp2
 70
     1
102
RTVSPropertyOp3
 70
     1
102
RTVSPropertyOp4
 70
     1
102
RTVSPropertyOp5
 70
     1
102
RTVSPropertyOp6
 70
     1
102
RTVSPropertyOp7
 70
     1
102
RTVSPropertyOp8
 70
     1
102
RTVSPropertyOp9
 70
     1
102
RTVSPropertyOp10
 70
     1
102
RTVSPropertyOp11
 70
     1
102
RTVSPropertyOp12
 70
     1
102
RTVSPropertyOp13
 70
     1
102
RTVSPropertyOp14
 70
     1
102
RTVSPropertyOp15
 70
     1
102
RTVSPropertyOp16
 70
     1
102
RTVSPropertyOp17
 70
     1
102
RTVSPropertyOp18
 70
     1
102
RTVSPropertyOp19
 70
     1
102
RTVSPropertyOp20
 70
     1
102
RTVSPropertyOp21
 70
     1
102
RTVSPropertyOp22
 70
     1
102
RTVSPropertyOp23
 70
     1
102
RTVSPropertyOp24
 70
     1
102
RTVSPropertyOp25
 70
     1
102
RTVSPropertyOp26
 70
     1
102
RTVSPropertyOp27
 70
     1
102
RTVSPropertyOp28
 70
     1
102
RTVSPropertyOp29
 70
     1
102
RTVSPropertyOp30
 70
     1
102
RTVSPropertyOp31
 70
     1
102
RTVSPropertyOp32
 70
     1
  0
XRECORD
  5
A1
102
{ACAD_REACTORS
330
A0
102
}
330
A0
100
AcDbXrecord
280
     1
102
RTVSPropertyOp0
 70
     1
102
RTVSPropertyOp1
 70
     1
102
RTVSPropertyOp2
 70
     1
102
RTVSPropertyOp3
 70
     1
102
RTVSPropertyOp4
 70
     1
102
RTVSPropertyOp5
 70
     1
102
RTVSPropertyOp6
 70
     1
102
RTVSPropertyOp7
 70
     1
102
RTVSPropertyOp8
 70
     1
102
RTVSPropertyOp9
 70
     1
102
RTVSPropertyOp10
 70
     1
102
RTVSPropertyOp11
 70
     1
102
RTVSPropertyOp12
 70
     1
102
RTVSPropertyOp13
 70
     1
102
RTVSPropertyOp14
 70
     1
102
RTVSPropertyOp15
 70
     1
102
RTVSPropertyOp16
 70
     1
102
RTVSPropertyOp17
 70
     1
102
RTVSPropertyOp18
 70
     1
102
RTVSPropertyOp19
 70
     1
102
RTVSPropertyOp20
 70
     1
102
RTVSPropertyOp21
 70
     1
102
RTVSPropertyOp22
 70
     1
102
RTVSPropertyOp23
 70
     1
102
RTVSPropertyOp24
 70
     1
102
RTVSPropertyOp25
 70
     1
102
RTVSPropertyOp26
 70
     1
102
RTVSPropertyOp27
 70
     1
102
RTVSPropertyOp28
 70
     1
102
RTVSPropertyOp29
 70
     1
102
RTVSPropertyOp30
 70
     1
102
RTVSPropertyOp31
 70
     1
102
RTVSPropertyOp32
 70
     1
  0
ENDSEC
  0
EOF
