  0
SECTION
  2
HEADER
  9
$ACADVER
  1
AC1021
  9
$ACADMAINTVER
 70
    25
  9
$DWGCODEPAGE
  3
ANSI_1252
  9
$INSBASE
 10
0.0
 20
0.0
 30
0.0
  9
$EXTMIN
 10
-11.51253
 20
-7.53207
 30
0.0
  9
$EXTMAX
 10
12.75045
 20
8.5684
 30
0.0
  9
$LIMMIN
 10
0.0
 20
0.0
  9
$LIMMAX
 10
12.0
 20
9.0
  9
$ORTHOMODE
 70
     0
  9
$REGENMODE
 70
     1
  9
$FILLMODE
 70
     1
  9
$QTEXTMODE
 70
     0
  9
$MIRRTEXT
 70
     1
  9
$LTSCALE
 40
1.0
  9
$ATTMODE
 70
     1
  9
$TEXTSIZE
 40
0.2
  9
$TRACEWID
 40
0.05
  9
$TEXTSTYLE
  7
Standard
  9
$CLAYER
  8
0
  9
$CELTYPE
  6
ByLayer
  9
$CECOLOR
 62
   256
  9
$CELTSCALE
 40
1.0
  9
$DISPSILH
 70
     0
  9
$DIMSCALE
 40
1.0
  9
$DIMASZ
 40
0.18
  9
$DIMEXO
 40
0.0625
  9
$DIMDLI
 40
0.38
  9
$DIMRND
 40
0.0
  9
$DIMDLE
 40
0.0
  9
$DIMEXE
 40
0.18
  9
$DIMTP
 40
0.0
  9
$DIMTM
 40
0.0
  9
$DIMTXT
 40
0.18
  9
$DIMCEN
 40
0.09
  9
$DIMTSZ
 40
0.0
  9
$DIMTOL
 70
     0
  9
$DIMLIM
 70
     0
  9
$DIMTIH
 70
     1
  9
$DIMTOH
 70
     1
  9
$DIMSE1
 70
     0
  9
$DIMSE2
 70
     0
  9
$DIMTAD
 70
     0
  9
$DIMZIN
 70
     0
  9
$DIMBLK
  1

  9
$DIMASO
 70
     1
  9
$DIMSHO
 70
     1
  9
$DIMPOST
  1

  9
$DIMAPOST
  1

  9
$DIMALT
 70
     0
  9
$DIMALTD
 70
     2
  9
$DIMALTF
 40
25.4
  9
$DIMLFAC
 40
1.0
  9
$DIMTOFL
 70
     0
  9
$DIMTVP
 40
0.0
  9
$DIMTIX
 70
     0
  9
$DIMSOXD
 70
     0
  9
$DIMSAH
 70
     0
  9
$DIMBLK1
  1

  9
$DIMBLK2
  1

  9
$DIMSTYLE
  2
Standard
  9
$DIMCLRD
 70
     0
  9
$DIMCLRE
 70
     0
  9
$DIMCLRT
 70
     0
  9
$DIMTFAC
 40
1.0
  9
$DIMGAP
 40
0.09
  9
$DIMJUST
 70
     0
  9
$DIMSD1
 70
     0
  9
$DIMSD2
 70
     0
  9
$DIMTOLJ
 70
     1
  9
$DIMTZIN
 70
     0
  9
$DIMALTZ
 70
     0
  9
$DIMALTTZ
 70
     0
  9
$DIMUPT
 70
     0
  9
$DIMDEC
 70
     4
  9
$DIMTDEC
 70
     4
  9
$DIMALTU
 70
     2
  9
$DIMALTTD
 70
     2
  9
$DIMTXSTY
  7
Standard
  9
$DIMAUNIT
 70
     0
  9
$DIMADEC
 70
     0
  9
$DIMALTRND
 40
0.0
  9
$DIMAZIN
 70
     0
  9
$DIMDSEP
 70
    46
  9
$DIMATFIT
 70
     3
  9
$DIMFRAC
 70
     0
  9
$DIMLDRBLK
  1

  9
$DIMLUNIT
 70
     2
  9
$DIMLWD
 70
    -2
  9
$DIMLWE
 70
    -2
  9
$DIMTMOVE
 70
     0
  9
$DIMFXL
 40
1.0
  9
$DIMFXLON
 70
     0
  9
$DIMJOGANG
 40
0.7853981633974483
  9
$DIMTFILL
 70
     0
  9
$DIMTFILLCLR
 70
     0
  9
$DIMARCSYM
 70
     0
  9
$DIMLTYPE
  6

  9
$DIMLTEX1
  6

  9
$DIMLTEX2
  6

  9
$LUNITS
 70
     2
  9
$LUPREC
 70
     4
  9
$SKETCHINC
 40
0.1
  9
$FILLETRAD
 40
0.5
  9
$AUNITS
 70
     0
  9
$AUPREC
 70
     0
  9
$MENU
  1
.
  9
$ELEVATION
 40
0.0
  9
$PELEVATION
 40
0.0
  9
$THICKNESS
 40
0.0
  9
$LIMCHECK
 70
     0
  9
$CHAMFERA
 40
0.5
  9
$CHAMFERB
 40
0.5
  9
$CHAMFERC
 40
1.0
  9
$CHAMFERD
 40
0.0
  9
$SKPOLY
 70
     0
  9
$TDCREATE
 40
2456231.953135347
  9
$TDUCREATE
 40
2456232.119802014
  9
$TDUPDATE
 40
2456231.953135394
  9
$TDUUPDATE
 40
2456232.11980206
  9
$TDINDWG
 40
0.0000000116
  9
$TDUSRTIMER
 40
0.0000000116
  9
$USRTIMER
 70
     1
  9
$ANGBASE
 50
0.0
  9
$ANGDIR
 70
     0
  9
$PDMODE
 70
     0
  9
$PDSIZE
 40
0.0
  9
$PLINEWID
 40
0.0
  9
$SPLFRAME
 70
     0
  9
$SPLINETYPE
 70
     6
  9
$SPLINESEGS
 70
     8
  9
$HANDSEED
  5
A6
  9
$SURFTAB1
 70
     6
  9
$SURFTAB2
 70
     6
  9
$SURFTYPE
 70
     6
  9
$SURFU
 70
     6
  9
$SURFV
 70
     6
  9
$UCSBASE
  2

  9
$UCSNAME
  2

  9
$UCSORG
 10
0.0
 20
0.0
 30
0.0
  9
$UCSXDIR
 10
1.0
 20
0.0
 30
0.0
  9
$UCSYDIR
 10
0.0
 20
1.0
 30
0.0
  9
$UCSORTHOREF
  2

  9
$UCSORTHOVIEW
 70
     0
  9
$UCSORGTOP
 10
0.0
 20
0.0
 30
0.0
  9
$UCSORGBOTTOM
 10
0.0
 20
0.0
 30
0.0
  9
$UCSORGLEFT
 10
0.0
 20
0.0
 30
0.0
  9
$UCSORGRIGHT
 10
0.0
 20
0.0
 30
0.0
  9
$UCSORGFRONT
 10
0.0
 20
0.0
 30
0.0
  9
$UCSORGBACK
 10
0.0
 20
0.0
 30
0.0
  9
$PUCSBASE
  2

  9
$PUCSNAME
  2

  9
$PUCSORG
 10
0.0
 20
0.0
 30
0.0
  9
$PUCSXDIR
 10
1.0
 20
0.0
 30
0.0
  9
$PUCSYDIR
 10
0.0
 20
1.0
 30
0.0
  9
$PUCSORTHOREF
  2

  9
$PUCSORTHOVIEW
 70
     0
  9
$PUCSORGTOP
 10
0.0
 20
0.0
 30
0.0
  9
$PUCSORGBOTTOM
 10
0.0
 20
0.0
 30
0.0
  9
$PUCSORGLEFT
 10
0.0
 20
0.0
 30
0.0
  9
$PUCSORGRIGHT
 10
0.0
 20
0.0
 30
0.0
  9
$PUCSORGFRONT
 10
0.0
 20
0.0
 30
0.0
  9
$PUCSORGBACK
 10
0.0
 20
0.0
 30
0.0
  9
$USERI1
 70
     0
  9
$USERI2
 70
     0
  9
$USERI3
 70
     0
  9
$USERI4
 70
     0
  9
$USERI5
 70
     0
  9
$USERR1
 40
0.0
  9
$USERR2
 40
0.0
  9
$USERR3
 40
0.0
  9
$USERR4
 40
0.0
  9
$USERR5
 40
0.0
  9
$WORLDVIEW
 70
     1
  9
$SHADEDGE
 70
     3
  9
$SHADEDIF
 70
    70
  9
$TILEMODE
 70
     1
  9
$MAXACTVP
 70
    64
  9
$PINSBASE
 10
0.0
 20
0.0
 30
0.0
  9
$PLIMCHECK
 70
     0
  9
$PEXTMIN
 10
1.000000000000000E+20
 20
1.000000000000000E+20
 30
1.000000000000000E+20
  9
$PEXTMAX
 10
-1.000000000000000E+20
 20
-1.000000000000000E+20
 30
-1.000000000000000E+20
  9
$PLIMMIN
 10
0.0
 20
0.0
  9
$PLIMMAX
 10
12.0
 20
9.0
  9
$UNITMODE
 70
     0
  9
$VISRETAIN
 70
     1
  9
$PLINEGEN
 70
     0
  9
$PSLTSCALE
 70
     1
  9
$TREEDEPTH
 70
  3020
  9
$CMLSTYLE
  2
Standard
  9
$CMLJUST
 70
     0
  9
$CMLSCALE
 40
1.0
  9
$PROXYGRAPHICS
 70
     1
  9
$MEASUREMENT
 70
     0
  9
$CELWEIGHT
370
    -1
  9
$ENDCAPS
280
     0
  9
$JOINSTYLE
280
     0
  9
$LWDISPLAY
290
     0
  9
$INSUNITS
 70
     5
  9
$HYPERLINKBASE
  1

  9
$STYLESHEET
  1

  9
$XEDIT
290
     1
  9
$CEPSNTYPE
380
     0
  9
$PSTYLEMODE
290
     1
  9
$FINGERPRINTGUID
  2
{9C9BC331-5EB7-46DF-9405-AC38DA5DA712}
  9
$VERSIONGUID
  2
{FAEB1C32-E019-11D5-929B-00C0DF256EC4}
  9
$EXTNAMES
290
     1
  9
$PSVPSCALE
 40
0.0
  9
$OLESTARTUP
290
     0
  9
$SORTENTS
280
   127
  9
$INDEXCTL
280
     0
  9
$HIDETEXT
280
     1
  9
$XCLIPFRAME
290
     0
  9
$HALOGAP
280
     0
  9
$OBSCOLOR
 70
   257
  9
$OBSLTYPE
280
     0
  9
$INTERSECTIONDISPLAY
280
     0
  9
$INTERSECTIONCOLOR
 70
   257
  9
$DIMASSOC
280
     2
  9
$PROJECTNAME
  1

  9
$CAMERADISPLAY
290
     0
  9
$LENSLENGTH
 40
50.0
  9
$CAMERAHEIGHT
 40
0.0
  9
$STEPSPERSEC
 40
2.0
  9
$STEPSIZE
 40
6.0
  9
$3DDWFPREC
 40
2.0
  9
$PSOLWIDTH
 40
0.25
  9
$PSOLHEIGHT
 40
4.0
  9
$LOFTANG1
 40
1.570796326794897
  9
$LOFTANG2
 40
1.570796326794897
  9
$LOFTMAG1
 40
0.0
  9
$LOFTMAG2
 40
0.0
  9
$LOFTPARAM
 70
     7
  9
$LOFTNORMALS
280
     1
  9
$LATITUDE
 40
37.795
  9
$LONGITUDE
 40
-122.394
  9
$NORTHDIRECTION
 40
0.0
  9
$TIMEZONE
 70
 -8000
  9
$LIGHTGLYPHDISPLAY
280
     1
  9
$TILEMODELIGHTSYNCH
280
     1
  9
$SOLIDHIST
280
     1
  9
$SHOWHIST
280
     1
  9
$DWFFRAME
280
     2
  9
$DGNFRAME
280
     2
  9
$REALWORLDSCALE
290
     1
  9
$INTERFERECOLOR
 62
   256
  9
$CSHADOW
280
     0
  9
$SHADOWPLANELOCATION
 40
0.0
  0
ENDSEC
  0
SECTION
  2
CLASSES
  0
CLASS
  1
ACDBDICTIONARYWDFLT
  2
AcDbDictionaryWithDefault
  3
ObjectDBX Classes
 90
        0
 91
        4
280
     0
281
     0
  0
CLASS
  1
VISUALSTYLE
  2
AcDbVisualStyle
  3
ObjectDBX Classes
 90
     4095
 91
        4
280
     0
281
     0
  0
CLASS
  1
MATERIAL
  2
AcDbMaterial
  3
ObjectDBX Classes
 90
     1153
 91
        4
280
     0
281
     0
  0
ENDSEC
  0
SECTION
  2
TABLES
  0
TABLE
  2
VPORT
  5
8
330
0
100
AcDbSymbolTable
 70
     1
  0
VPORT
  5
29
330
8
100
AcDbSymbolTableRecord
100
AcDbViewportTableRecord
  2
*Active
 70
     0
 10
0.0
 20
0.0
 11
1.0
 21
1.0
 12
10.42990654205607
 22
4.5
 13
0.0
 23
0.0
 14
0.5
 24
0.5
 15
0.5
 25
0.5
 16
0.0
 26
0.0
 36
1.0
 17
0.0
 27
0.0
 37
0.0
 40
9.0
 41
1.972972972850329
 42
50.0
 43
0.0
 44
0.0
 50
0.0
 51
0.0
 71
     0
 72
   100
 73
     1
 74
     3
 75
     0
 76
     0
 77
     0
 78
     0
281
     0
 65
     1
110
0.0
120
0.0
130
0.0
111
1.0
121
0.0
131
0.0
112
0.0
122
1.0
132
0.0
 79
     0
146
0.0
 60
     3
 61
     5
292
     1
282
     1
141
0.0
142
0.0
 63
   250
  0
ENDTAB
  0
TABLE
  2
LTYPE
  5
5
330
0
100
AcDbSymbolTable
 70
     1
  0
LTYPE
  5
14
330
5
100
AcDbSymbolTableRecord
100
AcDbLinetypeTableRecord
  2
ByBlock
 70
     0
  3

 72
    65
 73
     0
 40
0.0
  0
LTYPE
  5
15
330
5
100
AcDbSymbolTableRecord
100
AcDbLinetypeTableRecord
  2
ByLayer
 70
     0
  3

 72
    65
 73
     0
 40
0.0
  0
LTYPE
  5
16
330
5
100
AcDbSymbolTableRecord
100
AcDbLinetypeTableRecord
  2
Continuous
 70
     0
  3
Solid line
 72
    65
 73
     0
 40
0.0
  0
ENDTAB
  0
TABLE
  2
LAYER
  5
2
330
0
100
AcDbSymbolTable
 70
     3
  0
LAYER
  5
10
330
2
100
AcDbSymbolTableRecord
100
AcDbLayerTableRecord
  2
0
 70
     0
 62
     7
  6
Continuous
370
    -3
390
F
347
3E
  0
LAYER
  5
40
330
2
100
AcDbSymbolTableRecord
100
AcDbLayerTableRecord
  2
Layer 1
 70
     0
 62
     7
  6
Continuous
370
    -3
390
F
347
3E
  0
LAYER
  5
57
330
2
100
AcDbSymbolTableRecord
100
AcDbLayerTableRecord
  2
layer 2
 70
     0
 62
     7
  6
Continuous
370
    -3
390
F
347
3E
  0
ENDTAB
  0
TABLE
  2
STYLE
  5
3
330
0
100
AcDbSymbolTable
 70
     1
  0
STYLE
  5
11
330
3
100
AcDbSymbolTableRecord
100
AcDbTextStyleTableRecord
  2
Standard
 70
     0
 40
0.0
 41
1.0
 50
0.0
 71
     0
 42
0.2
  3
txt
  4

  0
ENDTAB
  0
TABLE
  2
VIEW
  5
6
330
0
100
AcDbSymbolTable
 70
     0
  0
ENDTAB
  0
TABLE
  2
UCS
  5
7
330
0
100
AcDbSymbolTable
 70
     0
  0
ENDTAB
  0
TABLE
  2
APPID
  5
9
330
0
100
AcDbSymbolTable
 70
     2
  0
APPID
  5
12
330
9
100
AcDbSymbolTableRecord
100
AcDbRegAppTableRecord
  2
ACAD
 70
     0
  0
APPID
  5
3F
330
9
100
AcDbSymbolTableRecord
100
AcDbRegAppTableRecord
  2
ODA
 70
     0
  0
ENDTAB
  0
TABLE
  2
DIMSTYLE
  5
A
330
0
100
AcDbSymbolTable
 70
     1
100
AcDbDimStyleTable
  0
DIMSTYLE
105
27
330
A
100
AcDbSymbolTableRecord
100
AcDbDimStyleTableRecord
  2
Standard
 70
     0
178
     0
340
11
  0
ENDTAB
  0
TABLE
  2
BLOCK_RECORD
  5
1
330
0
100
AcDbSymbolTable
 70
     1
  0
BLOCK_RECORD
  5
1F
330
1
100
AcDbSymbolTableRecord
100
AcDbBlockTableRecord
  2
*Model_Space
340
22
 70
     0
280
     1
281
     0
  0
BLOCK_RECORD
  5
1B
330
1
100
AcDbSymbolTableRecord
100
AcDbBlockTableRecord
  2
*Paper_Space
340
1E
 70
     0
280
     1
281
     0
  0
BLOCK_RECORD
  5
23
330
1
100
AcDbSymbolTableRecord
100
AcDbBlockTableRecord
  2
*Paper_Space0
340
26
 70
     0
280
     1
281
     0
  0
ENDTAB
  0
ENDSEC
  0
SECTION
  2
BLOCKS
  0
BLOCK
  5
20
330
1F
100
AcDbEntity
  8
0
100
AcDbBlockBegin
  2
*Model_Space
 70
     0
 10
0.0
 20
0.0
 30
0.0
  3
*Model_Space
  1

  0
ENDBLK
  5
21
330
1F
100
AcDbEntity
  8
0
100
AcDbBlockEnd
  0
BLOCK
  5
1C
330
1B
100
AcDbEntity
 67
     1
  8
0
100
AcDbBlockBegin
  2
*Paper_Space
 70
     0
 10
0.0
 20
0.0
 30
0.0
  3
*Paper_Space
  1

  0
ENDBLK
  5
1D
330
1B
100
AcDbEntity
 67
     1
  8
0
100
AcDbBlockEnd
  0
BLOCK
  5
24
330
23
100
AcDbEntity
  8
0
100
AcDbBlockBegin
  2
*Paper_Space0
 70
     0
 10
0.0
 20
0.0
 30
0.0
  3
*Paper_Space0
  1

  0
ENDBLK
  5
25
330
23
100
AcDbEntity
  8
0
100
AcDbBlockEnd
  0
ENDSEC
  0
SECTION
  2
ENTITIES
  0
SPLINE
  5
41
330
1F
100
AcDbEntity
  8
Layer 1
 62
   250
100
AcDbSpline
210
0.0
220
0.0
230
1.0
 70
    11
 71
     3
 72
    92
 73
    88
 74
     0
 42
0.0000000001
 43
0.0000000001
 12
1.0
 22
0.0
 32
0.0
 13
1.0
 23
0.0
 33
0.0
 40
0.0
 40
0.0
 40
0.0
 40
0.0
 40
0.0434782608695652
 40
0.0434782608695652
 40
0.0434782608695652
 40
0.0434782608695652
 40
0.0869565217391304
 40
0.0869565217391304
 40
0.0869565217391304
 40
0.0869565217391304
 40
0.1304347826086956
 40
0.1304347826086956
 40
0.1304347826086956
 40
0.1304347826086956
 40
0.1739130434782609
 40
0.1739130434782609
 40
0.1739130434782609
 40
0.1739130434782609
 40
0.2173913043478261
 40
0.2173913043478261
 40
0.2173913043478261
 40
0.2173913043478261
 40
0.2608695652173913
 40
0.2608695652173913
 40
0.2608695652173913
 40
0.2608695652173913
 40
0.3043478260869565
 40
0.3043478260869565
 40
0.3043478260869565
 40
0.3043478260869565
 40
0.3478260869565217
 40
0.3478260869565217
 40
0.3478260869565217
 40
0.3478260869565217
 40
0.391304347826087
 40
0.391304347826087
 40
0.391304347826087
 40
0.391304347826087
 40
0.4347826086956522
 40
0.4347826086956522
 40
0.4347826086956522
 40
0.4347826086956522
 40
0.4782608695652174
 40
0.4782608695652174
 40
0.4782608695652174
 40
0.4782608695652174
 40
0.5217391304347826
 40
0.5217391304347826
 40
0.5217391304347826
 40
0.5217391304347826
 40
0.5652173913043478
 40
0.5652173913043478
 40
0.5652173913043478
 40
0.5652173913043478
 40
0.6086956521739131
 40
0.6086956521739131
 40
0.6086956521739131
 40
0.6086956521739131
 40
0.6521739130434783
 40
0.6521739130434783
 40
0.6521739130434783
 40
0.6521739130434783
 40
0.6956521739130435
 40
0.6956521739130435
 40
0.6956521739130435
 40
0.6956521739130435
 40
0.7391304347826086
 40
0.7391304347826086
 40
0.7391304347826086
 40
0.7391304347826086
 40
0.782608695652174
 40
0.782608695652174
 40
0.782608695652174
 40
0.782608695652174
 40
0.8260869565217391
 40
0.8260869565217391
 40
0.8260869565217391
 40
0.8260869565217391
 40
0.8695652173913043
 40
0.8695652173913043
 40
0.8695652173913043
 40
0.8695652173913043
 40
0.9130434782608695
 40
0.9130434782608695
 40
0.9130434782608695
 40
0.9130434782608695
 40
1.0
 40
1.0
 40
1.0
 40
1.0
 10
-2.68068
 20
-7.45079
 30
0.0
 10
-2.68068
 20
-7.45079
 30
0.0
 10
-2.68068
 20
-7.52191
 30
0.0
 10
-2.68068
 20
-7.52191
 30
0.0
 10
-2.68068
 20
-7.52191
 30
0.0
 10
-2.68068
 20
-7.52191
 30
0.0
 10
-3.08201
 20
-7.52191
 30
0.0
 10
-3.08201
 20
-7.52191
 30
0.0
 10
-3.08201
 20
-7.52191
 30
0.0
 10
-3.08257
 20
-7.50399
 30
0.0
 10
-3.07961
 20
-7.48677
 30
0.0
 10
-3.07326
 20
-7.47012
 30
0.0
 10
-3.07326
 20
-7.47012
 30
0.0
 10
-3.06296
 20
-7.44289
 30
0.0
 10
-3.04645
 20
-7.41594
 30
0.0
 10
-3.02373
 20
-7.38955
 30
0.0
 10
-3.02373
 20
-7.38955
 30
0.0
 10
-3.00101
 20
-7.36316
 30
0.0
 10
-2.96855
 20
-7.33268
 30
0.0
 10
-2.92636
 20
-7.29811
 30
0.0
 10
-2.92636
 20
-7.29811
 30
0.0
 10
-2.86074
 20
-7.24406
 30
0.0
 10
-2.81615
 20
-7.2013
 30
0.0
 10
-2.79287
 20
-7.1697
 30
0.0
 10
-2.79287
 20
-7.1697
 30
0.0
 10
-2.76944
 20
-7.13809
 30
0.0
 10
-2.75773
 20
-7.10817
 30
0.0
 10
-2.75773
 20
-7.07995
 30
0.0
 10
-2.75773
 20
-7.07995
 30
0.0
 10
-2.75773
 20
-7.05046
 30
0.0
 10
-2.76832
 20
-7.02562
 30
0.0
 10
-2.78948
 20
-7.0053
 30
0.0
 10
-2.78948
 20
-7.0053
 30
0.0
 10
-2.81065
 20
-6.98512
 30
0.0
 10
-2.83831
 20
-6.97496
 30
0.0
 10
-2.87231
 20
-6.97496
 30
0.0
 10
-2.87231
 20
-6.97496
 30
0.0
 10
-2.9083
 20
-6.97496
 30
0.0
 10
-2.93708
 20
-6.98569
 30
0.0
 10
-2.95867
 20
-7.00713
 30
0.0
 10
-2.95867
 20
-7.00713
 30
0.0
 10
-2.98027
 20
-7.02844
 30
0.0
 10
-2.99113
 20
-7.05808
 30
0.0
 10
-2.99141
 20
-7.09603
 30
0.0
 10
-2.99141
 20
-7.09603
 30
0.0
 10
-2.99141
 20
-7.09603
 30
0.0
 10
-3.06761
 20
-7.08841
 30
0.0
 10
-3.06761
 20
-7.08841
 30
0.0
 10
-3.06761
 20
-7.08841
 30
0.0
 10
-3.06239
 20
-7.03141
 30
0.0
 10
-3.04264
 20
-6.98794
 30
0.0
 10
-3.00849
 20
-6.95803
 30
0.0
 10
-3.00849
 20
-6.95803
 30
0.0
 10
-2.9742
 20
-6.92811
 30
0.0
 10
-2.92834
 20
-6.91315
 30
0.0
 10
-2.87062
 20
-6.91315
 30
0.0
 10
-2.87062
 20
-6.91315
 30
0.0
 10
-2.81248
 20
-6.91315
 30
0.0
 10
-2.76634
 20
-6.92924
 30
0.0
 10
-2.73247
 20
-6.96156
 30
0.0
 10
-2.73247
 20
-6.96156
 30
0.0
 10
-2.69847
 20
-6.99387
 30
0.0
 10
-2.68153
 20
-7.03395
 30
0.0
 10
-2.68153
 20
-7.08164
 30
0.0
 10
-2.68153
 20
-7.08164
 30
0.0
 10
-2.68153
 20
-7.10591
 30
0.0
 10
-2.68647
 20
-7.12976
 30
0.0
 10
-2.69649
 20
-7.15319
 30
0.0
 10
-2.69649
 20
-7.15319
 30
0.0
 10
-2.70637
 20
-7.17675
 30
0.0
 10
-2.72288
 20
-7.20145
 30
0.0
 10
-2.74588
 20
-7.22741
 30
0.0
 10
-2.74588
 20
-7.22741
 30
0.0
 10
-2.76902
 20
-7.25323
 30
0.0
 10
-2.80726
 20
-7.28893
 30
0.0
 10
-2.8606
 20
-7.33409
 30
0.0
 10
-2.8606
 20
-7.33409
 30
0.0
 10
-2.90533
 20
-7.37163
 30
0.0
 10
-2.93412
 20
-7.39703
 30
0.0
 10
-2.94682
 20
-7.41043
 30
0.0
 10
-2.94682
 20
-7.41043
 30
0.0
 10
-2.95952
 20
-7.42384
 30
0.0
 10
-2.96996
 20
-7.43724
 30
0.0
 10
-2.97829
 20
-7.45079
 30
0.0
 10
-2.97829
 20
-7.45079
 30
0.0
 10
-2.97829
 20
-7.45079
 30
0.0
 10
-2.68068
 20
-7.45079
 30
0.0
 10
-2.68068
 20
-7.45079
 30
0.0
  0
SPLINE
  5
42
330
1F
100
AcDbEntity
  8
Layer 1
 62
   250
100
AcDbSpline
210
0.0
220
0.0
230
1.0
 70
    11
 71
     3
 72
    52
 73
    48
 74
     0
 42
0.0000000001
 43
0.0000000001
 12
1.0
 22
0.0
 32
0.0
 13
1.0
 23
0.0
 33
0.0
 40
0.0
 40
0.0
 40
0.0
 40
0.0
 40
0.0769230769230769
 40
0.0769230769230769
 40
0.0769230769230769
 40
0.0769230769230769
 40
0.1538461538461539
 40
0.1538461538461539
 40
0.1538461538461539
 40
0.1538461538461539
 40
0.2307692307692308
 40
0.2307692307692308
 40
0.2307692307692308
 40
0.2307692307692308
 40
0.3076923076923077
 40
0.3076923076923077
 40
0.3076923076923077
 40
0.3076923076923077
 40
0.3846153846153846
 40
0.3846153846153846
 40
0.3846153846153846
 40
0.3846153846153846
 40
0.4615384615384616
 40
0.4615384615384616
 40
0.4615384615384616
 40
0.4615384615384616
 40
0.5384615384615384
 40
0.5384615384615384
 40
0.5384615384615384
 40
0.5384615384615384
 40
0.6153846153846154
 40
0.6153846153846154
 40
0.6153846153846154
 40
0.6153846153846154
 40
0.6923076923076923
 40
0.6923076923076923
 40
0.6923076923076923
 40
0.6923076923076923
 40
0.7692307692307693
 40
0.7692307692307693
 40
0.7692307692307693
 40
0.7692307692307693
 40
0.8461538461538461
 40
0.8461538461538461
 40
0.8461538461538461
 40
0.8461538461538461
 40
1.0
 40
1.0
 40
1.0
 40
1.0
 10
-2.60011
 20
-7.22275
 30
0.0
 10
-2.60011
 20
-7.15121
 30
0.0
 10
-2.59277
 20
-7.09335
 30
0.0
 10
-2.5781
 20
-7.04961
 30
0.0
 10
-2.5781
 20
-7.04961
 30
0.0
 10
-2.56328
 20
-7.00572
 30
0.0
 10
-2.54141
 20
-6.972
 30
0.0
 10
-2.51234
 20
-6.94843
 30
0.0
 10
-2.51234
 20
-6.94843
 30
0.0
 10
-2.48341
 20
-6.92487
 30
0.0
 10
-2.44686
 20
-6.91315
 30
0.0
 10
-2.40284
 20
-6.91315
 30
0.0
 10
-2.40284
 20
-6.91315
 30
0.0
 10
-2.37038
 20
-6.91315
 30
0.0
 10
-2.34188
 20
-6.91965
 30
0.0
 10
-2.31718
 20
-6.93277
 30
0.0
 10
-2.31718
 20
-6.93277
 30
0.0
 10
-2.29263
 20
-6.94589
 30
0.0
 10
-2.27231
 20
-6.9648
 30
0.0
 10
-2.2565
 20
-6.9895
 30
0.0
 10
-2.2565
 20
-6.9895
 30
0.0
 10
-2.2407
 20
-7.01405
 30
0.0
 10
-2.22828
 20
-7.04411
 30
0.0
 10
-2.21925
 20
-7.07952
 30
0.0
 10
-2.21925
 20
-7.07952
 30
0.0
 10
-2.21008
 20
-7.11494
 30
0.0
 10
-2.20556
 20
-7.16278
 30
0.0
 10
-2.20556
 20
-7.22275
 30
0.0
 10
-2.20556
 20
-7.22275
 30
0.0
 10
-2.20556
 20
-7.29387
 30
0.0
 10
-2.2129
 20
-7.35145
 30
0.0
 10
-2.22743
 20
-7.39519
 30
0.0
 10
-2.22743
 20
-7.39519
 30
0.0
 10
-2.24197
 20
-7.43908
 30
0.0
 10
-2.26384
 20
-7.4728
 30
0.0
 10
-2.29291
 20
-7.49651
 30
0.0
 10
-2.29291
 20
-7.49651
 30
0.0
 10
-2.32184
 20
-7.52022
 30
0.0
 10
-2.35853
 20
-7.53207
 30
0.0
 10
-2.40284
 20
-7.53207
 30
0.0
 10
-2.40284
 20
-7.53207
 30
0.0
 10
-2.46111
 20
-7.53207
 30
0.0
 10
-2.50698
 20
-7.51133
 30
0.0
 10
-2.54028
 20
-7.4697
 30
0.0
 10
-2.54028
 20
-7.4697
 30
0.0
 10
-2.58021
 20
-7.4189
 30
0.0
 10
-2.60011
 20
-7.33663
 30
0.0
 10
-2.60011
 20
-7.22275
 30
0.0
  0
SPLINE
  5
43
330
1F
100
AcDbEntity
  8
Layer 1
 62
   250
100
AcDbSpline
210
0.0
220
0.0
230
1.0
 70
    11
 71
     3
 72
    36
 73
    32
 74
     0
 42
0.0000000001
 43
0.0000000001
 12
1.0
 22
0.0
 32
0.0
 13
1.0
 23
0.0
 33
0.0
 40
0.0
 40
0.0
 40
0.0
 40
0.0
 40
0.1111111111111111
 40
0.1111111111111111
 40
0.1111111111111111
 40
0.1111111111111111
 40
0.2222222222222222
 40
0.2222222222222222
 40
0.2222222222222222
 40
0.2222222222222222
 40
0.3333333333333333
 40
0.3333333333333333
 40
0.3333333333333333
 40
0.3333333333333333
 40
0.4444444444444444
 40
0.4444444444444444
 40
0.4444444444444444
 40
0.4444444444444444
 40
0.5555555555555556
 40
0.5555555555555556
 40
0.5555555555555556
 40
0.5555555555555556
 40
0.6666666666666666
 40
0.6666666666666666
 40
0.6666666666666666
 40
0.6666666666666666
 40
0.7777777777777778
 40
0.7777777777777778
 40
0.7777777777777778
 40
0.7777777777777778
 40
1.0
 40
1.0
 40
1.0
 40
1.0
 10
-2.52391
 20
-7.22304
 30
0.0
 10
-2.52391
 20
-7.3228
 30
0.0
 10
-2.51234
 20
-7.38912
 30
0.0
 10
-2.48905
 20
-7.42186
 30
0.0
 10
-2.48905
 20
-7.42186
 30
0.0
 10
-2.46577
 20
-7.45474
 30
0.0
 10
-2.43698
 20
-7.47111
 30
0.0
 10
-2.40284
 20
-7.47111
 30
0.0
 10
-2.40284
 20
-7.47111
 30
0.0
 10
-2.36869
 20
-7.47111
 30
0.0
 10
-2.3399
 20
-7.4546
 30
0.0
 10
-2.31662
 20
-7.42172
 30
0.0
 10
-2.31662
 20
-7.42172
 30
0.0
 10
-2.29333
 20
-7.3887
 30
0.0
 10
-2.28176
 20
-7.32252
 30
0.0
 10
-2.28176
 20
-7.22304
 30
0.0
 10
-2.28176
 20
-7.22304
 30
0.0
 10
-2.28176
 20
-7.12327
 30
0.0
 10
-2.29333
 20
-7.05695
 30
0.0
 10
-2.31662
 20
-7.02421
 30
0.0
 10
-2.31662
 20
-7.02421
 30
0.0
 10
-2.33976
 20
-6.99133
 30
0.0
 10
-2.36883
 20
-6.97496
 30
0.0
 10
-2.40368
 20
-6.97496
 30
0.0
 10
-2.40368
 20
-6.97496
 30
0.0
 10
-2.43783
 20
-6.97496
 30
0.0
 10
-2.46521
 20
-6.9895
 30
0.0
 10
-2.48567
 20
-7.01842
 30
0.0
 10
-2.48567
 20
-7.01842
 30
0.0
 10
-2.51121
 20
-7.05525
 30
0.0
 10
-2.52391
 20
-7.12355
 30
0.0
 10
-2.52391
 20
-7.22304
 30
0.0
  0
SPLINE
  5
44
330
1F
100
AcDbEntity
  8
Layer 1
 62
   250
100
AcDbSpline
210
0.0
220
0.0
230
1.0
 70
    11
 71
     3
 72
   124
 73
   120
 74
     0
 42
0.0000000001
 43
0.0000000001
 12
1.0
 22
0.0
 32
0.0
 13
1.0
 23
0.0
 33
0.0
 40
0.0
 40
0.0
 40
0.0
 40
0.0
 40
0.032258064516129
 40
0.032258064516129
 40
0.032258064516129
 40
0.032258064516129
 40
0.0645161290322581
 40
0.0645161290322581
 40
0.0645161290322581
 40
0.0645161290322581
 40
0.0967741935483871
 40
0.0967741935483871
 40
0.0967741935483871
 40
0.0967741935483871
 40
0.1290322580645161
 40
0.1290322580645161
 40
0.1290322580645161
 40
0.1290322580645161
 40
0.1612903225806452
 40
0.1612903225806452
 40
0.1612903225806452
 40
0.1612903225806452
 40
0.1935483870967742
 40
0.1935483870967742
 40
0.1935483870967742
 40
0.1935483870967742
 40
0.2258064516129032
 40
0.2258064516129032
 40
0.2258064516129032
 40
0.2258064516129032
 40
0.2580645161290323
 40
0.2580645161290323
 40
0.2580645161290323
 40
0.2580645161290323
 40
0.2903225806451613
 40
0.2903225806451613
 40
0.2903225806451613
 40
0.2903225806451613
 40
0.3225806451612903
 40
0.3225806451612903
 40
0.3225806451612903
 40
0.3225806451612903
 40
0.3548387096774194
 40
0.3548387096774194
 40
0.3548387096774194
 40
0.3548387096774194
 40
0.3870967741935484
 40
0.3870967741935484
 40
0.3870967741935484
 40
0.3870967741935484
 40
0.4193548387096774
 40
0.4193548387096774
 40
0.4193548387096774
 40
0.4193548387096774
 40
0.4516129032258064
 40
0.4516129032258064
 40
0.4516129032258064
 40
0.4516129032258064
 40
0.4838709677419355
 40
0.4838709677419355
 40
0.4838709677419355
 40
0.4838709677419355
 40
0.5161290322580645
 40
0.5161290322580645
 40
0.5161290322580645
 40
0.5161290322580645
 40
0.5483870967741935
 40
0.5483870967741935
 40
0.5483870967741935
 40
0.5483870967741935
 40
0.5806451612903226
 40
0.5806451612903226
 40
0.5806451612903226
 40
0.5806451612903226
 40
0.6129032258064516
 40
0.6129032258064516
 40
0.6129032258064516
 40
0.6129032258064516
 40
0.6451612903225806
 40
0.6451612903225806
 40
0.6451612903225806
 40
0.6451612903225806
 40
0.6774193548387096
 40
0.6774193548387096
 40
0.6774193548387096
 40
0.6774193548387096
 40
0.7096774193548387
 40
0.7096774193548387
 40
0.7096774193548387
 40
0.7096774193548387
 40
0.7419354838709677
 40
0.7419354838709677
 40
0.7419354838709677
 40
0.7419354838709677
 40
0.7741935483870968
 40
0.7741935483870968
 40
0.7741935483870968
 40
0.7741935483870968
 40
0.8064516129032258
 40
0.8064516129032258
 40
0.8064516129032258
 40
0.8064516129032258
 40
0.8387096774193549
 40
0.8387096774193549
 40
0.8387096774193549
 40
0.8387096774193549
 40
0.8709677419354839
 40
0.8709677419354839
 40
0.8709677419354839
 40
0.8709677419354839
 40
0.9032258064516129
 40
0.9032258064516129
 40
0.9032258064516129
 40
0.9032258064516129
 40
0.9354838709677419
 40
0.9354838709677419
 40
0.9354838709677419
 40
0.9354838709677419
 40
1.0
 40
1.0
 40
1.0
 40
1.0
 10
-2.12922
 20
-7.36104
 30
0.0
 10
-2.12922
 20
-7.36104
 30
0.0
 10
-2.05471
 20
-7.35088
 30
0.0
 10
-2.05471
 20
-7.35088
 30
0.0
 10
-2.05471
 20
-7.35088
 30
0.0
 10
-2.04611
 20
-7.39322
 30
0.0
 10
-2.03171
 20
-7.4237
 30
0.0
 10
-2.01125
 20
-7.44232
 30
0.0
 10
-2.01125
 20
-7.44232
 30
0.0
 10
-1.99079
 20
-7.46095
 30
0.0
 10
-1.96567
 20
-7.47026
 30
0.0
 10
-1.9359
 20
-7.47026
 30
0.0
 10
-1.9359
 20
-7.47026
 30
0.0
 10
-1.90062
 20
-7.47026
 30
0.0
 10
-1.87084
 20
-7.45813
 30
0.0
 10
-1.84686
 20
-7.43386
 30
0.0
 10
-1.84686
 20
-7.43386
 30
0.0
 10
-1.82287
 20
-7.40959
 30
0.0
 10
-1.81087
 20
-7.37953
 30
0.0
 10
-1.81087
 20
-7.34369
 30
0.0
 10
-1.81087
 20
-7.34369
 30
0.0
 10
-1.81087
 20
-7.30954
 30
0.0
 10
-1.82202
 20
-7.28131
 30
0.0
 10
-1.84446
 20
-7.25902
 30
0.0
 10
-1.84446
 20
-7.25902
 30
0.0
 10
-1.86675
 20
-7.23686
 30
0.0
 10
-1.89512
 20
-7.22572
 30
0.0
 10
-1.92969
 20
-7.22572
 30
0.0
 10
-1.92969
 20
-7.22572
 30
0.0
 10
-1.9438
 20
-7.22572
 30
0.0
 10
-1.9613
 20
-7.22854
 30
0.0
 10
-1.98232
 20
-7.23404
 30
0.0
 10
-1.98232
 20
-7.23404
 30
0.0
 10
-1.98232
 20
-7.23404
 30
0.0
 10
-1.974
 20
-7.16885
 30
0.0
 10
-1.974
 20
-7.16885
 30
0.0
 10
-1.974
 20
-7.16885
 30
0.0
 10
-1.96906
 20
-7.16941
 30
0.0
 10
-1.96497
 20
-7.1697
 30
0.0
 10
-1.962
 20
-7.1697
 30
0.0
 10
-1.962
 20
-7.1697
 30
0.0
 10
-1.93011
 20
-7.1697
 30
0.0
 10
-1.90161
 20
-7.16137
 30
0.0
 10
-1.87607
 20
-7.14486
 30
0.0
 10
-1.87607
 20
-7.14486
 30
0.0
 10
-1.85067
 20
-7.12835
 30
0.0
 10
-1.83797
 20
-7.10295
 30
0.0
 10
-1.83797
 20
-7.06866
 30
0.0
 10
-1.83797
 20
-7.06866
 30
0.0
 10
-1.83797
 20
-7.04142
 30
0.0
 10
-1.84728
 20
-7.01885
 30
0.0
 10
-1.86576
 20
-7.00093
 30
0.0
 10
-1.86576
 20
-7.00093
 30
0.0
 10
-1.88425
 20
-6.983
 30
0.0
 10
-1.9081
 20
-6.97411
 30
0.0
 10
-1.93731
 20
-6.97411
 30
0.0
 10
-1.93731
 20
-6.97411
 30
0.0
 10
-1.96638
 20
-6.97411
 30
0.0
 10
-1.99051
 20
-6.98329
 30
0.0
 10
-2.00984
 20
-7.00163
 30
0.0
 10
-2.00984
 20
-7.00163
 30
0.0
 10
-2.02917
 20
-7.01998
 30
0.0
 10
-2.04159
 20
-7.04749
 30
0.0
 10
-2.04709
 20
-7.08418
 30
0.0
 10
-2.04709
 20
-7.08418
 30
0.0
 10
-2.04709
 20
-7.08418
 30
0.0
 10
-2.1216
 20
-7.07063
 30
0.0
 10
-2.1216
 20
-7.07063
 30
0.0
 10
-2.1216
 20
-7.07063
 30
0.0
 10
-2.11243
 20
-7.02068
 30
0.0
 10
-2.09183
 20
-6.98188
 30
0.0
 10
-2.05951
 20
-6.95436
 30
0.0
 10
-2.05951
 20
-6.95436
 30
0.0
 10
-2.02734
 20
-6.92684
 30
0.0
 10
-1.98712
 20
-6.91315
 30
0.0
 10
-1.93914
 20
-6.91315
 30
0.0
 10
-1.93914
 20
-6.91315
 30
0.0
 10
-1.90612
 20
-6.91315
 30
0.0
 10
-1.87564
 20
-6.92021
 30
0.0
 10
-1.84784
 20
-6.93446
 30
0.0
 10
-1.84784
 20
-6.93446
 30
0.0
 10
-1.8199
 20
-6.94857
 30
0.0
 10
-1.7986
 20
-6.96791
 30
0.0
 10
-1.78392
 20
-6.99232
 30
0.0
 10
-1.78392
 20
-6.99232
 30
0.0
 10
-1.7691
 20
-7.01687
 30
0.0
 10
-1.76177
 20
-7.04284
 30
0.0
 10
-1.76177
 20
-7.07035
 30
0.0
 10
-1.76177
 20
-7.07035
 30
0.0
 10
-1.76177
 20
-7.09646
 30
0.0
 10
-1.76882
 20
-7.12017
 30
0.0
 10
-1.78279
 20
-7.14161
 30
0.0
 10
-1.78279
 20
-7.14161
 30
0.0
 10
-1.7969
 20
-7.16306
 30
0.0
 10
-1.81779
 20
-7.18014
 30
0.0
 10
-1.8453
 20
-7.19284
 30
0.0
 10
-1.8453
 20
-7.19284
 30
0.0
 10
-1.80946
 20
-7.20102
 30
0.0
 10
-1.78166
 20
-7.21824
 30
0.0
 10
-1.76177
 20
-7.24434
 30
0.0
 10
-1.76177
 20
-7.24434
 30
0.0
 10
-1.74201
 20
-7.27031
 30
0.0
 10
-1.73213
 20
-7.30305
 30
0.0
 10
-1.73213
 20
-7.34213
 30
0.0
 10
-1.73213
 20
-7.34213
 30
0.0
 10
-1.73213
 20
-7.39505
 30
0.0
 10
-1.75146
 20
-7.44007
 30
0.0
 10
-1.78999
 20
-7.4769
 30
0.0
 10
-1.78999
 20
-7.4769
 30
0.0
 10
-1.82865
 20
-7.51373
 30
0.0
 10
-1.87748
 20
-7.53207
 30
0.0
 10
-1.93646
 20
-7.53207
 30
0.0
 10
-1.93646
 20
-7.53207
 30
0.0
 10
-1.98966
 20
-7.53207
 30
0.0
 10
-2.03383
 20
-7.51612
 30
0.0
 10
-2.06897
 20
-7.48437
 30
0.0
 10
-2.06897
 20
-7.48437
 30
0.0
 10
-2.10424
 20
-7.45262
 30
0.0
 10
-2.12428
 20
-7.41156
 30
0.0
 10
-2.12922
 20
-7.36104
 30
0.0
  0
SPLINE
  5
45
330
1F
100
AcDbEntity
  8
Layer 1
 62
   250
100
AcDbSpline
210
0.0
220
0.0
230
1.0
 70
    11
 71
     3
 72
   124
 73
   120
 74
     0
 42
0.0000000001
 43
0.0000000001
 12
1.0
 22
0.0
 32
0.0
 13
1.0
 23
0.0
 33
0.0
 40
0.0
 40
0.0
 40
0.0
 40
0.0
 40
0.032258064516129
 40
0.032258064516129
 40
0.032258064516129
 40
0.032258064516129
 40
0.0645161290322581
 40
0.0645161290322581
 40
0.0645161290322581
 40
0.0645161290322581
 40
0.0967741935483871
 40
0.0967741935483871
 40
0.0967741935483871
 40
0.0967741935483871
 40
0.1290322580645161
 40
0.1290322580645161
 40
0.1290322580645161
 40
0.1290322580645161
 40
0.1612903225806452
 40
0.1612903225806452
 40
0.1612903225806452
 40
0.1612903225806452
 40
0.1935483870967742
 40
0.1935483870967742
 40
0.1935483870967742
 40
0.1935483870967742
 40
0.2258064516129032
 40
0.2258064516129032
 40
0.2258064516129032
 40
0.2258064516129032
 40
0.2580645161290323
 40
0.2580645161290323
 40
0.2580645161290323
 40
0.2580645161290323
 40
0.2903225806451613
 40
0.2903225806451613
 40
0.2903225806451613
 40
0.2903225806451613
 40
0.3225806451612903
 40
0.3225806451612903
 40
0.3225806451612903
 40
0.3225806451612903
 40
0.3548387096774194
 40
0.3548387096774194
 40
0.3548387096774194
 40
0.3548387096774194
 40
0.3870967741935484
 40
0.3870967741935484
 40
0.3870967741935484
 40
0.3870967741935484
 40
0.4193548387096774
 40
0.4193548387096774
 40
0.4193548387096774
 40
0.4193548387096774
 40
0.4516129032258064
 40
0.4516129032258064
 40
0.4516129032258064
 40
0.4516129032258064
 40
0.4838709677419355
 40
0.4838709677419355
 40
0.4838709677419355
 40
0.4838709677419355
 40
0.5161290322580645
 40
0.5161290322580645
 40
0.5161290322580645
 40
0.5161290322580645
 40
0.5483870967741935
 40
0.5483870967741935
 40
0.5483870967741935
 40
0.5483870967741935
 40
0.5806451612903226
 40
0.5806451612903226
 40
0.5806451612903226
 40
0.5806451612903226
 40
0.6129032258064516
 40
0.6129032258064516
 40
0.6129032258064516
 40
0.6129032258064516
 40
0.6451612903225806
 40
0.6451612903225806
 40
0.6451612903225806
 40
0.6451612903225806
 40
0.6774193548387096
 40
0.6774193548387096
 40
0.6774193548387096
 40
0.6774193548387096
 40
0.7096774193548387
 40
0.7096774193548387
 40
0.7096774193548387
 40
0.7096774193548387
 40
0.7419354838709677
 40
0.7419354838709677
 40
0.7419354838709677
 40
0.7419354838709677
 40
0.7741935483870968
 40
0.7741935483870968
 40
0.7741935483870968
 40
0.7741935483870968
 40
0.8064516129032258
 40
0.8064516129032258
 40
0.8064516129032258
 40
0.8064516129032258
 40
0.8387096774193549
 40
0.8387096774193549
 40
0.8387096774193549
 40
0.8387096774193549
 40
0.8709677419354839
 40
0.8709677419354839
 40
0.8709677419354839
 40
0.8709677419354839
 40
0.9032258064516129
 40
0.9032258064516129
 40
0.9032258064516129
 40
0.9032258064516129
 40
0.9354838709677419
 40
0.9354838709677419
 40
0.9354838709677419
 40
0.9354838709677419
 40
1.0
 40
1.0
 40
1.0
 40
1.0
 10
-1.65833
 20
-7.36104
 30
0.0
 10
-1.65833
 20
-7.36104
 30
0.0
 10
-1.58382
 20
-7.35088
 30
0.0
 10
-1.58382
 20
-7.35088
 30
0.0
 10
-1.58382
 20
-7.35088
 30
0.0
 10
-1.57522
 20
-7.39322
 30
0.0
 10
-1.56082
 20
-7.4237
 30
0.0
 10
-1.54036
 20
-7.44232
 30
0.0
 10
-1.54036
 20
-7.44232
 30
0.0
 10
-1.5199
 20
-7.46095
 30
0.0
 10
-1.49478
 20
-7.47026
 30
0.0
 10
-1.46501
 20
-7.47026
 30
0.0
 10
-1.46501
 20
-7.47026
 30
0.0
 10
-1.42973
 20
-7.47026
 30
0.0
 10
-1.39995
 20
-7.45813
 30
0.0
 10
-1.37597
 20
-7.43386
 30
0.0
 10
-1.37597
 20
-7.43386
 30
0.0
 10
-1.35198
 20
-7.40959
 30
0.0
 10
-1.33998
 20
-7.37953
 30
0.0
 10
-1.33998
 20
-7.34369
 30
0.0
 10
-1.33998
 20
-7.34369
 30
0.0
 10
-1.33998
 20
-7.30954
 30
0.0
 10
-1.35113
 20
-7.28131
 30
0.0
 10
-1.37357
 20
-7.25902
 30
0.0
 10
-1.37357
 20
-7.25902
 30
0.0
 10
-1.39586
 20
-7.23686
 30
0.0
 10
-1.42423
 20
-7.22572
 30
0.0
 10
-1.4588
 20
-7.22572
 30
0.0
 10
-1.4588
 20
-7.22572
 30
0.0
 10
-1.47291
 20
-7.22572
 30
0.0
 10
-1.49041
 20
-7.22854
 30
0.0
 10
-1.51143
 20
-7.23404
 30
0.0
 10
-1.51143
 20
-7.23404
 30
0.0
 10
-1.51143
 20
-7.23404
 30
0.0
 10
-1.50311
 20
-7.16885
 30
0.0
 10
-1.50311
 20
-7.16885
 30
0.0
 10
-1.50311
 20
-7.16885
 30
0.0
 10
-1.49817
 20
-7.16941
 30
0.0
 10
-1.49408
 20
-7.1697
 30
0.0
 10
-1.49111
 20
-7.1697
 30
0.0
 10
-1.49111
 20
-7.1697
 30
0.0
 10
-1.45922
 20
-7.1697
 30
0.0
 10
-1.43072
 20
-7.16137
 30
0.0
 10
-1.40518
 20
-7.14486
 30
0.0
 10
-1.40518
 20
-7.14486
 30
0.0
 10
-1.37978
 20
-7.12835
 30
0.0
 10
-1.36708
 20
-7.10295
 30
0.0
 10
-1.36708
 20
-7.06866
 30
0.0
 10
-1.36708
 20
-7.06866
 30
0.0
 10
-1.36708
 20
-7.04142
 30
0.0
 10
-1.37639
 20
-7.01885
 30
0.0
 10
-1.39487
 20
-7.00093
 30
0.0
 10
-1.39487
 20
-7.00093
 30
0.0
 10
-1.41336
 20
-6.983
 30
0.0
 10
-1.43721
 20
-6.97411
 30
0.0
 10
-1.46642
 20
-6.97411
 30
0.0
 10
-1.46642
 20
-6.97411
 30
0.0
 10
-1.49549
 20
-6.97411
 30
0.0
 10
-1.51962
 20
-6.98329
 30
0.0
 10
-1.53895
 20
-7.00163
 30
0.0
 10
-1.53895
 20
-7.00163
 30
0.0
 10
-1.55828
 20
-7.01998
 30
0.0
 10
-1.5707
 20
-7.04749
 30
0.0
 10
-1.5762
 20
-7.08418
 30
0.0
 10
-1.5762
 20
-7.08418
 30
0.0
 10
-1.5762
 20
-7.08418
 30
0.0
 10
-1.65071
 20
-7.07063
 30
0.0
 10
-1.65071
 20
-7.07063
 30
0.0
 10
-1.65071
 20
-7.07063
 30
0.0
 10
-1.64154
 20
-7.02068
 30
0.0
 10
-1.62094
 20
-6.98188
 30
0.0
 10
-1.58862
 20
-6.95436
 30
0.0
 10
-1.58862
 20
-6.95436
 30
0.0
 10
-1.55645
 20
-6.92684
 30
0.0
 10
-1.51623
 20
-6.91315
 30
0.0
 10
-1.46825
 20
-6.91315
 30
0.0
 10
-1.46825
 20
-6.91315
 30
0.0
 10
-1.43523
 20
-6.91315
 30
0.0
 10
-1.40475
 20
-6.92021
 30
0.0
 10
-1.37695
 20
-6.93446
 30
0.0
 10
-1.37695
 20
-6.93446
 30
0.0
 10
-1.34901
 20
-6.94857
 30
0.0
 10
-1.32771
 20
-6.96791
 30
0.0
 10
-1.31303
 20
-6.99232
 30
0.0
 10
-1.31303
 20
-6.99232
 30
0.0
 10
-1.29821
 20
-7.01687
 30
0.0
 10
-1.29088
 20
-7.04284
 30
0.0
 10
-1.29088
 20
-7.07035
 30
0.0
 10
-1.29088
 20
-7.07035
 30
0.0
 10
-1.29088
 20
-7.09646
 30
0.0
 10
-1.29793
 20
-7.12017
 30
0.0
 10
-1.3119
 20
-7.14161
 30
0.0
 10
-1.3119
 20
-7.14161
 30
0.0
 10
-1.32601
 20
-7.16306
 30
0.0
 10
-1.3469
 20
-7.18014
 30
0.0
 10
-1.37441
 20
-7.19284
 30
0.0
 10
-1.37441
 20
-7.19284
 30
0.0
 10
-1.33857
 20
-7.20102
 30
0.0
 10
-1.31077
 20
-7.21824
 30
0.0
 10
-1.29088
 20
-7.24434
 30
0.0
 10
-1.29088
 20
-7.24434
 30
0.0
 10
-1.27112
 20
-7.27031
 30
0.0
 10
-1.26124
 20
-7.30305
 30
0.0
 10
-1.26124
 20
-7.34213
 30
0.0
 10
-1.26124
 20
-7.34213
 30
0.0
 10
-1.26124
 20
-7.39505
 30
0.0
 10
-1.28057
 20
-7.44007
 30
0.0
 10
-1.3191
 20
-7.4769
 30
0.0
 10
-1.3191
 20
-7.4769
 30
0.0
 10
-1.35776
 20
-7.51373
 30
0.0
 10
-1.40659
 20
-7.53207
 30
0.0
 10
-1.46557
 20
-7.53207
 30
0.0
 10
-1.46557
 20
-7.53207
 30
0.0
 10
-1.51877
 20
-7.53207
 30
0.0
 10
-1.56294
 20
-7.51612
 30
0.0
 10
-1.59808
 20
-7.48437
 30
0.0
 10
-1.59808
 20
-7.48437
 30
0.0
 10
-1.63335
 20
-7.45262
 30
0.0
 10
-1.65339
 20
-7.41156
 30
0.0
 10
-1.65833
 20
-7.36104
 30
0.0
  0
SPLINE
  5
46
330
1F
100
AcDbEntity
  8
Layer 1
 62
   250
100
AcDbSpline
210
0.0
220
0.0
230
1.0
 70
    11
 71
     3
 72
    40
 73
    36
 74
     0
 42
0.0000000001
 43
0.0000000001
 12
1.0
 22
0.0
 32
0.0
 13
1.0
 23
0.0
 33
0.0
 40
0.0
 40
0.0
 40
0.0
 40
0.0
 40
0.1
 40
0.1
 40
0.1
 40
0.1
 40
0.2
 40
0.2
 40
0.2
 40
0.2
 40
0.3
 40
0.3
 40
0.3
 40
0.3
 40
0.4
 40
0.4
 40
0.4
 40
0.4
 40
0.5
 40
0.5
 40
0.5
 40
0.5
 40
0.6
 40
0.6
 40
0.6
 40
0.6
 40
0.7
 40
0.7
 40
0.7
 40
0.7
 40
0.8
 40
0.8
 40
0.8
 40
0.8
 40
1.0
 40
1.0
 40
1.0
 40
1.0
 10
-0.90804
 20
-7.52191
 30
0.0
 10
-0.90804
 20
-7.52191
 30
0.0
 10
-0.98255
 20
-7.52191
 30
0.0
 10
-0.98255
 20
-7.52191
 30
0.0
 10
-0.98255
 20
-7.52191
 30
0.0
 10
-0.98255
 20
-7.52191
 30
0.0
 10
-0.98255
 20
-7.04749
 30
0.0
 10
-0.98255
 20
-7.04749
 30
0.0
 10
-0.98255
 20
-7.04749
 30
0.0
 10
-1.00047
 20
-7.06471
 30
0.0
 10
-1.02403
 20
-7.08178
 30
0.0
 10
-1.0531
 20
-7.09886
 30
0.0
 10
-1.0531
 20
-7.09886
 30
0.0
 10
-1.08217
 20
-7.11593
 30
0.0
 10
-1.10842
 20
-7.12877
 30
0.0
 10
-1.13156
 20
-7.13724
 30
0.0
 10
-1.13156
 20
-7.13724
 30
0.0
 10
-1.13156
 20
-7.13724
 30
0.0
 10
-1.13156
 20
-7.06527
 30
0.0
 10
-1.13156
 20
-7.06527
 30
0.0
 10
-1.13156
 20
-7.06527
 30
0.0
 10
-1.08993
 20
-7.0458
 30
0.0
 10
-1.05352
 20
-7.02209
 30
0.0
 10
-1.02234
 20
-6.99415
 30
0.0
 10
-1.02234
 20
-6.99415
 30
0.0
 10
-0.99115
 20
-6.96635
 30
0.0
 10
-0.969
 20
-6.9394
 30
0.0
 10
-0.95602
 20
-6.91315
 30
0.0
 10
-0.95602
 20
-6.91315
 30
0.0
 10
-0.95602
 20
-6.91315
 30
0.0
 10
-0.90804
 20
-6.91315
 30
0.0
 10
-0.90804
 20
-6.91315
 30
0.0
 10
-0.90804
 20
-6.91315
 30
0.0
 10
-0.90804
 20
-6.91315
 30
0.0
 10
-0.90804
 20
-7.52191
 30
0.0
 10
-0.90804
 20
-7.52191
 30
0.0
  0
SPLINE
  5
47
330
1F
100
AcDbEntity
  8
Layer 1
 62
   250
100
AcDbSpline
210
0.0
220
0.0
230
1.0
 70
    11
 71
     3
 72
    48
 73
    44
 74
     0
 42
0.0000000001
 43
0.0000000001
 12
1.0
 22
0.0
 32
0.0
 13
1.0
 23
0.0
 33
0.0
 40
0.0
 40
0.0
 40
0.0
 40
0.0
 40
0.0833333333333333
 40
0.0833333333333333
 40
0.0833333333333333
 40
0.0833333333333333
 40
0.1666666666666667
 40
0.1666666666666667
 40
0.1666666666666667
 40
0.1666666666666667
 40
0.25
 40
0.25
 40
0.25
 40
0.25
 40
0.3333333333333333
 40
0.3333333333333333
 40
0.3333333333333333
 40
0.3333333333333333
 40
0.4166666666666667
 40
0.4166666666666667
 40
0.4166666666666667
 40
0.4166666666666667
 40
0.5
 40
0.5
 40
0.5
 40
0.5
 40
0.5833333333333334
 40
0.5833333333333334
 40
0.5833333333333334
 40
0.5833333333333334
 40
0.6666666666666666
 40
0.6666666666666666
 40
0.6666666666666666
 40
0.6666666666666666
 40
0.75
 40
0.75
 40
0.75
 40
0.75
 40
0.8333333333333334
 40
0.8333333333333334
 40
0.8333333333333334
 40
0.8333333333333334
 40
1.0
 40
1.0
 40
1.0
 40
1.0
 10
-0.71232
 20
-6.99443
 30
0.0
 10
-0.71232
 20
-6.99443
 30
0.0
 10
-0.71232
 20
-6.92331
 30
0.0
 10
-0.71232
 20
-6.92331
 30
0.0
 10
-0.71232
 20
-6.92331
 30
0.0
 10
-0.71232
 20
-6.92331
 30
0.0
 10
-0.32031
 20
-6.92331
 30
0.0
 10
-0.32031
 20
-6.92331
 30
0.0
 10
-0.32031
 20
-6.92331
 30
0.0
 10
-0.32031
 20
-6.92331
 30
0.0
 10
-0.32031
 20
-6.98089
 30
0.0
 10
-0.32031
 20
-6.98089
 30
0.0
 10
-0.32031
 20
-6.98089
 30
0.0
 10
-0.35883
 20
-7.02195
 30
0.0
 10
-0.39721
 20
-7.07656
 30
0.0
 10
-0.43503
 20
-7.14472
 30
0.0
 10
-0.43503
 20
-7.14472
 30
0.0
 10
-0.47299
 20
-7.21288
 30
0.0
 10
-0.5022
 20
-7.28301
 30
0.0
 10
-0.52294
 20
-7.35512
 30
0.0
 10
-0.52294
 20
-7.35512
 30
0.0
 10
-0.53776
 20
-7.40578
 30
0.0
 10
-0.54736
 20
-7.46151
 30
0.0
 10
-0.55145
 20
-7.52191
 30
0.0
 10
-0.55145
 20
-7.52191
 30
0.0
 10
-0.55145
 20
-7.52191
 30
0.0
 10
-0.62765
 20
-7.52191
 30
0.0
 10
-0.62765
 20
-7.52191
 30
0.0
 10
-0.62765
 20
-7.52191
 30
0.0
 10
-0.6268
 20
-7.47421
 30
0.0
 10
-0.61749
 20
-7.4165
 30
0.0
 10
-0.59957
 20
-7.34891
 30
0.0
 10
-0.59957
 20
-7.34891
 30
0.0
 10
-0.58165
 20
-7.28117
 30
0.0
 10
-0.55611
 20
-7.21598
 30
0.0
 10
-0.52266
 20
-7.15319
 30
0.0
 10
-0.52266
 20
-7.15319
 30
0.0
 10
-0.48922
 20
-7.09039
 30
0.0
 10
-0.45366
 20
-7.03747
 30
0.0
 10
-0.41598
 20
-6.99443
 30
0.0
 10
-0.41598
 20
-6.99443
 30
0.0
 10
-0.41598
 20
-6.99443
 30
0.0
 10
-0.71232
 20
-6.99443
 30
0.0
 10
-0.71232
 20
-6.99443
 30
0.0
  0
SPLINE
  5
48
330
1F
100
AcDbEntity
  8
Layer 1
 62
   250
100
AcDbSpline
210
0.0
220
0.0
230
1.0
 70
    11
 71
     3
 72
    20
 73
    16
 74
     0
 42
0.0000000001
 43
0.0000000001
 12
1.0
 22
0.0
 32
0.0
 13
1.0
 23
0.0
 33
0.0
 40
0.0
 40
0.0
 40
0.0
 40
0.0
 40
0.2
 40
0.2
 40
0.2
 40
0.2
 40
0.4
 40
0.4
 40
0.4
 40
0.4
 40
0.6
 40
0.6
 40
0.6
 40
0.6
 40
1.0
 40
1.0
 40
1.0
 40
1.0
 10
-0.25497
 20
-7.33988
 30
0.0
 10
-0.25497
 20
-7.33988
 30
0.0
 10
-0.25497
 20
-7.26537
 30
0.0
 10
-0.25497
 20
-7.26537
 30
0.0
 10
-0.25497
 20
-7.26537
 30
0.0
 10
-0.25497
 20
-7.26537
 30
0.0
 10
-0.02468
 20
-7.26537
 30
0.0
 10
-0.02468
 20
-7.26537
 30
0.0
 10
-0.02468
 20
-7.26537
 30
0.0
 10
-0.02468
 20
-7.26537
 30
0.0
 10
-0.02468
 20
-7.33988
 30
0.0
 10
-0.02468
 20
-7.33988
 30
0.0
 10
-0.02468
 20
-7.33988
 30
0.0
 10
-0.02468
 20
-7.33988
 30
0.0
 10
-0.25497
 20
-7.33988
 30
0.0
 10
-0.25497
 20
-7.33988
 30
0.0
  0
SPLINE
  5
49
330
1F
100
AcDbEntity
  8
Layer 1
 62
   250
100
AcDbSpline
210
0.0
220
0.0
230
1.0
 70
    11
 71
     3
 72
    80
 73
    76
 74
     0
 42
0.0000000001
 43
0.0000000001
 12
1.0
 22
0.0
 32
0.0
 13
1.0
 23
0.0
 33
0.0
 40
0.0
 40
0.0
 40
0.0
 40
0.0
 40
0.05
 40
0.05
 40
0.05
 40
0.05
 40
0.1
 40
0.1
 40
0.1
 40
0.1
 40
0.15
 40
0.15
 40
0.15
 40
0.15
 40
0.2
 40
0.2
 40
0.2
 40
0.2
 40
0.25
 40
0.25
 40
0.25
 40
0.25
 40
0.3
 40
0.3
 40
0.3
 40
0.3
 40
0.35
 40
0.35
 40
0.35
 40
0.35
 40
0.4
 40
0.4
 40
0.4
 40
0.4
 40
0.45
 40
0.45
 40
0.45
 40
0.45
 40
0.5
 40
0.5
 40
0.5
 40
0.5
 40
0.55
 40
0.55
 40
0.55
 40
0.55
 40
0.6
 40
0.6
 40
0.6
 40
0.6
 40
0.65
 40
0.65
 40
0.65
 40
0.65
 40
0.7
 40
0.7
 40
0.7
 40
0.7
 40
0.75
 40
0.75
 40
0.75
 40
0.75
 40
0.8
 40
0.8
 40
0.8
 40
0.8
 40
0.85
 40
0.85
 40
0.85
 40
0.85
 40
0.9
 40
0.9
 40
0.9
 40
0.9
 40
1.0
 40
1.0
 40
1.0
 40
1.0
 10
0.06761
 20
-7.52191
 30
0.0
 10
0.06761
 20
-7.52191
 30
0.0
 10
0.06761
 20
-6.91569
 30
0.0
 10
0.06761
 20
-6.91569
 30
0.0
 10
0.06761
 20
-6.91569
 30
0.0
 10
0.06761
 20
-6.91569
 30
0.0
 10
0.33628
 20
-6.91569
 30
0.0
 10
0.33628
 20
-6.91569
 30
0.0
 10
0.33628
 20
-6.91569
 30
0.0
 10
0.39033
 20
-6.91569
 30
0.0
 10
0.43139
 20
-6.9212
 30
0.0
 10
0.45947
 20
-6.93206
 30
0.0
 10
0.45947
 20
-6.93206
 30
0.0
 10
0.48756
 20
-6.94293
 30
0.0
 10
0.50999
 20
-6.96212
 30
0.0
 10
0.52678
 20
-6.98964
 30
0.0
 10
0.52678
 20
-6.98964
 30
0.0
 10
0.54358
 20
-7.01715
 30
0.0
 10
0.5519
 20
-7.04763
 30
0.0
 10
0.5519
 20
-7.08094
 30
0.0
 10
0.5519
 20
-7.08094
 30
0.0
 10
0.5519
 20
-7.12398
 30
0.0
 10
0.53793
 20
-7.16024
 30
0.0
 10
0.51013
 20
-7.18973
 30
0.0
 10
0.51013
 20
-7.18973
 30
0.0
 10
0.48233
 20
-7.21923
 30
0.0
 10
0.43944
 20
-7.23785
 30
0.0
 10
0.3813
 20
-7.2459
 30
0.0
 10
0.3813
 20
-7.2459
 30
0.0
 10
0.40261
 20
-7.25606
 30
0.0
 10
0.41869
 20
-7.26622
 30
0.0
 10
0.4297
 20
-7.27609
 30
0.0
 10
0.4297
 20
-7.27609
 30
0.0
 10
0.45312
 20
-7.29754
 30
0.0
 10
0.47528
 20
-7.32449
 30
0.0
 10
0.49602
 20
-7.35681
 30
0.0
 10
0.49602
 20
-7.35681
 30
0.0
 10
0.49602
 20
-7.35681
 30
0.0
 10
0.60087
 20
-7.52191
 30
0.0
 10
0.60087
 20
-7.52191
 30
0.0
 10
0.60087
 20
-7.52191
 30
0.0
 10
0.60087
 20
-7.52191
 30
0.0
 10
0.50068
 20
-7.52191
 30
0.0
 10
0.50068
 20
-7.52191
 30
0.0
 10
0.50068
 20
-7.52191
 30
0.0
 10
0.50068
 20
-7.52191
 30
0.0
 10
0.42053
 20
-7.39576
 30
0.0
 10
0.42053
 20
-7.39576
 30
0.0
 10
0.42053
 20
-7.39576
 30
0.0
 10
0.39724
 20
-7.35921
 30
0.0
 10
0.37791
 20
-7.33141
 30
0.0
 10
0.36281
 20
-7.31208
 30
0.0
 10
0.36281
 20
-7.31208
 30
0.0
 10
0.34757
 20
-7.29274
 30
0.0
 10
0.33403
 20
-7.27934
 30
0.0
 10
0.32203
 20
-7.27158
 30
0.0
 10
0.32203
 20
-7.27158
 30
0.0
 10
0.31018
 20
-7.26396
 30
0.0
 10
0.2979
 20
-7.2586
 30
0.0
 10
0.28548
 20
-7.25549
 30
0.0
 10
0.28548
 20
-7.25549
 30
0.0
 10
0.27645
 20
-7.25366
 30
0.0
 10
0.26164
 20
-7.25267
 30
0.0
 10
0.24089
 20
-7.25267
 30
0.0
 10
0.24089
 20
-7.25267
 30
0.0
 10
0.24089
 20
-7.25267
 30
0.0
 10
0.14804
 20
-7.25267
 30
0.0
 10
0.14804
 20
-7.25267
 30
0.0
 10
0.14804
 20
-7.25267
 30
0.0
 10
0.14804
 20
-7.25267
 30
0.0
 10
0.14804
 20
-7.52191
 30
0.0
 10
0.14804
 20
-7.52191
 30
0.0
 10
0.14804
 20
-7.52191
 30
0.0
 10
0.14804
 20
-7.52191
 30
0.0
 10
0.06761
 20
-7.52191
 30
0.0
 10
0.06761
 20
-7.52191
 30
0.0
  0
SPLINE
  5
4A
330
1F
100
AcDbEntity
  8
Layer 1
 62
   250
100
AcDbSpline
210
0.0
220
0.0
230
1.0
 70
    11
 71
     3
 72
    36
 73
    32
 74
     0
 42
0.0000000001
 43
0.0000000001
 12
1.0
 22
0.0
 32
0.0
 13
1.0
 23
0.0
 33
0.0
 40
0.0
 40
0.0
 40
0.0
 40
0.0
 40
0.1111111111111111
 40
0.1111111111111111
 40
0.1111111111111111
 40
0.1111111111111111
 40
0.2222222222222222
 40
0.2222222222222222
 40
0.2222222222222222
 40
0.2222222222222222
 40
0.3333333333333333
 40
0.3333333333333333
 40
0.3333333333333333
 40
0.3333333333333333
 40
0.4444444444444444
 40
0.4444444444444444
 40
0.4444444444444444
 40
0.4444444444444444
 40
0.5555555555555556
 40
0.5555555555555556
 40
0.5555555555555556
 40
0.5555555555555556
 40
0.6666666666666666
 40
0.6666666666666666
 40
0.6666666666666666
 40
0.6666666666666666
 40
0.7777777777777778
 40
0.7777777777777778
 40
0.7777777777777778
 40
0.7777777777777778
 40
1.0
 40
1.0
 40
1.0
 40
1.0
 10
0.14804
 20
-7.18324
 30
0.0
 10
0.14804
 20
-7.18324
 30
0.0
 10
0.3202
 20
-7.18324
 30
0.0
 10
0.3202
 20
-7.18324
 30
0.0
 10
0.3202
 20
-7.18324
 30
0.0
 10
0.35689
 20
-7.18324
 30
0.0
 10
0.38539
 20
-7.17943
 30
0.0
 10
0.40599
 20
-7.17181
 30
0.0
 10
0.40599
 20
-7.17181
 30
0.0
 10
0.4266
 20
-7.16433
 30
0.0
 10
0.44226
 20
-7.1522
 30
0.0
 10
0.45284
 20
-7.13541
 30
0.0
 10
0.45284
 20
-7.13541
 30
0.0
 10
0.46357
 20
-7.11875
 30
0.0
 10
0.46893
 20
-7.10069
 30
0.0
 10
0.46893
 20
-7.08108
 30
0.0
 10
0.46893
 20
-7.08108
 30
0.0
 10
0.46893
 20
-7.05243
 30
0.0
 10
0.45863
 20
-7.02872
 30
0.0
 10
0.43788
 20
-7.01024
 30
0.0
 10
0.43788
 20
-7.01024
 30
0.0
 10
0.41714
 20
-6.99175
 30
0.0
 10
0.3844
 20
-6.98258
 30
0.0
 10
0.33967
 20
-6.98258
 30
0.0
 10
0.33967
 20
-6.98258
 30
0.0
 10
0.33967
 20
-6.98258
 30
0.0
 10
0.14804
 20
-6.98258
 30
0.0
 10
0.14804
 20
-6.98258
 30
0.0
 10
0.14804
 20
-6.98258
 30
0.0
 10
0.14804
 20
-6.98258
 30
0.0
 10
0.14804
 20
-7.18324
 30
0.0
 10
0.14804
 20
-7.18324
 30
0.0
  0
SPLINE
  5
4B
330
1F
100
AcDbEntity
  8
Layer 1
 62
   250
100
AcDbSpline
210
0.0
220
0.0
230
1.0
 70
    11
 71
     3
 72
    36
 73
    32
 74
     0
 42
0.0000000001
 43
0.0000000001
 12
1.0
 22
0.0
 32
0.0
 13
1.0
 23
0.0
 33
0.0
 40
0.0
 40
0.0
 40
0.0
 40
0.0
 40
0.1111111111111111
 40
0.1111111111111111
 40
0.1111111111111111
 40
0.1111111111111111
 40
0.2222222222222222
 40
0.2222222222222222
 40
0.2222222222222222
 40
0.2222222222222222
 40
0.3333333333333333
 40
0.3333333333333333
 40
0.3333333333333333
 40
0.3333333333333333
 40
0.4444444444444444
 40
0.4444444444444444
 40
0.4444444444444444
 40
0.4444444444444444
 40
0.5555555555555556
 40
0.5555555555555556
 40
0.5555555555555556
 40
0.5555555555555556
 40
0.6666666666666666
 40
0.6666666666666666
 40
0.6666666666666666
 40
0.6666666666666666
 40
0.7777777777777778
 40
0.7777777777777778
 40
0.7777777777777778
 40
0.7777777777777778
 40
1.0
 40
1.0
 40
1.0
 40
1.0
 10
1.05144
 20
-7.52191
 30
0.0
 10
1.05144
 20
-7.52191
 30
0.0
 10
1.05144
 20
-6.98681
 30
0.0
 10
1.05144
 20
-6.98681
 30
0.0
 10
1.05144
 20
-6.98681
 30
0.0
 10
1.05144
 20
-6.98681
 30
0.0
 10
0.85162
 20
-6.98681
 30
0.0
 10
0.85162
 20
-6.98681
 30
0.0
 10
0.85162
 20
-6.98681
 30
0.0
 10
0.85162
 20
-6.98681
 30
0.0
 10
0.85162
 20
-6.91569
 30
0.0
 10
0.85162
 20
-6.91569
 30
0.0
 10
0.85162
 20
-6.91569
 30
0.0
 10
0.85162
 20
-6.91569
 30
0.0
 10
1.33169
 20
-6.91569
 30
0.0
 10
1.33169
 20
-6.91569
 30
0.0
 10
1.33169
 20
-6.91569
 30
0.0
 10
1.33169
 20
-6.91569
 30
0.0
 10
1.33169
 20
-6.98681
 30
0.0
 10
1.33169
 20
-6.98681
 30
0.0
 10
1.33169
 20
-6.98681
 30
0.0
 10
1.33169
 20
-6.98681
 30
0.0
 10
1.13187
 20
-6.98681
 30
0.0
 10
1.13187
 20
-6.98681
 30
0.0
 10
1.13187
 20
-6.98681
 30
0.0
 10
1.13187
 20
-6.98681
 30
0.0
 10
1.13187
 20
-7.52191
 30
0.0
 10
1.13187
 20
-7.52191
 30
0.0
 10
1.13187
 20
-7.52191
 30
0.0
 10
1.13187
 20
-7.52191
 30
0.0
 10
1.05144
 20
-7.52191
 30
0.0
 10
1.05144
 20
-7.52191
 30
0.0
  0
SPLINE
  5
4C
330
1F
100
AcDbEntity
  8
Layer 1
 62
   250
100
AcDbSpline
210
0.0
220
0.0
230
1.0
 70
    11
 71
     3
 72
    52
 73
    48
 74
     0
 42
0.0000000001
 43
0.0000000001
 12
1.0
 22
0.0
 32
0.0
 13
1.0
 23
0.0
 33
0.0
 40
0.0
 40
0.0
 40
0.0
 40
0.0
 40
0.0769230769230769
 40
0.0769230769230769
 40
0.0769230769230769
 40
0.0769230769230769
 40
0.1538461538461539
 40
0.1538461538461539
 40
0.1538461538461539
 40
0.1538461538461539
 40
0.2307692307692308
 40
0.2307692307692308
 40
0.2307692307692308
 40
0.2307692307692308
 40
0.3076923076923077
 40
0.3076923076923077
 40
0.3076923076923077
 40
0.3076923076923077
 40
0.3846153846153846
 40
0.3846153846153846
 40
0.3846153846153846
 40
0.3846153846153846
 40
0.4615384615384616
 40
0.4615384615384616
 40
0.4615384615384616
 40
0.4615384615384616
 40
0.5384615384615384
 40
0.5384615384615384
 40
0.5384615384615384
 40
0.5384615384615384
 40
0.6153846153846154
 40
0.6153846153846154
 40
0.6153846153846154
 40
0.6153846153846154
 40
0.6923076923076923
 40
0.6923076923076923
 40
0.6923076923076923
 40
0.6923076923076923
 40
0.7692307692307693
 40
0.7692307692307693
 40
0.7692307692307693
 40
0.7692307692307693
 40
0.8461538461538461
 40
0.8461538461538461
 40
0.8461538461538461
 40
0.8461538461538461
 40
1.0
 40
1.0
 40
1.0
 40
1.0
 10
1.41621
 20
-7.52191
 30
0.0
 10
1.41621
 20
-7.52191
 30
0.0
 10
1.41621
 20
-6.91569
 30
0.0
 10
1.41621
 20
-6.91569
 30
0.0
 10
1.41621
 20
-6.91569
 30
0.0
 10
1.41621
 20
-6.91569
 30
0.0
 10
1.85394
 20
-6.91569
 30
0.0
 10
1.85394
 20
-6.91569
 30
0.0
 10
1.85394
 20
-6.91569
 30
0.0
 10
1.85394
 20
-6.91569
 30
0.0
 10
1.85394
 20
-6.98681
 30
0.0
 10
1.85394
 20
-6.98681
 30
0.0
 10
1.85394
 20
-6.98681
 30
0.0
 10
1.85394
 20
-6.98681
 30
0.0
 10
1.49664
 20
-6.98681
 30
0.0
 10
1.49664
 20
-6.98681
 30
0.0
 10
1.49664
 20
-6.98681
 30
0.0
 10
1.49664
 20
-6.98681
 30
0.0
 10
1.49664
 20
-7.17308
 30
0.0
 10
1.49664
 20
-7.17308
 30
0.0
 10
1.49664
 20
-7.17308
 30
0.0
 10
1.49664
 20
-7.17308
 30
0.0
 10
1.83108
 20
-7.17308
 30
0.0
 10
1.83108
 20
-7.17308
 30
0.0
 10
1.83108
 20
-7.17308
 30
0.0
 10
1.83108
 20
-7.17308
 30
0.0
 10
1.83108
 20
-7.2442
 30
0.0
 10
1.83108
 20
-7.2442
 30
0.0
 10
1.83108
 20
-7.2442
 30
0.0
 10
1.83108
 20
-7.2442
 30
0.0
 10
1.49664
 20
-7.2442
 30
0.0
 10
1.49664
 20
-7.2442
 30
0.0
 10
1.49664
 20
-7.2442
 30
0.0
 10
1.49664
 20
-7.2442
 30
0.0
 10
1.49664
 20
-7.45079
 30
0.0
 10
1.49664
 20
-7.45079
 30
0.0
 10
1.49664
 20
-7.45079
 30
0.0
 10
1.49664
 20
-7.45079
 30
0.0
 10
1.86833
 20
-7.45079
 30
0.0
 10
1.86833
 20
-7.45079
 30
0.0
 10
1.86833
 20
-7.45079
 30
0.0
 10
1.86833
 20
-7.45079
 30
0.0
 10
1.86833
 20
-7.52191
 30
0.0
 10
1.86833
 20
-7.52191
 30
0.0
 10
1.86833
 20
-7.52191
 30
0.0
 10
1.86833
 20
-7.52191
 30
0.0
 10
1.41621
 20
-7.52191
 30
0.0
 10
1.41621
 20
-7.52191
 30
0.0
  0
SPLINE
  5
4D
330
1F
100
AcDbEntity
  8
Layer 1
 62
   250
100
AcDbSpline
210
0.0
220
0.0
230
1.0
 70
    11
 71
     3
 72
    64
 73
    60
 74
     0
 42
0.0000000001
 43
0.0000000001
 12
1.0
 22
0.0
 32
0.0
 13
1.0
 23
0.0
 33
0.0
 40
0.0
 40
0.0
 40
0.0
 40
0.0
 40
0.0625
 40
0.0625
 40
0.0625
 40
0.0625
 40
0.125
 40
0.125
 40
0.125
 40
0.125
 40
0.1875
 40
0.1875
 40
0.1875
 40
0.1875
 40
0.25
 40
0.25
 40
0.25
 40
0.25
 40
0.3125
 40
0.3125
 40
0.3125
 40
0.3125
 40
0.375
 40
0.375
 40
0.375
 40
0.375
 40
0.4375
 40
0.4375
 40
0.4375
 40
0.4375
 40
0.5
 40
0.5
 40
0.5
 40
0.5
 40
0.5625
 40
0.5625
 40
0.5625
 40
0.5625
 40
0.625
 40
0.625
 40
0.625
 40
0.625
 40
0.6875
 40
0.6875
 40
0.6875
 40
0.6875
 40
0.75
 40
0.75
 40
0.75
 40
0.75
 40
0.8125
 40
0.8125
 40
0.8125
 40
0.8125
 40
0.875
 40
0.875
 40
0.875
 40
0.875
 40
1.0
 40
1.0
 40
1.0
 40
1.0
 10
1.97755
 20
-7.52191
 30
0.0
 10
1.97755
 20
-7.52191
 30
0.0
 10
1.97755
 20
-6.91569
 30
0.0
 10
1.97755
 20
-6.91569
 30
0.0
 10
1.97755
 20
-6.91569
 30
0.0
 10
1.97755
 20
-6.91569
 30
0.0
 10
2.09778
 20
-6.91569
 30
0.0
 10
2.09778
 20
-6.91569
 30
0.0
 10
2.09778
 20
-6.91569
 30
0.0
 10
2.09778
 20
-6.91569
 30
0.0
 10
2.24115
 20
-7.34481
 30
0.0
 10
2.24115
 20
-7.34481
 30
0.0
 10
2.24115
 20
-7.34481
 30
0.0
 10
2.25441
 20
-7.38475
 30
0.0
 10
2.26401
 20
-7.41467
 30
0.0
 10
2.27007
 20
-7.43456
 30
0.0
 10
2.27007
 20
-7.43456
 30
0.0
 10
2.27699
 20
-7.41255
 30
0.0
 10
2.28785
 20
-7.38009
 30
0.0
 10
2.30253
 20
-7.33734
 30
0.0
 10
2.30253
 20
-7.33734
 30
0.0
 10
2.30253
 20
-7.33734
 30
0.0
 10
2.44844
 20
-6.91569
 30
0.0
 10
2.44844
 20
-6.91569
 30
0.0
 10
2.44844
 20
-6.91569
 30
0.0
 10
2.44844
 20
-6.91569
 30
0.0
 10
2.55583
 20
-6.91569
 30
0.0
 10
2.55583
 20
-6.91569
 30
0.0
 10
2.55583
 20
-6.91569
 30
0.0
 10
2.55583
 20
-6.91569
 30
0.0
 10
2.55583
 20
-7.52191
 30
0.0
 10
2.55583
 20
-7.52191
 30
0.0
 10
2.55583
 20
-7.52191
 30
0.0
 10
2.55583
 20
-7.52191
 30
0.0
 10
2.47878
 20
-7.52191
 30
0.0
 10
2.47878
 20
-7.52191
 30
0.0
 10
2.47878
 20
-7.52191
 30
0.0
 10
2.47878
 20
-7.52191
 30
0.0
 10
2.47878
 20
-7.01475
 30
0.0
 10
2.47878
 20
-7.01475
 30
0.0
 10
2.47878
 20
-7.01475
 30
0.0
 10
2.47878
 20
-7.01475
 30
0.0
 10
2.30182
 20
-7.52191
 30
0.0
 10
2.30182
 20
-7.52191
 30
0.0
 10
2.30182
 20
-7.52191
 30
0.0
 10
2.30182
 20
-7.52191
 30
0.0
 10
2.22958
 20
-7.52191
 30
0.0
 10
2.22958
 20
-7.52191
 30
0.0
 10
2.22958
 20
-7.52191
 30
0.0
 10
2.22958
 20
-7.52191
 30
0.0
 10
2.0546
 20
-7.00544
 30
0.0
 10
2.0546
 20
-7.00544
 30
0.0
 10
2.0546
 20
-7.00544
 30
0.0
 10
2.0546
 20
-7.00544
 30
0.0
 10
2.0546
 20
-7.52191
 30
0.0
 10
2.0546
 20
-7.52191
 30
0.0
 10
2.0546
 20
-7.52191
 30
0.0
 10
2.0546
 20
-7.52191
 30
0.0
 10
1.97755
 20
-7.52191
 30
0.0
 10
1.97755
 20
-7.52191
 30
0.0
  0
SPLINE
  5
4E
330
1F
100
AcDbEntity
  8
Layer 1
 62
   250
100
AcDbSpline
210
0.0
220
0.0
230
1.0
 70
    11
 71
     3
 72
    48
 73
    44
 74
     0
 42
0.0000000001
 43
0.0000000001
 12
1.0
 22
0.0
 32
0.0
 13
1.0
 23
0.0
 33
0.0
 40
0.0
 40
0.0
 40
0.0
 40
0.0
 40
0.0833333333333333
 40
0.0833333333333333
 40
0.0833333333333333
 40
0.0833333333333333
 40
0.1666666666666667
 40
0.1666666666666667
 40
0.1666666666666667
 40
0.1666666666666667
 40
0.25
 40
0.25
 40
0.25
 40
0.25
 40
0.3333333333333333
 40
0.3333333333333333
 40
0.3333333333333333
 40
0.3333333333333333
 40
0.4166666666666667
 40
0.4166666666666667
 40
0.4166666666666667
 40
0.4166666666666667
 40
0.5
 40
0.5
 40
0.5
 40
0.5
 40
0.5833333333333334
 40
0.5833333333333334
 40
0.5833333333333334
 40
0.5833333333333334
 40
0.6666666666666666
 40
0.6666666666666666
 40
0.6666666666666666
 40
0.6666666666666666
 40
0.75
 40
0.75
 40
0.75
 40
0.75
 40
0.8333333333333334
 40
0.8333333333333334
 40
0.8333333333333334
 40
0.8333333333333334
 40
1.0
 40
1.0
 40
1.0
 40
1.0
 10
2.68452
 20
-7.52191
 30
0.0
 10
2.68452
 20
-7.52191
 30
0.0
 10
2.68452
 20
-6.91569
 30
0.0
 10
2.68452
 20
-6.91569
 30
0.0
 10
2.68452
 20
-6.91569
 30
0.0
 10
2.68452
 20
-6.91569
 30
0.0
 10
2.91341
 20
-6.91569
 30
0.0
 10
2.91341
 20
-6.91569
 30
0.0
 10
2.91341
 20
-6.91569
 30
0.0
 10
2.95362
 20
-6.91569
 30
0.0
 10
2.98439
 20
-6.91767
 30
0.0
 10
3.00569
 20
-6.92148
 30
0.0
 10
3.00569
 20
-6.92148
 30
0.0
 10
3.03547
 20
-6.92642
 30
0.0
 10
3.06045
 20
-6.93587
 30
0.0
 10
3.08062
 20
-6.9497
 30
0.0
 10
3.08062
 20
-6.9497
 30
0.0
 10
3.1008
 20
-6.96367
 30
0.0
 10
3.11703
 20
-6.98315
 30
0.0
 10
3.12931
 20
-7.00812
 30
0.0
 10
3.12931
 20
-7.00812
 30
0.0
 10
3.14158
 20
-7.0331
 30
0.0
 10
3.14765
 20
-7.06062
 30
0.0
 10
3.14765
 20
-7.09067
 30
0.0
 10
3.14765
 20
-7.09067
 30
0.0
 10
3.14765
 20
-7.14204
 30
0.0
 10
3.13128
 20
-7.18564
 30
0.0
 10
3.0984
 20
-7.2212
 30
0.0
 10
3.0984
 20
-7.2212
 30
0.0
 10
3.06567
 20
-7.2569
 30
0.0
 10
3.00626
 20
-7.27468
 30
0.0
 10
2.92046
 20
-7.27468
 30
0.0
 10
2.92046
 20
-7.27468
 30
0.0
 10
2.92046
 20
-7.27468
 30
0.0
 10
2.76496
 20
-7.27468
 30
0.0
 10
2.76496
 20
-7.27468
 30
0.0
 10
2.76496
 20
-7.27468
 30
0.0
 10
2.76496
 20
-7.27468
 30
0.0
 10
2.76496
 20
-7.52191
 30
0.0
 10
2.76496
 20
-7.52191
 30
0.0
 10
2.76496
 20
-7.52191
 30
0.0
 10
2.76496
 20
-7.52191
 30
0.0
 10
2.68452
 20
-7.52191
 30
0.0
 10
2.68452
 20
-7.52191
 30
0.0
  0
SPLINE
  5
4F
330
1F
100
AcDbEntity
  8
Layer 1
 62
   250
100
AcDbSpline
210
0.0
220
0.0
230
1.0
 70
    11
 71
     3
 72
    36
 73
    32
 74
     0
 42
0.0000000001
 43
0.0000000001
 12
1.0
 22
0.0
 32
0.0
 13
1.0
 23
0.0
 33
0.0
 40
0.0
 40
0.0
 40
0.0
 40
0.0
 40
0.1111111111111111
 40
0.1111111111111111
 40
0.1111111111111111
 40
0.1111111111111111
 40
0.2222222222222222
 40
0.2222222222222222
 40
0.2222222222222222
 40
0.2222222222222222
 40
0.3333333333333333
 40
0.3333333333333333
 40
0.3333333333333333
 40
0.3333333333333333
 40
0.4444444444444444
 40
0.4444444444444444
 40
0.4444444444444444
 40
0.4444444444444444
 40
0.5555555555555556
 40
0.5555555555555556
 40
0.5555555555555556
 40
0.5555555555555556
 40
0.6666666666666666
 40
0.6666666666666666
 40
0.6666666666666666
 40
0.6666666666666666
 40
0.7777777777777778
 40
0.7777777777777778
 40
0.7777777777777778
 40
0.7777777777777778
 40
1.0
 40
1.0
 40
1.0
 40
1.0
 10
2.76496
 20
-7.20356
 30
0.0
 10
2.76496
 20
-7.20356
 30
0.0
 10
2.92159
 20
-7.20356
 30
0.0
 10
2.92159
 20
-7.20356
 30
0.0
 10
2.92159
 20
-7.20356
 30
0.0
 10
2.97352
 20
-7.20356
 30
0.0
 10
3.01021
 20
-7.19397
 30
0.0
 10
3.03208
 20
-7.17463
 30
0.0
 10
3.03208
 20
-7.17463
 30
0.0
 10
3.05381
 20
-7.1553
 30
0.0
 10
3.06468
 20
-7.12821
 30
0.0
 10
3.06468
 20
-7.09307
 30
0.0
 10
3.06468
 20
-7.09307
 30
0.0
 10
3.06468
 20
-7.06781
 30
0.0
 10
3.05833
 20
-7.04608
 30
0.0
 10
3.04549
 20
-7.02802
 30
0.0
 10
3.04549
 20
-7.02802
 30
0.0
 10
3.03265
 20
-7.00996
 30
0.0
 10
3.01571
 20
-6.99796
 30
0.0
 10
2.99483
 20
-6.99218
 30
0.0
 10
2.99483
 20
-6.99218
 30
0.0
 10
2.98128
 20
-6.98865
 30
0.0
 10
2.9563
 20
-6.98681
 30
0.0
 10
2.92004
 20
-6.98681
 30
0.0
 10
2.92004
 20
-6.98681
 30
0.0
 10
2.92004
 20
-6.98681
 30
0.0
 10
2.76496
 20
-6.98681
 30
0.0
 10
2.76496
 20
-6.98681
 30
0.0
 10
2.76496
 20
-6.98681
 30
0.0
 10
2.76496
 20
-6.98681
 30
0.0
 10
2.76496
 20
-7.20356
 30
0.0
 10
2.76496
 20
-7.20356
 30
0.0
  0
SPLINE
  5
50
330
1F
100
AcDbEntity
  8
Layer 1
 62
   250
100
AcDbSpline
210
0.0
220
0.0
230
1.0
 70
    11
 71
     3
 72
    28
 73
    24
 74
     0
 42
0.0000000001
 43
0.0000000001
 12
1.0
 22
0.0
 32
0.0
 13
1.0
 23
0.0
 33
0.0
 40
0.0
 40
0.0
 40
0.0
 40
0.0
 40
0.1428571428571428
 40
0.1428571428571428
 40
0.1428571428571428
 40
0.1428571428571428
 40
0.2857142857142857
 40
0.2857142857142857
 40
0.2857142857142857
 40
0.2857142857142857
 40
0.4285714285714285
 40
0.4285714285714285
 40
0.4285714285714285
 40
0.4285714285714285
 40
0.5714285714285714
 40
0.5714285714285714
 40
0.5714285714285714
 40
0.5714285714285714
 40
0.7142857142857143
 40
0.7142857142857143
 40
0.7142857142857143
 40
0.7142857142857143
 40
1.0
 40
1.0
 40
1.0
 40
1.0
 10
3.24587
 20
-7.52191
 30
0.0
 10
3.24587
 20
-7.52191
 30
0.0
 10
3.24587
 20
-6.91569
 30
0.0
 10
3.24587
 20
-6.91569
 30
0.0
 10
3.24587
 20
-6.91569
 30
0.0
 10
3.24587
 20
-6.91569
 30
0.0
 10
3.3263
 20
-6.91569
 30
0.0
 10
3.3263
 20
-6.91569
 30
0.0
 10
3.3263
 20
-6.91569
 30
0.0
 10
3.3263
 20
-6.91569
 30
0.0
 10
3.3263
 20
-7.45079
 30
0.0
 10
3.3263
 20
-7.45079
 30
0.0
 10
3.3263
 20
-7.45079
 30
0.0
 10
3.3263
 20
-7.45079
 30
0.0
 10
3.62433
 20
-7.45079
 30
0.0
 10
3.62433
 20
-7.45079
 30
0.0
 10
3.62433
 20
-7.45079
 30
0.0
 10
3.62433
 20
-7.45079
 30
0.0
 10
3.62433
 20
-7.52191
 30
0.0
 10
3.62433
 20
-7.52191
 30
0.0
 10
3.62433
 20
-7.52191
 30
0.0
 10
3.62433
 20
-7.52191
 30
0.0
 10
3.24587
 20
-7.52191
 30
0.0
 10
3.24587
 20
-7.52191
 30
0.0
  0
SPLINE
  5
51
330
1F
100
AcDbEntity
  8
Layer 1
 62
   250
100
AcDbSpline
210
0.0
220
0.0
230
1.0
 70
    11
 71
     3
 72
    36
 73
    32
 74
     0
 42
0.0000000001
 43
0.0000000001
 12
1.0
 22
0.0
 32
0.0
 13
1.0
 23
0.0
 33
0.0
 40
0.0
 40
0.0
 40
0.0
 40
0.0
 40
0.1111111111111111
 40
0.1111111111111111
 40
0.1111111111111111
 40
0.1111111111111111
 40
0.2222222222222222
 40
0.2222222222222222
 40
0.2222222222222222
 40
0.2222222222222222
 40
0.3333333333333333
 40
0.3333333333333333
 40
0.3333333333333333
 40
0.3333333333333333
 40
0.4444444444444444
 40
0.4444444444444444
 40
0.4444444444444444
 40
0.4444444444444444
 40
0.5555555555555556
 40
0.5555555555555556
 40
0.5555555555555556
 40
0.5555555555555556
 40
0.6666666666666666
 40
0.6666666666666666
 40
0.6666666666666666
 40
0.6666666666666666
 40
0.7777777777777778
 40
0.7777777777777778
 40
0.7777777777777778
 40
0.7777777777777778
 40
1.0
 40
1.0
 40
1.0
 40
1.0
 10
3.65368
 20
-7.52191
 30
0.0
 10
3.65368
 20
-7.52191
 30
0.0
 10
3.88623
 20
-6.91569
 30
0.0
 10
3.88623
 20
-6.91569
 30
0.0
 10
3.88623
 20
-6.91569
 30
0.0
 10
3.88623
 20
-6.91569
 30
0.0
 10
3.97443
 20
-6.91569
 30
0.0
 10
3.97443
 20
-6.91569
 30
0.0
 10
3.97443
 20
-6.91569
 30
0.0
 10
3.97443
 20
-6.91569
 30
0.0
 10
4.22123
 20
-7.52191
 30
0.0
 10
4.22123
 20
-7.52191
 30
0.0
 10
4.22123
 20
-7.52191
 30
0.0
 10
4.22123
 20
-7.52191
 30
0.0
 10
4.12993
 20
-7.52191
 30
0.0
 10
4.12993
 20
-7.52191
 30
0.0
 10
4.12993
 20
-7.52191
 30
0.0
 10
4.12993
 20
-7.52191
 30
0.0
 10
4.0598
 20
-7.33818
 30
0.0
 10
4.0598
 20
-7.33818
 30
0.0
 10
4.0598
 20
-7.33818
 30
0.0
 10
4.0598
 20
-7.33818
 30
0.0
 10
3.80453
 20
-7.33818
 30
0.0
 10
3.80453
 20
-7.33818
 30
0.0
 10
3.80453
 20
-7.33818
 30
0.0
 10
3.80453
 20
-7.33818
 30
0.0
 10
3.73877
 20
-7.52191
 30
0.0
 10
3.73877
 20
-7.52191
 30
0.0
 10
3.73877
 20
-7.52191
 30
0.0
 10
3.73877
 20
-7.52191
 30
0.0
 10
3.65368
 20
-7.52191
 30
0.0
 10
3.65368
 20
-7.52191
 30
0.0
  0
SPLINE
  5
52
330
1F
100
AcDbEntity
  8
Layer 1
 62
   250
100
AcDbSpline
210
0.0
220
0.0
230
1.0
 70
    11
 71
     3
 72
    24
 73
    20
 74
     0
 42
0.0000000001
 43
0.0000000001
 12
1.0
 22
0.0
 32
0.0
 13
1.0
 23
0.0
 33
0.0
 40
0.0
 40
0.0
 40
0.0
 40
0.0
 40
0.1666666666666667
 40
0.1666666666666667
 40
0.1666666666666667
 40
0.1666666666666667
 40
0.3333333333333333
 40
0.3333333333333333
 40
0.3333333333333333
 40
0.3333333333333333
 40
0.5
 40
0.5
 40
0.5
 40
0.5
 40
0.6666666666666666
 40
0.6666666666666666
 40
0.6666666666666666
 40
0.6666666666666666
 40
1.0
 40
1.0
 40
1.0
 40
1.0
 10
3.82809
 20
-7.27299
 30
0.0
 10
3.82809
 20
-7.27299
 30
0.0
 10
4.03468
 20
-7.27299
 30
0.0
 10
4.03468
 20
-7.27299
 30
0.0
 10
4.03468
 20
-7.27299
 30
0.0
 10
4.03468
 20
-7.27299
 30
0.0
 10
3.97146
 20
-7.10493
 30
0.0
 10
3.97146
 20
-7.10493
 30
0.0
 10
3.97146
 20
-7.10493
 30
0.0
 10
3.95241
 20
-7.05384
 30
0.0
 10
3.93802
 20
-7.01165
 30
0.0
 10
3.928
 20
-6.97835
 30
0.0
 10
3.928
 20
-6.97835
 30
0.0
 10
3.91968
 20
-7.01786
 30
0.0
 10
3.90853
 20
-7.05666
 30
0.0
 10
3.89456
 20
-7.09505
 30
0.0
 10
3.89456
 20
-7.09505
 30
0.0
 10
3.89456
 20
-7.09505
 30
0.0
 10
3.82809
 20
-7.27299
 30
0.0
 10
3.82809
 20
-7.27299
 30
0.0
  0
SPLINE
  5
53
330
1F
100
AcDbEntity
  8
Layer 1
 62
   250
100
AcDbSpline
210
0.0
220
0.0
230
1.0
 70
    11
 71
     3
 72
    36
 73
    32
 74
     0
 42
0.0000000001
 43
0.0000000001
 12
1.0
 22
0.0
 32
0.0
 13
1.0
 23
0.0
 33
0.0
 40
0.0
 40
0.0
 40
0.0
 40
0.0
 40
0.1111111111111111
 40
0.1111111111111111
 40
0.1111111111111111
 40
0.1111111111111111
 40
0.2222222222222222
 40
0.2222222222222222
 40
0.2222222222222222
 40
0.2222222222222222
 40
0.3333333333333333
 40
0.3333333333333333
 40
0.3333333333333333
 40
0.3333333333333333
 40
0.4444444444444444
 40
0.4444444444444444
 40
0.4444444444444444
 40
0.4444444444444444
 40
0.5555555555555556
 40
0.5555555555555556
 40
0.5555555555555556
 40
0.5555555555555556
 40
0.6666666666666666
 40
0.6666666666666666
 40
0.6666666666666666
 40
0.6666666666666666
 40
0.7777777777777778
 40
0.7777777777777778
 40
0.7777777777777778
 40
0.7777777777777778
 40
1.0
 40
1.0
 40
1.0
 40
1.0
 10
4.37618
 20
-7.52191
 30
0.0
 10
4.37618
 20
-7.52191
 30
0.0
 10
4.37618
 20
-6.98681
 30
0.0
 10
4.37618
 20
-6.98681
 30
0.0
 10
4.37618
 20
-6.98681
 30
0.0
 10
4.37618
 20
-6.98681
 30
0.0
 10
4.17636
 20
-6.98681
 30
0.0
 10
4.17636
 20
-6.98681
 30
0.0
 10
4.17636
 20
-6.98681
 30
0.0
 10
4.17636
 20
-6.98681
 30
0.0
 10
4.17636
 20
-6.91569
 30
0.0
 10
4.17636
 20
-6.91569
 30
0.0
 10
4.17636
 20
-6.91569
 30
0.0
 10
4.17636
 20
-6.91569
 30
0.0
 10
4.65643
 20
-6.91569
 30
0.0
 10
4.65643
 20
-6.91569
 30
0.0
 10
4.65643
 20
-6.91569
 30
0.0
 10
4.65643
 20
-6.91569
 30
0.0
 10
4.65643
 20
-6.98681
 30
0.0
 10
4.65643
 20
-6.98681
 30
0.0
 10
4.65643
 20
-6.98681
 30
0.0
 10
4.65643
 20
-6.98681
 30
0.0
 10
4.45661
 20
-6.98681
 30
0.0
 10
4.45661
 20
-6.98681
 30
0.0
 10
4.45661
 20
-6.98681
 30
0.0
 10
4.45661
 20
-6.98681
 30
0.0
 10
4.45661
 20
-7.52191
 30
0.0
 10
4.45661
 20
-7.52191
 30
0.0
 10
4.45661
 20
-7.52191
 30
0.0
 10
4.45661
 20
-7.52191
 30
0.0
 10
4.37618
 20
-7.52191
 30
0.0
 10
4.37618
 20
-7.52191
 30
0.0
  0
SPLINE
  5
54
330
1F
100
AcDbEntity
  8
Layer 1
 62
   250
100
AcDbSpline
210
0.0
220
0.0
230
1.0
 70
    11
 71
     3
 72
    52
 73
    48
 74
     0
 42
0.0000000001
 43
0.0000000001
 12
1.0
 22
0.0
 32
0.0
 13
1.0
 23
0.0
 33
0.0
 40
0.0
 40
0.0
 40
0.0
 40
0.0
 40
0.0769230769230769
 40
0.0769230769230769
 40
0.0769230769230769
 40
0.0769230769230769
 40
0.1538461538461539
 40
0.1538461538461539
 40
0.1538461538461539
 40
0.1538461538461539
 40
0.2307692307692308
 40
0.2307692307692308
 40
0.2307692307692308
 40
0.2307692307692308
 40
0.3076923076923077
 40
0.3076923076923077
 40
0.3076923076923077
 40
0.3076923076923077
 40
0.3846153846153846
 40
0.3846153846153846
 40
0.3846153846153846
 40
0.3846153846153846
 40
0.4615384615384616
 40
0.4615384615384616
 40
0.4615384615384616
 40
0.4615384615384616
 40
0.5384615384615384
 40
0.5384615384615384
 40
0.5384615384615384
 40
0.5384615384615384
 40
0.6153846153846154
 40
0.6153846153846154
 40
0.6153846153846154
 40
0.6153846153846154
 40
0.6923076923076923
 40
0.6923076923076923
 40
0.6923076923076923
 40
0.6923076923076923
 40
0.7692307692307693
 40
0.7692307692307693
 40
0.7692307692307693
 40
0.7692307692307693
 40
0.8461538461538461
 40
0.8461538461538461
 40
0.8461538461538461
 40
0.8461538461538461
 40
1.0
 40
1.0
 40
1.0
 40
1.0
 10
4.74095
 20
-7.52191
 30
0.0
 10
4.74095
 20
-7.52191
 30
0.0
 10
4.74095
 20
-6.91569
 30
0.0
 10
4.74095
 20
-6.91569
 30
0.0
 10
4.74095
 20
-6.91569
 30
0.0
 10
4.74095
 20
-6.91569
 30
0.0
 10
5.17868
 20
-6.91569
 30
0.0
 10
5.17868
 20
-6.91569
 30
0.0
 10
5.17868
 20
-6.91569
 30
0.0
 10
5.17868
 20
-6.91569
 30
0.0
 10
5.17868
 20
-6.98681
 30
0.0
 10
5.17868
 20
-6.98681
 30
0.0
 10
5.17868
 20
-6.98681
 30
0.0
 10
5.17868
 20
-6.98681
 30
0.0
 10
4.82138
 20
-6.98681
 30
0.0
 10
4.82138
 20
-6.98681
 30
0.0
 10
4.82138
 20
-6.98681
 30
0.0
 10
4.82138
 20
-6.98681
 30
0.0
 10
4.82138
 20
-7.17308
 30
0.0
 10
4.82138
 20
-7.17308
 30
0.0
 10
4.82138
 20
-7.17308
 30
0.0
 10
4.82138
 20
-7.17308
 30
0.0
 10
5.15582
 20
-7.17308
 30
0.0
 10
5.15582
 20
-7.17308
 30
0.0
 10
5.15582
 20
-7.17308
 30
0.0
 10
5.15582
 20
-7.17308
 30
0.0
 10
5.15582
 20
-7.2442
 30
0.0
 10
5.15582
 20
-7.2442
 30
0.0
 10
5.15582
 20
-7.2442
 30
0.0
 10
5.15582
 20
-7.2442
 30
0.0
 10
4.82138
 20
-7.2442
 30
0.0
 10
4.82138
 20
-7.2442
 30
0.0
 10
4.82138
 20
-7.2442
 30
0.0
 10
4.82138
 20
-7.2442
 30
0.0
 10
4.82138
 20
-7.45079
 30
0.0
 10
4.82138
 20
-7.45079
 30
0.0
 10
4.82138
 20
-7.45079
 30
0.0
 10
4.82138
 20
-7.45079
 30
0.0
 10
5.19307
 20
-7.45079
 30
0.0
 10
5.19307
 20
-7.45079
 30
0.0
 10
5.19307
 20
-7.45079
 30
0.0
 10
5.19307
 20
-7.45079
 30
0.0
 10
5.19307
 20
-7.52191
 30
0.0
 10
5.19307
 20
-7.52191
 30
0.0
 10
5.19307
 20
-7.52191
 30
0.0
 10
5.19307
 20
-7.52191
 30
0.0
 10
4.74095
 20
-7.52191
 30
0.0
 10
4.74095
 20
-7.52191
 30
0.0
  0
SPLINE
  5
55
330
1F
100
AcDbEntity
  8
Layer 1
 62
     3
370
     9
100
AcDbSpline
210
0.0
220
0.0
230
1.0
 70
     8
 71
     3
 72
    32
 73
    28
 74
     0
 42
0.0000000001
 43
0.0000000001
 12
1.0
 22
0.0
 32
0.0
 13
1.0
 23
0.0
 33
0.0
 40
0.0
 40
0.0
 40
0.0
 40
0.0
 40
0.125
 40
0.125
 40
0.125
 40
0.125
 40
0.25
 40
0.25
 40
0.25
 40
0.25
 40
0.375
 40
0.375
 40
0.375
 40
0.375
 40
0.5
 40
0.5
 40
0.5
 40
0.5
 40
0.625
 40
0.625
 40
0.625
 40
0.625
 40
0.75
 40
0.75
 40
0.75
 40
0.75
 40
1.0
 40
1.0
 40
1.0
 40
1.0
 10
1.19934
 20
7.24078
 30
0.0
 10
1.19934
 20
7.24078
 30
0.0
 10
-9.35682
 20
7.24078
 30
0.0
 10
-9.35682
 20
7.24078
 30
0.0
 10
-9.35682
 20
7.24078
 30
0.0
 10
-9.43436
 20
7.24073
 30
0.0
 10
-9.5087
 20
7.20988
 30
0.0
 10
-9.56349
 20
7.15502
 30
0.0
 10
-9.56349
 20
7.15502
 30
0.0
 10
-9.61828
 20
7.10016
 30
0.0
 10
-9.64904
 20
7.02614
 30
0.0
 10
-9.64899
 20
6.94861
 30
0.0
 10
-9.64899
 20
6.94861
 30
0.0
 10
-9.64899
 20
6.94861
 30
0.0
 10
-9.64899
 20
-4.3408
 30
0.0
 10
-9.64899
 20
-4.3408
 30
0.0
 10
-9.64899
 20
-4.3408
 30
0.0
 10
-9.64894
 20
-4.41834
 30
0.0
 10
-9.61809
 20
-4.49268
 30
0.0
 10
-9.56323
 20
-4.54747
 30
0.0
 10
-9.56323
 20
-4.54747
 30
0.0
 10
-9.50837
 20
-4.60226
 30
0.0
 10
-9.43436
 20
-4.63302
 30
0.0
 10
-9.35682
 20
-4.63297
 30
0.0
 10
-9.35682
 20
-4.63297
 30
0.0
 10
-9.35682
 20
-4.63297
 30
0.0
 10
1.19934
 20
-4.63297
 30
0.0
 10
1.19934
 20
-4.63297
 30
0.0
  0
SPLINE
  5
56
330
1F
100
AcDbEntity
  8
Layer 1
 62
     3
370
     9
100
AcDbSpline
210
0.0
220
0.0
230
1.0
 70
     8
 71
     3
 72
    32
 73
    28
 74
     0
 42
0.0000000001
 43
0.0000000001
 12
1.0
 22
0.0
 32
0.0
 13
1.0
 23
0.0
 33
0.0
 40
0.0
 40
0.0
 40
0.0
 40
0.0
 40
0.125
 40
0.125
 40
0.125
 40
0.125
 40
0.25
 40
0.25
 40
0.25
 40
0.25
 40
0.375
 40
0.375
 40
0.375
 40
0.375
 40
0.5
 40
0.5
 40
0.5
 40
0.5
 40
0.625
 40
0.625
 40
0.625
 40
0.625
 40
0.75
 40
0.75
 40
0.75
 40
0.75
 40
1.0
 40
1.0
 40
1.0
 40
1.0
 10
1.19934
 20
7.24078
 30
0.0
 10
1.19934
 20
7.24078
 30
0.0
 10
10.8379
 20
7.24078
 30
0.0
 10
10.8379
 20
7.24078
 30
0.0
 10
10.8379
 20
7.24078
 30
0.0
 10
10.91533
 20
7.24082
 30
0.0
 10
10.98962
 20
7.21011
 30
0.0
 10
11.04441
 20
7.15539
 30
0.0
 10
11.04441
 20
7.15539
 30
0.0
 10
11.09921
 20
7.10066
 30
0.0
 10
11.13001
 20
7.02605
 30
0.0
 10
11.13006
 20
6.94861
 30
0.0
 10
11.13006
 20
6.94861
 30
0.0
 10
11.13006
 20
6.94861
 30
0.0
 10
11.13006
 20
-4.3408
 30
0.0
 10
11.13006
 20
-4.3408
 30
0.0
 10
11.13006
 20
-4.3408
 30
0.0
 10
11.13011
 20
-4.41824
 30
0.0
 10
11.0994
 20
-4.49253
 30
0.0
 10
11.04467
 20
-4.54732
 30
0.0
 10
11.04467
 20
-4.54732
 30
0.0
 10
10.98995
 20
-4.60211
 30
0.0
 10
10.91533
 20
-4.63292
 30
0.0
 10
10.8379
 20
-4.63297
 30
0.0
 10
10.8379
 20
-4.63297
 30
0.0
 10
10.8379
 20
-4.63297
 30
0.0
 10
1.19934
 20
-4.63297
 30
0.0
 10
1.19934
 20
-4.63297
 30
0.0
  0
SPLINE
  5
58
330
1F
100
AcDbEntity
  8
layer 2
 62
     1
370
     0
100
AcDbSpline
210
0.0
220
0.0
230
1.0
 70
    24
 71
     3
 72
     8
 73
     4
 74
     0
 42
0.0000000001
 43
0.0000000001
 12
1.0
 22
0.0
 32
0.0
 13
1.0
 23
0.0
 33
0.0
 40
0.0
 40
0.0
 40
0.0
 40
0.0
 40
1.0
 40
1.0
 40
1.0
 40
1.0
 10
-9.64899
 20
7.09469
 30
0.0
 10
-9.64899
 20
7.09469
 30
0.0
 10
-9.64899
 20
8.22424
 30
0.0
 10
-9.64899
 20
8.22424
 30
0.0
  0
SPLINE
  5
59
330
1F
100
AcDbEntity
  8
layer 2
 62
     1
370
     0
100
AcDbSpline
210
0.0
220
0.0
230
1.0
 70
    24
 71
     3
 72
     8
 73
     4
 74
     0
 42
0.0000000001
 43
0.0000000001
 12
1.0
 22
0.0
 32
0.0
 13
1.0
 23
0.0
 33
0.0
 40
0.0
 40
0.0
 40
0.0
 40
0.0
 40
1.0
 40
1.0
 40
1.0
 40
1.0
 10
11.13006
 20
7.09469
 30
0.0
 10
11.13006
 20
7.09469
 30
0.0
 10
11.13006
 20
8.22424
 30
0.0
 10
11.13006
 20
8.22424
 30
0.0
  0
SPLINE
  5
5A
330
1F
100
AcDbEntity
  8
layer 2
 62
     1
370
     0
100
AcDbSpline
210
0.0
220
0.0
230
1.0
 70
    24
 71
     3
 72
     8
 73
     4
 74
     0
 42
0.0000000001
 43
0.0000000001
 12
1.0
 22
0.0
 32
0.0
 13
1.0
 23
0.0
 33
0.0
 40
0.0
 40
0.0
 40
0.0
 40
0.0
 40
1.0
 40
1.0
 40
1.0
 40
1.0
 10
-9.06465
 20
7.93207
 30
0.0
 10
-9.06465
 20
7.93207
 30
0.0
 10
10.54573
 20
7.93207
 30
0.0
 10
10.54573
 20
7.93207
 30
0.0
  0
SPLINE
  5
5B
330
1F
100
AcDbEntity
  8
layer 2
 62
     1
100
AcDbSpline
210
0.0
220
0.0
230
1.0
 70
    27
 71
     3
 72
    12
 73
     8
 74
     0
 42
0.0000000001
 43
0.0000000001
 12
1.0
 22
0.0
 32
0.0
 13
1.0
 23
0.0
 33
0.0
 40
0.0
 40
0.0
 40
0.0
 40
0.0
 40
0.3333333333333333
 40
0.3333333333333333
 40
0.3333333333333333
 40
0.3333333333333333
 40
1.0
 40
1.0
 40
1.0
 40
1.0
 10
-9.06465
 20
8.02946
 30
0.0
 10
-9.06465
 20
8.02946
 30
0.0
 10
-9.64899
 20
7.93207
 30
0.0
 10
-9.64899
 20
7.93207
 30
0.0
 10
-9.64899
 20
7.93207
 30
0.0
 10
-9.64899
 20
7.93207
 30
0.0
 10
-9.06465
 20
8.02946
 30
0.0
 10
-9.06465
 20
8.02946
 30
0.0
  0
SPLINE
  5
5C
330
1F
100
AcDbEntity
  8
layer 2
 62
     1
100
AcDbSpline
210
0.0
220
0.0
230
1.0
 70
     8
 71
     3
 72
    12
 73
     8
 74
     0
 42
0.0000000001
 43
0.0000000001
 12
1.0
 22
0.0
 32
0.0
 13
1.0
 23
0.0
 33
0.0
 40
0.0
 40
0.0
 40
0.0
 40
0.0
 40
0.3333333333333333
 40
0.3333333333333333
 40
0.3333333333333333
 40
0.3333333333333333
 40
1.0
 40
1.0
 40
1.0
 40
1.0
 10
-9.64899
 20
7.93207
 30
0.0
 10
-9.64899
 20
7.93207
 30
0.0
 10
-9.06465
 20
7.83468
 30
0.0
 10
-9.06465
 20
7.83468
 30
0.0
 10
-9.06465
 20
7.83468
 30
0.0
 10
-9.06465
 20
7.83468
 30
0.0
 10
-9.06465
 20
8.02946
 30
0.0
 10
-9.06465
 20
8.02946
 30
0.0
  0
SPLINE
  5
5D
330
1F
100
AcDbEntity
  8
layer 2
 62
     1
370
     9
100
AcDbSpline
210
0.0
220
0.0
230
1.0
 70
    24
 71
     3
 72
     8
 73
     4
 74
     0
 42
0.0000000001
 43
0.0000000001
 12
1.0
 22
0.0
 32
0.0
 13
1.0
 23
0.0
 33
0.0
 40
0.0
 40
0.0
 40
0.0
 40
0.0
 40
1.0
 40
1.0
 40
1.0
 40
1.0
 10
-9.06465
 20
8.02946
 30
0.0
 10
-9.06465
 20
8.02946
 30
0.0
 10
-9.64899
 20
7.93207
 30
0.0
 10
-9.64899
 20
7.93207
 30
0.0
  0
SPLINE
  5
5E
330
1F
100
AcDbEntity
  8
layer 2
 62
     1
370
     9
100
AcDbSpline
210
0.0
220
0.0
230
1.0
 70
     8
 71
     3
 72
    12
 73
     8
 74
     0
 42
0.0000000001
 43
0.0000000001
 12
1.0
 22
0.0
 32
0.0
 13
1.0
 23
0.0
 33
0.0
 40
0.0
 40
0.0
 40
0.0
 40
0.0
 40
0.3333333333333333
 40
0.3333333333333333
 40
0.3333333333333333
 40
0.3333333333333333
 40
1.0
 40
1.0
 40
1.0
 40
1.0
 10
-9.64899
 20
7.93207
 30
0.0
 10
-9.64899
 20
7.93207
 30
0.0
 10
-9.06465
 20
7.83468
 30
0.0
 10
-9.06465
 20
7.83468
 30
0.0
 10
-9.06465
 20
7.83468
 30
0.0
 10
-9.06465
 20
7.83468
 30
0.0
 10
-9.06465
 20
8.02946
 30
0.0
 10
-9.06465
 20
8.02946
 30
0.0
  0
SPLINE
  5
5F
330
1F
100
AcDbEntity
  8
layer 2
 62
     1
100
AcDbSpline
210
0.0
220
0.0
230
1.0
 70
    27
 71
     3
 72
    12
 73
     8
 74
     0
 42
0.0000000001
 43
0.0000000001
 12
1.0
 22
0.0
 32
0.0
 13
1.0
 23
0.0
 33
0.0
 40
0.0
 40
0.0
 40
0.0
 40
0.0
 40
0.3333333333333333
 40
0.3333333333333333
 40
0.3333333333333333
 40
0.3333333333333333
 40
1.0
 40
1.0
 40
1.0
 40
1.0
 10
10.54573
 20
8.02946
 30
0.0
 10
10.54573
 20
8.02946
 30
0.0
 10
11.13006
 20
7.93207
 30
0.0
 10
11.13006
 20
7.93207
 30
0.0
 10
11.13006
 20
7.93207
 30
0.0
 10
11.13006
 20
7.93207
 30
0.0
 10
10.54573
 20
8.02946
 30
0.0
 10
10.54573
 20
8.02946
 30
0.0
  0
SPLINE
  5
60
330
1F
100
AcDbEntity
  8
layer 2
 62
     1
100
AcDbSpline
210
0.0
220
0.0
230
1.0
 70
     8
 71
     3
 72
    12
 73
     8
 74
     0
 42
0.0000000001
 43
0.0000000001
 12
1.0
 22
0.0
 32
0.0
 13
1.0
 23
0.0
 33
0.0
 40
0.0
 40
0.0
 40
0.0
 40
0.0
 40
0.3333333333333333
 40
0.3333333333333333
 40
0.3333333333333333
 40
0.3333333333333333
 40
1.0
 40
1.0
 40
1.0
 40
1.0
 10
11.13006
 20
7.93207
 30
0.0
 10
11.13006
 20
7.93207
 30
0.0
 10
10.54573
 20
7.83468
 30
0.0
 10
10.54573
 20
7.83468
 30
0.0
 10
10.54573
 20
7.83468
 30
0.0
 10
10.54573
 20
7.83468
 30
0.0
 10
10.54573
 20
8.02946
 30
0.0
 10
10.54573
 20
8.02946
 30
0.0
  0
SPLINE
  5
61
330
1F
100
AcDbEntity
  8
layer 2
 62
     1
370
     9
100
AcDbSpline
210
0.0
220
0.0
230
1.0
 70
    24
 71
     3
 72
     8
 73
     4
 74
     0
 42
0.0000000001
 43
0.0000000001
 12
1.0
 22
0.0
 32
0.0
 13
1.0
 23
0.0
 33
0.0
 40
0.0
 40
0.0
 40
0.0
 40
0.0
 40
1.0
 40
1.0
 40
1.0
 40
1.0
 10
10.54573
 20
8.02946
 30
0.0
 10
10.54573
 20
8.02946
 30
0.0
 10
11.13006
 20
7.93207
 30
0.0
 10
11.13006
 20
7.93207
 30
0.0
  0
SPLINE
  5
62
330
1F
100
AcDbEntity
  8
layer 2
 62
     1
370
     9
100
AcDbSpline
210
0.0
220
0.0
230
1.0
 70
     8
 71
     3
 72
    12
 73
     8
 74
     0
 42
0.0000000001
 43
0.0000000001
 12
1.0
 22
0.0
 32
0.0
 13
1.0
 23
0.0
 33
0.0
 40
0.0
 40
0.0
 40
0.0
 40
0.0
 40
0.3333333333333333
 40
0.3333333333333333
 40
0.3333333333333333
 40
0.3333333333333333
 40
1.0
 40
1.0
 40
1.0
 40
1.0
 10
11.13006
 20
7.93207
 30
0.0
 10
11.13006
 20
7.93207
 30
0.0
 10
10.54573
 20
7.83468
 30
0.0
 10
10.54573
 20
7.83468
 30
0.0
 10
10.54573
 20
7.83468
 30
0.0
 10
10.54573
 20
7.83468
 30
0.0
 10
10.54573
 20
8.02946
 30
0.0
 10
10.54573
 20
8.02946
 30
0.0
  0
SPLINE
  5
63
330
1F
100
AcDbEntity
  8
layer 2
 62
     1
100
AcDbSpline
210
0.0
220
0.0
230
1.0
 70
    11
 71
     3
 72
    92
 73
    88
 74
     0
 42
0.0000000001
 43
0.0000000001
 12
1.0
 22
0.0
 32
0.0
 13
1.0
 23
0.0
 33
0.0
 40
0.0
 40
0.0
 40
0.0
 40
0.0
 40
0.0434782608695652
 40
0.0434782608695652
 40
0.0434782608695652
 40
0.0434782608695652
 40
0.0869565217391304
 40
0.0869565217391304
 40
0.0869565217391304
 40
0.0869565217391304
 40
0.1304347826086956
 40
0.1304347826086956
 40
0.1304347826086956
 40
0.1304347826086956
 40
0.1739130434782609
 40
0.1739130434782609
 40
0.1739130434782609
 40
0.1739130434782609
 40
0.2173913043478261
 40
0.2173913043478261
 40
0.2173913043478261
 40
0.2173913043478261
 40
0.2608695652173913
 40
0.2608695652173913
 40
0.2608695652173913
 40
0.2608695652173913
 40
0.3043478260869565
 40
0.3043478260869565
 40
0.3043478260869565
 40
0.3043478260869565
 40
0.3478260869565217
 40
0.3478260869565217
 40
0.3478260869565217
 40
0.3478260869565217
 40
0.391304347826087
 40
0.391304347826087
 40
0.391304347826087
 40
0.391304347826087
 40
0.4347826086956522
 40
0.4347826086956522
 40
0.4347826086956522
 40
0.4347826086956522
 40
0.4782608695652174
 40
0.4782608695652174
 40
0.4782608695652174
 40
0.4782608695652174
 40
0.5217391304347826
 40
0.5217391304347826
 40
0.5217391304347826
 40
0.5217391304347826
 40
0.5652173913043478
 40
0.5652173913043478
 40
0.5652173913043478
 40
0.5652173913043478
 40
0.6086956521739131
 40
0.6086956521739131
 40
0.6086956521739131
 40
0.6086956521739131
 40
0.6521739130434783
 40
0.6521739130434783
 40
0.6521739130434783
 40
0.6521739130434783
 40
0.6956521739130435
 40
0.6956521739130435
 40
0.6956521739130435
 40
0.6956521739130435
 40
0.7391304347826086
 40
0.7391304347826086
 40
0.7391304347826086
 40
0.7391304347826086
 40
0.782608695652174
 40
0.782608695652174
 40
0.782608695652174
 40
0.782608695652174
 40
0.8260869565217391
 40
0.8260869565217391
 40
0.8260869565217391
 40
0.8260869565217391
 40
0.8695652173913043
 40
0.8695652173913043
 40
0.8695652173913043
 40
0.8695652173913043
 40
0.9130434782608695
 40
0.9130434782608695
 40
0.9130434782608695
 40
0.9130434782608695
 40
1.0
 40
1.0
 40
1.0
 40
1.0
 10
0.61653
 20
8.22703
 30
0.0
 10
0.61653
 20
8.22703
 30
0.0
 10
0.61653
 20
8.18187
 30
0.0
 10
0.61653
 20
8.18187
 30
0.0
 10
0.61653
 20
8.18187
 30
0.0
 10
0.61653
 20
8.18187
 30
0.0
 10
0.36171
 20
8.18187
 30
0.0
 10
0.36171
 20
8.18187
 30
0.0
 10
0.36171
 20
8.18187
 30
0.0
 10
0.36135
 20
8.19325
 30
0.0
 10
0.36324
 20
8.20418
 30
0.0
 10
0.36727
 20
8.21476
 30
0.0
 10
0.36727
 20
8.21476
 30
0.0
 10
0.37381
 20
8.23205
 30
0.0
 10
0.38429
 20
8.24916
 30
0.0
 10
0.39872
 20
8.26592
 30
0.0
 10
0.39872
 20
8.26592
 30
0.0
 10
0.41314
 20
8.28267
 30
0.0
 10
0.43375
 20
8.30202
 30
0.0
 10
0.46054
 20
8.32398
 30
0.0
 10
0.46054
 20
8.32398
 30
0.0
 10
0.5022
 20
8.35829
 30
0.0
 10
0.53052
 20
8.38544
 30
0.0
 10
0.5453
 20
8.40551
 30
0.0
 10
0.5453
 20
8.40551
 30
0.0
 10
0.56018
 20
8.42558
 30
0.0
 10
0.56761
 20
8.44458
 30
0.0
 10
0.56761
 20
8.4625
 30
0.0
 10
0.56761
 20
8.4625
 30
0.0
 10
0.56761
 20
8.48122
 30
0.0
 10
0.56089
 20
8.49699
 30
0.0
 10
0.54745
 20
8.50989
 30
0.0
 10
0.54745
 20
8.50989
 30
0.0
 10
0.53401
 20
8.52271
 30
0.0
 10
0.51645
 20
8.52916
 30
0.0
 10
0.49486
 20
8.52916
 30
0.0
 10
0.49486
 20
8.52916
 30
0.0
 10
0.47201
 20
8.52916
 30
0.0
 10
0.45373
 20
8.52235
 30
0.0
 10
0.44002
 20
8.50873
 30
0.0
 10
0.44002
 20
8.50873
 30
0.0
 10
0.42632
 20
8.4952
 30
0.0
 10
0.41941
 20
8.47638
 30
0.0
 10
0.41924
 20
8.45228
 30
0.0
 10
0.41924
 20
8.45228
 30
0.0
 10
0.41924
 20
8.45228
 30
0.0
 10
0.37085
 20
8.45712
 30
0.0
 10
0.37085
 20
8.45712
 30
0.0
 10
0.37085
 20
8.45712
 30
0.0
 10
0.37417
 20
8.49332
 30
0.0
 10
0.38671
 20
8.52091
 30
0.0
 10
0.40839
 20
8.53991
 30
0.0
 10
0.40839
 20
8.53991
 30
0.0
 10
0.43017
 20
8.5589
 30
0.0
 10
0.45929
 20
8.5684
 30
0.0
 10
0.49593
 20
8.5684
 30
0.0
 10
0.49593
 20
8.5684
 30
0.0
 10
0.53285
 20
8.5684
 30
0.0
 10
0.56214
 20
8.55819
 30
0.0
 10
0.58365
 20
8.53767
 30
0.0
 10
0.58365
 20
8.53767
 30
0.0
 10
0.60524
 20
8.51715
 30
0.0
 10
0.61599
 20
8.4917
 30
0.0
 10
0.61599
 20
8.46142
 30
0.0
 10
0.61599
 20
8.46142
 30
0.0
 10
0.61599
 20
8.44601
 30
0.0
 10
0.61286
 20
8.43087
 30
0.0
 10
0.6065
 20
8.41599
 30
0.0
 10
0.6065
 20
8.41599
 30
0.0
 10
0.60023
 20
8.40103
 30
0.0
 10
0.58974
 20
8.38535
 30
0.0
 10
0.57514
 20
8.36886
 30
0.0
 10
0.57514
 20
8.36886
 30
0.0
 10
0.56044
 20
8.35247
 30
0.0
 10
0.53616
 20
8.3298
 30
0.0
 10
0.50229
 20
8.30113
 30
0.0
 10
0.50229
 20
8.30113
 30
0.0
 10
0.47389
 20
8.2773
 30
0.0
 10
0.45561
 20
8.26117
 30
0.0
 10
0.44755
 20
8.25266
 30
0.0
 10
0.44755
 20
8.25266
 30
0.0
 10
0.43949
 20
8.24414
 30
0.0
 10
0.43285
 20
8.23563
 30
0.0
 10
0.42757
 20
8.22703
 30
0.0
 10
0.42757
 20
8.22703
 30
0.0
 10
0.42757
 20
8.22703
 30
0.0
 10
0.61653
 20
8.22703
 30
0.0
 10
0.61653
 20
8.22703
 30
0.0
  0
SPLINE
  5
64
330
1F
100
AcDbEntity
  8
layer 2
 62
     1
100
AcDbSpline
210
0.0
220
0.0
230
1.0
 70
    11
 71
     3
 72
    68
 73
    64
 74
     0
 42
0.0000000001
 43
0.0000000001
 12
1.0
 22
0.0
 32
0.0
 13
1.0
 23
0.0
 33
0.0
 40
0.0
 40
0.0
 40
0.0
 40
0.0
 40
0.0588235294117647
 40
0.0588235294117647
 40
0.0588235294117647
 40
0.0588235294117647
 40
0.1176470588235294
 40
0.1176470588235294
 40
0.1176470588235294
 40
0.1176470588235294
 40
0.1764705882352941
 40
0.1764705882352941
 40
0.1764705882352941
 40
0.1764705882352941
 40
0.2352941176470588
 40
0.2352941176470588
 40
0.2352941176470588
 40
0.2352941176470588
 40
0.2941176470588235
 40
0.2941176470588235
 40
0.2941176470588235
 40
0.2941176470588235
 40
0.3529411764705883
 40
0.3529411764705883
 40
0.3529411764705883
 40
0.3529411764705883
 40
0.4117647058823529
 40
0.4117647058823529
 40
0.4117647058823529
 40
0.4117647058823529
 40
0.4705882352941176
 40
0.4705882352941176
 40
0.4705882352941176
 40
0.4705882352941176
 40
0.5294117647058824
 40
0.5294117647058824
 40
0.5294117647058824
 40
0.5294117647058824
 40
0.5882352941176471
 40
0.5882352941176471
 40
0.5882352941176471
 40
0.5882352941176471
 40
0.6470588235294118
 40
0.6470588235294118
 40
0.6470588235294118
 40
0.6470588235294118
 40
0.7058823529411765
 40
0.7058823529411765
 40
0.7058823529411765
 40
0.7058823529411765
 40
0.7647058823529411
 40
0.7647058823529411
 40
0.7647058823529411
 40
0.7647058823529411
 40
0.8235294117647058
 40
0.8235294117647058
 40
0.8235294117647058
 40
0.8235294117647058
 40
0.8823529411764706
 40
0.8823529411764706
 40
0.8823529411764706
 40
0.8823529411764706
 40
1.0
 40
1.0
 40
1.0
 40
1.0
 10
0.74054
 20
8.39055
 30
0.0
 10
0.72092
 20
8.39772
 30
0.0
 10
0.7064
 20
8.40802
 30
0.0
 10
0.6969
 20
8.42128
 30
0.0
 10
0.6969
 20
8.42128
 30
0.0
 10
0.68749
 20
8.43463
 30
0.0
 10
0.68275
 20
8.45058
 30
0.0
 10
0.68275
 20
8.46912
 30
0.0
 10
0.68275
 20
8.46912
 30
0.0
 10
0.68275
 20
8.49717
 30
0.0
 10
0.69278
 20
8.52065
 30
0.0
 10
0.71285
 20
8.53973
 30
0.0
 10
0.71285
 20
8.53973
 30
0.0
 10
0.73301
 20
8.55881
 30
0.0
 10
0.75971
 20
8.5684
 30
0.0
 10
0.79313
 20
8.5684
 30
0.0
 10
0.79313
 20
8.5684
 30
0.0
 10
0.82664
 20
8.5684
 30
0.0
 10
0.8537
 20
8.55863
 30
0.0
 10
0.87413
 20
8.5391
 30
0.0
 10
0.87413
 20
8.5391
 30
0.0
 10
0.89456
 20
8.51957
 30
0.0
 10
0.90477
 20
8.49583
 30
0.0
 10
0.90477
 20
8.46778
 30
0.0
 10
0.90477
 20
8.46778
 30
0.0
 10
0.90477
 20
8.44995
 30
0.0
 10
0.90011
 20
8.43436
 30
0.0
 10
0.89079
 20
8.42119
 30
0.0
 10
0.89079
 20
8.42119
 30
0.0
 10
0.88148
 20
8.40793
 30
0.0
 10
0.86732
 20
8.39772
 30
0.0
 10
0.84823
 20
8.39055
 30
0.0
 10
0.84823
 20
8.39055
 30
0.0
 10
0.8718
 20
8.38284
 30
0.0
 10
0.88963
 20
8.37048
 30
0.0
 10
0.90191
 20
8.35327
 30
0.0
 10
0.90191
 20
8.35327
 30
0.0
 10
0.91418
 20
8.33616
 30
0.0
 10
0.92036
 20
8.31573
 30
0.0
 10
0.92036
 20
8.2919
 30
0.0
 10
0.92036
 20
8.2919
 30
0.0
 10
0.92036
 20
8.25902
 30
0.0
 10
0.90871
 20
8.23142
 30
0.0
 10
0.88551
 20
8.20902
 30
0.0
 10
0.88551
 20
8.20902
 30
0.0
 10
0.86221
 20
8.18662
 30
0.0
 10
0.83166
 20
8.17542
 30
0.0
 10
0.79376
 20
8.17542
 30
0.0
 10
0.79376
 20
8.17542
 30
0.0
 10
0.75586
 20
8.17542
 30
0.0
 10
0.72531
 20
8.18662
 30
0.0
 10
0.70201
 20
8.20911
 30
0.0
 10
0.70201
 20
8.20911
 30
0.0
 10
0.6788
 20
8.2316
 30
0.0
 10
0.66716
 20
8.25965
 30
0.0
 10
0.66716
 20
8.29324
 30
0.0
 10
0.66716
 20
8.29324
 30
0.0
 10
0.66716
 20
8.31824
 30
0.0
 10
0.67352
 20
8.33921
 30
0.0
 10
0.68624
 20
8.35605
 30
0.0
 10
0.68624
 20
8.35605
 30
0.0
 10
0.69896
 20
8.37299
 30
0.0
 10
0.71706
 20
8.38445
 30
0.0
 10
0.74054
 20
8.39055
 30
0.0
  0
SPLINE
  5
65
330
1F
100
AcDbEntity
  8
layer 2
 62
     1
100
AcDbSpline
210
0.0
220
0.0
230
1.0
 70
    11
 71
     3
 72
    36
 73
    32
 74
     0
 42
0.0000000001
 43
0.0000000001
 12
1.0
 22
0.0
 32
0.0
 13
1.0
 23
0.0
 33
0.0
 40
0.0
 40
0.0
 40
0.0
 40
0.0
 40
0.1111111111111111
 40
0.1111111111111111
 40
0.1111111111111111
 40
0.1111111111111111
 40
0.2222222222222222
 40
0.2222222222222222
 40
0.2222222222222222
 40
0.2222222222222222
 40
0.3333333333333333
 40
0.3333333333333333
 40
0.3333333333333333
 40
0.3333333333333333
 40
0.4444444444444444
 40
0.4444444444444444
 40
0.4444444444444444
 40
0.4444444444444444
 40
0.5555555555555556
 40
0.5555555555555556
 40
0.5555555555555556
 40
0.5555555555555556
 40
0.6666666666666666
 40
0.6666666666666666
 40
0.6666666666666666
 40
0.6666666666666666
 40
0.7777777777777778
 40
0.7777777777777778
 40
0.7777777777777778
 40
0.7777777777777778
 40
1.0
 40
1.0
 40
1.0
 40
1.0
 10
0.73113
 20
8.47083
 30
0.0
 10
0.73113
 20
8.45255
 30
0.0
 10
0.73695
 20
8.43768
 30
0.0
 10
0.74851
 20
8.42612
 30
0.0
 10
0.74851
 20
8.42612
 30
0.0
 10
0.76016
 20
8.41456
 30
0.0
 10
0.77539
 20
8.40874
 30
0.0
 10
0.7943
 20
8.40874
 30
0.0
 10
0.7943
 20
8.40874
 30
0.0
 10
0.81267
 20
8.40874
 30
0.0
 10
0.82754
 20
8.41447
 30
0.0
 10
0.83909
 20
8.42594
 30
0.0
 10
0.83909
 20
8.42594
 30
0.0
 10
0.85065
 20
8.43741
 30
0.0
 10
0.85639
 20
8.45147
 30
0.0
 10
0.85639
 20
8.46814
 30
0.0
 10
0.85639
 20
8.46814
 30
0.0
 10
0.85639
 20
8.48552
 30
0.0
 10
0.85047
 20
8.50013
 30
0.0
 10
0.83856
 20
8.51195
 30
0.0
 10
0.83856
 20
8.51195
 30
0.0
 10
0.82673
 20
8.52378
 30
0.0
 10
0.81177
 20
8.52969
 30
0.0
 10
0.79376
 20
8.52969
 30
0.0
 10
0.79376
 20
8.52969
 30
0.0
 10
0.77557
 20
8.52969
 30
0.0
 10
0.76061
 20
8.52387
 30
0.0
 10
0.74878
 20
8.51231
 30
0.0
 10
0.74878
 20
8.51231
 30
0.0
 10
0.73704
 20
8.50075
 30
0.0
 10
0.73113
 20
8.48696
 30
0.0
 10
0.73113
 20
8.47083
 30
0.0
  0
SPLINE
  5
66
330
1F
100
AcDbEntity
  8
layer 2
 62
     1
100
AcDbSpline
210
0.0
220
0.0
230
1.0
 70
    11
 71
     3
 72
    40
 73
    36
 74
     0
 42
0.0000000001
 43
0.0000000001
 12
1.0
 22
0.0
 32
0.0
 13
1.0
 23
0.0
 33
0.0
 40
0.0
 40
0.0
 40
0.0
 40
0.0
 40
0.1
 40
0.1
 40
0.1
 40
0.1
 40
0.2
 40
0.2
 40
0.2
 40
0.2
 40
0.3
 40
0.3
 40
0.3
 40
0.3
 40
0.4
 40
0.4
 40
0.4
 40
0.4
 40
0.5
 40
0.5
 40
0.5
 40
0.5
 40
0.6
 40
0.6
 40
0.6
 40
0.6
 40
0.7
 40
0.7
 40
0.7
 40
0.7
 40
0.8
 40
0.8
 40
0.8
 40
0.8
 40
1.0
 40
1.0
 40
1.0
 40
1.0
 10
0.71554
 20
8.29289
 30
0.0
 10
0.71554
 20
8.27936
 30
0.0
 10
0.71867
 20
8.26637
 30
0.0
 10
0.72495
 20
8.25373
 30
0.0
 10
0.72495
 20
8.25373
 30
0.0
 10
0.73122
 20
8.24119
 30
0.0
 10
0.74072
 20
8.23142
 30
0.0
 10
0.75344
 20
8.22452
 30
0.0
 10
0.75344
 20
8.22452
 30
0.0
 10
0.76607
 20
8.21762
 30
0.0
 10
0.77969
 20
8.21413
 30
0.0
 10
0.79412
 20
8.21413
 30
0.0
 10
0.79412
 20
8.21413
 30
0.0
 10
0.81688
 20
8.21413
 30
0.0
 10
0.83551
 20
8.22139
 30
0.0
 10
0.85012
 20
8.2359
 30
0.0
 10
0.85012
 20
8.2359
 30
0.0
 10
0.86472
 20
8.25042
 30
0.0
 10
0.87198
 20
8.26887
 30
0.0
 10
0.87198
 20
8.29127
 30
0.0
 10
0.87198
 20
8.29127
 30
0.0
 10
0.87198
 20
8.31403
 30
0.0
 10
0.86445
 20
8.33285
 30
0.0
 10
0.84949
 20
8.34772
 30
0.0
 10
0.84949
 20
8.34772
 30
0.0
 10
0.83444
 20
8.36259
 30
0.0
 10
0.81544
 20
8.37003
 30
0.0
 10
0.79259
 20
8.37003
 30
0.0
 10
0.79259
 20
8.37003
 30
0.0
 10
0.7702
 20
8.37003
 30
0.0
 10
0.75183
 20
8.36268
 30
0.0
 10
0.73731
 20
8.34799
 30
0.0
 10
0.73731
 20
8.34799
 30
0.0
 10
0.7228
 20
8.3333
 30
0.0
 10
0.71554
 20
8.31493
 30
0.0
 10
0.71554
 20
8.29289
 30
0.0
  0
SPLINE
  5
67
330
1F
100
AcDbEntity
  8
layer 2
 62
     1
100
AcDbSpline
210
0.0
220
0.0
230
1.0
 70
    11
 71
     3
 72
    28
 73
    24
 74
     0
 42
0.0000000001
 43
0.0000000001
 12
1.0
 22
0.0
 32
0.0
 13
1.0
 23
0.0
 33
0.0
 40
0.0
 40
0.0
 40
0.0
 40
0.0
 40
0.1428571428571428
 40
0.1428571428571428
 40
0.1428571428571428
 40
0.1428571428571428
 40
0.2857142857142857
 40
0.2857142857142857
 40
0.2857142857142857
 40
0.2857142857142857
 40
0.4285714285714285
 40
0.4285714285714285
 40
0.4285714285714285
 40
0.4285714285714285
 40
0.5714285714285714
 40
0.5714285714285714
 40
0.5714285714285714
 40
0.5714285714285714
 40
0.7142857142857143
 40
0.7142857142857143
 40
0.7142857142857143
 40
0.7142857142857143
 40
1.0
 40
1.0
 40
1.0
 40
1.0
 10
0.98192
 20
8.43078
 30
0.0
 10
0.98192
 20
8.43078
 30
0.0
 10
0.96884
 20
8.50389
 30
0.0
 10
0.96884
 20
8.50389
 30
0.0
 10
0.96884
 20
8.50389
 30
0.0
 10
0.96884
 20
8.50389
 30
0.0
 10
0.96884
 20
8.56679
 30
0.0
 10
0.96884
 20
8.56679
 30
0.0
 10
0.96884
 20
8.56679
 30
0.0
 10
0.96884
 20
8.56679
 30
0.0
 10
1.02259
 20
8.56679
 30
0.0
 10
1.02259
 20
8.56679
 30
0.0
 10
1.02259
 20
8.56679
 30
0.0
 10
1.02259
 20
8.56679
 30
0.0
 10
1.02259
 20
8.50389
 30
0.0
 10
1.02259
 20
8.50389
 30
0.0
 10
1.02259
 20
8.50389
 30
0.0
 10
1.02259
 20
8.50389
 30
0.0
 10
1.01077
 20
8.43078
 30
0.0
 10
1.01077
 20
8.43078
 30
0.0
 10
1.01077
 20
8.43078
 30
0.0
 10
1.01077
 20
8.43078
 30
0.0
 10
0.98192
 20
8.43078
 30
0.0
 10
0.98192
 20
8.43078
 30
0.0
  0
SPLINE
  5
68
330
1F
100
AcDbEntity
  8
layer 2
 62
     1
100
AcDbSpline
210
0.0
220
0.0
230
1.0
 70
    11
 71
     3
 72
    28
 73
    24
 74
     0
 42
0.0000000001
 43
0.0000000001
 12
1.0
 22
0.0
 32
0.0
 13
1.0
 23
0.0
 33
0.0
 40
0.0
 40
0.0
 40
0.0
 40
0.0
 40
0.1428571428571428
 40
0.1428571428571428
 40
0.1428571428571428
 40
0.1428571428571428
 40
0.2857142857142857
 40
0.2857142857142857
 40
0.2857142857142857
 40
0.2857142857142857
 40
0.4285714285714285
 40
0.4285714285714285
 40
0.4285714285714285
 40
0.4285714285714285
 40
0.5714285714285714
 40
0.5714285714285714
 40
0.5714285714285714
 40
0.5714285714285714
 40
0.7142857142857143
 40
0.7142857142857143
 40
0.7142857142857143
 40
0.7142857142857143
 40
1.0
 40
1.0
 40
1.0
 40
1.0
 10
1.06874
 20
8.43078
 30
0.0
 10
1.06874
 20
8.43078
 30
0.0
 10
1.05592
 20
8.50389
 30
0.0
 10
1.05592
 20
8.50389
 30
0.0
 10
1.05592
 20
8.50389
 30
0.0
 10
1.05592
 20
8.50389
 30
0.0
 10
1.05592
 20
8.56679
 30
0.0
 10
1.05592
 20
8.56679
 30
0.0
 10
1.05592
 20
8.56679
 30
0.0
 10
1.05592
 20
8.56679
 30
0.0
 10
1.10968
 20
8.56679
 30
0.0
 10
1.10968
 20
8.56679
 30
0.0
 10
1.10968
 20
8.56679
 30
0.0
 10
1.10968
 20
8.56679
 30
0.0
 10
1.10968
 20
8.50389
 30
0.0
 10
1.10968
 20
8.50389
 30
0.0
 10
1.10968
 20
8.50389
 30
0.0
 10
1.10968
 20
8.50389
 30
0.0
 10
1.09705
 20
8.43078
 30
0.0
 10
1.09705
 20
8.43078
 30
0.0
 10
1.09705
 20
8.43078
 30
0.0
 10
1.09705
 20
8.43078
 30
0.0
 10
1.06874
 20
8.43078
 30
0.0
 10
1.06874
 20
8.43078
 30
0.0
  0
SPLINE
  5
69
330
1F
100
AcDbEntity
  8
layer 2
 62
     1
370
     0
100
AcDbSpline
210
0.0
220
0.0
230
1.0
 70
    24
 71
     3
 72
     8
 73
     4
 74
     0
 42
0.0000000001
 43
0.0000000001
 12
1.0
 22
0.0
 32
0.0
 13
1.0
 23
0.0
 33
0.0
 40
0.0
 40
0.0
 40
0.0
 40
0.0
 40
1.0
 40
1.0
 40
1.0
 40
1.0
 10
10.98398
 20
7.24078
 30
0.0
 10
10.98398
 20
7.24078
 30
0.0
 10
12.75045
 20
7.24078
 30
0.0
 10
12.75045
 20
7.24078
 30
0.0
  0
SPLINE
  5
6A
330
1F
100
AcDbEntity
  8
layer 2
 62
     1
370
     0
100
AcDbSpline
210
0.0
220
0.0
230
1.0
 70
    24
 71
     3
 72
     8
 73
     4
 74
     0
 42
0.0000000001
 43
0.0000000001
 12
1.0
 22
0.0
 32
0.0
 13
1.0
 23
0.0
 33
0.0
 40
0.0
 40
0.0
 40
0.0
 40
0.0
 40
1.0
 40
1.0
 40
1.0
 40
1.0
 10
10.98398
 20
-4.63297
 30
0.0
 10
10.98398
 20
-4.63297
 30
0.0
 10
12.75045
 20
-4.63297
 30
0.0
 10
12.75045
 20
-4.63297
 30
0.0
  0
SPLINE
  5
6B
330
1F
100
AcDbEntity
  8
layer 2
 62
     1
370
     0
100
AcDbSpline
210
0.0
220
0.0
230
1.0
 70
    24
 71
     3
 72
     8
 73
     4
 74
     0
 42
0.0000000001
 43
0.0000000001
 12
1.0
 22
0.0
 32
0.0
 13
1.0
 23
0.0
 33
0.0
 40
0.0
 40
0.0
 40
0.0
 40
0.0
 40
1.0
 40
1.0
 40
1.0
 40
1.0
 10
12.45828
 20
6.65644
 30
0.0
 10
12.45828
 20
6.65644
 30
0.0
 10
12.45828
 20
-4.04863
 30
0.0
 10
12.45828
 20
-4.04863
 30
0.0
  0
SPLINE
  5
6C
330
1F
100
AcDbEntity
  8
layer 2
 62
     1
100
AcDbSpline
210
0.0
220
0.0
230
1.0
 70
    27
 71
     3
 72
    12
 73
     8
 74
     0
 42
0.0000000001
 43
0.0000000001
 12
1.0
 22
0.0
 32
0.0
 13
1.0
 23
0.0
 33
0.0
 40
0.0
 40
0.0
 40
0.0
 40
0.0
 40
0.3333333333333333
 40
0.3333333333333333
 40
0.3333333333333333
 40
0.3333333333333333
 40
1.0
 40
1.0
 40
1.0
 40
1.0
 10
12.36089
 20
6.65644
 30
0.0
 10
12.36089
 20
6.65644
 30
0.0
 10
12.45828
 20
7.24078
 30
0.0
 10
12.45828
 20
7.24078
 30
0.0
 10
12.45828
 20
7.24078
 30
0.0
 10
12.45828
 20
7.24078
 30
0.0
 10
12.36089
 20
6.65644
 30
0.0
 10
12.36089
 20
6.65644
 30
0.0
  0
SPLINE
  5
6D
330
1F
100
AcDbEntity
  8
layer 2
 62
     1
100
AcDbSpline
210
0.0
220
0.0
230
1.0
 70
     8
 71
     3
 72
    12
 73
     8
 74
     0
 42
0.0000000001
 43
0.0000000001
 12
1.0
 22
0.0
 32
0.0
 13
1.0
 23
0.0
 33
0.0
 40
0.0
 40
0.0
 40
0.0
 40
0.0
 40
0.3333333333333333
 40
0.3333333333333333
 40
0.3333333333333333
 40
0.3333333333333333
 40
1.0
 40
1.0
 40
1.0
 40
1.0
 10
12.45828
 20
7.24078
 30
0.0
 10
12.45828
 20
7.24078
 30
0.0
 10
12.55567
 20
6.65644
 30
0.0
 10
12.55567
 20
6.65644
 30
0.0
 10
12.55567
 20
6.65644
 30
0.0
 10
12.55567
 20
6.65644
 30
0.0
 10
12.36089
 20
6.65644
 30
0.0
 10
12.36089
 20
6.65644
 30
0.0
  0
SPLINE
  5
6E
330
1F
100
AcDbEntity
  8
layer 2
 62
     1
370
     9
100
AcDbSpline
210
0.0
220
0.0
230
1.0
 70
    24
 71
     3
 72
     8
 73
     4
 74
     0
 42
0.0000000001
 43
0.0000000001
 12
1.0
 22
0.0
 32
0.0
 13
1.0
 23
0.0
 33
0.0
 40
0.0
 40
0.0
 40
0.0
 40
0.0
 40
1.0
 40
1.0
 40
1.0
 40
1.0
 10
12.36089
 20
6.65644
 30
0.0
 10
12.36089
 20
6.65644
 30
0.0
 10
12.45828
 20
7.24078
 30
0.0
 10
12.45828
 20
7.24078
 30
0.0
  0
SPLINE
  5
6F
330
1F
100
AcDbEntity
  8
layer 2
 62
     1
370
     9
100
AcDbSpline
210
0.0
220
0.0
230
1.0
 70
     8
 71
     3
 72
    12
 73
     8
 74
     0
 42
0.0000000001
 43
0.0000000001
 12
1.0
 22
0.0
 32
0.0
 13
1.0
 23
0.0
 33
0.0
 40
0.0
 40
0.0
 40
0.0
 40
0.0
 40
0.3333333333333333
 40
0.3333333333333333
 40
0.3333333333333333
 40
0.3333333333333333
 40
1.0
 40
1.0
 40
1.0
 40
1.0
 10
12.45828
 20
7.24078
 30
0.0
 10
12.45828
 20
7.24078
 30
0.0
 10
12.55567
 20
6.65644
 30
0.0
 10
12.55567
 20
6.65644
 30
0.0
 10
12.55567
 20
6.65644
 30
0.0
 10
12.55567
 20
6.65644
 30
0.0
 10
12.36089
 20
6.65644
 30
0.0
 10
12.36089
 20
6.65644
 30
0.0
  0
SPLINE
  5
70
330
1F
100
AcDbEntity
  8
layer 2
 62
     1
100
AcDbSpline
210
0.0
220
0.0
230
1.0
 70
    27
 71
     3
 72
    12
 73
     8
 74
     0
 42
0.0000000001
 43
0.0000000001
 12
1.0
 22
0.0
 32
0.0
 13
1.0
 23
0.0
 33
0.0
 40
0.0
 40
0.0
 40
0.0
 40
0.0
 40
0.3333333333333333
 40
0.3333333333333333
 40
0.3333333333333333
 40
0.3333333333333333
 40
1.0
 40
1.0
 40
1.0
 40
1.0
 10
12.36089
 20
-4.04863
 30
0.0
 10
12.36089
 20
-4.04863
 30
0.0
 10
12.45828
 20
-4.63297
 30
0.0
 10
12.45828
 20
-4.63297
 30
0.0
 10
12.45828
 20
-4.63297
 30
0.0
 10
12.45828
 20
-4.63297
 30
0.0
 10
12.36089
 20
-4.04863
 30
0.0
 10
12.36089
 20
-4.04863
 30
0.0
  0
SPLINE
  5
71
330
1F
100
AcDbEntity
  8
layer 2
 62
     1
100
AcDbSpline
210
0.0
220
0.0
230
1.0
 70
     8
 71
     3
 72
    12
 73
     8
 74
     0
 42
0.0000000001
 43
0.0000000001
 12
1.0
 22
0.0
 32
0.0
 13
1.0
 23
0.0
 33
0.0
 40
0.0
 40
0.0
 40
0.0
 40
0.0
 40
0.3333333333333333
 40
0.3333333333333333
 40
0.3333333333333333
 40
0.3333333333333333
 40
1.0
 40
1.0
 40
1.0
 40
1.0
 10
12.45828
 20
-4.63297
 30
0.0
 10
12.45828
 20
-4.63297
 30
0.0
 10
12.55567
 20
-4.04863
 30
0.0
 10
12.55567
 20
-4.04863
 30
0.0
 10
12.55567
 20
-4.04863
 30
0.0
 10
12.55567
 20
-4.04863
 30
0.0
 10
12.36089
 20
-4.04863
 30
0.0
 10
12.36089
 20
-4.04863
 30
0.0
  0
SPLINE
  5
72
330
1F
100
AcDbEntity
  8
layer 2
 62
     1
370
     9
100
AcDbSpline
210
0.0
220
0.0
230
1.0
 70
    24
 71
     3
 72
     8
 73
     4
 74
     0
 42
0.0000000001
 43
0.0000000001
 12
1.0
 22
0.0
 32
0.0
 13
1.0
 23
0.0
 33
0.0
 40
0.0
 40
0.0
 40
0.0
 40
0.0
 40
1.0
 40
1.0
 40
1.0
 40
1.0
 10
12.36089
 20
-4.04863
 30
0.0
 10
12.36089
 20
-4.04863
 30
0.0
 10
12.45828
 20
-4.63297
 30
0.0
 10
12.45828
 20
-4.63297
 30
0.0
  0
SPLINE
  5
73
330
1F
100
AcDbEntity
  8
layer 2
 62
     1
370
     9
100
AcDbSpline
210
0.0
220
0.0
230
1.0
 70
     8
 71
     3
 72
    12
 73
     8
 74
     0
 42
0.0000000001
 43
0.0000000001
 12
1.0
 22
0.0
 32
0.0
 13
1.0
 23
0.0
 33
0.0
 40
0.0
 40
0.0
 40
0.0
 40
0.0
 40
0.3333333333333333
 40
0.3333333333333333
 40
0.3333333333333333
 40
0.3333333333333333
 40
1.0
 40
1.0
 40
1.0
 40
1.0
 10
12.45828
 20
-4.63297
 30
0.0
 10
12.45828
 20
-4.63297
 30
0.0
 10
12.55567
 20
-4.04863
 30
0.0
 10
12.55567
 20
-4.04863
 30
0.0
 10
12.55567
 20
-4.04863
 30
0.0
 10
12.55567
 20
-4.04863
 30
0.0
 10
12.36089
 20
-4.04863
 30
0.0
 10
12.36089
 20
-4.04863
 30
0.0
  0
SPLINE
  5
74
330
1F
100
AcDbEntity
  8
layer 2
 62
     1
100
AcDbSpline
210
0.0
220
0.0
230
1.0
 70
    11
 71
     3
 72
    40
 73
    36
 74
     0
 42
0.0000000001
 43
0.0000000001
 12
1.0
 22
0.0
 32
0.0
 13
1.0
 23
0.0
 33
0.0
 40
0.0
 40
0.0
 40
0.0
 40
0.0
 40
0.1
 40
0.1
 40
0.1
 40
0.1
 40
0.2
 40
0.2
 40
0.2
 40
0.2
 40
0.3
 40
0.3
 40
0.3
 40
0.3
 40
0.4
 40
0.4
 40
0.4
 40
0.4
 40
0.5
 40
0.5
 40
0.5
 40
0.5
 40
0.6
 40
0.6
 40
0.6
 40
0.6
 40
0.7
 40
0.7
 40
0.7
 40
0.7
 40
0.8
 40
0.8
 40
0.8
 40
0.8
 40
1.0
 40
1.0
 40
1.0
 40
1.0
 10
12.20848
 20
2.28705
 30
0.0
 10
12.20848
 20
2.28705
 30
0.0
 10
12.20848
 20
2.23974
 30
0.0
 10
12.20848
 20
2.23974
 30
0.0
 10
12.20848
 20
2.23974
 30
0.0
 10
12.20848
 20
2.23974
 30
0.0
 10
11.90725
 20
2.23974
 30
0.0
 10
11.90725
 20
2.23974
 30
0.0
 10
11.90725
 20
2.23974
 30
0.0
 10
11.91818
 20
2.22836
 30
0.0
 10
11.92902
 20
2.2134
 30
0.0
 10
11.93986
 20
2.19495
 30
0.0
 10
11.93986
 20
2.19495
 30
0.0
 10
11.9507
 20
2.17649
 30
0.0
 10
11.95886
 20
2.15982
 30
0.0
 10
11.96423
 20
2.14513
 30
0.0
 10
11.96423
 20
2.14513
 30
0.0
 10
11.96423
 20
2.14513
 30
0.0
 10
11.91854
 20
2.14513
 30
0.0
 10
11.91854
 20
2.14513
 30
0.0
 10
11.91854
 20
2.14513
 30
0.0
 10
11.90617
 20
2.17156
 30
0.0
 10
11.89112
 20
2.19468
 30
0.0
 10
11.87338
 20
2.21448
 30
0.0
 10
11.87338
 20
2.21448
 30
0.0
 10
11.85573
 20
2.23428
 30
0.0
 10
11.83861
 20
2.24835
 30
0.0
 10
11.82195
 20
2.25659
 30
0.0
 10
11.82195
 20
2.25659
 30
0.0
 10
11.82195
 20
2.25659
 30
0.0
 10
11.82195
 20
2.28705
 30
0.0
 10
11.82195
 20
2.28705
 30
0.0
 10
11.82195
 20
2.28705
 30
0.0
 10
11.82195
 20
2.28705
 30
0.0
 10
12.20848
 20
2.28705
 30
0.0
 10
12.20848
 20
2.28705
 30
0.0
  0
SPLINE
  5
75
330
1F
100
AcDbEntity
  8
layer 2
 62
     1
100
AcDbSpline
210
0.0
220
0.0
230
1.0
 70
    11
 71
     3
 72
    80
 73
    76
 74
     0
 42
0.0000000001
 43
0.0000000001
 12
1.0
 22
0.0
 32
0.0
 13
1.0
 23
0.0
 33
0.0
 40
0.0
 40
0.0
 40
0.0
 40
0.0
 40
0.05
 40
0.05
 40
0.05
 40
0.05
 40
0.1
 40
0.1
 40
0.1
 40
0.1
 40
0.15
 40
0.15
 40
0.15
 40
0.15
 40
0.2
 40
0.2
 40
0.2
 40
0.2
 40
0.25
 40
0.25
 40
0.25
 40
0.25
 40
0.3
 40
0.3
 40
0.3
 40
0.3
 40
0.35
 40
0.35
 40
0.35
 40
0.35
 40
0.4
 40
0.4
 40
0.4
 40
0.4
 40
0.45
 40
0.45
 40
0.45
 40
0.45
 40
0.5
 40
0.5
 40
0.5
 40
0.5
 40
0.55
 40
0.55
 40
0.55
 40
0.55
 40
0.6
 40
0.6
 40
0.6
 40
0.6
 40
0.65
 40
0.65
 40
0.65
 40
0.65
 40
0.7
 40
0.7
 40
0.7
 40
0.7
 40
0.75
 40
0.75
 40
0.75
 40
0.75
 40
0.8
 40
0.8
 40
0.8
 40
0.8
 40
0.85
 40
0.85
 40
0.85
 40
0.85
 40
0.9
 40
0.9
 40
0.9
 40
0.9
 40
1.0
 40
1.0
 40
1.0
 40
1.0
 10
11.91764
 20
2.65432
 30
0.0
 10
11.91764
 20
2.65432
 30
0.0
 10
11.9214
 20
2.60755
 30
0.0
 10
11.9214
 20
2.60755
 30
0.0
 10
11.9214
 20
2.60755
 30
0.0
 10
11.90286
 20
2.60334
 30
0.0
 10
11.88933
 20
2.59733
 30
0.0
 10
11.88091
 20
2.58954
 30
0.0
 10
11.88091
 20
2.58954
 30
0.0
 10
11.86738
 20
2.57673
 30
0.0
 10
11.86066
 20
2.56087
 30
0.0
 10
11.86066
 20
2.54205
 30
0.0
 10
11.86066
 20
2.54205
 30
0.0
 10
11.86066
 20
2.52691
 30
0.0
 10
11.86487
 20
2.51347
 30
0.0
 10
11.87329
 20
2.50191
 30
0.0
 10
11.87329
 20
2.50191
 30
0.0
 10
11.88413
 20
2.48704
 30
0.0
 10
11.8999
 20
2.47539
 30
0.0
 10
11.92069
 20
2.4667
 30
0.0
 10
11.92069
 20
2.4667
 30
0.0
 10
11.94156
 20
2.4581
 30
0.0
 10
11.97122
 20
2.45362
 30
0.0
 10
12.00966
 20
2.45326
 30
0.0
 10
12.00966
 20
2.45326
 30
0.0
 10
11.99237
 20
2.46464
 30
0.0
 10
11.97946
 20
2.47862
 30
0.0
 10
11.97113
 20
2.4951
 30
0.0
 10
11.97113
 20
2.4951
 30
0.0
 10
11.96271
 20
2.51159
 30
0.0
 10
11.9585
 20
2.52879
 30
0.0
 10
11.9585
 20
2.54689
 30
0.0
 10
11.9585
 20
2.54689
 30
0.0
 10
11.9585
 20
2.57843
 30
0.0
 10
11.97015
 20
2.60531
 30
0.0
 10
11.99335
 20
2.62753
 30
0.0
 10
11.99335
 20
2.62753
 30
0.0
 10
12.01656
 20
2.64966
 30
0.0
 10
12.04648
 20
2.66077
 30
0.0
 10
12.08331
 20
2.66077
 30
0.0
 10
12.08331
 20
2.66077
 30
0.0
 10
12.1075
 20
2.66077
 30
0.0
 10
12.1299
 20
2.65557
 30
0.0
 10
12.15069
 20
2.64518
 30
0.0
 10
12.15069
 20
2.64518
 30
0.0
 10
12.17147
 20
2.6347
 30
0.0
 10
12.18733
 20
2.62045
 30
0.0
 10
12.19835
 20
2.60217
 30
0.0
 10
12.19835
 20
2.60217
 30
0.0
 10
12.20937
 20
2.58398
 30
0.0
 10
12.21493
 20
2.56329
 30
0.0
 10
12.21493
 20
2.54017
 30
0.0
 10
12.21493
 20
2.54017
 30
0.0
 10
12.21493
 20
2.50084
 30
0.0
 10
12.20041
 20
2.46867
 30
0.0
 10
12.17147
 20
2.44376
 30
0.0
 10
12.17147
 20
2.44376
 30
0.0
 10
12.14253
 20
2.41894
 30
0.0
 10
12.09478
 20
2.40649
 30
0.0
 10
12.02829
 20
2.40649
 30
0.0
 10
12.02829
 20
2.40649
 30
0.0
 10
11.95393
 20
2.40649
 30
0.0
 10
11.89981
 20
2.42029
 30
0.0
 10
11.86603
 20
2.44779
 30
0.0
 10
11.86603
 20
2.44779
 30
0.0
 10
11.83664
 20
2.47181
 30
0.0
 10
11.82195
 20
2.50415
 30
0.0
 10
11.82195
 20
2.54492
 30
0.0
 10
11.82195
 20
2.54492
 30
0.0
 10
11.82195
 20
2.5752
 30
0.0
 10
11.83046
 20
2.60011
 30
0.0
 10
11.84739
 20
2.61946
 30
0.0
 10
11.84739
 20
2.61946
 30
0.0
 10
11.86433
 20
2.63882
 30
0.0
 10
11.88771
 20
2.65046
 30
0.0
 10
11.91764
 20
2.65432
 30
0.0
  0
SPLINE
  5
76
330
1F
100
AcDbEntity
  8
layer 2
 62
     1
100
AcDbSpline
210
0.0
220
0.0
230
1.0
 70
    11
 71
     3
 72
    40
 73
    36
 74
     0
 42
0.0000000001
 43
0.0000000001
 12
1.0
 22
0.0
 32
0.0
 13
1.0
 23
0.0
 33
0.0
 40
0.0
 40
0.0
 40
0.0
 40
0.0
 40
0.1
 40
0.1
 40
0.1
 40
0.1
 40
0.2
 40
0.2
 40
0.2
 40
0.2
 40
0.3
 40
0.3
 40
0.3
 40
0.3
 40
0.4
 40
0.4
 40
0.4
 40
0.4
 40
0.5
 40
0.5
 40
0.5
 40
0.5
 40
0.6
 40
0.6
 40
0.6
 40
0.6
 40
0.7
 40
0.7
 40
0.7
 40
0.7
 40
0.8
 40
0.8
 40
0.8
 40
0.8
 40
1.0
 40
1.0
 40
1.0
 40
1.0
 10
12.08376
 20
2.46078
 30
0.0
 10
12.10006
 20
2.46078
 30
0.0
 10
12.11565
 20
2.46428
 30
0.0
 10
12.13053
 20
2.47118
 30
0.0
 10
12.13053
 20
2.47118
 30
0.0
 10
12.1454
 20
2.47808
 30
0.0
 10
12.15669
 20
2.48775
 30
0.0
 10
12.16449
 20
2.50003
 30
0.0
 10
12.16449
 20
2.50003
 30
0.0
 10
12.17228
 20
2.51239
 30
0.0
 10
12.17622
 20
2.52547
 30
0.0
 10
12.17622
 20
2.53936
 30
0.0
 10
12.17622
 20
2.53936
 30
0.0
 10
12.17622
 20
2.55952
 30
0.0
 10
12.16816
 20
2.57673
 30
0.0
 10
12.15203
 20
2.59097
 30
0.0
 10
12.15203
 20
2.59097
 30
0.0
 10
12.1359
 20
2.60522
 30
0.0
 10
12.11404
 20
2.61239
 30
0.0
 10
12.08635
 20
2.61239
 30
0.0
 10
12.08635
 20
2.61239
 30
0.0
 10
12.05974
 20
2.61239
 30
0.0
 10
12.03878
 20
2.60531
 30
0.0
 10
12.02346
 20
2.59124
 30
0.0
 10
12.02346
 20
2.59124
 30
0.0
 10
12.00813
 20
2.57717
 30
0.0
 10
12.00043
 20
2.55925
 30
0.0
 10
12.00043
 20
2.53748
 30
0.0
 10
12.00043
 20
2.53748
 30
0.0
 10
12.00043
 20
2.51616
 30
0.0
 10
12.00813
 20
2.49797
 30
0.0
 10
12.02346
 20
2.48309
 30
0.0
 10
12.02346
 20
2.48309
 30
0.0
 10
12.03878
 20
2.46822
 30
0.0
 10
12.05885
 20
2.46078
 30
0.0
 10
12.08376
 20
2.46078
 30
0.0
  0
SPLINE
  5
77
330
1F
100
AcDbEntity
  8
layer 2
 62
     1
100
AcDbSpline
210
0.0
220
0.0
230
1.0
 70
    11
 71
     3
 72
    28
 73
    24
 74
     0
 42
0.0000000001
 43
0.0000000001
 12
1.0
 22
0.0
 32
0.0
 13
1.0
 23
0.0
 33
0.0
 40
0.0
 40
0.0
 40
0.0
 40
0.0
 40
0.1428571428571428
 40
0.1428571428571428
 40
0.1428571428571428
 40
0.1428571428571428
 40
0.2857142857142857
 40
0.2857142857142857
 40
0.2857142857142857
 40
0.2857142857142857
 40
0.4285714285714285
 40
0.4285714285714285
 40
0.4285714285714285
 40
0.4285714285714285
 40
0.5714285714285714
 40
0.5714285714285714
 40
0.5714285714285714
 40
0.5714285714285714
 40
0.7142857142857143
 40
0.7142857142857143
 40
0.7142857142857143
 40
0.7142857142857143
 40
1.0
 40
1.0
 40
1.0
 40
1.0
 10
11.95957
 20
2.72286
 30
0.0
 10
11.95957
 20
2.72286
 30
0.0
 10
11.88646
 20
2.70978
 30
0.0
 10
11.88646
 20
2.70978
 30
0.0
 10
11.88646
 20
2.70978
 30
0.0
 10
11.88646
 20
2.70978
 30
0.0
 10
11.82356
 20
2.70978
 30
0.0
 10
11.82356
 20
2.70978
 30
0.0
 10
11.82356
 20
2.70978
 30
0.0
 10
11.82356
 20
2.70978
 30
0.0
 10
11.82356
 20
2.76354
 30
0.0
 10
11.82356
 20
2.76354
 30
0.0
 10
11.82356
 20
2.76354
 30
0.0
 10
11.82356
 20
2.76354
 30
0.0
 10
11.88646
 20
2.76354
 30
0.0
 10
11.88646
 20
2.76354
 30
0.0
 10
11.88646
 20
2.76354
 30
0.0
 10
11.88646
 20
2.76354
 30
0.0
 10
11.95957
 20
2.75171
 30
0.0
 10
11.95957
 20
2.75171
 30
0.0
 10
11.95957
 20
2.75171
 30
0.0
 10
11.95957
 20
2.75171
 30
0.0
 10
11.95957
 20
2.72286
 30
0.0
 10
11.95957
 20
2.72286
 30
0.0
  0
SPLINE
  5
78
330
1F
100
AcDbEntity
  8
layer 2
 62
     1
100
AcDbSpline
210
0.0
220
0.0
230
1.0
 70
    11
 71
     3
 72
    28
 73
    24
 74
     0
 42
0.0000000001
 43
0.0000000001
 12
1.0
 22
0.0
 32
0.0
 13
1.0
 23
0.0
 33
0.0
 40
0.0
 40
0.0
 40
0.0
 40
0.0
 40
0.1428571428571428
 40
0.1428571428571428
 40
0.1428571428571428
 40
0.1428571428571428
 40
0.2857142857142857
 40
0.2857142857142857
 40
0.2857142857142857
 40
0.2857142857142857
 40
0.4285714285714285
 40
0.4285714285714285
 40
0.4285714285714285
 40
0.4285714285714285
 40
0.5714285714285714
 40
0.5714285714285714
 40
0.5714285714285714
 40
0.5714285714285714
 40
0.7142857142857143
 40
0.7142857142857143
 40
0.7142857142857143
 40
0.7142857142857143
 40
1.0
 40
1.0
 40
1.0
 40
1.0
 10
11.95957
 20
2.80968
 30
0.0
 10
11.95957
 20
2.80968
 30
0.0
 10
11.88646
 20
2.79687
 30
0.0
 10
11.88646
 20
2.79687
 30
0.0
 10
11.88646
 20
2.79687
 30
0.0
 10
11.88646
 20
2.79687
 30
0.0
 10
11.82356
 20
2.79687
 30
0.0
 10
11.82356
 20
2.79687
 30
0.0
 10
11.82356
 20
2.79687
 30
0.0
 10
11.82356
 20
2.79687
 30
0.0
 10
11.82356
 20
2.85063
 30
0.0
 10
11.82356
 20
2.85063
 30
0.0
 10
11.82356
 20
2.85063
 30
0.0
 10
11.82356
 20
2.85063
 30
0.0
 10
11.88646
 20
2.85063
 30
0.0
 10
11.88646
 20
2.85063
 30
0.0
 10
11.88646
 20
2.85063
 30
0.0
 10
11.88646
 20
2.85063
 30
0.0
 10
11.95957
 20
2.838
 30
0.0
 10
11.95957
 20
2.838
 30
0.0
 10
11.95957
 20
2.838
 30
0.0
 10
11.95957
 20
2.838
 30
0.0
 10
11.95957
 20
2.80968
 30
0.0
 10
11.95957
 20
2.80968
 30
0.0
  0
SPLINE
  5
79
330
1F
100
AcDbEntity
  8
layer 2
 62
     1
370
     0
100
AcDbSpline
210
0.0
220
0.0
230
1.0
 70
    24
 71
     3
 72
     8
 73
     4
 74
     0
 42
0.0000000001
 43
0.0000000001
 12
1.0
 22
0.0
 32
0.0
 13
1.0
 23
0.0
 33
0.0
 40
0.0
 40
0.0
 40
0.0
 40
0.0
 40
1.0
 40
1.0
 40
1.0
 40
1.0
 10
-11.45706
 20
-5.98604
 30
0.0
 10
-11.45706
 20
-5.98604
 30
0.0
 10
-9.86282
 20
-4.73718
 30
0.0
 10
-9.86282
 20
-4.73718
 30
0.0
  0
SPLINE
  5
7A
330
1F
100
AcDbEntity
  8
layer 2
 62
     1
100
AcDbSpline
210
0.0
220
0.0
230
1.0
 70
    11
 71
     3
 72
    80
 73
    76
 74
     0
 42
0.0000000001
 43
0.0000000001
 12
1.0
 22
0.0
 32
0.0
 13
1.0
 23
0.0
 33
0.0
 40
0.0
 40
0.0
 40
0.0
 40
0.0
 40
0.05
 40
0.05
 40
0.05
 40
0.05
 40
0.1
 40
0.1
 40
0.1
 40
0.1
 40
0.15
 40
0.15
 40
0.15
 40
0.15
 40
0.2
 40
0.2
 40
0.2
 40
0.2
 40
0.25
 40
0.25
 40
0.25
 40
0.25
 40
0.3
 40
0.3
 40
0.3
 40
0.3
 40
0.35
 40
0.35
 40
0.35
 40
0.35
 40
0.4
 40
0.4
 40
0.4
 40
0.4
 40
0.45
 40
0.45
 40
0.45
 40
0.45
 40
0.5
 40
0.5
 40
0.5
 40
0.5
 40
0.55
 40
0.55
 40
0.55
 40
0.55
 40
0.6
 40
0.6
 40
0.6
 40
0.6
 40
0.65
 40
0.65
 40
0.65
 40
0.65
 40
0.7
 40
0.7
 40
0.7
 40
0.7
 40
0.75
 40
0.75
 40
0.75
 40
0.75
 40
0.8
 40
0.8
 40
0.8
 40
0.8
 40
0.85
 40
0.85
 40
0.85
 40
0.85
 40
0.9
 40
0.9
 40
0.9
 40
0.9
 40
1.0
 40
1.0
 40
1.0
 40
1.0
 10
-11.27516
 20
-4.71574
 30
0.0
 10
-11.27516
 20
-4.71574
 30
0.0
 10
-11.51253
 20
-4.41273
 30
0.0
 10
-11.51253
 20
-4.41273
 30
0.0
 10
-11.51253
 20
-4.41273
 30
0.0
 10
-11.51253
 20
-4.41273
 30
0.0
 10
-11.37823
 20
-4.30753
 30
0.0
 10
-11.37823
 20
-4.30753
 30
0.0
 10
-11.37823
 20
-4.30753
 30
0.0
 10
-11.35122
 20
-4.28637
 30
0.0
 10
-11.32854
 20
-4.27304
 30
0.0
 10
-11.31025
 20
-4.26747
 30
0.0
 10
-11.31025
 20
-4.26747
 30
0.0
 10
-11.29196
 20
-4.26191
 30
0.0
 10
-11.27323
 20
-4.26271
 30
0.0
 10
-11.25406
 20
-4.26989
 30
0.0
 10
-11.25406
 20
-4.26989
 30
0.0
 10
-11.23489
 20
-4.27707
 30
0.0
 10
-11.2188
 20
-4.28905
 30
0.0
 10
-11.20576
 20
-4.3057
 30
0.0
 10
-11.20576
 20
-4.3057
 30
0.0
 10
-11.18891
 20
-4.32721
 30
0.0
 10
-11.18169
 20
-4.3508
 30
0.0
 10
-11.18403
 20
-4.37643
 30
0.0
 10
-11.18403
 20
-4.37643
 30
0.0
 10
-11.18638
 20
-4.40206
 30
0.0
 10
-11.20053
 20
-4.42816
 30
0.0
 10
-11.22644
 20
-4.45495
 30
0.0
 10
-11.22644
 20
-4.45495
 30
0.0
 10
-11.21181
 20
-4.45168
 30
0.0
 10
-11.19979
 20
-4.45047
 30
0.0
 10
-11.19042
 20
-4.45109
 30
0.0
 10
-11.19042
 20
-4.45109
 30
0.0
 10
-11.17032
 20
-4.45264
 30
0.0
 10
-11.14869
 20
-4.45744
 30
0.0
 10
-11.12567
 20
-4.46547
 30
0.0
 10
-11.12567
 20
-4.46547
 30
0.0
 10
-11.12567
 20
-4.46547
 30
0.0
 10
-11.00862
 20
-4.50694
 30
0.0
 10
-11.00862
 20
-4.50694
 30
0.0
 10
-11.00862
 20
-4.50694
 30
0.0
 10
-11.00862
 20
-4.50694
 30
0.0
 10
-11.0587
 20
-4.54617
 30
0.0
 10
-11.0587
 20
-4.54617
 30
0.0
 10
-11.0587
 20
-4.54617
 30
0.0
 10
-11.0587
 20
-4.54617
 30
0.0
 10
-11.14815
 20
-4.5145
 30
0.0
 10
-11.14815
 20
-4.5145
 30
0.0
 10
-11.14815
 20
-4.5145
 30
0.0
 10
-11.17411
 20
-4.50534
 30
0.0
 10
-11.19465
 20
-4.49902
 30
0.0
 10
-11.20977
 20
-4.49527
 30
0.0
 10
-11.20977
 20
-4.49527
 30
0.0
 10
-11.22495
 20
-4.49157
 30
0.0
 10
-11.23697
 20
-4.49017
 30
0.0
 10
-11.24601
 20
-4.49099
 30
0.0
 10
-11.24601
 20
-4.49099
 30
0.0
 10
-11.25492
 20
-4.49182
 30
0.0
 10
-11.26316
 20
-4.49395
 30
0.0
 10
-11.27058
 20
-4.49726
 30
0.0
 10
-11.27058
 20
-4.49726
 30
0.0
 10
-11.27581
 20
-4.49988
 30
0.0
 10
-11.2836
 20
-4.50519
 30
0.0
 10
-11.29397
 20
-4.51331
 30
0.0
 10
-11.29397
 20
-4.51331
 30
0.0
 10
-11.29397
 20
-4.51331
 30
0.0
 10
-11.34038
 20
-4.54967
 30
0.0
 10
-11.34038
 20
-4.54967
 30
0.0
 10
-11.34038
 20
-4.54967
 30
0.0
 10
-11.34038
 20
-4.54967
 30
0.0
 10
-11.23496
 20
-4.68425
 30
0.0
 10
-11.23496
 20
-4.68425
 30
0.0
 10
-11.23496
 20
-4.68425
 30
0.0
 10
-11.23496
 20
-4.68425
 30
0.0
 10
-11.27516
 20
-4.71574
 30
0.0
 10
-11.27516
 20
-4.71574
 30
0.0
  0
SPLINE
  5
7B
330
1F
100
AcDbEntity
  8
layer 2
 62
     1
100
AcDbSpline
210
0.0
220
0.0
230
1.0
 70
    11
 71
     3
 72
    36
 73
    32
 74
     0
 42
0.0000000001
 43
0.0000000001
 12
1.0
 22
0.0
 32
0.0
 13
1.0
 23
0.0
 33
0.0
 40
0.0
 40
0.0
 40
0.0
 40
0.0
 40
0.1111111111111111
 40
0.1111111111111111
 40
0.1111111111111111
 40
0.1111111111111111
 40
0.2222222222222222
 40
0.2222222222222222
 40
0.2222222222222222
 40
0.2222222222222222
 40
0.3333333333333333
 40
0.3333333333333333
 40
0.3333333333333333
 40
0.3333333333333333
 40
0.4444444444444444
 40
0.4444444444444444
 40
0.4444444444444444
 40
0.4444444444444444
 40
0.5555555555555556
 40
0.5555555555555556
 40
0.5555555555555556
 40
0.5555555555555556
 40
0.6666666666666666
 40
0.6666666666666666
 40
0.6666666666666666
 40
0.6666666666666666
 40
0.7777777777777778
 40
0.7777777777777778
 40
0.7777777777777778
 40
0.7777777777777778
 40
1.0
 40
1.0
 40
1.0
 40
1.0
 10
-11.36756
 20
-4.51497
 30
0.0
 10
-11.36756
 20
-4.51497
 30
0.0
 10
-11.28152
 20
-4.44756
 30
0.0
 10
-11.28152
 20
-4.44756
 30
0.0
 10
-11.28152
 20
-4.44756
 30
0.0
 10
-11.26318
 20
-4.43319
 30
0.0
 10
-11.25042
 20
-4.42013
 30
0.0
 10
-11.24311
 20
-4.40825
 30
0.0
 10
-11.24311
 20
-4.40825
 30
0.0
 10
-11.23574
 20
-4.39645
 30
0.0
 10
-11.23266
 20
-4.38425
 30
0.0
 10
-11.23394
 20
-4.37171
 30
0.0
 10
-11.23394
 20
-4.37171
 30
0.0
 10
-11.2351
 20
-4.35919
 30
0.0
 10
-11.2395
 20
-4.34806
 30
0.0
 10
-11.24718
 20
-4.33825
 30
0.0
 10
-11.24718
 20
-4.33825
 30
0.0
 10
-11.25839
 20
-4.32394
 30
0.0
 10
-11.27282
 20
-4.31612
 30
0.0
 10
-11.29043
 20
-4.315
 30
0.0
 10
-11.29043
 20
-4.315
 30
0.0
 10
-11.30804
 20
-4.31388
 30
0.0
 10
-11.32799
 20
-4.32212
 30
0.0
 10
-11.35035
 20
-4.33963
 30
0.0
 10
-11.35035
 20
-4.33963
 30
0.0
 10
-11.35035
 20
-4.33963
 30
0.0
 10
-11.44613
 20
-4.41467
 30
0.0
 10
-11.44613
 20
-4.41467
 30
0.0
 10
-11.44613
 20
-4.41467
 30
0.0
 10
-11.44613
 20
-4.41467
 30
0.0
 10
-11.36756
 20
-4.51497
 30
0.0
 10
-11.36756
 20
-4.51497
 30
0.0
  0
SPLINE
  5
7C
330
1F
100
AcDbEntity
  8
layer 2
 62
     1
100
AcDbSpline
210
0.0
220
0.0
230
1.0
 70
    11
 71
     3
 72
    40
 73
    36
 74
     0
 42
0.0000000001
 43
0.0000000001
 12
1.0
 22
0.0
 32
0.0
 13
1.0
 23
0.0
 33
0.0
 40
0.0
 40
0.0
 40
0.0
 40
0.0
 40
0.1
 40
0.1
 40
0.1
 40
0.1
 40
0.2
 40
0.2
 40
0.2
 40
0.2
 40
0.3
 40
0.3
 40
0.3
 40
0.3
 40
0.4
 40
0.4
 40
0.4
 40
0.4
 40
0.5
 40
0.5
 40
0.5
 40
0.5
 40
0.6
 40
0.6
 40
0.6
 40
0.6
 40
0.7
 40
0.7
 40
0.7
 40
0.7
 40
0.8
 40
0.8
 40
0.8
 40
0.8
 40
1.0
 40
1.0
 40
1.0
 40
1.0
 10
-10.84554
 20
-4.37919
 30
0.0
 10
-10.84554
 20
-4.37919
 30
0.0
 10
-10.88278
 20
-4.40837
 30
0.0
 10
-10.88278
 20
-4.40837
 30
0.0
 10
-10.88278
 20
-4.40837
 30
0.0
 10
-10.88278
 20
-4.40837
 30
0.0
 10
-11.06854
 20
-4.17123
 30
0.0
 10
-11.06854
 20
-4.17123
 30
0.0
 10
-11.06854
 20
-4.17123
 30
0.0
 10
-11.07076
 20
-4.18686
 30
0.0
 10
-11.07585
 20
-4.20462
 30
0.0
 10
-11.0837
 20
-4.22453
 30
0.0
 10
-11.0837
 20
-4.22453
 30
0.0
 10
-11.09154
 20
-4.24445
 30
0.0
 10
-11.09963
 20
-4.26115
 30
0.0
 10
-11.10789
 20
-4.27444
 30
0.0
 10
-11.10789
 20
-4.27444
 30
0.0
 10
-11.10789
 20
-4.27444
 30
0.0
 10
-11.13606
 20
-4.23847
 30
0.0
 10
-11.13606
 20
-4.23847
 30
0.0
 10
-11.13606
 20
-4.23847
 30
0.0
 10
-11.12288
 20
-4.21244
 30
0.0
 10
-11.11397
 20
-4.18633
 30
0.0
 10
-11.10932
 20
-4.16015
 30
0.0
 10
-11.10932
 20
-4.16015
 30
0.0
 10
-11.10462
 20
-4.13405
 30
0.0
 10
-11.1041
 20
-4.1119
 30
0.0
 10
-11.10789
 20
-4.0937
 30
0.0
 10
-11.10789
 20
-4.0937
 30
0.0
 10
-11.10789
 20
-4.0937
 30
0.0
 10
-11.0839
 20
-4.07491
 30
0.0
 10
-11.0839
 20
-4.07491
 30
0.0
 10
-11.0839
 20
-4.07491
 30
0.0
 10
-11.0839
 20
-4.07491
 30
0.0
 10
-10.84554
 20
-4.37919
 30
0.0
 10
-10.84554
 20
-4.37919
 30
0.0
  0
SPLINE
  5
7D
330
1F
100
AcDbEntity
  8
layer 2
 62
     1
100
AcDbSpline
210
0.0
220
0.0
230
1.0
 70
    11
 71
     3
 72
    52
 73
    48
 74
     0
 42
0.0000000001
 43
0.0000000001
 12
1.0
 22
0.0
 32
0.0
 13
1.0
 23
0.0
 33
0.0
 40
0.0
 40
0.0
 40
0.0
 40
0.0
 40
0.0769230769230769
 40
0.0769230769230769
 40
0.0769230769230769
 40
0.0769230769230769
 40
0.1538461538461539
 40
0.1538461538461539
 40
0.1538461538461539
 40
0.1538461538461539
 40
0.2307692307692308
 40
0.2307692307692308
 40
0.2307692307692308
 40
0.2307692307692308
 40
0.3076923076923077
 40
0.3076923076923077
 40
0.3076923076923077
 40
0.3076923076923077
 40
0.3846153846153846
 40
0.3846153846153846
 40
0.3846153846153846
 40
0.3846153846153846
 40
0.4615384615384616
 40
0.4615384615384616
 40
0.4615384615384616
 40
0.4615384615384616
 40
0.5384615384615384
 40
0.5384615384615384
 40
0.5384615384615384
 40
0.5384615384615384
 40
0.6153846153846154
 40
0.6153846153846154
 40
0.6153846153846154
 40
0.6153846153846154
 40
0.6923076923076923
 40
0.6923076923076923
 40
0.6923076923076923
 40
0.6923076923076923
 40
0.7692307692307693
 40
0.7692307692307693
 40
0.7692307692307693
 40
0.7692307692307693
 40
0.8461538461538461
 40
0.8461538461538461
 40
0.8461538461538461
 40
0.8461538461538461
 40
1.0
 40
1.0
 40
1.0
 40
1.0
 10
-10.86696
 20
-4.15468
 30
0.0
 10
-10.89498
 20
-4.11892
 30
0.0
 10
-10.91396
 20
-4.08713
 30
0.0
 10
-10.92375
 20
-4.05952
 30
0.0
 10
-10.92375
 20
-4.05952
 30
0.0
 10
-10.93353
 20
-4.03178
 30
0.0
 10
-10.93581
 20
-4.00636
 30
0.0
 10
-10.9305
 20
-3.9832
 30
0.0
 10
-10.9305
 20
-3.9832
 30
0.0
 10
-10.92527
 20
-3.96009
 30
0.0
 10
-10.91159
 20
-3.93993
 30
0.0
 10
-10.88958
 20
-3.92269
 30
0.0
 10
-10.88958
 20
-3.92269
 30
0.0
 10
-10.87336
 20
-3.90998
 30
0.0
 10
-10.85657
 20
-3.90206
 30
0.0
 10
-10.83909
 20
-3.89896
 30
0.0
 10
-10.83909
 20
-3.89896
 30
0.0
 10
-10.82168
 20
-3.8959
 30
0.0
 10
-10.80412
 20
-3.8974
 30
0.0
 10
-10.78655
 20
-3.90355
 30
0.0
 10
-10.78655
 20
-3.90355
 30
0.0
 10
-10.76903
 20
-3.90964
 30
0.0
 10
-10.75106
 20
-3.9198
 30
0.0
 10
-10.73268
 20
-3.93397
 30
0.0
 10
-10.73268
 20
-3.93397
 30
0.0
 10
-10.71422
 20
-3.94807
 30
0.0
 10
-10.69324
 20
-3.97022
 30
0.0
 10
-10.66975
 20
-4.0002
 30
0.0
 10
-10.66975
 20
-4.0002
 30
0.0
 10
-10.6419
 20
-4.03575
 30
0.0
 10
-10.62303
 20
-4.0674
 30
0.0
 10
-10.61316
 20
-4.09495
 30
0.0
 10
-10.61316
 20
-4.09495
 30
0.0
 10
-10.60325
 20
-4.12258
 30
0.0
 10
-10.60097
 20
-4.148
 30
0.0
 10
-10.60622
 20
-4.17123
 30
0.0
 10
-10.60622
 20
-4.17123
 30
0.0
 10
-10.6114
 20
-4.19441
 30
0.0
 10
-10.6251
 20
-4.2147
 30
0.0
 10
-10.64724
 20
-4.23205
 30
0.0
 10
-10.64724
 20
-4.23205
 30
0.0
 10
-10.67637
 20
-4.25487
 30
0.0
 10
-10.70742
 20
-4.26246
 30
0.0
 10
-10.74037
 20
-4.25469
 30
0.0
 10
-10.74037
 20
-4.25469
 30
0.0
 10
-10.78022
 20
-4.24493
 30
0.0
 10
-10.82237
 20
-4.21161
 30
0.0
 10
-10.86696
 20
-4.15468
 30
0.0
  0
SPLINE
  5
7E
330
1F
100
AcDbEntity
  8
layer 2
 62
     1
100
AcDbSpline
210
0.0
220
0.0
230
1.0
 70
    11
 71
     3
 72
    36
 73
    32
 74
     0
 42
0.0000000001
 43
0.0000000001
 12
1.0
 22
0.0
 32
0.0
 13
1.0
 23
0.0
 33
0.0
 40
0.0
 40
0.0
 40
0.0
 40
0.0
 40
0.1111111111111111
 40
0.1111111111111111
 40
0.1111111111111111
 40
0.1111111111111111
 40
0.2222222222222222
 40
0.2222222222222222
 40
0.2222222222222222
 40
0.2222222222222222
 40
0.3333333333333333
 40
0.3333333333333333
 40
0.3333333333333333
 40
0.3333333333333333
 40
0.4444444444444444
 40
0.4444444444444444
 40
0.4444444444444444
 40
0.4444444444444444
 40
0.5555555555555556
 40
0.5555555555555556
 40
0.5555555555555556
 40
0.5555555555555556
 40
0.6666666666666666
 40
0.6666666666666666
 40
0.6666666666666666
 40
0.6666666666666666
 40
0.7777777777777778
 40
0.7777777777777778
 40
0.7777777777777778
 40
0.7777777777777778
 40
1.0
 40
1.0
 40
1.0
 40
1.0
 10
-10.82876
 20
-4.12499
 30
0.0
 10
-10.7897
 20
-4.17485
 30
0.0
 10
-10.75795
 20
-4.20347
 30
0.0
 10
-10.73349
 20
-4.21072
 30
0.0
 10
-10.73349
 20
-4.21072
 30
0.0
 10
-10.70898
 20
-4.21804
 30
0.0
 10
-10.68818
 20
-4.21495
 30
0.0
 10
-10.67111
 20
-4.20158
 30
0.0
 10
-10.67111
 20
-4.20158
 30
0.0
 10
-10.65404
 20
-4.18821
 30
0.0
 10
-10.64612
 20
-4.16869
 30
0.0
 10
-10.64735
 20
-4.14314
 30
0.0
 10
-10.64735
 20
-4.14314
 30
0.0
 10
-10.64865
 20
-4.11751
 30
0.0
 10
-10.66878
 20
-4.0799
 30
0.0
 10
-10.70773
 20
-4.03017
 30
0.0
 10
-10.70773
 20
-4.03017
 30
0.0
 10
-10.74679
 20
-3.98031
 30
0.0
 10
-10.77855
 20
-3.95169
 30
0.0
 10
-10.803
 20
-3.94444
 30
0.0
 10
-10.803
 20
-3.94444
 30
0.0
 10
-10.82744
 20
-3.93707
 30
0.0
 10
-10.84838
 20
-3.94027
 30
0.0
 10
-10.86581
 20
-3.95392
 30
0.0
 10
-10.86581
 20
-3.95392
 30
0.0
 10
-10.88287
 20
-3.96728
 30
0.0
 10
-10.89087
 20
-3.98527
 30
0.0
 10
-10.88977
 20
-4.00774
 30
0.0
 10
-10.88977
 20
-4.00774
 30
0.0
 10
-10.88811
 20
-4.03615
 30
0.0
 10
-10.86772
 20
-4.07526
 30
0.0
 10
-10.82876
 20
-4.12499
 30
0.0
  0
SPLINE
  5
7F
330
1F
100
AcDbEntity
  8
layer 2
 62
     1
370
     0
100
AcDbSpline
210
0.0
220
0.0
230
1.0
 70
    24
 71
     3
 72
     8
 73
     4
 74
     0
 42
0.0000000001
 43
0.0000000001
 12
1.0
 22
0.0
 32
0.0
 13
1.0
 23
0.0
 33
0.0
 40
0.0
 40
0.0
 40
0.0
 40
0.0
 40
1.0
 40
1.0
 40
1.0
 40
1.0
 10
-9.35682
 20
-4.3408
 30
0.0
 10
-9.35682
 20
-4.3408
 30
0.0
 10
-9.58682
 20
-4.52097
 30
0.0
 10
-9.58682
 20
-4.52097
 30
0.0
  0
SPLINE
  5
80
330
1F
100
AcDbEntity
  8
layer 2
 62
     1
100
AcDbSpline
210
0.0
220
0.0
230
1.0
 70
    27
 71
     3
 72
    12
 73
     8
 74
     0
 42
0.0000000001
 43
0.0000000001
 12
1.0
 22
0.0
 32
0.0
 13
1.0
 23
0.0
 33
0.0
 40
0.0
 40
0.0
 40
0.0
 40
0.0
 40
0.3333333333333333
 40
0.3333333333333333
 40
0.3333333333333333
 40
0.3333333333333333
 40
1.0
 40
1.0
 40
1.0
 40
1.0
 10
-9.89886
 20
-4.69118
 30
0.0
 10
-9.89886
 20
-4.69118
 30
0.0
 10
-9.58682
 20
-4.52097
 30
0.0
 10
-9.58682
 20
-4.52097
 30
0.0
 10
-9.58682
 20
-4.52097
 30
0.0
 10
-9.58682
 20
-4.52097
 30
0.0
 10
-9.89886
 20
-4.69118
 30
0.0
 10
-9.89886
 20
-4.69118
 30
0.0
  0
SPLINE
  5
81
330
1F
100
AcDbEntity
  8
layer 2
 62
     1
100
AcDbSpline
210
0.0
220
0.0
230
1.0
 70
     8
 71
     3
 72
    12
 73
     8
 74
     0
 42
0.0000000001
 43
0.0000000001
 12
1.0
 22
0.0
 32
0.0
 13
1.0
 23
0.0
 33
0.0
 40
0.0
 40
0.0
 40
0.0
 40
0.0
 40
0.3333333333333333
 40
0.3333333333333333
 40
0.3333333333333333
 40
0.3333333333333333
 40
1.0
 40
1.0
 40
1.0
 40
1.0
 10
-9.58682
 20
-4.52097
 30
0.0
 10
-9.58682
 20
-4.52097
 30
0.0
 10
-9.82679
 20
-4.78318
 30
0.0
 10
-9.82679
 20
-4.78318
 30
0.0
 10
-9.82679
 20
-4.78318
 30
0.0
 10
-9.82679
 20
-4.78318
 30
0.0
 10
-9.89886
 20
-4.69118
 30
0.0
 10
-9.89886
 20
-4.69118
 30
0.0
  0
SPLINE
  5
82
330
1F
100
AcDbEntity
  8
layer 2
 62
     1
370
     9
100
AcDbSpline
210
0.0
220
0.0
230
1.0
 70
    24
 71
     3
 72
     8
 73
     4
 74
     0
 42
0.0000000001
 43
0.0000000001
 12
1.0
 22
0.0
 32
0.0
 13
1.0
 23
0.0
 33
0.0
 40
0.0
 40
0.0
 40
0.0
 40
0.0
 40
1.0
 40
1.0
 40
1.0
 40
1.0
 10
-9.89886
 20
-4.69118
 30
0.0
 10
-9.89886
 20
-4.69118
 30
0.0
 10
-9.58682
 20
-4.52097
 30
0.0
 10
-9.58682
 20
-4.52097
 30
0.0
  0
SPLINE
  5
83
330
1F
100
AcDbEntity
  8
layer 2
 62
     1
370
     9
100
AcDbSpline
210
0.0
220
0.0
230
1.0
 70
     8
 71
     3
 72
    12
 73
     8
 74
     0
 42
0.0000000001
 43
0.0000000001
 12
1.0
 22
0.0
 32
0.0
 13
1.0
 23
0.0
 33
0.0
 40
0.0
 40
0.0
 40
0.0
 40
0.0
 40
0.3333333333333333
 40
0.3333333333333333
 40
0.3333333333333333
 40
0.3333333333333333
 40
1.0
 40
1.0
 40
1.0
 40
1.0
 10
-9.58682
 20
-4.52097
 30
0.0
 10
-9.58682
 20
-4.52097
 30
0.0
 10
-9.82679
 20
-4.78318
 30
0.0
 10
-9.82679
 20
-4.78318
 30
0.0
 10
-9.82679
 20
-4.78318
 30
0.0
 10
-9.82679
 20
-4.78318
 30
0.0
 10
-9.89886
 20
-4.69118
 30
0.0
 10
-9.89886
 20
-4.69118
 30
0.0
  0
ENDSEC
  0
SECTION
  2
OBJECTS
  0
DICTIONARY
  5
C
330
0
100
AcDbDictionary
281
     1
  3
ACAD_GROUP
350
D
  3
ACAD_LAYOUT
350
1A
  3
ACAD_MATERIAL
350
3B
  3
ACAD_MLEADERSTYLE
350
A5
  3
ACAD_MLINESTYLE
350
17
  3
ACAD_PLOTSETTINGS
350
19
  3
ACAD_PLOTSTYLENAME
350
E
  3
ACAD_TABLESTYLE
350
A4
  3
ACAD_VISUALSTYLE
350
2A
  0
DICTIONARY
  5
D
102
{ACAD_REACTORS
330
C
102
}
330
C
100
AcDbDictionary
281
     1
  0
DICTIONARY
  5
1A
102
{ACAD_REACTORS
330
C
102
}
330
C
100
AcDbDictionary
281
     1
  3
Layout1
350
1E
  3
Layout2
350
26
  3
Model
350
22
  0
DICTIONARY
  5
3B
102
{ACAD_REACTORS
330
C
102
}
330
C
100
AcDbDictionary
281
     1
  3
ByBlock
350
3D
  3
ByLayer
350
3C
  3
Global
350
3E
  0
DICTIONARY
  5
A5
102
{ACAD_REACTORS
330
C
102
}
330
C
100
AcDbDictionary
281
     1
  0
DICTIONARY
  5
17
102
{ACAD_REACTORS
330
C
102
}
330
C
100
AcDbDictionary
281
     1
  3
Standard
350
18
  0
DICTIONARY
  5
19
102
{ACAD_REACTORS
330
C
102
}
330
C
100
AcDbDictionary
281
     1
  0
ACDBDICTIONARYWDFLT
  5
E
102
{ACAD_REACTORS
330
C
102
}
330
C
100
AcDbDictionary
281
     1
  3
Normal
350
F
100
AcDbDictionaryWithDefault
340
F
  0
DICTIONARY
  5
A4
102
{ACAD_REACTORS
330
C
102
}
330
C
100
AcDbDictionary
281
     1
  0
DICTIONARY
  5
2A
102
{ACAD_REACTORS
330
C
102
}
330
C
100
AcDbDictionary
281
     1
  3
2dWireframe
350
2F
  3
3D Hidden
350
31
  3
3dWireframe
350
30
  3
Basic
350
32
  3
Brighten
350
36
  3
ColorChange
350
3A
  3
Conceptual
350
34
  3
Dim
350
35
  3
Facepattern
350
39
  3
Flat
350
2B
  3
FlatWithEdges
350
2C
  3
Gouraud
350
2D
  3
GouraudWithEdges
350
2E
  3
Linepattern
350
38
  3
Realistic
350
33
  3
Thicken
350
37
  0
LAYOUT
  5
1E
102
{ACAD_REACTORS
330
1A
102
}
330
1A
100
AcDbPlotSettings
  1

  2
none_device
  4

  6

 40
0.0
 41
0.0
 42
0.0
 43
0.0
 44
0.0
 45
0.0
 46
0.0
 47
0.0
 48
0.0
 49
0.0
140
0.0
141
0.0
142
1.0
143
1.0
 70
   688
 72
     0
 73
     0
 74
     5
  7

 75
    16
 76
     0
 77
     2
 78
   300
147
1.0
148
0.0
149
0.0
100
AcDbLayout
  1
Layout1
 70
     1
 71
     1
 10
0.0
 20
0.0
 11
12.0
 21
9.0
 12
0.0
 22
0.0
 32
0.0
 14
1.000000000000000E+20
 24
1.000000000000000E+20
 34
1.000000000000000E+20
 15
-1.000000000000000E+20
 25
-1.000000000000000E+20
 35
-1.000000000000000E+20
146
0.0
 13
0.0
 23
0.0
 33
0.0
 16
1.0
 26
0.0
 36
0.0
 17
0.0
 27
1.0
 37
0.0
 76
     0
330
1B
  0
LAYOUT
  5
26
102
{ACAD_REACTORS
330
1A
102
}
330
1A
100
AcDbPlotSettings
  1

  2
none_device
  4

  6

 40
0.0
 41
0.0
 42
0.0
 43
0.0
 44
0.0
 45
0.0
 46
0.0
 47
0.0
 48
0.0
 49
0.0
140
0.0
141
0.0
142
1.0
143
1.0
 70
   688
 72
     0
 73
     0
 74
     5
  7

 75
    16
 76
     0
 77
     2
 78
   300
147
1.0
148
0.0
149
0.0
100
AcDbLayout
  1
Layout2
 70
     1
 71
     2
 10
0.0
 20
0.0
 11
0.0
 21
0.0
 12
0.0
 22
0.0
 32
0.0
 14
0.0
 24
0.0
 34
0.0
 15
0.0
 25
0.0
 35
0.0
146
0.0
 13
0.0
 23
0.0
 33
0.0
 16
1.0
 26
0.0
 36
0.0
 17
0.0
 27
1.0
 37
0.0
 76
     0
330
23
  0
LAYOUT
  5
22
102
{ACAD_REACTORS
330
1A
102
}
330
1A
100
AcDbPlotSettings
  1

  2
none_device
  4

  6

 40
0.0
 41
0.0
 42
0.0
 43
0.0
 44
0.0
 45
0.0
 46
0.0
 47
0.0
 48
0.0
 49
0.0
140
0.0
141
0.0
142
1.0
143
1.0
 70
  1712
 72
     0
 73
     0
 74
     0
  7

 75
     0
 76
     0
 77
     2
 78
   300
147
1.0
148
0.0
149
0.0
100
AcDbLayout
  1
Model
 70
     1
 71
     0
 10
0.0
 20
0.0
 11
12.0
 21
9.0
 12
0.0
 22
0.0
 32
0.0
 14
-11.51253
 24
-7.53207
 34
0.0
 15
12.75045
 25
8.5684
 35
0.0
146
0.0
 13
0.0
 23
0.0
 33
0.0
 16
1.0
 26
0.0
 36
0.0
 17
0.0
 27
1.0
 37
0.0
 76
     0
330
1F
331
29
  0
MATERIAL
  5
3D
102
{ACAD_REACTORS
330
3B
102
}
330
3B
100
AcDbMaterial
  1
ByBlock
 72
     1
 94
      127
  0
MATERIAL
  5
3C
102
{ACAD_REACTORS
330
3B
102
}
330
3B
100
AcDbMaterial
  1
ByLayer
 72
     1
 94
      127
  0
MATERIAL
  5
3E
102
{ACAD_REACTORS
330
3B
102
}
330
3B
100
AcDbMaterial
  1
Global
 72
     1
 94
      127
  0
MLINESTYLE
  5
18
102
{ACAD_REACTORS
330
17
102
}
330
17
100
AcDbMlineStyle
  2
Standard
 70
     0
  3

 62
   256
 51
90.0
 52
90.0
 71
     2
 49
0.5
 62
   256
  6
BYLAYER
 49
-0.5
 62
   256
  6
BYLAYER
  0
ACDBPLACEHOLDER
  5
F
102
{ACAD_REACTORS
330
E
102
}
330
E
  0
VISUALSTYLE
  5
2F
102
{ACAD_REACTORS
330
2A
102
}
102
{ACAD_XDICTIONARY
360
8C
102
}
330
2A
100
AcDbVisualStyle
  2
2dWireframe
 70
     4
 71
     0
 72
     2
 73
     0
 90
        0
 40
-0.6
 41
-30.0
 62
     5
 63
     7
421
 16777215
 74
     1
 91
        4
 64
     7
 65
   257
 75
     1
175
     1
 42
1.0
 92
        0
 66
   257
 43
1.0
 76
     1
 77
     6
 78
     2
 67
     7
 79
     5
170
     0
171
     0
290
     0
174
     0
 93
        1
 44
0.0
173
     0
291
     0
 45
0.0
  0
VISUALSTYLE
  5
31
102
{ACAD_REACTORS
330
2A
102
}
102
{ACAD_XDICTIONARY
360
90
102
}
330
2A
100
AcDbVisualStyle
  2
3D Hidden
 70
     6
 71
     1
 72
     2
 73
     2
 90
        0
 40
-0.6
 41
-30.0
 62
     5
 63
     7
421
 16777215
 74
     2
 91
        2
 64
     7
 65
   257
 75
     2
175
     1
 42
40.0
 92
        0
 66
   257
 43
1.0
 76
     1
 77
     6
 78
     2
 67
     7
 79
     3
170
     0
171
     0
290
     0
174
     0
 93
        1
 44
0.0
173
     0
291
     0
 45
0.0
  0
VISUALSTYLE
  5
30
102
{ACAD_REACTORS
330
2A
102
}
102
{ACAD_XDICTIONARY
360
8E
102
}
330
2A
100
AcDbVisualStyle
  2
3dWireframe
 70
     5
 71
     0
 72
     2
 73
     0
 90
        0
 40
-0.6
 41
-30.0
 62
     5
 63
     7
421
 16777215
 74
     1
 91
        4
 64
     7
 65
   257
 75
     1
175
     1
 42
1.0
 92
        0
 66
   257
 43
1.0
 76
     1
 77
     6
 78
     2
 67
     7
 79
     5
170
     0
171
     0
290
     0
174
     0
 93
        1
 44
0.0
173
     0
291
     0
 45
0.0
  0
VISUALSTYLE
  5
32
102
{ACAD_REACTORS
330
2A
102
}
102
{ACAD_XDICTIONARY
360
92
102
}
330
2A
100
AcDbVisualStyle
  2
Basic
 70
     7
 71
     1
 72
     0
 73
     1
 90
        0
 40
-0.6
 41
-30.0
 62
     5
 63
     7
421
 16777215
 74
     0
 91
        4
 64
     7
 65
   257
 75
     1
175
     1
 42
1.0
 92
        8
 66
     7
 43
1.0
 76
     1
 77
     6
 78
     2
 67
     7
 79
     5
170
     0
171
     0
290
     0
174
     0
 93
        1
 44
0.0
173
     0
291
     1
 45
0.0
  0
VISUALSTYLE
  5
36
102
{ACAD_REACTORS
330
2A
102
}
102
{ACAD_XDICTIONARY
360
9A
102
}
330
2A
100
AcDbVisualStyle
  2
Brighten
 70
    12
 71
     2
 72
     2
 73
     0
 90
        0
 40
-0.6
 41
-30.0
 62
     5
 63
     7
421
 16777215
 74
     1
 91
        4
 64
     7
 65
   257
 75
     1
175
     1
 42
1.0
 92
        8
 66
     7
 43
1.0
 76
     1
 77
     6
 78
     2
 67
     7
 79
     5
170
     0
171
     0
290
     0
174
     0
 93
        1
 44
50.0
173
     0
291
     1
 45
0.0
  0
VISUALSTYLE
  5
3A
102
{ACAD_REACTORS
330
2A
102
}
102
{ACAD_XDICTIONARY
360
A2
102
}
330
2A
100
AcDbVisualStyle
  2
ColorChange
 70
    16
 71
     2
 72
     2
 73
     3
 90
        0
 40
-0.6
 41
-30.0
 62
     5
 63
     8
421
  8421504
 74
     1
 91
        4
 64
     7
 65
   257
 75
     1
175
     1
 42
1.0
 92
        8
 66
     8
424
  8421504
 43
1.0
 76
     1
 77
     6
 78
     2
 67
     7
 79
     5
170
     0
171
     0
290
     0
174
     0
 93
        1
 44
0.0
173
     0
291
     1
 45
0.0
  0
VISUALSTYLE
  5
34
102
{ACAD_REACTORS
330
2A
102
}
102
{ACAD_XDICTIONARY
360
96
102
}
330
2A
100
AcDbVisualStyle
  2
Conceptual
 70
     9
 71
     3
 72
     2
 73
     0
 90
        0
 40
-0.6
 41
-30.0
 62
     5
 63
     7
421
 16777215
 74
     2
 91
        2
 64
     7
 65
   257
 75
     1
175
     1
 42
40.0
 92
        8
 66
     7
 43
1.0
 76
     1
 77
     6
 78
     2
 67
     7
 79
     3
170
     0
171
     0
290
     0
174
     0
 93
        1
 44
0.0
173
     0
291
     0
 45
0.0
  0
VISUALSTYLE
  5
35
102
{ACAD_REACTORS
330
2A
102
}
102
{ACAD_XDICTIONARY
360
98
102
}
330
2A
100
AcDbVisualStyle
  2
Dim
 70
    11
 71
     2
 72
     2
 73
     0
 90
        0
 40
-0.6
 41
-30.0
 62
     5
 63
     7
421
 16777215
 74
     1
 91
        4
 64
     7
 65
   257
 75
     1
175
     1
 42
1.0
 92
        8
 66
     7
 43
1.0
 76
     1
 77
     6
 78
     2
 67
     7
 79
     5
170
     0
171
     0
290
     0
174
     0
 93
        1
 44
-50.0
173
     0
291
     1
 45
0.0
  0
VISUALSTYLE
  5
39
102
{ACAD_REACTORS
330
2A
102
}
102
{ACAD_XDICTIONARY
360
A0
102
}
330
2A
100
AcDbVisualStyle
  2
Facepattern
 70
    15
 71
     2
 72
     2
 73
     0
 90
        0
 40
-0.6
 41
-30.0
 62
     5
 63
     7
421
 16777215
 74
     1
 91
        4
 64
     7
 65
   257
 75
     1
175
     1
 42
1.0
 92
        8
 66
     7
 43
1.0
 76
     1
 77
     6
 78
     2
 67
     7
 79
     5
170
     0
171
     0
290
     0
174
     0
 93
        1
 44
0.0
173
     0
291
     1
 45
0.0
  0
VISUALSTYLE
  5
2B
102
{ACAD_REACTORS
330
2A
102
}
102
{ACAD_XDICTIONARY
360
84
102
}
330
2A
100
AcDbVisualStyle
  2
Flat
 70
     0
 71
     2
 72
     1
 73
     1
 90
        2
 40
-0.6
 41
30.0
 62
     5
 63
     7
421
 16777215
 74
     0
 91
        4
 64
     7
 65
   257
 75
     1
175
     1
 42
1.0
 92
        8
 66
     7
 43
1.0
 76
     1
 77
     6
 78
     2
 67
     7
 79
     5
170
     0
171
     0
290
     0
174
     0
 93
       13
 44
0.0
173
     0
291
     1
 45
0.0
  0
VISUALSTYLE
  5
2C
102
{ACAD_REACTORS
330
2A
102
}
102
{ACAD_XDICTIONARY
360
86
102
}
330
2A
100
AcDbVisualStyle
  2
FlatWithEdges
 70
     1
 71
     2
 72
     1
 73
     1
 90
        2
 40
-0.6
 41
30.0
 62
     5
 63
     7
421
 16777215
 74
     1
 91
        4
 64
     7
 65
   257
 75
     1
175
     1
 42
1.0
 92
        0
 66
   257
 43
1.0
 76
     1
 77
     6
 78
     2
 67
     7
 79
     5
170
     0
171
     0
290
     0
174
     0
 93
       13
 44
0.0
173
     0
291
     1
 45
0.0
  0
VISUALSTYLE
  5
2D
102
{ACAD_REACTORS
330
2A
102
}
102
{ACAD_XDICTIONARY
360
88
102
}
330
2A
100
AcDbVisualStyle
  2
Gouraud
 70
     2
 71
     2
 72
     2
 73
     1
 90
        2
 40
-0.6
 41
30.0
 62
     5
 63
     7
421
 16777215
 74
     0
 91
        4
 64
     7
 65
   257
 75
     1
175
     1
 42
1.0
 92
        0
 66
     7
 43
1.0
 76
     1
 77
     6
 78
     2
 67
     7
 79
     5
170
     0
171
     0
290
     0
174
     0
 93
       13
 44
0.0
173
     0
291
     1
 45
0.0
  0
VISUALSTYLE
  5
2E
102
{ACAD_REACTORS
330
2A
102
}
102
{ACAD_XDICTIONARY
360
8A
102
}
330
2A
100
AcDbVisualStyle
  2
GouraudWithEdges
 70
     3
 71
     2
 72
     2
 73
     1
 90
        2
 40
-0.6
 41
30.0
 62
     5
 63
     7
421
 16777215
 74
     1
 91
        4
 64
     7
 65
   257
 75
     1
175
     1
 42
1.0
 92
        0
 66
   257
 43
1.0
 76
     1
 77
     6
 78
     2
 67
     7
 79
     5
170
     0
171
     0
290
     0
174
     0
 93
       13
 44
0.0
173
     0
291
     1
 45
0.0
  0
VISUALSTYLE
  5
38
102
{ACAD_REACTORS
330
2A
102
}
102
{ACAD_XDICTIONARY
360
9E
102
}
330
2A
100
AcDbVisualStyle
  2
Linepattern
 70
    14
 71
     2
 72
     2
 73
     0
 90
        0
 40
-0.6
 41
-30.0
 62
     5
 63
     7
421
 16777215
 74
     1
 91
        4
 64
     7
 65
   257
 75
     7
175
     7
 42
1.0
 92
        8
 66
     7
 43
1.0
 76
     1
 77
     6
 78
     2
 67
     7
 79
     5
170
     0
171
     0
290
     0
174
     0
 93
        1
 44
0.0
173
     0
291
     1
 45
0.0
  0
VISUALSTYLE
  5
33
102
{ACAD_REACTORS
330
2A
102
}
102
{ACAD_XDICTIONARY
360
94
102
}
330
2A
100
AcDbVisualStyle
  2
Realistic
 70
     8
 71
     2
 72
     2
 73
     0
 90
        0
 40
-0.6
 41
-30.0
 62
     5
 63
     7
421
 16777215
 74
     1
 91
        0
 64
     7
 65
   257
 75
     1
175
     1
 42
1.0
 92
        8
 66
     8
424
  7895160
 43
1.0
 76
     1
 77
     6
 78
     2
 67
     7
 79
     5
170
     0
171
     0
290
     0
174
     0
 93
       13
 44
0.0
173
     0
291
     0
 45
0.0
  0
VISUALSTYLE
  5
37
102
{ACAD_REACTORS
330
2A
102
}
102
{ACAD_XDICTIONARY
360
9C
102
}
330
2A
100
AcDbVisualStyle
  2
Thicken
 70
    13
 71
     2
 72
     2
 73
     0
 90
        0
 40
-0.6
 41
-30.0
 62
     5
 63
     7
421
 16777215
 74
     1
 91
        4
 64
     7
 65
   257
 75
     1
175
     1
 42
1.0
 92
       12
 66
     7
 43
1.0
 76
     1
 77
     6
 78
     2
 67
     7
 79
     5
170
     0
171
     0
290
     0
174
     0
 93
        1
 44
0.0
173
     0
291
     1
 45
0.0
  0
DICTIONARY
  5
8C
330
2F
100
AcDbDictionary
280
     1
281
     1
  3
ACAD_XREC_ROUNDTRIP
360
8D
  0
DICTIONARY
  5
90
330
31
100
AcDbDictionary
280
     1
281
     1
  3
ACAD_XREC_ROUNDTRIP
360
91
  0
DICTIONARY
  5
8E
330
30
100
AcDbDictionary
280
     1
281
     1
  3
ACAD_XREC_ROUNDTRIP
360
8F
  0
DICTIONARY
  5
92
330
32
100
AcDbDictionary
280
     1
281
     1
  3
ACAD_XREC_ROUNDTRIP
360
93
  0
DICTIONARY
  5
9A
330
36
100
AcDbDictionary
280
     1
281
     1
  3
ACAD_XREC_ROUNDTRIP
360
9B
  0
DICTIONARY
  5
A2
330
3A
100
AcDbDictionary
280
     1
281
     1
  3
ACAD_XREC_ROUNDTRIP
360
A3
  0
DICTIONARY
  5
96
330
34
100
AcDbDictionary
280
     1
281
     1
  3
ACAD_XREC_ROUNDTRIP
360
97
  0
DICTIONARY
  5
98
330
35
100
AcDbDictionary
280
     1
281
     1
  3
ACAD_XREC_ROUNDTRIP
360
99
  0
DICTIONARY
  5
A0
330
39
100
AcDbDictionary
280
     1
281
     1
  3
ACAD_XREC_ROUNDTRIP
360
A1
  0
DICTIONARY
  5
84
330
2B
100
AcDbDictionary
280
     1
281
     1
  3
ACAD_XREC_ROUNDTRIP
360
85
  0
DICTIONARY
  5
86
330
2C
100
AcDbDictionary
280
     1
281
     1
  3
ACAD_XREC_ROUNDTRIP
360
87
  0
DICTIONARY
  5
88
330
2D
100
AcDbDictionary
280
     1
281
     1
  3
ACAD_XREC_ROUNDTRIP
360
89
  0
DICTIONARY
  5
8A
330
2E
100
AcDbDictionary
280
     1
281
     1
  3
ACAD_XREC_ROUNDTRIP
360
8B
  0
DICTIONARY
  5
9E
330
38
100
AcDbDictionary
280
     1
281
     1
  3
ACAD_XREC_ROUNDTRIP
360
9F
  0
DICTIONARY
  5
94
330
33
100
AcDbDictionary
280
     1
281
     1
  3
ACAD_XREC_ROUNDTRIP
360
95
  0
DICTIONARY
  5
9C
330
37
100
AcDbDictionary
280
     1
281
     1
  3
ACAD_XREC_ROUNDTRIP
360
9D
  0
XRECORD
  5
8D
102
{ACAD_REACTORS
330
8C
102
}
330
8C
100
AcDbXrecord
280
     1
102
RTVSPropertyOp0
 70
     1
102
RTVSPropertyOp1
 70
     1
102
RTVSPropertyOp2
 70
     1
102
RTVSPropertyOp3
 70
     1
102
RTVSPropertyOp4
 70
     1
102
RTVSPropertyOp5
 70
     1
102
RTVSPropertyOp6
 70
     1
102
RTVSPropertyOp7
 70
     1
102
RTVSPropertyOp8
 70
     1
102
RTVSPropertyOp9
 70
     1
102
RTVSPropertyOp10
 70
     1
102
RTVSPropertyOp11
 70
     1
102
RTVSPropertyOp12
 70
     1
102
RTVSPropertyOp13
 70
     1
102
RTVSPropertyOp14
 70
     1
102
RTVSPropertyOp15
 70
     1
102
RTVSPropertyOp16
 70
     1
102
RTVSPropertyOp17
 70
     1
102
RTVSPropertyOp18
 70
     1
102
RTVSPropertyOp19
 70
     1
102
RTVSPropertyOp20
 70
     1
102
RTVSPropertyOp21
 70
     1
102
RTVSPropertyOp22
 70
     1
102
RTVSPropertyOp23
 70
     1
102
RTVSPropertyOp24
 70
     1
102
RTVSPropertyOp25
 70
     1
102
RTVSPropertyOp26
 70
     1
102
RTVSPropertyOp27
 70
     1
102
RTVSPropertyOp28
 70
     1
102
RTVSPropertyOp29
 70
     1
102
RTVSPropertyOp30
 70
     1
102
RTVSPropertyOp31
 70
     1
102
RTVSPropertyOp32
 70
     1
  0
XRECORD
  5
91
102
{ACAD_REACTORS
330
90
102
}
330
90
100
AcDbXrecord
280
     1
102
RTVSPropertyOp0
 70
     1
102
RTVSPropertyOp1
 70
     1
102
RTVSPropertyOp2
 70
     1
102
RTVSPropertyOp3
 70
     1
102
RTVSPropertyOp4
 70
     1
102
RTVSPropertyOp5
 70
     1
102
RTVSPropertyOp6
 70
     1
102
RTVSPropertyOp7
 70
     1
102
RTVSPropertyOp8
 70
     1
102
RTVSPropertyOp9
 70
     1
102
RTVSPropertyOp10
 70
     1
102
RTVSPropertyOp11
 70
     1
102
RTVSPropertyOp12
 70
     1
102
RTVSPropertyOp13
 70
     1
102
RTVSPropertyOp14
 70
     1
102
RTVSPropertyOp15
 70
     1
102
RTVSPropertyOp16
 70
     1
102
RTVSPropertyOp17
 70
     1
102
RTVSPropertyOp18
 70
     1
102
RTVSPropertyOp19
 70
     1
102
RTVSPropertyOp20
 70
     1
102
RTVSPropertyOp21
 70
     1
102
RTVSPropertyOp22
 70
     1
102
RTVSPropertyOp23
 70
     1
102
RTVSPropertyOp24
 70
     1
102
RTVSPropertyOp25
 70
     1
102
RTVSPropertyOp26
 70
     1
102
RTVSPropertyOp27
 70
     1
102
RTVSPropertyOp28
 70
     1
102
RTVSPropertyOp29
 70
     1
102
RTVSPropertyOp30
 70
     1
102
RTVSPropertyOp31
 70
     1
102
RTVSPropertyOp32
 70
     1
  0
XRECORD
  5
8F
102
{ACAD_REACTORS
330
8E
102
}
330
8E
100
AcDbXrecord
280
     1
102
RTVSPropertyOp0
 70
     1
102
RTVSPropertyOp1
 70
     1
102
RTVSPropertyOp2
 70
     1
102
RTVSPropertyOp3
 70
     1
102
RTVSPropertyOp4
 70
     1
102
RTVSPropertyOp5
 70
     1
102
RTVSPropertyOp6
 70
     1
102
RTVSPropertyOp7
 70
     1
102
RTVSPropertyOp8
 70
     1
102
RTVSPropertyOp9
 70
     1
102
RTVSPropertyOp10
 70
     1
102
RTVSPropertyOp11
 70
     1
102
RTVSPropertyOp12
 70
     1
102
RTVSPropertyOp13
 70
     1
102
RTVSPropertyOp14
 70
     1
102
RTVSPropertyOp15
 70
     1
102
RTVSPropertyOp16
 70
     1
102
RTVSPropertyOp17
 70
     1
102
RTVSPropertyOp18
 70
     1
102
RTVSPropertyOp19
 70
     1
102
RTVSPropertyOp20
 70
     1
102
RTVSPropertyOp21
 70
     1
102
RTVSPropertyOp22
 70
     1
102
RTVSPropertyOp23
 70
     1
102
RTVSPropertyOp24
 70
     1
102
RTVSPropertyOp25
 70
     1
102
RTVSPropertyOp26
 70
     1
102
RTVSPropertyOp27
 70
     1
102
RTVSPropertyOp28
 70
     1
102
RTVSPropertyOp29
 70
     1
102
RTVSPropertyOp30
 70
     1
102
RTVSPropertyOp31
 70
     1
102
RTVSPropertyOp32
 70
     1
  0
XRECORD
  5
93
102
{ACAD_REACTORS
330
92
102
}
330
92
100
AcDbXrecord
280
     1
102
RTVSPropertyOp0
 70
     1
102
RTVSPropertyOp1
 70
     1
102
RTVSPropertyOp2
 70
     1
102
RTVSPropertyOp3
 70
     1
102
RTVSPropertyOp4
 70
     1
102
RTVSPropertyOp5
 70
     1
102
RTVSPropertyOp6
 70
     1
102
RTVSPropertyOp7
 70
     1
102
RTVSPropertyOp8
 70
     1
102
RTVSPropertyOp9
 70
     1
102
RTVSPropertyOp10
 70
     1
102
RTVSPropertyOp11
 70
     1
102
RTVSPropertyOp12
 70
     1
102
RTVSPropertyOp13
 70
     1
102
RTVSPropertyOp14
 70
     1
102
RTVSPropertyOp15
 70
     1
102
RTVSPropertyOp16
 70
     1
102
RTVSPropertyOp17
 70
     1
102
RTVSPropertyOp18
 70
     1
102
RTVSPropertyOp19
 70
     1
102
RTVSPropertyOp20
 70
     1
102
RTVSPropertyOp21
 70
     1
102
RTVSPropertyOp22
 70
     1
102
RTVSPropertyOp23
 70
     1
102
RTVSPropertyOp24
 70
     1
102
RTVSPropertyOp25
 70
     1
102
RTVSPropertyOp26
 70
     1
102
RTVSPropertyOp27
 70
     1
102
RTVSPropertyOp28
 70
     1
102
RTVSPropertyOp29
 70
     1
102
RTVSPropertyOp30
 70
     1
102
RTVSPropertyOp31
 70
     1
102
RTVSPropertyOp32
 70
     1
  0
XRECORD
  5
9B
102
{ACAD_REACTORS
330
9A
102
}
330
9A
100
AcDbXrecord
280
     1
102
RTVSPropertyOp0
 70
     1
102
RTVSPropertyOp1
 70
     1
102
RTVSPropertyOp2
 70
     1
102
RTVSPropertyOp3
 70
     1
102
RTVSPropertyOp4
 70
     1
102
RTVSPropertyOp5
 70
     1
102
RTVSPropertyOp6
 70
     1
102
RTVSPropertyOp7
 70
     1
102
RTVSPropertyOp8
 70
     1
102
RTVSPropertyOp9
 70
     1
102
RTVSPropertyOp10
 70
     1
102
RTVSPropertyOp11
 70
     1
102
RTVSPropertyOp12
 70
     1
102
RTVSPropertyOp13
 70
     1
102
RTVSPropertyOp14
 70
     1
102
RTVSPropertyOp15
 70
     1
102
RTVSPropertyOp16
 70
     1
102
RTVSPropertyOp17
 70
     1
102
RTVSPropertyOp18
 70
     1
102
RTVSPropertyOp19
 70
     1
102
RTVSPropertyOp20
 70
     1
102
RTVSPropertyOp21
 70
     1
102
RTVSPropertyOp22
 70
     1
102
RTVSPropertyOp23
 70
     1
102
RTVSPropertyOp24
 70
     1
102
RTVSPropertyOp25
 70
     1
102
RTVSPropertyOp26
 70
     1
102
RTVSPropertyOp27
 70
     1
102
RTVSPropertyOp28
 70
     1
102
RTVSPropertyOp29
 70
     1
102
RTVSPropertyOp30
 70
     1
102
RTVSPropertyOp31
 70
     1
102
RTVSPropertyOp32
 70
     1
  0
XRECORD
  5
A3
102
{ACAD_REACTORS
330
A2
102
}
330
A2
100
AcDbXrecord
280
     1
102
RTVSPropertyOp0
 70
     1
102
RTVSPropertyOp1
 70
     1
102
RTVSPropertyOp2
 70
     1
102
RTVSPropertyOp3
 70
     1
102
RTVSPropertyOp4
 70
     1
102
RTVSPropertyOp5
 70
     1
102
RTVSPropertyOp6
 70
     1
102
RTVSPropertyOp7
 70
     1
102
RTVSPropertyOp8
 70
     1
102
RTVSPropertyOp9
 70
     1
102
RTVSPropertyOp10
 70
     1
102
RTVSPropertyOp11
 70
     1
102
RTVSPropertyOp12
 70
     1
102
RTVSPropertyOp13
 70
     1
102
RTVSPropertyOp14
 70
     1
102
RTVSPropertyOp15
 70
     1
102
RTVSPropertyOp16
 70
     1
102
RTVSPropertyOp17
 70
     1
102
RTVSPropertyOp18
 70
     1
102
RTVSPropertyOp19
 70
     1
102
RTVSPropertyOp20
 70
     1
102
RTVSPropertyOp21
 70
     1
102
RTVSPropertyOp22
 70
     1
102
RTVSPropertyOp23
 70
     1
102
RTVSPropertyOp24
 70
     1
102
RTVSPropertyOp25
 70
     1
102
RTVSPropertyOp26
 70
     1
102
RTVSPropertyOp27
 70
     1
102
RTVSPropertyOp28
 70
     1
102
RTVSPropertyOp29
 70
     1
102
RTVSPropertyOp30
 70
     1
102
RTVSPropertyOp31
 70
     1
102
RTVSPropertyOp32
 70
     1
  0
XRECORD
  5
97
102
{ACAD_REACTORS
330
96
102
}
330
96
100
AcDbXrecord
280
     1
102
RTVSPropertyOp0
 70
     1
102
RTVSPropertyOp1
 70
     1
102
RTVSPropertyOp2
 70
     1
102
RTVSPropertyOp3
 70
     1
102
RTVSPropertyOp4
 70
     1
102
RTVSPropertyOp5
 70
     1
102
RTVSPropertyOp6
 70
     1
102
RTVSPropertyOp7
 70
     1
102
RTVSPropertyOp8
 70
     1
102
RTVSPropertyOp9
 70
     1
102
RTVSPropertyOp10
 70
     1
102
RTVSPropertyOp11
 70
     1
102
RTVSPropertyOp12
 70
     1
102
RTVSPropertyOp13
 70
     1
102
RTVSPropertyOp14
 70
     1
102
RTVSPropertyOp15
 70
     1
102
RTVSPropertyOp16
 70
     1
102
RTVSPropertyOp17
 70
     1
102
RTVSPropertyOp18
 70
     1
102
RTVSPropertyOp19
 70
     1
102
RTVSPropertyOp20
 70
     1
102
RTVSPropertyOp21
 70
     1
102
RTVSPropertyOp22
 70
     1
102
RTVSPropertyOp23
 70
     1
102
RTVSPropertyOp24
 70
     1
102
RTVSPropertyOp25
 70
     1
102
RTVSPropertyOp26
 70
     1
102
RTVSPropertyOp27
 70
     1
102
RTVSPropertyOp28
 70
     1
102
RTVSPropertyOp29
 70
     1
102
RTVSPropertyOp30
 70
     1
102
RTVSPropertyOp31
 70
     1
102
RTVSPropertyOp32
 70
     1
  0
XRECORD
  5
99
102
{ACAD_REACTORS
330
98
102
}
330
98
100
AcDbXrecord
280
     1
102
RTVSPropertyOp0
 70
     1
102
RTVSPropertyOp1
 70
     1
102
RTVSPropertyOp2
 70
     1
102
RTVSPropertyOp3
 70
     1
102
RTVSPropertyOp4
 70
     1
102
RTVSPropertyOp5
 70
     1
102
RTVSPropertyOp6
 70
     1
102
RTVSPropertyOp7
 70
     1
102
RTVSPropertyOp8
 70
     1
102
RTVSPropertyOp9
 70
     1
102
RTVSPropertyOp10
 70
     1
102
RTVSPropertyOp11
 70
     1
102
RTVSPropertyOp12
 70
     1
102
RTVSPropertyOp13
 70
     1
102
RTVSPropertyOp14
 70
     1
102
RTVSPropertyOp15
 70
     1
102
RTVSPropertyOp16
 70
     1
102
RTVSPropertyOp17
 70
     1
102
RTVSPropertyOp18
 70
     1
102
RTVSPropertyOp19
 70
     1
102
RTVSPropertyOp20
 70
     1
102
RTVSPropertyOp21
 70
     1
102
RTVSPropertyOp22
 70
     1
102
RTVSPropertyOp23
 70
     1
102
RTVSPropertyOp24
 70
     1
102
RTVSPropertyOp25
 70
     1
102
RTVSPropertyOp26
 70
     1
102
RTVSPropertyOp27
 70
     1
102
RTVSPropertyOp28
 70
     1
102
RTVSPropertyOp29
 70
     1
102
RTVSPropertyOp30
 70
     1
102
RTVSPropertyOp31
 70
     1
102
RTVSPropertyOp32
 70
     1
  0
XRECORD
  5
A1
102
{ACAD_REACTORS
330
A0
102
}
330
A0
100
AcDbXrecord
280
     1
102
RTVSPropertyOp0
 70
     1
102
RTVSPropertyOp1
 70
     1
102
RTVSPropertyOp2
 70
     1
102
RTVSPropertyOp3
 70
     1
102
RTVSPropertyOp4
 70
     1
102
RTVSPropertyOp5
 70
     1
102
RTVSPropertyOp6
 70
     1
102
RTVSPropertyOp7
 70
     1
102
RTVSPropertyOp8
 70
     1
102
RTVSPropertyOp9
 70
     1
102
RTVSPropertyOp10
 70
     1
102
RTVSPropertyOp11
 70
     1
102
RTVSPropertyOp12
 70
     1
102
RTVSPropertyOp13
 70
     1
102
RTVSPropertyOp14
 70
     1
102
RTVSPropertyOp15
 70
     1
102
RTVSPropertyOp16
 70
     1
102
RTVSPropertyOp17
 70
     1
102
RTVSPropertyOp18
 70
     1
102
RTVSPropertyOp19
 70
     1
102
RTVSPropertyOp20
 70
     1
102
RTVSPropertyOp21
 70
     1
102
RTVSPropertyOp22
 70
     1
102
RTVSPropertyOp23
 70
     1
102
RTVSPropertyOp24
 70
     1
102
RTVSPropertyOp25
 70
     1
102
RTVSPropertyOp26
 70
     1
102
RTVSPropertyOp27
 70
     1
102
RTVSPropertyOp28
 70
     1
102
RTVSPropertyOp29
 70
     1
102
RTVSPropertyOp30
 70
     1
102
RTVSPropertyOp31
 70
     1
102
RTVSPropertyOp32
 70
     1
  0
XRECORD
  5
85
102
{ACAD_REACTORS
330
84
102
}
330
84
100
AcDbXrecord
280
     1
102
RTVSPropertyOp0
 70
     1
102
RTVSPropertyOp1
 70
     1
102
RTVSPropertyOp2
 70
     1
102
RTVSPropertyOp3
 70
     1
102
RTVSPropertyOp4
 70
     1
102
RTVSPropertyOp5
 70
     1
102
RTVSPropertyOp6
 70
     1
102
RTVSPropertyOp7
 70
     1
102
RTVSPropertyOp8
 70
     1
102
RTVSPropertyOp9
 70
     1
102
RTVSPropertyOp10
 70
     1
102
RTVSPropertyOp11
 70
     1
102
RTVSPropertyOp12
 70
     1
102
RTVSPropertyOp13
 70
     1
102
RTVSPropertyOp14
 70
     1
102
RTVSPropertyOp15
 70
     1
102
RTVSPropertyOp16
 70
     1
102
RTVSPropertyOp17
 70
     1
102
RTVSPropertyOp18
 70
     1
102
RTVSPropertyOp19
 70
     1
102
RTVSPropertyOp20
 70
     1
102
RTVSPropertyOp21
 70
     1
102
RTVSPropertyOp22
 70
     1
102
RTVSPropertyOp23
 70
     1
102
RTVSPropertyOp24
 70
     1
102
RTVSPropertyOp25
 70
     1
102
RTVSPropertyOp26
 70
     1
102
RTVSPropertyOp27
 70
     1
102
RTVSPropertyOp28
 70
     1
102
RTVSPropertyOp29
 70
     1
102
RTVSPropertyOp30
 70
     1
102
RTVSPropertyOp31
 70
     1
102
RTVSPropertyOp32
 70
     1
  0
XRECORD
  5
87
102
{ACAD_REACTORS
330
86
102
}
330
86
100
AcDbXrecord
280
     1
102
RTVSPropertyOp0
 70
     1
102
RTVSPropertyOp1
 70
     1
102
RTVSPropertyOp2
 70
     1
102
RTVSPropertyOp3
 70
     1
102
RTVSPropertyOp4
 70
     1
102
RTVSPropertyOp5
 70
     1
102
RTVSPropertyOp6
 70
     1
102
RTVSPropertyOp7
 70
     1
102
RTVSPropertyOp8
 70
     1
102
RTVSPropertyOp9
 70
     1
102
RTVSPropertyOp10
 70
     1
102
RTVSPropertyOp11
 70
     1
102
RTVSPropertyOp12
 70
     1
102
RTVSPropertyOp13
 70
     1
102
RTVSPropertyOp14
 70
     1
102
RTVSPropertyOp15
 70
     1
102
RTVSPropertyOp16
 70
     1
102
RTVSPropertyOp17
 70
     1
102
RTVSPropertyOp18
 70
     1
102
RTVSPropertyOp19
 70
     1
102
RTVSPropertyOp20
 70
     1
102
RTVSPropertyOp21
 70
     1
102
RTVSPropertyOp22
 70
     1
102
RTVSPropertyOp23
 70
     1
102
RTVSPropertyOp24
 70
     1
102
RTVSPropertyOp25
 70
     1
102
RTVSPropertyOp26
 70
     1
102
RTVSPropertyOp27
 70
     1
102
RTVSPropertyOp28
 70
     1
102
RTVSPropertyOp29
 70
     1
102
RTVSPropertyOp30
 70
     1
102
RTVSPropertyOp31
 70
     1
102
RTVSPropertyOp32
 70
     1
  0
XRECORD
  5
89
102
{ACAD_REACTORS
330
88
102
}
330
88
100
AcDbXrecord
280
     1
102
RTVSPropertyOp0
 70
     1
102
RTVSPropertyOp1
 70
     1
102
RTVSPropertyOp2
 70
     1
102
RTVSPropertyOp3
 70
     1
102
RTVSPropertyOp4
 70
     1
102
RTVSPropertyOp5
 70
     1
102
RTVSPropertyOp6
 70
     1
102
RTVSPropertyOp7
 70
     1
102
RTVSPropertyOp8
 70
     1
102
RTVSPropertyOp9
 70
     1
102
RTVSPropertyOp10
 70
     1
102
RTVSPropertyOp11
 70
     1
102
RTVSPropertyOp12
 70
     1
102
RTVSPropertyOp13
 70
     1
102
RTVSPropertyOp14
 70
     1
102
RTVSPropertyOp15
 70
     1
102
RTVSPropertyOp16
 70
     1
102
RTVSPropertyOp17
 70
     1
102
RTVSPropertyOp18
 70
     1
102
RTVSPropertyOp19
 70
     1
102
RTVSPropertyOp20
 70
     1
102
RTVSPropertyOp21
 70
     1
102
RTVSPropertyOp22
 70
     1
102
RTVSPropertyOp23
 70
     1
102
RTVSPropertyOp24
 70
     1
102
RTVSPropertyOp25
 70
     1
102
RTVSPropertyOp26
 70
     1
102
RTVSPropertyOp27
 70
     1
102
RTVSPropertyOp28
 70
     1
102
RTVSPropertyOp29
 70
     1
102
RTVSPropertyOp30
 70
     1
102
RTVSPropertyOp31
 70
     1
102
RTVSPropertyOp32
 70
     1
  0
XRECORD
  5
8B
102
{ACAD_REACTORS
330
8A
102
}
330
8A
100
AcDbXrecord
280
     1
102
RTVSPropertyOp0
 70
     1
102
RTVSPropertyOp1
 70
     1
102
RTVSPropertyOp2
 70
     1
102
RTVSPropertyOp3
 70
     1
102
RTVSPropertyOp4
 70
     1
102
RTVSPropertyOp5
 70
     1
102
RTVSPropertyOp6
 70
     1
102
RTVSPropertyOp7
 70
     1
102
RTVSPropertyOp8
 70
     1
102
RTVSPropertyOp9
 70
     1
102
RTVSPropertyOp10
 70
     1
102
RTVSPropertyOp11
 70
     1
102
RTVSPropertyOp12
 70
     1
102
RTVSPropertyOp13
 70
     1
102
RTVSPropertyOp14
 70
     1
102
RTVSPropertyOp15
 70
     1
102
RTVSPropertyOp16
 70
     1
102
RTVSPropertyOp17
 70
     1
102
RTVSPropertyOp18
 70
     1
102
RTVSPropertyOp19
 70
     1
102
RTVSPropertyOp20
 70
     1
102
RTVSPropertyOp21
 70
     1
102
RTVSPropertyOp22
 70
     1
102
RTVSPropertyOp23
 70
     1
102
RTVSPropertyOp24
 70
     1
102
RTVSPropertyOp25
 70
     1
102
RTVSPropertyOp26
 70
     1
102
RTVSPropertyOp27
 70
     1
102
RTVSPropertyOp28
 70
     1
102
RTVSPropertyOp29
 70
     1
102
RTVSPropertyOp30
 70
     1
102
RTVSPropertyOp31
 70
     1
102
RTVSPropertyOp32
 70
     1
  0
XRECORD
  5
9F
102
{ACAD_REACTORS
330
9E
102
}
330
9E
100
AcDbXrecord
280
     1
102
RTVSPropertyOp0
 70
     1
102
RTVSPropertyOp1
 70
     1
102
RTVSPropertyOp2
 70
     1
102
RTVSPropertyOp3
 70
     1
102
RTVSPropertyOp4
 70
     1
102
RTVSPropertyOp5
 70
     1
102
RTVSPropertyOp6
 70
     1
102
RTVSPropertyOp7
 70
     1
102
RTVSPropertyOp8
 70
     1
102
RTVSPropertyOp9
 70
     1
102
RTVSPropertyOp10
 70
     1
102
RTVSPropertyOp11
 70
     1
102
RTVSPropertyOp12
 70
     1
102
RTVSPropertyOp13
 70
     1
102
RTVSPropertyOp14
 70
     1
102
RTVSPropertyOp15
 70
     1
102
RTVSPropertyOp16
 70
     1
102
RTVSPropertyOp17
 70
     1
102
RTVSPropertyOp18
 70
     1
102
RTVSPropertyOp19
 70
     1
102
RTVSPropertyOp20
 70
     1
102
RTVSPropertyOp21
 70
     1
102
RTVSPropertyOp22
 70
     1
102
RTVSPropertyOp23
 70
     1
102
RTVSPropertyOp24
 70
     1
102
RTVSPropertyOp25
 70
     1
102
RTVSPropertyOp26
 70
     1
102
RTVSPropertyOp27
 70
     1
102
RTVSPropertyOp28
 70
     1
102
RTVSPropertyOp29
 70
     1
102
RTVSPropertyOp30
 70
     1
102
RTVSPropertyOp31
 70
     1
102
RTVSPropertyOp32
 70
     1
  0
XRECORD
  5
95
102
{ACAD_REACTORS
330
94
102
}
330
94
100
AcDbXrecord
280
     1
102
RTVSPropertyOp0
 70
     1
102
RTVSPropertyOp1
 70
     1
102
RTVSPropertyOp2
 70
     1
102
RTVSPropertyOp3
 70
     1
102
RTVSPropertyOp4
 70
     1
102
RTVSPropertyOp5
 70
     1
102
RTVSPropertyOp6
 70
     1
102
RTVSPropertyOp7
 70
     1
102
RTVSPropertyOp8
 70
     1
102
RTVSPropertyOp9
 70
     1
102
RTVSPropertyOp10
 70
     1
102
RTVSPropertyOp11
 70
     1
102
RTVSPropertyOp12
 70
     1
102
RTVSPropertyOp13
 70
     1
102
RTVSPropertyOp14
 70
     1
102
RTVSPropertyOp15
 70
     1
102
RTVSPropertyOp16
 70
     1
102
RTVSPropertyOp17
 70
     1
102
RTVSPropertyOp18
 70
     1
102
RTVSPropertyOp19
 70
     1
102
RTVSPropertyOp20
 70
     1
102
RTVSPropertyOp21
 70
     1
102
RTVSPropertyOp22
 70
     1
102
RTVSPropertyOp23
 70
     1
102
RTVSPropertyOp24
 70
     1
102
RTVSPropertyOp25
 70
     1
102
RTVSPropertyOp26
 70
     1
102
RTVSPropertyOp27
 70
     1
102
RTVSPropertyOp28
 70
     1
102
RTVSPropertyOp29
 70
     1
102
RTVSPropertyOp30
 70
     1
102
RTVSPropertyOp31
 70
     1
102
RTVSPropertyOp32
 70
     1
  0
XRECORD
  5
9D
102
{ACAD_REACTORS
330
9C
102
}
330
9C
100
AcDbXrecord
280
     1
102
RTVSPropertyOp0
 70
     1
102
RTVSPropertyOp1
 70
     1
102
RTVSPropertyOp2
 70
     1
102
RTVSPropertyOp3
 70
     1
102
RTVSPropertyOp4
 70
     1
102
RTVSPropertyOp5
 70
     1
102
RTVSPropertyOp6
 70
     1
102
RTVSPropertyOp7
 70
     1
102
RTVSPropertyOp8
 70
     1
102
RTVSPropertyOp9
 70
     1
102
RTVSPropertyOp10
 70
     1
102
RTVSPropertyOp11
 70
     1
102
RTVSPropertyOp12
 70
     1
102
RTVSPropertyOp13
 70
     1
102
RTVSPropertyOp14
 70
     1
102
RTVSPropertyOp15
 70
     1
102
RTVSPropertyOp16
 70
     1
102
RTVSPropertyOp17
 70
     1
102
RTVSPropertyOp18
 70
     1
102
RTVSPropertyOp19
 70
     1
102
RTVSPropertyOp20
 70
     1
102
RTVSPropertyOp21
 70
     1
102
RTVSPropertyOp22
 70
     1
102
RTVSPropertyOp23
 70
     1
102
RTVSPropertyOp24
 70
     1
102
RTVSPropertyOp25
 70
     1
102
RTVSPropertyOp26
 70
     1
102
RTVSPropertyOp27
 70
     1
102
RTVSPropertyOp28
 70
     1
102
RTVSPropertyOp29
 70
     1
102
RTVSPropertyOp30
 70
     1
102
RTVSPropertyOp31
 70
     1
102
RTVSPropertyOp32
 70
     1
  0
ENDSEC
  0
EOF
