  0
SECTION
  2
HEADER
  9
$ACADVER
  1
AC1021
  9
$ACADMAINTVER
 70
    25
  9
$DWGCODEPAGE
  3
ANSI_1252
  9
$INSBASE
 10
0.0
 20
0.0
 30
0.0
  9
$EXTMIN
 10
-12.56833
 20
-8.89888
 30
0.0
  9
$EXTMAX
 10
11.34787
 20
8.36434
 30
0.0
  9
$LIMMIN
 10
0.0
 20
0.0
  9
$LIMMAX
 10
12.0
 20
9.0
  9
$ORTHOMODE
 70
     0
  9
$REGENMODE
 70
     1
  9
$FILLMODE
 70
     1
  9
$QTEXTMODE
 70
     0
  9
$MIRRTEXT
 70
     1
  9
$LTSCALE
 40
1.0
  9
$ATTMODE
 70
     1
  9
$TEXTSIZE
 40
0.2
  9
$TRACEWID
 40
0.05
  9
$TEXTSTYLE
  7
Standard
  9
$CLAYER
  8
0
  9
$CELTYPE
  6
ByLayer
  9
$CECOLOR
 62
   256
  9
$CELTSCALE
 40
1.0
  9
$DISPSILH
 70
     0
  9
$DIMSCALE
 40
1.0
  9
$DIMASZ
 40
0.18
  9
$DIMEXO
 40
0.0625
  9
$DIMDLI
 40
0.38
  9
$DIMRND
 40
0.0
  9
$DIMDLE
 40
0.0
  9
$DIMEXE
 40
0.18
  9
$DIMTP
 40
0.0
  9
$DIMTM
 40
0.0
  9
$DIMTXT
 40
0.18
  9
$DIMCEN
 40
0.09
  9
$DIMTSZ
 40
0.0
  9
$DIMTOL
 70
     0
  9
$DIMLIM
 70
     0
  9
$DIMTIH
 70
     1
  9
$DIMTOH
 70
     1
  9
$DIMSE1
 70
     0
  9
$DIMSE2
 70
     0
  9
$DIMTAD
 70
     0
  9
$DIMZIN
 70
     0
  9
$DIMBLK
  1

  9
$DIMASO
 70
     1
  9
$DIMSHO
 70
     1
  9
$DIMPOST
  1

  9
$DIMAPOST
  1

  9
$DIMALT
 70
     0
  9
$DIMALTD
 70
     2
  9
$DIMALTF
 40
25.4
  9
$DIMLFAC
 40
1.0
  9
$DIMTOFL
 70
     0
  9
$DIMTVP
 40
0.0
  9
$DIMTIX
 70
     0
  9
$DIMSOXD
 70
     0
  9
$DIMSAH
 70
     0
  9
$DIMBLK1
  1

  9
$DIMBLK2
  1

  9
$DIMSTYLE
  2
Standard
  9
$DIMCLRD
 70
     0
  9
$DIMCLRE
 70
     0
  9
$DIMCLRT
 70
     0
  9
$DIMTFAC
 40
1.0
  9
$DIMGAP
 40
0.09
  9
$DIMJUST
 70
     0
  9
$DIMSD1
 70
     0
  9
$DIMSD2
 70
     0
  9
$DIMTOLJ
 70
     1
  9
$DIMTZIN
 70
     0
  9
$DIMALTZ
 70
     0
  9
$DIMALTTZ
 70
     0
  9
$DIMUPT
 70
     0
  9
$DIMDEC
 70
     4
  9
$DIMTDEC
 70
     4
  9
$DIMALTU
 70
     2
  9
$DIMALTTD
 70
     2
  9
$DIMTXSTY
  7
Standard
  9
$DIMAUNIT
 70
     0
  9
$DIMADEC
 70
     0
  9
$DIMALTRND
 40
0.0
  9
$DIMAZIN
 70
     0
  9
$DIMDSEP
 70
    46
  9
$DIMATFIT
 70
     3
  9
$DIMFRAC
 70
     0
  9
$DIMLDRBLK
  1

  9
$DIMLUNIT
 70
     2
  9
$DIMLWD
 70
    -2
  9
$DIMLWE
 70
    -2
  9
$DIMTMOVE
 70
     0
  9
$DIMFXL
 40
1.0
  9
$DIMFXLON
 70
     0
  9
$DIMJOGANG
 40
0.7853981633974483
  9
$DIMTFILL
 70
     0
  9
$DIMTFILLCLR
 70
     0
  9
$DIMARCSYM
 70
     0
  9
$DIMLTYPE
  6

  9
$DIMLTEX1
  6

  9
$DIMLTEX2
  6

  9
$LUNITS
 70
     2
  9
$LUPREC
 70
     4
  9
$SKETCHINC
 40
0.1
  9
$FILLETRAD
 40
0.5
  9
$AUNITS
 70
     0
  9
$AUPREC
 70
     0
  9
$MENU
  1
.
  9
$ELEVATION
 40
0.0
  9
$PELEVATION
 40
0.0
  9
$THICKNESS
 40
0.0
  9
$LIMCHECK
 70
     0
  9
$CHAMFERA
 40
0.5
  9
$CHAMFERB
 40
0.5
  9
$CHAMFERC
 40
1.0
  9
$CHAMFERD
 40
0.0
  9
$SKPOLY
 70
     0
  9
$TDCREATE
 40
2456231.949053426
  9
$TDUCREATE
 40
2456232.115720093
  9
$TDUPDATE
 40
2456231.949053484
  9
$TDUUPDATE
 40
2456232.115720151
  9
$TDINDWG
 40
0.0000000116
  9
$TDUSRTIMER
 40
0.0000000116
  9
$USRTIMER
 70
     1
  9
$ANGBASE
 50
0.0
  9
$ANGDIR
 70
     0
  9
$PDMODE
 70
     0
  9
$PDSIZE
 40
0.0
  9
$PLINEWID
 40
0.0
  9
$SPLFRAME
 70
     0
  9
$SPLINETYPE
 70
     6
  9
$SPLINESEGS
 70
     8
  9
$HANDSEED
  5
A9
  9
$SURFTAB1
 70
     6
  9
$SURFTAB2
 70
     6
  9
$SURFTYPE
 70
     6
  9
$SURFU
 70
     6
  9
$SURFV
 70
     6
  9
$UCSBASE
  2

  9
$UCSNAME
  2

  9
$UCSORG
 10
0.0
 20
0.0
 30
0.0
  9
$UCSXDIR
 10
1.0
 20
0.0
 30
0.0
  9
$UCSYDIR
 10
0.0
 20
1.0
 30
0.0
  9
$UCSORTHOREF
  2

  9
$UCSORTHOVIEW
 70
     0
  9
$UCSORGTOP
 10
0.0
 20
0.0
 30
0.0
  9
$UCSORGBOTTOM
 10
0.0
 20
0.0
 30
0.0
  9
$UCSORGLEFT
 10
0.0
 20
0.0
 30
0.0
  9
$UCSORGRIGHT
 10
0.0
 20
0.0
 30
0.0
  9
$UCSORGFRONT
 10
0.0
 20
0.0
 30
0.0
  9
$UCSORGBACK
 10
0.0
 20
0.0
 30
0.0
  9
$PUCSBASE
  2

  9
$PUCSNAME
  2

  9
$PUCSORG
 10
0.0
 20
0.0
 30
0.0
  9
$PUCSXDIR
 10
1.0
 20
0.0
 30
0.0
  9
$PUCSYDIR
 10
0.0
 20
1.0
 30
0.0
  9
$PUCSORTHOREF
  2

  9
$PUCSORTHOVIEW
 70
     0
  9
$PUCSORGTOP
 10
0.0
 20
0.0
 30
0.0
  9
$PUCSORGBOTTOM
 10
0.0
 20
0.0
 30
0.0
  9
$PUCSORGLEFT
 10
0.0
 20
0.0
 30
0.0
  9
$PUCSORGRIGHT
 10
0.0
 20
0.0
 30
0.0
  9
$PUCSORGFRONT
 10
0.0
 20
0.0
 30
0.0
  9
$PUCSORGBACK
 10
0.0
 20
0.0
 30
0.0
  9
$USERI1
 70
     0
  9
$USERI2
 70
     0
  9
$USERI3
 70
     0
  9
$USERI4
 70
     0
  9
$USERI5
 70
     0
  9
$USERR1
 40
0.0
  9
$USERR2
 40
0.0
  9
$USERR3
 40
0.0
  9
$USERR4
 40
0.0
  9
$USERR5
 40
0.0
  9
$WORLDVIEW
 70
     1
  9
$SHADEDGE
 70
     3
  9
$SHADEDIF
 70
    70
  9
$TILEMODE
 70
     1
  9
$MAXACTVP
 70
    64
  9
$PINSBASE
 10
0.0
 20
0.0
 30
0.0
  9
$PLIMCHECK
 70
     0
  9
$PEXTMIN
 10
1.000000000000000E+20
 20
1.000000000000000E+20
 30
1.000000000000000E+20
  9
$PEXTMAX
 10
-1.000000000000000E+20
 20
-1.000000000000000E+20
 30
-1.000000000000000E+20
  9
$PLIMMIN
 10
0.0
 20
0.0
  9
$PLIMMAX
 10
12.0
 20
9.0
  9
$UNITMODE
 70
     0
  9
$VISRETAIN
 70
     1
  9
$PLINEGEN
 70
     0
  9
$PSLTSCALE
 70
     1
  9
$TREEDEPTH
 70
  3020
  9
$CMLSTYLE
  2
Standard
  9
$CMLJUST
 70
     0
  9
$CMLSCALE
 40
1.0
  9
$PROXYGRAPHICS
 70
     1
  9
$MEASUREMENT
 70
     0
  9
$CELWEIGHT
370
    -1
  9
$ENDCAPS
280
     0
  9
$JOINSTYLE
280
     0
  9
$LWDISPLAY
290
     0
  9
$INSUNITS
 70
     5
  9
$HYPERLINKBASE
  1

  9
$STYLESHEET
  1

  9
$XEDIT
290
     1
  9
$CEPSNTYPE
380
     0
  9
$PSTYLEMODE
290
     1
  9
$FINGERPRINTGUID
  2
{E33D66CA-42D1-4A05-AA51-2CC1FF6883F2}
  9
$VERSIONGUID
  2
{FAEB1C32-E019-11D5-929B-00C0DF256EC4}
  9
$EXTNAMES
290
     1
  9
$PSVPSCALE
 40
0.0
  9
$OLESTARTUP
290
     0
  9
$SORTENTS
280
   127
  9
$INDEXCTL
280
     0
  9
$HIDETEXT
280
     1
  9
$XCLIPFRAME
290
     0
  9
$HALOGAP
280
     0
  9
$OBSCOLOR
 70
   257
  9
$OBSLTYPE
280
     0
  9
$INTERSECTIONDISPLAY
280
     0
  9
$INTERSECTIONCOLOR
 70
   257
  9
$DIMASSOC
280
     2
  9
$PROJECTNAME
  1

  9
$CAMERADISPLAY
290
     0
  9
$LENSLENGTH
 40
50.0
  9
$CAMERAHEIGHT
 40
0.0
  9
$STEPSPERSEC
 40
2.0
  9
$STEPSIZE
 40
6.0
  9
$3DDWFPREC
 40
2.0
  9
$PSOLWIDTH
 40
0.25
  9
$PSOLHEIGHT
 40
4.0
  9
$LOFTANG1
 40
1.570796326794897
  9
$LOFTANG2
 40
1.570796326794897
  9
$LOFTMAG1
 40
0.0
  9
$LOFTMAG2
 40
0.0
  9
$LOFTPARAM
 70
     7
  9
$LOFTNORMALS
280
     1
  9
$LATITUDE
 40
37.795
  9
$LONGITUDE
 40
-122.394
  9
$NORTHDIRECTION
 40
0.0
  9
$TIMEZONE
 70
 -8000
  9
$LIGHTGLYPHDISPLAY
280
     1
  9
$TILEMODELIGHTSYNCH
280
     1
  9
$SOLIDHIST
280
     1
  9
$SHOWHIST
280
     1
  9
$DWFFRAME
280
     2
  9
$DGNFRAME
280
     2
  9
$REALWORLDSCALE
290
     1
  9
$INTERFERECOLOR
 62
   256
  9
$CSHADOW
280
     0
  9
$SHADOWPLANELOCATION
 40
0.0
  0
ENDSEC
  0
SECTION
  2
CLASSES
  0
CLASS
  1
ACDBDICTIONARYWDFLT
  2
AcDbDictionaryWithDefault
  3
ObjectDBX Classes
 90
        0
 91
        4
280
     0
281
     0
  0
CLASS
  1
VISUALSTYLE
  2
AcDbVisualStyle
  3
ObjectDBX Classes
 90
     4095
 91
        4
280
     0
281
     0
  0
CLASS
  1
MATERIAL
  2
AcDbMaterial
  3
ObjectDBX Classes
 90
     1153
 91
        4
280
     0
281
     0
  0
ENDSEC
  0
SECTION
  2
TABLES
  0
TABLE
  2
VPORT
  5
8
330
0
100
AcDbSymbolTable
 70
     1
  0
VPORT
  5
29
330
8
100
AcDbSymbolTableRecord
100
AcDbViewportTableRecord
  2
*Active
 70
     0
 10
0.0
 20
0.0
 11
1.0
 21
1.0
 12
10.42990654205607
 22
4.5
 13
0.0
 23
0.0
 14
0.5
 24
0.5
 15
0.5
 25
0.5
 16
0.0
 26
0.0
 36
1.0
 17
0.0
 27
0.0
 37
0.0
 40
9.0
 41
1.972972972850329
 42
50.0
 43
0.0
 44
0.0
 50
0.0
 51
0.0
 71
     0
 72
   100
 73
     1
 74
     3
 75
     0
 76
     0
 77
     0
 78
     0
281
     0
 65
     1
110
0.0
120
0.0
130
0.0
111
1.0
121
0.0
131
0.0
112
0.0
122
1.0
132
0.0
 79
     0
146
0.0
 60
     3
 61
     5
292
     1
282
     1
141
0.0
142
0.0
 63
   250
  0
ENDTAB
  0
TABLE
  2
LTYPE
  5
5
330
0
100
AcDbSymbolTable
 70
     1
  0
LTYPE
  5
14
330
5
100
AcDbSymbolTableRecord
100
AcDbLinetypeTableRecord
  2
ByBlock
 70
     0
  3

 72
    65
 73
     0
 40
0.0
  0
LTYPE
  5
15
330
5
100
AcDbSymbolTableRecord
100
AcDbLinetypeTableRecord
  2
ByLayer
 70
     0
  3

 72
    65
 73
     0
 40
0.0
  0
LTYPE
  5
16
330
5
100
AcDbSymbolTableRecord
100
AcDbLinetypeTableRecord
  2
Continuous
 70
     0
  3
Solid line
 72
    65
 73
     0
 40
0.0
  0
ENDTAB
  0
TABLE
  2
LAYER
  5
2
330
0
100
AcDbSymbolTable
 70
     3
  0
LAYER
  5
10
330
2
100
AcDbSymbolTableRecord
100
AcDbLayerTableRecord
  2
0
 70
     0
 62
     7
  6
Continuous
370
    -3
390
F
347
3E
  0
LAYER
  5
40
330
2
100
AcDbSymbolTableRecord
100
AcDbLayerTableRecord
  2
Layer 1
 70
     0
 62
     7
  6
Continuous
370
    -3
390
F
347
3E
  0
LAYER
  5
5D
330
2
100
AcDbSymbolTableRecord
100
AcDbLayerTableRecord
  2
layer 2
 70
     0
 62
     7
  6
Continuous
370
    -3
390
F
347
3E
  0
ENDTAB
  0
TABLE
  2
STYLE
  5
3
330
0
100
AcDbSymbolTable
 70
     1
  0
STYLE
  5
11
330
3
100
AcDbSymbolTableRecord
100
AcDbTextStyleTableRecord
  2
Standard
 70
     0
 40
0.0
 41
1.0
 50
0.0
 71
     0
 42
0.2
  3
txt
  4

  0
ENDTAB
  0
TABLE
  2
VIEW
  5
6
330
0
100
AcDbSymbolTable
 70
     0
  0
ENDTAB
  0
TABLE
  2
UCS
  5
7
330
0
100
AcDbSymbolTable
 70
     0
  0
ENDTAB
  0
TABLE
  2
APPID
  5
9
330
0
100
AcDbSymbolTable
 70
     2
  0
APPID
  5
12
330
9
100
AcDbSymbolTableRecord
100
AcDbRegAppTableRecord
  2
ACAD
 70
     0
  0
APPID
  5
3F
330
9
100
AcDbSymbolTableRecord
100
AcDbRegAppTableRecord
  2
ODA
 70
     0
  0
ENDTAB
  0
TABLE
  2
DIMSTYLE
  5
A
330
0
100
AcDbSymbolTable
 70
     1
100
AcDbDimStyleTable
  0
DIMSTYLE
105
27
330
A
100
AcDbSymbolTableRecord
100
AcDbDimStyleTableRecord
  2
Standard
 70
     0
178
     0
340
11
  0
ENDTAB
  0
TABLE
  2
BLOCK_RECORD
  5
1
330
0
100
AcDbSymbolTable
 70
     1
  0
BLOCK_RECORD
  5
1F
330
1
100
AcDbSymbolTableRecord
100
AcDbBlockTableRecord
  2
*Model_Space
340
22
 70
     0
280
     1
281
     0
  0
BLOCK_RECORD
  5
1B
330
1
100
AcDbSymbolTableRecord
100
AcDbBlockTableRecord
  2
*Paper_Space
340
1E
 70
     0
280
     1
281
     0
  0
BLOCK_RECORD
  5
23
330
1
100
AcDbSymbolTableRecord
100
AcDbBlockTableRecord
  2
*Paper_Space0
340
26
 70
     0
280
     1
281
     0
  0
ENDTAB
  0
ENDSEC
  0
SECTION
  2
BLOCKS
  0
BLOCK
  5
20
330
1F
100
AcDbEntity
  8
0
100
AcDbBlockBegin
  2
*Model_Space
 70
     0
 10
0.0
 20
0.0
 30
0.0
  3
*Model_Space
  1

  0
ENDBLK
  5
21
330
1F
100
AcDbEntity
  8
0
100
AcDbBlockEnd
  0
BLOCK
  5
1C
330
1B
100
AcDbEntity
 67
     1
  8
0
100
AcDbBlockBegin
  2
*Paper_Space
 70
     0
 10
0.0
 20
0.0
 30
0.0
  3
*Paper_Space
  1

  0
ENDBLK
  5
1D
330
1B
100
AcDbEntity
 67
     1
  8
0
100
AcDbBlockEnd
  0
BLOCK
  5
24
330
23
100
AcDbEntity
  8
0
100
AcDbBlockBegin
  2
*Paper_Space0
 70
     0
 10
0.0
 20
0.0
 30
0.0
  3
*Paper_Space0
  1

  0
ENDBLK
  5
25
330
23
100
AcDbEntity
  8
0
100
AcDbBlockEnd
  0
ENDSEC
  0
SECTION
  2
ENTITIES
  0
SPLINE
  5
41
330
1F
100
AcDbEntity
  8
Layer 1
 62
   250
100
AcDbSpline
210
0.0
220
0.0
230
1.0
 70
    11
 71
     3
 72
    92
 73
    88
 74
     0
 42
0.0000000001
 43
0.0000000001
 12
1.0
 22
0.0
 32
0.0
 13
1.0
 23
0.0
 33
0.0
 40
0.0
 40
0.0
 40
0.0
 40
0.0
 40
0.0434782608695652
 40
0.0434782608695652
 40
0.0434782608695652
 40
0.0434782608695652
 40
0.0869565217391304
 40
0.0869565217391304
 40
0.0869565217391304
 40
0.0869565217391304
 40
0.1304347826086956
 40
0.1304347826086956
 40
0.1304347826086956
 40
0.1304347826086956
 40
0.1739130434782609
 40
0.1739130434782609
 40
0.1739130434782609
 40
0.1739130434782609
 40
0.2173913043478261
 40
0.2173913043478261
 40
0.2173913043478261
 40
0.2173913043478261
 40
0.2608695652173913
 40
0.2608695652173913
 40
0.2608695652173913
 40
0.2608695652173913
 40
0.3043478260869565
 40
0.3043478260869565
 40
0.3043478260869565
 40
0.3043478260869565
 40
0.3478260869565217
 40
0.3478260869565217
 40
0.3478260869565217
 40
0.3478260869565217
 40
0.391304347826087
 40
0.391304347826087
 40
0.391304347826087
 40
0.391304347826087
 40
0.4347826086956522
 40
0.4347826086956522
 40
0.4347826086956522
 40
0.4347826086956522
 40
0.4782608695652174
 40
0.4782608695652174
 40
0.4782608695652174
 40
0.4782608695652174
 40
0.5217391304347826
 40
0.5217391304347826
 40
0.5217391304347826
 40
0.5217391304347826
 40
0.5652173913043478
 40
0.5652173913043478
 40
0.5652173913043478
 40
0.5652173913043478
 40
0.6086956521739131
 40
0.6086956521739131
 40
0.6086956521739131
 40
0.6086956521739131
 40
0.6521739130434783
 40
0.6521739130434783
 40
0.6521739130434783
 40
0.6521739130434783
 40
0.6956521739130435
 40
0.6956521739130435
 40
0.6956521739130435
 40
0.6956521739130435
 40
0.7391304347826086
 40
0.7391304347826086
 40
0.7391304347826086
 40
0.7391304347826086
 40
0.782608695652174
 40
0.782608695652174
 40
0.782608695652174
 40
0.782608695652174
 40
0.8260869565217391
 40
0.8260869565217391
 40
0.8260869565217391
 40
0.8260869565217391
 40
0.8695652173913043
 40
0.8695652173913043
 40
0.8695652173913043
 40
0.8695652173913043
 40
0.9130434782608695
 40
0.9130434782608695
 40
0.9130434782608695
 40
0.9130434782608695
 40
1.0
 40
1.0
 40
1.0
 40
1.0
 10
-3.63559
 20
-8.8176
 30
0.0
 10
-3.63559
 20
-8.8176
 30
0.0
 10
-3.63559
 20
-8.88872
 30
0.0
 10
-3.63559
 20
-8.88872
 30
0.0
 10
-3.63559
 20
-8.88872
 30
0.0
 10
-3.63559
 20
-8.88872
 30
0.0
 10
-4.03692
 20
-8.88872
 30
0.0
 10
-4.03692
 20
-8.88872
 30
0.0
 10
-4.03692
 20
-8.88872
 30
0.0
 10
-4.03748
 20
-8.8708
 30
0.0
 10
-4.03452
 20
-8.85358
 30
0.0
 10
-4.02817
 20
-8.83693
 30
0.0
 10
-4.02817
 20
-8.83693
 30
0.0
 10
-4.01787
 20
-8.8097
 30
0.0
 10
-4.00136
 20
-8.78275
 30
0.0
 10
-3.97864
 20
-8.75636
 30
0.0
 10
-3.97864
 20
-8.75636
 30
0.0
 10
-3.95592
 20
-8.72997
 30
0.0
 10
-3.92346
 20
-8.69949
 30
0.0
 10
-3.88127
 20
-8.66492
 30
0.0
 10
-3.88127
 20
-8.66492
 30
0.0
 10
-3.81565
 20
-8.61087
 30
0.0
 10
-3.77106
 20
-8.56811
 30
0.0
 10
-3.74778
 20
-8.53651
 30
0.0
 10
-3.74778
 20
-8.53651
 30
0.0
 10
-3.72435
 20
-8.5049
 30
0.0
 10
-3.71264
 20
-8.47498
 30
0.0
 10
-3.71264
 20
-8.44676
 30
0.0
 10
-3.71264
 20
-8.44676
 30
0.0
 10
-3.71264
 20
-8.41727
 30
0.0
 10
-3.72323
 20
-8.39243
 30
0.0
 10
-3.74439
 20
-8.37211
 30
0.0
 10
-3.74439
 20
-8.37211
 30
0.0
 10
-3.76556
 20
-8.35193
 30
0.0
 10
-3.79322
 20
-8.34177
 30
0.0
 10
-3.82722
 20
-8.34177
 30
0.0
 10
-3.82722
 20
-8.34177
 30
0.0
 10
-3.86321
 20
-8.34177
 30
0.0
 10
-3.89199
 20
-8.3525
 30
0.0
 10
-3.91358
 20
-8.37394
 30
0.0
 10
-3.91358
 20
-8.37394
 30
0.0
 10
-3.93518
 20
-8.39525
 30
0.0
 10
-3.94604
 20
-8.42489
 30
0.0
 10
-3.94632
 20
-8.46284
 30
0.0
 10
-3.94632
 20
-8.46284
 30
0.0
 10
-3.94632
 20
-8.46284
 30
0.0
 10
-4.02252
 20
-8.45522
 30
0.0
 10
-4.02252
 20
-8.45522
 30
0.0
 10
-4.02252
 20
-8.45522
 30
0.0
 10
-4.0173
 20
-8.39822
 30
0.0
 10
-3.99755
 20
-8.35475
 30
0.0
 10
-3.9634
 20
-8.32484
 30
0.0
 10
-3.9634
 20
-8.32484
 30
0.0
 10
-3.92911
 20
-8.29492
 30
0.0
 10
-3.88325
 20
-8.27996
 30
0.0
 10
-3.82553
 20
-8.27996
 30
0.0
 10
-3.82553
 20
-8.27996
 30
0.0
 10
-3.76739
 20
-8.27996
 30
0.0
 10
-3.72125
 20
-8.29605
 30
0.0
 10
-3.68738
 20
-8.32837
 30
0.0
 10
-3.68738
 20
-8.32837
 30
0.0
 10
-3.65338
 20
-8.36068
 30
0.0
 10
-3.63644
 20
-8.40076
 30
0.0
 10
-3.63644
 20
-8.44845
 30
0.0
 10
-3.63644
 20
-8.44845
 30
0.0
 10
-3.63644
 20
-8.47272
 30
0.0
 10
-3.64138
 20
-8.49657
 30
0.0
 10
-3.6514
 20
-8.52
 30
0.0
 10
-3.6514
 20
-8.52
 30
0.0
 10
-3.66128
 20
-8.54356
 30
0.0
 10
-3.67779
 20
-8.56826
 30
0.0
 10
-3.70079
 20
-8.59422
 30
0.0
 10
-3.70079
 20
-8.59422
 30
0.0
 10
-3.72393
 20
-8.62004
 30
0.0
 10
-3.76217
 20
-8.65574
 30
0.0
 10
-3.81551
 20
-8.7009
 30
0.0
 10
-3.81551
 20
-8.7009
 30
0.0
 10
-3.86024
 20
-8.73844
 30
0.0
 10
-3.88903
 20
-8.76384
 30
0.0
 10
-3.90173
 20
-8.77724
 30
0.0
 10
-3.90173
 20
-8.77724
 30
0.0
 10
-3.91443
 20
-8.79065
 30
0.0
 10
-3.92487
 20
-8.80405
 30
0.0
 10
-3.9332
 20
-8.8176
 30
0.0
 10
-3.9332
 20
-8.8176
 30
0.0
 10
-3.9332
 20
-8.8176
 30
0.0
 10
-3.63559
 20
-8.8176
 30
0.0
 10
-3.63559
 20
-8.8176
 30
0.0
  0
SPLINE
  5
42
330
1F
100
AcDbEntity
  8
Layer 1
 62
   250
100
AcDbSpline
210
0.0
220
0.0
230
1.0
 70
    11
 71
     3
 72
    52
 73
    48
 74
     0
 42
0.0000000001
 43
0.0000000001
 12
1.0
 22
0.0
 32
0.0
 13
1.0
 23
0.0
 33
0.0
 40
0.0
 40
0.0
 40
0.0
 40
0.0
 40
0.0769230769230769
 40
0.0769230769230769
 40
0.0769230769230769
 40
0.0769230769230769
 40
0.1538461538461539
 40
0.1538461538461539
 40
0.1538461538461539
 40
0.1538461538461539
 40
0.2307692307692308
 40
0.2307692307692308
 40
0.2307692307692308
 40
0.2307692307692308
 40
0.3076923076923077
 40
0.3076923076923077
 40
0.3076923076923077
 40
0.3076923076923077
 40
0.3846153846153846
 40
0.3846153846153846
 40
0.3846153846153846
 40
0.3846153846153846
 40
0.4615384615384616
 40
0.4615384615384616
 40
0.4615384615384616
 40
0.4615384615384616
 40
0.5384615384615384
 40
0.5384615384615384
 40
0.5384615384615384
 40
0.5384615384615384
 40
0.6153846153846154
 40
0.6153846153846154
 40
0.6153846153846154
 40
0.6153846153846154
 40
0.6923076923076923
 40
0.6923076923076923
 40
0.6923076923076923
 40
0.6923076923076923
 40
0.7692307692307693
 40
0.7692307692307693
 40
0.7692307692307693
 40
0.7692307692307693
 40
0.8461538461538461
 40
0.8461538461538461
 40
0.8461538461538461
 40
0.8461538461538461
 40
1.0
 40
1.0
 40
1.0
 40
1.0
 10
-3.55502
 20
-8.58956
 30
0.0
 10
-3.55502
 20
-8.51802
 30
0.0
 10
-3.54768
 20
-8.46016
 30
0.0
 10
-3.53301
 20
-8.41642
 30
0.0
 10
-3.53301
 20
-8.41642
 30
0.0
 10
-3.51819
 20
-8.37253
 30
0.0
 10
-3.49632
 20
-8.33881
 30
0.0
 10
-3.46725
 20
-8.31524
 30
0.0
 10
-3.46725
 20
-8.31524
 30
0.0
 10
-3.43832
 20
-8.29168
 30
0.0
 10
-3.40177
 20
-8.27996
 30
0.0
 10
-3.35775
 20
-8.27996
 30
0.0
 10
-3.35775
 20
-8.27996
 30
0.0
 10
-3.32529
 20
-8.27996
 30
0.0
 10
-3.29679
 20
-8.28646
 30
0.0
 10
-3.27209
 20
-8.29958
 30
0.0
 10
-3.27209
 20
-8.29958
 30
0.0
 10
-3.24754
 20
-8.3127
 30
0.0
 10
-3.22722
 20
-8.33161
 30
0.0
 10
-3.21141
 20
-8.35631
 30
0.0
 10
-3.21141
 20
-8.35631
 30
0.0
 10
-3.19561
 20
-8.38086
 30
0.0
 10
-3.18319
 20
-8.41092
 30
0.0
 10
-3.17416
 20
-8.44633
 30
0.0
 10
-3.17416
 20
-8.44633
 30
0.0
 10
-3.16499
 20
-8.48175
 30
0.0
 10
-3.16047
 20
-8.52959
 30
0.0
 10
-3.16047
 20
-8.58956
 30
0.0
 10
-3.16047
 20
-8.58956
 30
0.0
 10
-3.16047
 20
-8.66068
 30
0.0
 10
-3.16781
 20
-8.71826
 30
0.0
 10
-3.18234
 20
-8.762
 30
0.0
 10
-3.18234
 20
-8.762
 30
0.0
 10
-3.19688
 20
-8.80589
 30
0.0
 10
-3.21875
 20
-8.83961
 30
0.0
 10
-3.24782
 20
-8.86332
 30
0.0
 10
-3.24782
 20
-8.86332
 30
0.0
 10
-3.27675
 20
-8.88703
 30
0.0
 10
-3.31344
 20
-8.89888
 30
0.0
 10
-3.35775
 20
-8.89888
 30
0.0
 10
-3.35775
 20
-8.89888
 30
0.0
 10
-3.41602
 20
-8.89888
 30
0.0
 10
-3.46189
 20
-8.87814
 30
0.0
 10
-3.49519
 20
-8.83651
 30
0.0
 10
-3.49519
 20
-8.83651
 30
0.0
 10
-3.53512
 20
-8.78571
 30
0.0
 10
-3.55502
 20
-8.70344
 30
0.0
 10
-3.55502
 20
-8.58956
 30
0.0
  0
SPLINE
  5
43
330
1F
100
AcDbEntity
  8
Layer 1
 62
   250
100
AcDbSpline
210
0.0
220
0.0
230
1.0
 70
    11
 71
     3
 72
    36
 73
    32
 74
     0
 42
0.0000000001
 43
0.0000000001
 12
1.0
 22
0.0
 32
0.0
 13
1.0
 23
0.0
 33
0.0
 40
0.0
 40
0.0
 40
0.0
 40
0.0
 40
0.1111111111111111
 40
0.1111111111111111
 40
0.1111111111111111
 40
0.1111111111111111
 40
0.2222222222222222
 40
0.2222222222222222
 40
0.2222222222222222
 40
0.2222222222222222
 40
0.3333333333333333
 40
0.3333333333333333
 40
0.3333333333333333
 40
0.3333333333333333
 40
0.4444444444444444
 40
0.4444444444444444
 40
0.4444444444444444
 40
0.4444444444444444
 40
0.5555555555555556
 40
0.5555555555555556
 40
0.5555555555555556
 40
0.5555555555555556
 40
0.6666666666666666
 40
0.6666666666666666
 40
0.6666666666666666
 40
0.6666666666666666
 40
0.7777777777777778
 40
0.7777777777777778
 40
0.7777777777777778
 40
0.7777777777777778
 40
1.0
 40
1.0
 40
1.0
 40
1.0
 10
-3.47882
 20
-8.58985
 30
0.0
 10
-3.47882
 20
-8.68961
 30
0.0
 10
-3.46725
 20
-8.75593
 30
0.0
 10
-3.44396
 20
-8.78867
 30
0.0
 10
-3.44396
 20
-8.78867
 30
0.0
 10
-3.42068
 20
-8.82155
 30
0.0
 10
-3.39189
 20
-8.83792
 30
0.0
 10
-3.35775
 20
-8.83792
 30
0.0
 10
-3.35775
 20
-8.83792
 30
0.0
 10
-3.3236
 20
-8.83792
 30
0.0
 10
-3.29481
 20
-8.82141
 30
0.0
 10
-3.27153
 20
-8.78853
 30
0.0
 10
-3.27153
 20
-8.78853
 30
0.0
 10
-3.24824
 20
-8.75551
 30
0.0
 10
-3.23667
 20
-8.68933
 30
0.0
 10
-3.23667
 20
-8.58985
 30
0.0
 10
-3.23667
 20
-8.58985
 30
0.0
 10
-3.23667
 20
-8.49008
 30
0.0
 10
-3.24824
 20
-8.42376
 30
0.0
 10
-3.27153
 20
-8.39102
 30
0.0
 10
-3.27153
 20
-8.39102
 30
0.0
 10
-3.29467
 20
-8.35814
 30
0.0
 10
-3.32374
 20
-8.34177
 30
0.0
 10
-3.35859
 20
-8.34177
 30
0.0
 10
-3.35859
 20
-8.34177
 30
0.0
 10
-3.39274
 20
-8.34177
 30
0.0
 10
-3.42012
 20
-8.35631
 30
0.0
 10
-3.44058
 20
-8.38523
 30
0.0
 10
-3.44058
 20
-8.38523
 30
0.0
 10
-3.46612
 20
-8.42206
 30
0.0
 10
-3.47882
 20
-8.49036
 30
0.0
 10
-3.47882
 20
-8.58985
 30
0.0
  0
SPLINE
  5
44
330
1F
100
AcDbEntity
  8
Layer 1
 62
   250
100
AcDbSpline
210
0.0
220
0.0
230
1.0
 70
    11
 71
     3
 72
    92
 73
    88
 74
     0
 42
0.0000000001
 43
0.0000000001
 12
1.0
 22
0.0
 32
0.0
 13
1.0
 23
0.0
 33
0.0
 40
0.0
 40
0.0
 40
0.0
 40
0.0
 40
0.0434782608695652
 40
0.0434782608695652
 40
0.0434782608695652
 40
0.0434782608695652
 40
0.0869565217391304
 40
0.0869565217391304
 40
0.0869565217391304
 40
0.0869565217391304
 40
0.1304347826086956
 40
0.1304347826086956
 40
0.1304347826086956
 40
0.1304347826086956
 40
0.1739130434782609
 40
0.1739130434782609
 40
0.1739130434782609
 40
0.1739130434782609
 40
0.2173913043478261
 40
0.2173913043478261
 40
0.2173913043478261
 40
0.2173913043478261
 40
0.2608695652173913
 40
0.2608695652173913
 40
0.2608695652173913
 40
0.2608695652173913
 40
0.3043478260869565
 40
0.3043478260869565
 40
0.3043478260869565
 40
0.3043478260869565
 40
0.3478260869565217
 40
0.3478260869565217
 40
0.3478260869565217
 40
0.3478260869565217
 40
0.391304347826087
 40
0.391304347826087
 40
0.391304347826087
 40
0.391304347826087
 40
0.4347826086956522
 40
0.4347826086956522
 40
0.4347826086956522
 40
0.4347826086956522
 40
0.4782608695652174
 40
0.4782608695652174
 40
0.4782608695652174
 40
0.4782608695652174
 40
0.5217391304347826
 40
0.5217391304347826
 40
0.5217391304347826
 40
0.5217391304347826
 40
0.5652173913043478
 40
0.5652173913043478
 40
0.5652173913043478
 40
0.5652173913043478
 40
0.6086956521739131
 40
0.6086956521739131
 40
0.6086956521739131
 40
0.6086956521739131
 40
0.6521739130434783
 40
0.6521739130434783
 40
0.6521739130434783
 40
0.6521739130434783
 40
0.6956521739130435
 40
0.6956521739130435
 40
0.6956521739130435
 40
0.6956521739130435
 40
0.7391304347826086
 40
0.7391304347826086
 40
0.7391304347826086
 40
0.7391304347826086
 40
0.782608695652174
 40
0.782608695652174
 40
0.782608695652174
 40
0.782608695652174
 40
0.8260869565217391
 40
0.8260869565217391
 40
0.8260869565217391
 40
0.8260869565217391
 40
0.8695652173913043
 40
0.8695652173913043
 40
0.8695652173913043
 40
0.8695652173913043
 40
0.9130434782608695
 40
0.9130434782608695
 40
0.9130434782608695
 40
0.9130434782608695
 40
1.0
 40
1.0
 40
1.0
 40
1.0
 10
-2.69381
 20
-8.8176
 30
0.0
 10
-2.69381
 20
-8.8176
 30
0.0
 10
-2.69381
 20
-8.88872
 30
0.0
 10
-2.69381
 20
-8.88872
 30
0.0
 10
-2.69381
 20
-8.88872
 30
0.0
 10
-2.69381
 20
-8.88872
 30
0.0
 10
-3.09514
 20
-8.88872
 30
0.0
 10
-3.09514
 20
-8.88872
 30
0.0
 10
-3.09514
 20
-8.88872
 30
0.0
 10
-3.0957
 20
-8.8708
 30
0.0
 10
-3.09274
 20
-8.85358
 30
0.0
 10
-3.08639
 20
-8.83693
 30
0.0
 10
-3.08639
 20
-8.83693
 30
0.0
 10
-3.07609
 20
-8.8097
 30
0.0
 10
-3.05958
 20
-8.78275
 30
0.0
 10
-3.03686
 20
-8.75636
 30
0.0
 10
-3.03686
 20
-8.75636
 30
0.0
 10
-3.01414
 20
-8.72997
 30
0.0
 10
-2.98168
 20
-8.69949
 30
0.0
 10
-2.93949
 20
-8.66492
 30
0.0
 10
-2.93949
 20
-8.66492
 30
0.0
 10
-2.87387
 20
-8.61087
 30
0.0
 10
-2.82928
 20
-8.56811
 30
0.0
 10
-2.806
 20
-8.53651
 30
0.0
 10
-2.806
 20
-8.53651
 30
0.0
 10
-2.78257
 20
-8.5049
 30
0.0
 10
-2.77086
 20
-8.47498
 30
0.0
 10
-2.77086
 20
-8.44676
 30
0.0
 10
-2.77086
 20
-8.44676
 30
0.0
 10
-2.77086
 20
-8.41727
 30
0.0
 10
-2.78145
 20
-8.39243
 30
0.0
 10
-2.80261
 20
-8.37211
 30
0.0
 10
-2.80261
 20
-8.37211
 30
0.0
 10
-2.82378
 20
-8.35193
 30
0.0
 10
-2.85144
 20
-8.34177
 30
0.0
 10
-2.88544
 20
-8.34177
 30
0.0
 10
-2.88544
 20
-8.34177
 30
0.0
 10
-2.92143
 20
-8.34177
 30
0.0
 10
-2.95021
 20
-8.3525
 30
0.0
 10
-2.9718
 20
-8.37394
 30
0.0
 10
-2.9718
 20
-8.37394
 30
0.0
 10
-2.9934
 20
-8.39525
 30
0.0
 10
-3.00426
 20
-8.42489
 30
0.0
 10
-3.00454
 20
-8.46284
 30
0.0
 10
-3.00454
 20
-8.46284
 30
0.0
 10
-3.00454
 20
-8.46284
 30
0.0
 10
-3.08074
 20
-8.45522
 30
0.0
 10
-3.08074
 20
-8.45522
 30
0.0
 10
-3.08074
 20
-8.45522
 30
0.0
 10
-3.07552
 20
-8.39822
 30
0.0
 10
-3.05577
 20
-8.35475
 30
0.0
 10
-3.02162
 20
-8.32484
 30
0.0
 10
-3.02162
 20
-8.32484
 30
0.0
 10
-2.98733
 20
-8.29492
 30
0.0
 10
-2.94147
 20
-8.27996
 30
0.0
 10
-2.88375
 20
-8.27996
 30
0.0
 10
-2.88375
 20
-8.27996
 30
0.0
 10
-2.82561
 20
-8.27996
 30
0.0
 10
-2.77947
 20
-8.29605
 30
0.0
 10
-2.7456
 20
-8.32837
 30
0.0
 10
-2.7456
 20
-8.32837
 30
0.0
 10
-2.7116
 20
-8.36068
 30
0.0
 10
-2.69466
 20
-8.40076
 30
0.0
 10
-2.69466
 20
-8.44845
 30
0.0
 10
-2.69466
 20
-8.44845
 30
0.0
 10
-2.69466
 20
-8.47272
 30
0.0
 10
-2.6996
 20
-8.49657
 30
0.0
 10
-2.70962
 20
-8.52
 30
0.0
 10
-2.70962
 20
-8.52
 30
0.0
 10
-2.7195
 20
-8.54356
 30
0.0
 10
-2.73601
 20
-8.56826
 30
0.0
 10
-2.75901
 20
-8.59422
 30
0.0
 10
-2.75901
 20
-8.59422
 30
0.0
 10
-2.78215
 20
-8.62004
 30
0.0
 10
-2.82039
 20
-8.65574
 30
0.0
 10
-2.87373
 20
-8.7009
 30
0.0
 10
-2.87373
 20
-8.7009
 30
0.0
 10
-2.91846
 20
-8.73844
 30
0.0
 10
-2.94725
 20
-8.76384
 30
0.0
 10
-2.95995
 20
-8.77724
 30
0.0
 10
-2.95995
 20
-8.77724
 30
0.0
 10
-2.97265
 20
-8.79065
 30
0.0
 10
-2.98309
 20
-8.80405
 30
0.0
 10
-2.99142
 20
-8.8176
 30
0.0
 10
-2.99142
 20
-8.8176
 30
0.0
 10
-2.99142
 20
-8.8176
 30
0.0
 10
-2.69381
 20
-8.8176
 30
0.0
 10
-2.69381
 20
-8.8176
 30
0.0
  0
SPLINE
  5
45
330
1F
100
AcDbEntity
  8
Layer 1
 62
   250
100
AcDbSpline
210
0.0
220
0.0
230
1.0
 70
    11
 71
     3
 72
    92
 73
    88
 74
     0
 42
0.0000000001
 43
0.0000000001
 12
1.0
 22
0.0
 32
0.0
 13
1.0
 23
0.0
 33
0.0
 40
0.0
 40
0.0
 40
0.0
 40
0.0
 40
0.0434782608695652
 40
0.0434782608695652
 40
0.0434782608695652
 40
0.0434782608695652
 40
0.0869565217391304
 40
0.0869565217391304
 40
0.0869565217391304
 40
0.0869565217391304
 40
0.1304347826086956
 40
0.1304347826086956
 40
0.1304347826086956
 40
0.1304347826086956
 40
0.1739130434782609
 40
0.1739130434782609
 40
0.1739130434782609
 40
0.1739130434782609
 40
0.2173913043478261
 40
0.2173913043478261
 40
0.2173913043478261
 40
0.2173913043478261
 40
0.2608695652173913
 40
0.2608695652173913
 40
0.2608695652173913
 40
0.2608695652173913
 40
0.3043478260869565
 40
0.3043478260869565
 40
0.3043478260869565
 40
0.3043478260869565
 40
0.3478260869565217
 40
0.3478260869565217
 40
0.3478260869565217
 40
0.3478260869565217
 40
0.391304347826087
 40
0.391304347826087
 40
0.391304347826087
 40
0.391304347826087
 40
0.4347826086956522
 40
0.4347826086956522
 40
0.4347826086956522
 40
0.4347826086956522
 40
0.4782608695652174
 40
0.4782608695652174
 40
0.4782608695652174
 40
0.4782608695652174
 40
0.5217391304347826
 40
0.5217391304347826
 40
0.5217391304347826
 40
0.5217391304347826
 40
0.5652173913043478
 40
0.5652173913043478
 40
0.5652173913043478
 40
0.5652173913043478
 40
0.6086956521739131
 40
0.6086956521739131
 40
0.6086956521739131
 40
0.6086956521739131
 40
0.6521739130434783
 40
0.6521739130434783
 40
0.6521739130434783
 40
0.6521739130434783
 40
0.6956521739130435
 40
0.6956521739130435
 40
0.6956521739130435
 40
0.6956521739130435
 40
0.7391304347826086
 40
0.7391304347826086
 40
0.7391304347826086
 40
0.7391304347826086
 40
0.782608695652174
 40
0.782608695652174
 40
0.782608695652174
 40
0.782608695652174
 40
0.8260869565217391
 40
0.8260869565217391
 40
0.8260869565217391
 40
0.8260869565217391
 40
0.8695652173913043
 40
0.8695652173913043
 40
0.8695652173913043
 40
0.8695652173913043
 40
0.9130434782608695
 40
0.9130434782608695
 40
0.9130434782608695
 40
0.9130434782608695
 40
1.0
 40
1.0
 40
1.0
 40
1.0
 10
-2.22292
 20
-8.8176
 30
0.0
 10
-2.22292
 20
-8.8176
 30
0.0
 10
-2.22292
 20
-8.88872
 30
0.0
 10
-2.22292
 20
-8.88872
 30
0.0
 10
-2.22292
 20
-8.88872
 30
0.0
 10
-2.22292
 20
-8.88872
 30
0.0
 10
-2.62425
 20
-8.88872
 30
0.0
 10
-2.62425
 20
-8.88872
 30
0.0
 10
-2.62425
 20
-8.88872
 30
0.0
 10
-2.62481
 20
-8.8708
 30
0.0
 10
-2.62185
 20
-8.85358
 30
0.0
 10
-2.6155
 20
-8.83693
 30
0.0
 10
-2.6155
 20
-8.83693
 30
0.0
 10
-2.6052
 20
-8.8097
 30
0.0
 10
-2.58869
 20
-8.78275
 30
0.0
 10
-2.56597
 20
-8.75636
 30
0.0
 10
-2.56597
 20
-8.75636
 30
0.0
 10
-2.54325
 20
-8.72997
 30
0.0
 10
-2.51079
 20
-8.69949
 30
0.0
 10
-2.4686
 20
-8.66492
 30
0.0
 10
-2.4686
 20
-8.66492
 30
0.0
 10
-2.40298
 20
-8.61087
 30
0.0
 10
-2.35839
 20
-8.56811
 30
0.0
 10
-2.33511
 20
-8.53651
 30
0.0
 10
-2.33511
 20
-8.53651
 30
0.0
 10
-2.31168
 20
-8.5049
 30
0.0
 10
-2.29997
 20
-8.47498
 30
0.0
 10
-2.29997
 20
-8.44676
 30
0.0
 10
-2.29997
 20
-8.44676
 30
0.0
 10
-2.29997
 20
-8.41727
 30
0.0
 10
-2.31056
 20
-8.39243
 30
0.0
 10
-2.33172
 20
-8.37211
 30
0.0
 10
-2.33172
 20
-8.37211
 30
0.0
 10
-2.35289
 20
-8.35193
 30
0.0
 10
-2.38055
 20
-8.34177
 30
0.0
 10
-2.41455
 20
-8.34177
 30
0.0
 10
-2.41455
 20
-8.34177
 30
0.0
 10
-2.45054
 20
-8.34177
 30
0.0
 10
-2.47932
 20
-8.3525
 30
0.0
 10
-2.50091
 20
-8.37394
 30
0.0
 10
-2.50091
 20
-8.37394
 30
0.0
 10
-2.52251
 20
-8.39525
 30
0.0
 10
-2.53337
 20
-8.42489
 30
0.0
 10
-2.53365
 20
-8.46284
 30
0.0
 10
-2.53365
 20
-8.46284
 30
0.0
 10
-2.53365
 20
-8.46284
 30
0.0
 10
-2.60985
 20
-8.45522
 30
0.0
 10
-2.60985
 20
-8.45522
 30
0.0
 10
-2.60985
 20
-8.45522
 30
0.0
 10
-2.60463
 20
-8.39822
 30
0.0
 10
-2.58488
 20
-8.35475
 30
0.0
 10
-2.55073
 20
-8.32484
 30
0.0
 10
-2.55073
 20
-8.32484
 30
0.0
 10
-2.51644
 20
-8.29492
 30
0.0
 10
-2.47058
 20
-8.27996
 30
0.0
 10
-2.41286
 20
-8.27996
 30
0.0
 10
-2.41286
 20
-8.27996
 30
0.0
 10
-2.35472
 20
-8.27996
 30
0.0
 10
-2.30858
 20
-8.29605
 30
0.0
 10
-2.27471
 20
-8.32837
 30
0.0
 10
-2.27471
 20
-8.32837
 30
0.0
 10
-2.24071
 20
-8.36068
 30
0.0
 10
-2.22377
 20
-8.40076
 30
0.0
 10
-2.22377
 20
-8.44845
 30
0.0
 10
-2.22377
 20
-8.44845
 30
0.0
 10
-2.22377
 20
-8.47272
 30
0.0
 10
-2.22871
 20
-8.49657
 30
0.0
 10
-2.23873
 20
-8.52
 30
0.0
 10
-2.23873
 20
-8.52
 30
0.0
 10
-2.24861
 20
-8.54356
 30
0.0
 10
-2.26512
 20
-8.56826
 30
0.0
 10
-2.28812
 20
-8.59422
 30
0.0
 10
-2.28812
 20
-8.59422
 30
0.0
 10
-2.31126
 20
-8.62004
 30
0.0
 10
-2.3495
 20
-8.65574
 30
0.0
 10
-2.40284
 20
-8.7009
 30
0.0
 10
-2.40284
 20
-8.7009
 30
0.0
 10
-2.44757
 20
-8.73844
 30
0.0
 10
-2.47636
 20
-8.76384
 30
0.0
 10
-2.48906
 20
-8.77724
 30
0.0
 10
-2.48906
 20
-8.77724
 30
0.0
 10
-2.50176
 20
-8.79065
 30
0.0
 10
-2.5122
 20
-8.80405
 30
0.0
 10
-2.52053
 20
-8.8176
 30
0.0
 10
-2.52053
 20
-8.8176
 30
0.0
 10
-2.52053
 20
-8.8176
 30
0.0
 10
-2.22292
 20
-8.8176
 30
0.0
 10
-2.22292
 20
-8.8176
 30
0.0
  0
SPLINE
  5
46
330
1F
100
AcDbEntity
  8
Layer 1
 62
   250
100
AcDbSpline
210
0.0
220
0.0
230
1.0
 70
    11
 71
     3
 72
    40
 73
    36
 74
     0
 42
0.0000000001
 43
0.0000000001
 12
1.0
 22
0.0
 32
0.0
 13
1.0
 23
0.0
 33
0.0
 40
0.0
 40
0.0
 40
0.0
 40
0.0
 40
0.1
 40
0.1
 40
0.1
 40
0.1
 40
0.2
 40
0.2
 40
0.2
 40
0.2
 40
0.3
 40
0.3
 40
0.3
 40
0.3
 40
0.4
 40
0.4
 40
0.4
 40
0.4
 40
0.5
 40
0.5
 40
0.5
 40
0.5
 40
0.6
 40
0.6
 40
0.6
 40
0.6
 40
0.7
 40
0.7
 40
0.7
 40
0.7
 40
0.8
 40
0.8
 40
0.8
 40
0.8
 40
1.0
 40
1.0
 40
1.0
 40
1.0
 10
-1.86295
 20
-8.88872
 30
0.0
 10
-1.86295
 20
-8.88872
 30
0.0
 10
-1.93746
 20
-8.88872
 30
0.0
 10
-1.93746
 20
-8.88872
 30
0.0
 10
-1.93746
 20
-8.88872
 30
0.0
 10
-1.93746
 20
-8.88872
 30
0.0
 10
-1.93746
 20
-8.4143
 30
0.0
 10
-1.93746
 20
-8.4143
 30
0.0
 10
-1.93746
 20
-8.4143
 30
0.0
 10
-1.95538
 20
-8.43152
 30
0.0
 10
-1.97894
 20
-8.44859
 30
0.0
 10
-2.00801
 20
-8.46567
 30
0.0
 10
-2.00801
 20
-8.46567
 30
0.0
 10
-2.03708
 20
-8.48274
 30
0.0
 10
-2.06333
 20
-8.49558
 30
0.0
 10
-2.08647
 20
-8.50405
 30
0.0
 10
-2.08647
 20
-8.50405
 30
0.0
 10
-2.08647
 20
-8.50405
 30
0.0
 10
-2.08647
 20
-8.43208
 30
0.0
 10
-2.08647
 20
-8.43208
 30
0.0
 10
-2.08647
 20
-8.43208
 30
0.0
 10
-2.04484
 20
-8.41261
 30
0.0
 10
-2.00843
 20
-8.3889
 30
0.0
 10
-1.97725
 20
-8.36096
 30
0.0
 10
-1.97725
 20
-8.36096
 30
0.0
 10
-1.94606
 20
-8.33316
 30
0.0
 10
-1.92391
 20
-8.30621
 30
0.0
 10
-1.91093
 20
-8.27996
 30
0.0
 10
-1.91093
 20
-8.27996
 30
0.0
 10
-1.91093
 20
-8.27996
 30
0.0
 10
-1.86295
 20
-8.27996
 30
0.0
 10
-1.86295
 20
-8.27996
 30
0.0
 10
-1.86295
 20
-8.27996
 30
0.0
 10
-1.86295
 20
-8.27996
 30
0.0
 10
-1.86295
 20
-8.88872
 30
0.0
 10
-1.86295
 20
-8.88872
 30
0.0
  0
SPLINE
  5
47
330
1F
100
AcDbEntity
  8
Layer 1
 62
   250
100
AcDbSpline
210
0.0
220
0.0
230
1.0
 70
    11
 71
     3
 72
    68
 73
    64
 74
     0
 42
0.0000000001
 43
0.0000000001
 12
1.0
 22
0.0
 32
0.0
 13
1.0
 23
0.0
 33
0.0
 40
0.0
 40
0.0
 40
0.0
 40
0.0
 40
0.0588235294117647
 40
0.0588235294117647
 40
0.0588235294117647
 40
0.0588235294117647
 40
0.1176470588235294
 40
0.1176470588235294
 40
0.1176470588235294
 40
0.1176470588235294
 40
0.1764705882352941
 40
0.1764705882352941
 40
0.1764705882352941
 40
0.1764705882352941
 40
0.2352941176470588
 40
0.2352941176470588
 40
0.2352941176470588
 40
0.2352941176470588
 40
0.2941176470588235
 40
0.2941176470588235
 40
0.2941176470588235
 40
0.2941176470588235
 40
0.3529411764705883
 40
0.3529411764705883
 40
0.3529411764705883
 40
0.3529411764705883
 40
0.4117647058823529
 40
0.4117647058823529
 40
0.4117647058823529
 40
0.4117647058823529
 40
0.4705882352941176
 40
0.4705882352941176
 40
0.4705882352941176
 40
0.4705882352941176
 40
0.5294117647058824
 40
0.5294117647058824
 40
0.5294117647058824
 40
0.5294117647058824
 40
0.5882352941176471
 40
0.5882352941176471
 40
0.5882352941176471
 40
0.5882352941176471
 40
0.6470588235294118
 40
0.6470588235294118
 40
0.6470588235294118
 40
0.6470588235294118
 40
0.7058823529411765
 40
0.7058823529411765
 40
0.7058823529411765
 40
0.7058823529411765
 40
0.7647058823529411
 40
0.7647058823529411
 40
0.7647058823529411
 40
0.7647058823529411
 40
0.8235294117647058
 40
0.8235294117647058
 40
0.8235294117647058
 40
0.8235294117647058
 40
0.8823529411764706
 40
0.8823529411764706
 40
0.8823529411764706
 40
0.8823529411764706
 40
1.0
 40
1.0
 40
1.0
 40
1.0
 10
-1.55674
 20
-8.56007
 30
0.0
 10
-1.58764
 20
-8.54878
 30
0.0
 10
-1.6105
 20
-8.53255
 30
0.0
 10
-1.62546
 20
-8.51167
 30
0.0
 10
-1.62546
 20
-8.51167
 30
0.0
 10
-1.64027
 20
-8.49064
 30
0.0
 10
-1.64775
 20
-8.46553
 30
0.0
 10
-1.64775
 20
-8.43632
 30
0.0
 10
-1.64775
 20
-8.43632
 30
0.0
 10
-1.64775
 20
-8.39215
 30
0.0
 10
-1.63195
 20
-8.35518
 30
0.0
 10
-1.60034
 20
-8.32512
 30
0.0
 10
-1.60034
 20
-8.32512
 30
0.0
 10
-1.56859
 20
-8.29506
 30
0.0
 10
-1.52654
 20
-8.27996
 30
0.0
 10
-1.4739
 20
-8.27996
 30
0.0
 10
-1.4739
 20
-8.27996
 30
0.0
 10
-1.42113
 20
-8.27996
 30
0.0
 10
-1.37851
 20
-8.29535
 30
0.0
 10
-1.34634
 20
-8.32611
 30
0.0
 10
-1.34634
 20
-8.32611
 30
0.0
 10
-1.31417
 20
-8.35687
 30
0.0
 10
-1.29808
 20
-8.39426
 30
0.0
 10
-1.29808
 20
-8.43843
 30
0.0
 10
-1.29808
 20
-8.43843
 30
0.0
 10
-1.29808
 20
-8.46651
 30
0.0
 10
-1.30542
 20
-8.49107
 30
0.0
 10
-1.32009
 20
-8.51181
 30
0.0
 10
-1.32009
 20
-8.51181
 30
0.0
 10
-1.33477
 20
-8.5327
 30
0.0
 10
-1.35706
 20
-8.54878
 30
0.0
 10
-1.38712
 20
-8.56007
 30
0.0
 10
-1.38712
 20
-8.56007
 30
0.0
 10
-1.35001
 20
-8.57221
 30
0.0
 10
-1.32193
 20
-8.59168
 30
0.0
 10
-1.30259
 20
-8.61877
 30
0.0
 10
-1.30259
 20
-8.61877
 30
0.0
 10
-1.28326
 20
-8.64573
 30
0.0
 10
-1.27352
 20
-8.6779
 30
0.0
 10
-1.27352
 20
-8.71543
 30
0.0
 10
-1.27352
 20
-8.71543
 30
0.0
 10
-1.27352
 20
-8.76722
 30
0.0
 10
-1.29187
 20
-8.81069
 30
0.0
 10
-1.32842
 20
-8.84596
 30
0.0
 10
-1.32842
 20
-8.84596
 30
0.0
 10
-1.36511
 20
-8.88124
 30
0.0
 10
-1.41323
 20
-8.89888
 30
0.0
 10
-1.47292
 20
-8.89888
 30
0.0
 10
-1.47292
 20
-8.89888
 30
0.0
 10
-1.53261
 20
-8.89888
 30
0.0
 10
-1.58073
 20
-8.88124
 30
0.0
 10
-1.61741
 20
-8.84582
 30
0.0
 10
-1.61741
 20
-8.84582
 30
0.0
 10
-1.65396
 20
-8.8104
 30
0.0
 10
-1.67231
 20
-8.76624
 30
0.0
 10
-1.67231
 20
-8.71332
 30
0.0
 10
-1.67231
 20
-8.71332
 30
0.0
 10
-1.67231
 20
-8.67395
 30
0.0
 10
-1.66229
 20
-8.64093
 30
0.0
 10
-1.64225
 20
-8.6144
 30
0.0
 10
-1.64225
 20
-8.6144
 30
0.0
 10
-1.62221
 20
-8.58773
 30
0.0
 10
-1.59371
 20
-8.56967
 30
0.0
 10
-1.55674
 20
-8.56007
 30
0.0
  0
SPLINE
  5
48
330
1F
100
AcDbEntity
  8
Layer 1
 62
   250
100
AcDbSpline
210
0.0
220
0.0
230
1.0
 70
    11
 71
     3
 72
    36
 73
    32
 74
     0
 42
0.0000000001
 43
0.0000000001
 12
1.0
 22
0.0
 32
0.0
 13
1.0
 23
0.0
 33
0.0
 40
0.0
 40
0.0
 40
0.0
 40
0.0
 40
0.1111111111111111
 40
0.1111111111111111
 40
0.1111111111111111
 40
0.1111111111111111
 40
0.2222222222222222
 40
0.2222222222222222
 40
0.2222222222222222
 40
0.2222222222222222
 40
0.3333333333333333
 40
0.3333333333333333
 40
0.3333333333333333
 40
0.3333333333333333
 40
0.4444444444444444
 40
0.4444444444444444
 40
0.4444444444444444
 40
0.4444444444444444
 40
0.5555555555555556
 40
0.5555555555555556
 40
0.5555555555555556
 40
0.5555555555555556
 40
0.6666666666666666
 40
0.6666666666666666
 40
0.6666666666666666
 40
0.6666666666666666
 40
0.7777777777777778
 40
0.7777777777777778
 40
0.7777777777777778
 40
0.7777777777777778
 40
1.0
 40
1.0
 40
1.0
 40
1.0
 10
-1.57155
 20
-8.43363
 30
0.0
 10
-1.57155
 20
-8.46242
 30
0.0
 10
-1.56238
 20
-8.48585
 30
0.0
 10
-1.54418
 20
-8.50405
 30
0.0
 10
-1.54418
 20
-8.50405
 30
0.0
 10
-1.52583
 20
-8.52225
 30
0.0
 10
-1.50184
 20
-8.53143
 30
0.0
 10
-1.47207
 20
-8.53143
 30
0.0
 10
-1.47207
 20
-8.53143
 30
0.0
 10
-1.44314
 20
-8.53143
 30
0.0
 10
-1.41972
 20
-8.52239
 30
0.0
 10
-1.40151
 20
-8.50433
 30
0.0
 10
-1.40151
 20
-8.50433
 30
0.0
 10
-1.38331
 20
-8.48627
 30
0.0
 10
-1.37428
 20
-8.46411
 30
0.0
 10
-1.37428
 20
-8.43787
 30
0.0
 10
-1.37428
 20
-8.43787
 30
0.0
 10
-1.37428
 20
-8.41049
 30
0.0
 10
-1.38359
 20
-8.38749
 30
0.0
 10
-1.40236
 20
-8.36886
 30
0.0
 10
-1.40236
 20
-8.36886
 30
0.0
 10
-1.42099
 20
-8.35024
 30
0.0
 10
-1.44455
 20
-8.34092
 30
0.0
 10
-1.47292
 20
-8.34092
 30
0.0
 10
-1.47292
 20
-8.34092
 30
0.0
 10
-1.50156
 20
-8.34092
 30
0.0
 10
-1.52513
 20
-8.3501
 30
0.0
 10
-1.54375
 20
-8.3683
 30
0.0
 10
-1.54375
 20
-8.3683
 30
0.0
 10
-1.56224
 20
-8.3865
 30
0.0
 10
-1.57155
 20
-8.40823
 30
0.0
 10
-1.57155
 20
-8.43363
 30
0.0
  0
SPLINE
  5
49
330
1F
100
AcDbEntity
  8
Layer 1
 62
   250
100
AcDbSpline
210
0.0
220
0.0
230
1.0
 70
    11
 71
     3
 72
    40
 73
    36
 74
     0
 42
0.0000000001
 43
0.0000000001
 12
1.0
 22
0.0
 32
0.0
 13
1.0
 23
0.0
 33
0.0
 40
0.0
 40
0.0
 40
0.0
 40
0.0
 40
0.1
 40
0.1
 40
0.1
 40
0.1
 40
0.2
 40
0.2
 40
0.2
 40
0.2
 40
0.3
 40
0.3
 40
0.3
 40
0.3
 40
0.4
 40
0.4
 40
0.4
 40
0.4
 40
0.5
 40
0.5
 40
0.5
 40
0.5
 40
0.6
 40
0.6
 40
0.6
 40
0.6
 40
0.7
 40
0.7
 40
0.7
 40
0.7
 40
0.8
 40
0.8
 40
0.8
 40
0.8
 40
1.0
 40
1.0
 40
1.0
 40
1.0
 10
-1.59611
 20
-8.71388
 30
0.0
 10
-1.59611
 20
-8.73519
 30
0.0
 10
-1.59117
 20
-8.75565
 30
0.0
 10
-1.58129
 20
-8.77555
 30
0.0
 10
-1.58129
 20
-8.77555
 30
0.0
 10
-1.57141
 20
-8.7953
 30
0.0
 10
-1.55645
 20
-8.81069
 30
0.0
 10
-1.53642
 20
-8.82155
 30
0.0
 10
-1.53642
 20
-8.82155
 30
0.0
 10
-1.51652
 20
-8.83242
 30
0.0
 10
-1.49507
 20
-8.83792
 30
0.0
 10
-1.47235
 20
-8.83792
 30
0.0
 10
-1.47235
 20
-8.83792
 30
0.0
 10
-1.43651
 20
-8.83792
 30
0.0
 10
-1.40716
 20
-8.82649
 30
0.0
 10
-1.38416
 20
-8.80363
 30
0.0
 10
-1.38416
 20
-8.80363
 30
0.0
 10
-1.36116
 20
-8.78077
 30
0.0
 10
-1.34973
 20
-8.7517
 30
0.0
 10
-1.34973
 20
-8.71642
 30
0.0
 10
-1.34973
 20
-8.71642
 30
0.0
 10
-1.34973
 20
-8.68058
 30
0.0
 10
-1.36158
 20
-8.65095
 30
0.0
 10
-1.38514
 20
-8.62752
 30
0.0
 10
-1.38514
 20
-8.62752
 30
0.0
 10
-1.40885
 20
-8.6041
 30
0.0
 10
-1.43877
 20
-8.59239
 30
0.0
 10
-1.47475
 20
-8.59239
 30
0.0
 10
-1.47475
 20
-8.59239
 30
0.0
 10
-1.51003
 20
-8.59239
 30
0.0
 10
-1.53896
 20
-8.60396
 30
0.0
 10
-1.56182
 20
-8.6271
 30
0.0
 10
-1.56182
 20
-8.6271
 30
0.0
 10
-1.58468
 20
-8.65024
 30
0.0
 10
-1.59611
 20
-8.67917
 30
0.0
 10
-1.59611
 20
-8.71388
 30
0.0
  0
SPLINE
  5
4A
330
1F
100
AcDbEntity
  8
Layer 1
 62
   250
100
AcDbSpline
210
0.0
220
0.0
230
1.0
 70
    11
 71
     3
 72
    36
 73
    32
 74
     0
 42
0.0000000001
 43
0.0000000001
 12
1.0
 22
0.0
 32
0.0
 13
1.0
 23
0.0
 33
0.0
 40
0.0
 40
0.0
 40
0.0
 40
0.0
 40
0.1111111111111111
 40
0.1111111111111111
 40
0.1111111111111111
 40
0.1111111111111111
 40
0.2222222222222222
 40
0.2222222222222222
 40
0.2222222222222222
 40
0.2222222222222222
 40
0.3333333333333333
 40
0.3333333333333333
 40
0.3333333333333333
 40
0.3333333333333333
 40
0.4444444444444444
 40
0.4444444444444444
 40
0.4444444444444444
 40
0.4444444444444444
 40
0.5555555555555556
 40
0.5555555555555556
 40
0.5555555555555556
 40
0.5555555555555556
 40
0.6666666666666666
 40
0.6666666666666666
 40
0.6666666666666666
 40
0.6666666666666666
 40
0.7777777777777778
 40
0.7777777777777778
 40
0.7777777777777778
 40
0.7777777777777778
 40
1.0
 40
1.0
 40
1.0
 40
1.0
 10
-0.79685
 20
-8.88872
 30
0.0
 10
-0.79685
 20
-8.88872
 30
0.0
 10
-0.79685
 20
-8.35362
 30
0.0
 10
-0.79685
 20
-8.35362
 30
0.0
 10
-0.79685
 20
-8.35362
 30
0.0
 10
-0.79685
 20
-8.35362
 30
0.0
 10
-0.99667
 20
-8.35362
 30
0.0
 10
-0.99667
 20
-8.35362
 30
0.0
 10
-0.99667
 20
-8.35362
 30
0.0
 10
-0.99667
 20
-8.35362
 30
0.0
 10
-0.99667
 20
-8.2825
 30
0.0
 10
-0.99667
 20
-8.2825
 30
0.0
 10
-0.99667
 20
-8.2825
 30
0.0
 10
-0.99667
 20
-8.2825
 30
0.0
 10
-0.5166
 20
-8.2825
 30
0.0
 10
-0.5166
 20
-8.2825
 30
0.0
 10
-0.5166
 20
-8.2825
 30
0.0
 10
-0.5166
 20
-8.2825
 30
0.0
 10
-0.5166
 20
-8.35362
 30
0.0
 10
-0.5166
 20
-8.35362
 30
0.0
 10
-0.5166
 20
-8.35362
 30
0.0
 10
-0.5166
 20
-8.35362
 30
0.0
 10
-0.71642
 20
-8.35362
 30
0.0
 10
-0.71642
 20
-8.35362
 30
0.0
 10
-0.71642
 20
-8.35362
 30
0.0
 10
-0.71642
 20
-8.35362
 30
0.0
 10
-0.71642
 20
-8.88872
 30
0.0
 10
-0.71642
 20
-8.88872
 30
0.0
 10
-0.71642
 20
-8.88872
 30
0.0
 10
-0.71642
 20
-8.88872
 30
0.0
 10
-0.79685
 20
-8.88872
 30
0.0
 10
-0.79685
 20
-8.88872
 30
0.0
  0
SPLINE
  5
4B
330
1F
100
AcDbEntity
  8
Layer 1
 62
   250
100
AcDbSpline
210
0.0
220
0.0
230
1.0
 70
    11
 71
     3
 72
    52
 73
    48
 74
     0
 42
0.0000000001
 43
0.0000000001
 12
1.0
 22
0.0
 32
0.0
 13
1.0
 23
0.0
 33
0.0
 40
0.0
 40
0.0
 40
0.0
 40
0.0
 40
0.0769230769230769
 40
0.0769230769230769
 40
0.0769230769230769
 40
0.0769230769230769
 40
0.1538461538461539
 40
0.1538461538461539
 40
0.1538461538461539
 40
0.1538461538461539
 40
0.2307692307692308
 40
0.2307692307692308
 40
0.2307692307692308
 40
0.2307692307692308
 40
0.3076923076923077
 40
0.3076923076923077
 40
0.3076923076923077
 40
0.3076923076923077
 40
0.3846153846153846
 40
0.3846153846153846
 40
0.3846153846153846
 40
0.3846153846153846
 40
0.4615384615384616
 40
0.4615384615384616
 40
0.4615384615384616
 40
0.4615384615384616
 40
0.5384615384615384
 40
0.5384615384615384
 40
0.5384615384615384
 40
0.5384615384615384
 40
0.6153846153846154
 40
0.6153846153846154
 40
0.6153846153846154
 40
0.6153846153846154
 40
0.6923076923076923
 40
0.6923076923076923
 40
0.6923076923076923
 40
0.6923076923076923
 40
0.7692307692307693
 40
0.7692307692307693
 40
0.7692307692307693
 40
0.7692307692307693
 40
0.8461538461538461
 40
0.8461538461538461
 40
0.8461538461538461
 40
0.8461538461538461
 40
1.0
 40
1.0
 40
1.0
 40
1.0
 10
-0.43208
 20
-8.88872
 30
0.0
 10
-0.43208
 20
-8.88872
 30
0.0
 10
-0.43208
 20
-8.2825
 30
0.0
 10
-0.43208
 20
-8.2825
 30
0.0
 10
-0.43208
 20
-8.2825
 30
0.0
 10
-0.43208
 20
-8.2825
 30
0.0
 10
0.00565
 20
-8.2825
 30
0.0
 10
0.00565
 20
-8.2825
 30
0.0
 10
0.00565
 20
-8.2825
 30
0.0
 10
0.00565
 20
-8.2825
 30
0.0
 10
0.00565
 20
-8.35362
 30
0.0
 10
0.00565
 20
-8.35362
 30
0.0
 10
0.00565
 20
-8.35362
 30
0.0
 10
0.00565
 20
-8.35362
 30
0.0
 10
-0.35165
 20
-8.35362
 30
0.0
 10
-0.35165
 20
-8.35362
 30
0.0
 10
-0.35165
 20
-8.35362
 30
0.0
 10
-0.35165
 20
-8.35362
 30
0.0
 10
-0.35165
 20
-8.53989
 30
0.0
 10
-0.35165
 20
-8.53989
 30
0.0
 10
-0.35165
 20
-8.53989
 30
0.0
 10
-0.35165
 20
-8.53989
 30
0.0
 10
-0.01721
 20
-8.53989
 30
0.0
 10
-0.01721
 20
-8.53989
 30
0.0
 10
-0.01721
 20
-8.53989
 30
0.0
 10
-0.01721
 20
-8.53989
 30
0.0
 10
-0.01721
 20
-8.61101
 30
0.0
 10
-0.01721
 20
-8.61101
 30
0.0
 10
-0.01721
 20
-8.61101
 30
0.0
 10
-0.01721
 20
-8.61101
 30
0.0
 10
-0.35165
 20
-8.61101
 30
0.0
 10
-0.35165
 20
-8.61101
 30
0.0
 10
-0.35165
 20
-8.61101
 30
0.0
 10
-0.35165
 20
-8.61101
 30
0.0
 10
-0.35165
 20
-8.8176
 30
0.0
 10
-0.35165
 20
-8.8176
 30
0.0
 10
-0.35165
 20
-8.8176
 30
0.0
 10
-0.35165
 20
-8.8176
 30
0.0
 10
0.02004
 20
-8.8176
 30
0.0
 10
0.02004
 20
-8.8176
 30
0.0
 10
0.02004
 20
-8.8176
 30
0.0
 10
0.02004
 20
-8.8176
 30
0.0
 10
0.02004
 20
-8.88872
 30
0.0
 10
0.02004
 20
-8.88872
 30
0.0
 10
0.02004
 20
-8.88872
 30
0.0
 10
0.02004
 20
-8.88872
 30
0.0
 10
-0.43208
 20
-8.88872
 30
0.0
 10
-0.43208
 20
-8.88872
 30
0.0
  0
SPLINE
  5
4C
330
1F
100
AcDbEntity
  8
Layer 1
 62
   250
100
AcDbSpline
210
0.0
220
0.0
230
1.0
 70
    11
 71
     3
 72
    64
 73
    60
 74
     0
 42
0.0000000001
 43
0.0000000001
 12
1.0
 22
0.0
 32
0.0
 13
1.0
 23
0.0
 33
0.0
 40
0.0
 40
0.0
 40
0.0
 40
0.0
 40
0.0625
 40
0.0625
 40
0.0625
 40
0.0625
 40
0.125
 40
0.125
 40
0.125
 40
0.125
 40
0.1875
 40
0.1875
 40
0.1875
 40
0.1875
 40
0.25
 40
0.25
 40
0.25
 40
0.25
 40
0.3125
 40
0.3125
 40
0.3125
 40
0.3125
 40
0.375
 40
0.375
 40
0.375
 40
0.375
 40
0.4375
 40
0.4375
 40
0.4375
 40
0.4375
 40
0.5
 40
0.5
 40
0.5
 40
0.5
 40
0.5625
 40
0.5625
 40
0.5625
 40
0.5625
 40
0.625
 40
0.625
 40
0.625
 40
0.625
 40
0.6875
 40
0.6875
 40
0.6875
 40
0.6875
 40
0.75
 40
0.75
 40
0.75
 40
0.75
 40
0.8125
 40
0.8125
 40
0.8125
 40
0.8125
 40
0.875
 40
0.875
 40
0.875
 40
0.875
 40
1.0
 40
1.0
 40
1.0
 40
1.0
 10
0.12926
 20
-8.88872
 30
0.0
 10
0.12926
 20
-8.88872
 30
0.0
 10
0.12926
 20
-8.2825
 30
0.0
 10
0.12926
 20
-8.2825
 30
0.0
 10
0.12926
 20
-8.2825
 30
0.0
 10
0.12926
 20
-8.2825
 30
0.0
 10
0.24949
 20
-8.2825
 30
0.0
 10
0.24949
 20
-8.2825
 30
0.0
 10
0.24949
 20
-8.2825
 30
0.0
 10
0.24949
 20
-8.2825
 30
0.0
 10
0.39286
 20
-8.71162
 30
0.0
 10
0.39286
 20
-8.71162
 30
0.0
 10
0.39286
 20
-8.71162
 30
0.0
 10
0.40612
 20
-8.75156
 30
0.0
 10
0.41572
 20
-8.78148
 30
0.0
 10
0.42178
 20
-8.80137
 30
0.0
 10
0.42178
 20
-8.80137
 30
0.0
 10
0.4287
 20
-8.77936
 30
0.0
 10
0.43956
 20
-8.7469
 30
0.0
 10
0.45424
 20
-8.70415
 30
0.0
 10
0.45424
 20
-8.70415
 30
0.0
 10
0.45424
 20
-8.70415
 30
0.0
 10
0.60015
 20
-8.2825
 30
0.0
 10
0.60015
 20
-8.2825
 30
0.0
 10
0.60015
 20
-8.2825
 30
0.0
 10
0.60015
 20
-8.2825
 30
0.0
 10
0.70754
 20
-8.2825
 30
0.0
 10
0.70754
 20
-8.2825
 30
0.0
 10
0.70754
 20
-8.2825
 30
0.0
 10
0.70754
 20
-8.2825
 30
0.0
 10
0.70754
 20
-8.88872
 30
0.0
 10
0.70754
 20
-8.88872
 30
0.0
 10
0.70754
 20
-8.88872
 30
0.0
 10
0.70754
 20
-8.88872
 30
0.0
 10
0.63049
 20
-8.88872
 30
0.0
 10
0.63049
 20
-8.88872
 30
0.0
 10
0.63049
 20
-8.88872
 30
0.0
 10
0.63049
 20
-8.88872
 30
0.0
 10
0.63049
 20
-8.38156
 30
0.0
 10
0.63049
 20
-8.38156
 30
0.0
 10
0.63049
 20
-8.38156
 30
0.0
 10
0.63049
 20
-8.38156
 30
0.0
 10
0.45353
 20
-8.88872
 30
0.0
 10
0.45353
 20
-8.88872
 30
0.0
 10
0.45353
 20
-8.88872
 30
0.0
 10
0.45353
 20
-8.88872
 30
0.0
 10
0.38129
 20
-8.88872
 30
0.0
 10
0.38129
 20
-8.88872
 30
0.0
 10
0.38129
 20
-8.88872
 30
0.0
 10
0.38129
 20
-8.88872
 30
0.0
 10
0.20631
 20
-8.37225
 30
0.0
 10
0.20631
 20
-8.37225
 30
0.0
 10
0.20631
 20
-8.37225
 30
0.0
 10
0.20631
 20
-8.37225
 30
0.0
 10
0.20631
 20
-8.88872
 30
0.0
 10
0.20631
 20
-8.88872
 30
0.0
 10
0.20631
 20
-8.88872
 30
0.0
 10
0.20631
 20
-8.88872
 30
0.0
 10
0.12926
 20
-8.88872
 30
0.0
 10
0.12926
 20
-8.88872
 30
0.0
  0
SPLINE
  5
4D
330
1F
100
AcDbEntity
  8
Layer 1
 62
   250
100
AcDbSpline
210
0.0
220
0.0
230
1.0
 70
    11
 71
     3
 72
    48
 73
    44
 74
     0
 42
0.0000000001
 43
0.0000000001
 12
1.0
 22
0.0
 32
0.0
 13
1.0
 23
0.0
 33
0.0
 40
0.0
 40
0.0
 40
0.0
 40
0.0
 40
0.0833333333333333
 40
0.0833333333333333
 40
0.0833333333333333
 40
0.0833333333333333
 40
0.1666666666666667
 40
0.1666666666666667
 40
0.1666666666666667
 40
0.1666666666666667
 40
0.25
 40
0.25
 40
0.25
 40
0.25
 40
0.3333333333333333
 40
0.3333333333333333
 40
0.3333333333333333
 40
0.3333333333333333
 40
0.4166666666666667
 40
0.4166666666666667
 40
0.4166666666666667
 40
0.4166666666666667
 40
0.5
 40
0.5
 40
0.5
 40
0.5
 40
0.5833333333333334
 40
0.5833333333333334
 40
0.5833333333333334
 40
0.5833333333333334
 40
0.6666666666666666
 40
0.6666666666666666
 40
0.6666666666666666
 40
0.6666666666666666
 40
0.75
 40
0.75
 40
0.75
 40
0.75
 40
0.8333333333333334
 40
0.8333333333333334
 40
0.8333333333333334
 40
0.8333333333333334
 40
1.0
 40
1.0
 40
1.0
 40
1.0
 10
0.83623
 20
-8.88872
 30
0.0
 10
0.83623
 20
-8.88872
 30
0.0
 10
0.83623
 20
-8.2825
 30
0.0
 10
0.83623
 20
-8.2825
 30
0.0
 10
0.83623
 20
-8.2825
 30
0.0
 10
0.83623
 20
-8.2825
 30
0.0
 10
1.06512
 20
-8.2825
 30
0.0
 10
1.06512
 20
-8.2825
 30
0.0
 10
1.06512
 20
-8.2825
 30
0.0
 10
1.10533
 20
-8.2825
 30
0.0
 10
1.1361
 20
-8.28448
 30
0.0
 10
1.1574
 20
-8.28829
 30
0.0
 10
1.1574
 20
-8.28829
 30
0.0
 10
1.18718
 20
-8.29323
 30
0.0
 10
1.21216
 20
-8.30268
 30
0.0
 10
1.23233
 20
-8.31651
 30
0.0
 10
1.23233
 20
-8.31651
 30
0.0
 10
1.25251
 20
-8.33048
 30
0.0
 10
1.26874
 20
-8.34996
 30
0.0
 10
1.28102
 20
-8.37493
 30
0.0
 10
1.28102
 20
-8.37493
 30
0.0
 10
1.29329
 20
-8.39991
 30
0.0
 10
1.29936
 20
-8.42743
 30
0.0
 10
1.29936
 20
-8.45748
 30
0.0
 10
1.29936
 20
-8.45748
 30
0.0
 10
1.29936
 20
-8.50885
 30
0.0
 10
1.28299
 20
-8.55245
 30
0.0
 10
1.25011
 20
-8.58801
 30
0.0
 10
1.25011
 20
-8.58801
 30
0.0
 10
1.21738
 20
-8.62371
 30
0.0
 10
1.15797
 20
-8.64149
 30
0.0
 10
1.07217
 20
-8.64149
 30
0.0
 10
1.07217
 20
-8.64149
 30
0.0
 10
1.07217
 20
-8.64149
 30
0.0
 10
0.91667
 20
-8.64149
 30
0.0
 10
0.91667
 20
-8.64149
 30
0.0
 10
0.91667
 20
-8.64149
 30
0.0
 10
0.91667
 20
-8.64149
 30
0.0
 10
0.91667
 20
-8.88872
 30
0.0
 10
0.91667
 20
-8.88872
 30
0.0
 10
0.91667
 20
-8.88872
 30
0.0
 10
0.91667
 20
-8.88872
 30
0.0
 10
0.83623
 20
-8.88872
 30
0.0
 10
0.83623
 20
-8.88872
 30
0.0
  0
SPLINE
  5
4E
330
1F
100
AcDbEntity
  8
Layer 1
 62
   250
100
AcDbSpline
210
0.0
220
0.0
230
1.0
 70
    11
 71
     3
 72
    36
 73
    32
 74
     0
 42
0.0000000001
 43
0.0000000001
 12
1.0
 22
0.0
 32
0.0
 13
1.0
 23
0.0
 33
0.0
 40
0.0
 40
0.0
 40
0.0
 40
0.0
 40
0.1111111111111111
 40
0.1111111111111111
 40
0.1111111111111111
 40
0.1111111111111111
 40
0.2222222222222222
 40
0.2222222222222222
 40
0.2222222222222222
 40
0.2222222222222222
 40
0.3333333333333333
 40
0.3333333333333333
 40
0.3333333333333333
 40
0.3333333333333333
 40
0.4444444444444444
 40
0.4444444444444444
 40
0.4444444444444444
 40
0.4444444444444444
 40
0.5555555555555556
 40
0.5555555555555556
 40
0.5555555555555556
 40
0.5555555555555556
 40
0.6666666666666666
 40
0.6666666666666666
 40
0.6666666666666666
 40
0.6666666666666666
 40
0.7777777777777778
 40
0.7777777777777778
 40
0.7777777777777778
 40
0.7777777777777778
 40
1.0
 40
1.0
 40
1.0
 40
1.0
 10
0.91667
 20
-8.57037
 30
0.0
 10
0.91667
 20
-8.57037
 30
0.0
 10
1.0733
 20
-8.57037
 30
0.0
 10
1.0733
 20
-8.57037
 30
0.0
 10
1.0733
 20
-8.57037
 30
0.0
 10
1.12523
 20
-8.57037
 30
0.0
 10
1.16192
 20
-8.56078
 30
0.0
 10
1.18379
 20
-8.54144
 30
0.0
 10
1.18379
 20
-8.54144
 30
0.0
 10
1.20552
 20
-8.52211
 30
0.0
 10
1.21639
 20
-8.49502
 30
0.0
 10
1.21639
 20
-8.45988
 30
0.0
 10
1.21639
 20
-8.45988
 30
0.0
 10
1.21639
 20
-8.43462
 30
0.0
 10
1.21004
 20
-8.41289
 30
0.0
 10
1.1972
 20
-8.39483
 30
0.0
 10
1.1972
 20
-8.39483
 30
0.0
 10
1.18436
 20
-8.37677
 30
0.0
 10
1.16742
 20
-8.36477
 30
0.0
 10
1.14654
 20
-8.35899
 30
0.0
 10
1.14654
 20
-8.35899
 30
0.0
 10
1.13299
 20
-8.35546
 30
0.0
 10
1.10801
 20
-8.35362
 30
0.0
 10
1.07175
 20
-8.35362
 30
0.0
 10
1.07175
 20
-8.35362
 30
0.0
 10
1.07175
 20
-8.35362
 30
0.0
 10
0.91667
 20
-8.35362
 30
0.0
 10
0.91667
 20
-8.35362
 30
0.0
 10
0.91667
 20
-8.35362
 30
0.0
 10
0.91667
 20
-8.35362
 30
0.0
 10
0.91667
 20
-8.57037
 30
0.0
 10
0.91667
 20
-8.57037
 30
0.0
  0
SPLINE
  5
4F
330
1F
100
AcDbEntity
  8
Layer 1
 62
   250
100
AcDbSpline
210
0.0
220
0.0
230
1.0
 70
    11
 71
     3
 72
    28
 73
    24
 74
     0
 42
0.0000000001
 43
0.0000000001
 12
1.0
 22
0.0
 32
0.0
 13
1.0
 23
0.0
 33
0.0
 40
0.0
 40
0.0
 40
0.0
 40
0.0
 40
0.1428571428571428
 40
0.1428571428571428
 40
0.1428571428571428
 40
0.1428571428571428
 40
0.2857142857142857
 40
0.2857142857142857
 40
0.2857142857142857
 40
0.2857142857142857
 40
0.4285714285714285
 40
0.4285714285714285
 40
0.4285714285714285
 40
0.4285714285714285
 40
0.5714285714285714
 40
0.5714285714285714
 40
0.5714285714285714
 40
0.5714285714285714
 40
0.7142857142857143
 40
0.7142857142857143
 40
0.7142857142857143
 40
0.7142857142857143
 40
1.0
 40
1.0
 40
1.0
 40
1.0
 10
1.39758
 20
-8.88872
 30
0.0
 10
1.39758
 20
-8.88872
 30
0.0
 10
1.39758
 20
-8.2825
 30
0.0
 10
1.39758
 20
-8.2825
 30
0.0
 10
1.39758
 20
-8.2825
 30
0.0
 10
1.39758
 20
-8.2825
 30
0.0
 10
1.47801
 20
-8.2825
 30
0.0
 10
1.47801
 20
-8.2825
 30
0.0
 10
1.47801
 20
-8.2825
 30
0.0
 10
1.47801
 20
-8.2825
 30
0.0
 10
1.47801
 20
-8.8176
 30
0.0
 10
1.47801
 20
-8.8176
 30
0.0
 10
1.47801
 20
-8.8176
 30
0.0
 10
1.47801
 20
-8.8176
 30
0.0
 10
1.77604
 20
-8.8176
 30
0.0
 10
1.77604
 20
-8.8176
 30
0.0
 10
1.77604
 20
-8.8176
 30
0.0
 10
1.77604
 20
-8.8176
 30
0.0
 10
1.77604
 20
-8.88872
 30
0.0
 10
1.77604
 20
-8.88872
 30
0.0
 10
1.77604
 20
-8.88872
 30
0.0
 10
1.77604
 20
-8.88872
 30
0.0
 10
1.39758
 20
-8.88872
 30
0.0
 10
1.39758
 20
-8.88872
 30
0.0
  0
SPLINE
  5
50
330
1F
100
AcDbEntity
  8
Layer 1
 62
   250
100
AcDbSpline
210
0.0
220
0.0
230
1.0
 70
    11
 71
     3
 72
    36
 73
    32
 74
     0
 42
0.0000000001
 43
0.0000000001
 12
1.0
 22
0.0
 32
0.0
 13
1.0
 23
0.0
 33
0.0
 40
0.0
 40
0.0
 40
0.0
 40
0.0
 40
0.1111111111111111
 40
0.1111111111111111
 40
0.1111111111111111
 40
0.1111111111111111
 40
0.2222222222222222
 40
0.2222222222222222
 40
0.2222222222222222
 40
0.2222222222222222
 40
0.3333333333333333
 40
0.3333333333333333
 40
0.3333333333333333
 40
0.3333333333333333
 40
0.4444444444444444
 40
0.4444444444444444
 40
0.4444444444444444
 40
0.4444444444444444
 40
0.5555555555555556
 40
0.5555555555555556
 40
0.5555555555555556
 40
0.5555555555555556
 40
0.6666666666666666
 40
0.6666666666666666
 40
0.6666666666666666
 40
0.6666666666666666
 40
0.7777777777777778
 40
0.7777777777777778
 40
0.7777777777777778
 40
0.7777777777777778
 40
1.0
 40
1.0
 40
1.0
 40
1.0
 10
1.80539
 20
-8.88872
 30
0.0
 10
1.80539
 20
-8.88872
 30
0.0
 10
2.03794
 20
-8.2825
 30
0.0
 10
2.03794
 20
-8.2825
 30
0.0
 10
2.03794
 20
-8.2825
 30
0.0
 10
2.03794
 20
-8.2825
 30
0.0
 10
2.12614
 20
-8.2825
 30
0.0
 10
2.12614
 20
-8.2825
 30
0.0
 10
2.12614
 20
-8.2825
 30
0.0
 10
2.12614
 20
-8.2825
 30
0.0
 10
2.37294
 20
-8.88872
 30
0.0
 10
2.37294
 20
-8.88872
 30
0.0
 10
2.37294
 20
-8.88872
 30
0.0
 10
2.37294
 20
-8.88872
 30
0.0
 10
2.28164
 20
-8.88872
 30
0.0
 10
2.28164
 20
-8.88872
 30
0.0
 10
2.28164
 20
-8.88872
 30
0.0
 10
2.28164
 20
-8.88872
 30
0.0
 10
2.21151
 20
-8.70499
 30
0.0
 10
2.21151
 20
-8.70499
 30
0.0
 10
2.21151
 20
-8.70499
 30
0.0
 10
2.21151
 20
-8.70499
 30
0.0
 10
1.95624
 20
-8.70499
 30
0.0
 10
1.95624
 20
-8.70499
 30
0.0
 10
1.95624
 20
-8.70499
 30
0.0
 10
1.95624
 20
-8.70499
 30
0.0
 10
1.89048
 20
-8.88872
 30
0.0
 10
1.89048
 20
-8.88872
 30
0.0
 10
1.89048
 20
-8.88872
 30
0.0
 10
1.89048
 20
-8.88872
 30
0.0
 10
1.80539
 20
-8.88872
 30
0.0
 10
1.80539
 20
-8.88872
 30
0.0
  0
SPLINE
  5
51
330
1F
100
AcDbEntity
  8
Layer 1
 62
   250
100
AcDbSpline
210
0.0
220
0.0
230
1.0
 70
    11
 71
     3
 72
    24
 73
    20
 74
     0
 42
0.0000000001
 43
0.0000000001
 12
1.0
 22
0.0
 32
0.0
 13
1.0
 23
0.0
 33
0.0
 40
0.0
 40
0.0
 40
0.0
 40
0.0
 40
0.1666666666666667
 40
0.1666666666666667
 40
0.1666666666666667
 40
0.1666666666666667
 40
0.3333333333333333
 40
0.3333333333333333
 40
0.3333333333333333
 40
0.3333333333333333
 40
0.5
 40
0.5
 40
0.5
 40
0.5
 40
0.6666666666666666
 40
0.6666666666666666
 40
0.6666666666666666
 40
0.6666666666666666
 40
1.0
 40
1.0
 40
1.0
 40
1.0
 10
1.9798
 20
-8.6398
 30
0.0
 10
1.9798
 20
-8.6398
 30
0.0
 10
2.18639
 20
-8.6398
 30
0.0
 10
2.18639
 20
-8.6398
 30
0.0
 10
2.18639
 20
-8.6398
 30
0.0
 10
2.18639
 20
-8.6398
 30
0.0
 10
2.12317
 20
-8.47174
 30
0.0
 10
2.12317
 20
-8.47174
 30
0.0
 10
2.12317
 20
-8.47174
 30
0.0
 10
2.10412
 20
-8.42065
 30
0.0
 10
2.08973
 20
-8.37846
 30
0.0
 10
2.07971
 20
-8.34516
 30
0.0
 10
2.07971
 20
-8.34516
 30
0.0
 10
2.07139
 20
-8.38467
 30
0.0
 10
2.06024
 20
-8.42347
 30
0.0
 10
2.04627
 20
-8.46186
 30
0.0
 10
2.04627
 20
-8.46186
 30
0.0
 10
2.04627
 20
-8.46186
 30
0.0
 10
1.9798
 20
-8.6398
 30
0.0
 10
1.9798
 20
-8.6398
 30
0.0
  0
SPLINE
  5
52
330
1F
100
AcDbEntity
  8
Layer 1
 62
   250
100
AcDbSpline
210
0.0
220
0.0
230
1.0
 70
    11
 71
     3
 72
    36
 73
    32
 74
     0
 42
0.0000000001
 43
0.0000000001
 12
1.0
 22
0.0
 32
0.0
 13
1.0
 23
0.0
 33
0.0
 40
0.0
 40
0.0
 40
0.0
 40
0.0
 40
0.1111111111111111
 40
0.1111111111111111
 40
0.1111111111111111
 40
0.1111111111111111
 40
0.2222222222222222
 40
0.2222222222222222
 40
0.2222222222222222
 40
0.2222222222222222
 40
0.3333333333333333
 40
0.3333333333333333
 40
0.3333333333333333
 40
0.3333333333333333
 40
0.4444444444444444
 40
0.4444444444444444
 40
0.4444444444444444
 40
0.4444444444444444
 40
0.5555555555555556
 40
0.5555555555555556
 40
0.5555555555555556
 40
0.5555555555555556
 40
0.6666666666666666
 40
0.6666666666666666
 40
0.6666666666666666
 40
0.6666666666666666
 40
0.7777777777777778
 40
0.7777777777777778
 40
0.7777777777777778
 40
0.7777777777777778
 40
1.0
 40
1.0
 40
1.0
 40
1.0
 10
2.52789
 20
-8.88872
 30
0.0
 10
2.52789
 20
-8.88872
 30
0.0
 10
2.52789
 20
-8.35362
 30
0.0
 10
2.52789
 20
-8.35362
 30
0.0
 10
2.52789
 20
-8.35362
 30
0.0
 10
2.52789
 20
-8.35362
 30
0.0
 10
2.32807
 20
-8.35362
 30
0.0
 10
2.32807
 20
-8.35362
 30
0.0
 10
2.32807
 20
-8.35362
 30
0.0
 10
2.32807
 20
-8.35362
 30
0.0
 10
2.32807
 20
-8.2825
 30
0.0
 10
2.32807
 20
-8.2825
 30
0.0
 10
2.32807
 20
-8.2825
 30
0.0
 10
2.32807
 20
-8.2825
 30
0.0
 10
2.80814
 20
-8.2825
 30
0.0
 10
2.80814
 20
-8.2825
 30
0.0
 10
2.80814
 20
-8.2825
 30
0.0
 10
2.80814
 20
-8.2825
 30
0.0
 10
2.80814
 20
-8.35362
 30
0.0
 10
2.80814
 20
-8.35362
 30
0.0
 10
2.80814
 20
-8.35362
 30
0.0
 10
2.80814
 20
-8.35362
 30
0.0
 10
2.60832
 20
-8.35362
 30
0.0
 10
2.60832
 20
-8.35362
 30
0.0
 10
2.60832
 20
-8.35362
 30
0.0
 10
2.60832
 20
-8.35362
 30
0.0
 10
2.60832
 20
-8.88872
 30
0.0
 10
2.60832
 20
-8.88872
 30
0.0
 10
2.60832
 20
-8.88872
 30
0.0
 10
2.60832
 20
-8.88872
 30
0.0
 10
2.52789
 20
-8.88872
 30
0.0
 10
2.52789
 20
-8.88872
 30
0.0
  0
SPLINE
  5
53
330
1F
100
AcDbEntity
  8
Layer 1
 62
   250
100
AcDbSpline
210
0.0
220
0.0
230
1.0
 70
    11
 71
     3
 72
    52
 73
    48
 74
     0
 42
0.0000000001
 43
0.0000000001
 12
1.0
 22
0.0
 32
0.0
 13
1.0
 23
0.0
 33
0.0
 40
0.0
 40
0.0
 40
0.0
 40
0.0
 40
0.0769230769230769
 40
0.0769230769230769
 40
0.0769230769230769
 40
0.0769230769230769
 40
0.1538461538461539
 40
0.1538461538461539
 40
0.1538461538461539
 40
0.1538461538461539
 40
0.2307692307692308
 40
0.2307692307692308
 40
0.2307692307692308
 40
0.2307692307692308
 40
0.3076923076923077
 40
0.3076923076923077
 40
0.3076923076923077
 40
0.3076923076923077
 40
0.3846153846153846
 40
0.3846153846153846
 40
0.3846153846153846
 40
0.3846153846153846
 40
0.4615384615384616
 40
0.4615384615384616
 40
0.4615384615384616
 40
0.4615384615384616
 40
0.5384615384615384
 40
0.5384615384615384
 40
0.5384615384615384
 40
0.5384615384615384
 40
0.6153846153846154
 40
0.6153846153846154
 40
0.6153846153846154
 40
0.6153846153846154
 40
0.6923076923076923
 40
0.6923076923076923
 40
0.6923076923076923
 40
0.6923076923076923
 40
0.7692307692307693
 40
0.7692307692307693
 40
0.7692307692307693
 40
0.7692307692307693
 40
0.8461538461538461
 40
0.8461538461538461
 40
0.8461538461538461
 40
0.8461538461538461
 40
1.0
 40
1.0
 40
1.0
 40
1.0
 10
2.89266
 20
-8.88872
 30
0.0
 10
2.89266
 20
-8.88872
 30
0.0
 10
2.89266
 20
-8.2825
 30
0.0
 10
2.89266
 20
-8.2825
 30
0.0
 10
2.89266
 20
-8.2825
 30
0.0
 10
2.89266
 20
-8.2825
 30
0.0
 10
3.33039
 20
-8.2825
 30
0.0
 10
3.33039
 20
-8.2825
 30
0.0
 10
3.33039
 20
-8.2825
 30
0.0
 10
3.33039
 20
-8.2825
 30
0.0
 10
3.33039
 20
-8.35362
 30
0.0
 10
3.33039
 20
-8.35362
 30
0.0
 10
3.33039
 20
-8.35362
 30
0.0
 10
3.33039
 20
-8.35362
 30
0.0
 10
2.97309
 20
-8.35362
 30
0.0
 10
2.97309
 20
-8.35362
 30
0.0
 10
2.97309
 20
-8.35362
 30
0.0
 10
2.97309
 20
-8.35362
 30
0.0
 10
2.97309
 20
-8.53989
 30
0.0
 10
2.97309
 20
-8.53989
 30
0.0
 10
2.97309
 20
-8.53989
 30
0.0
 10
2.97309
 20
-8.53989
 30
0.0
 10
3.30753
 20
-8.53989
 30
0.0
 10
3.30753
 20
-8.53989
 30
0.0
 10
3.30753
 20
-8.53989
 30
0.0
 10
3.30753
 20
-8.53989
 30
0.0
 10
3.30753
 20
-8.61101
 30
0.0
 10
3.30753
 20
-8.61101
 30
0.0
 10
3.30753
 20
-8.61101
 30
0.0
 10
3.30753
 20
-8.61101
 30
0.0
 10
2.97309
 20
-8.61101
 30
0.0
 10
2.97309
 20
-8.61101
 30
0.0
 10
2.97309
 20
-8.61101
 30
0.0
 10
2.97309
 20
-8.61101
 30
0.0
 10
2.97309
 20
-8.8176
 30
0.0
 10
2.97309
 20
-8.8176
 30
0.0
 10
2.97309
 20
-8.8176
 30
0.0
 10
2.97309
 20
-8.8176
 30
0.0
 10
3.34478
 20
-8.8176
 30
0.0
 10
3.34478
 20
-8.8176
 30
0.0
 10
3.34478
 20
-8.8176
 30
0.0
 10
3.34478
 20
-8.8176
 30
0.0
 10
3.34478
 20
-8.88872
 30
0.0
 10
3.34478
 20
-8.88872
 30
0.0
 10
3.34478
 20
-8.88872
 30
0.0
 10
3.34478
 20
-8.88872
 30
0.0
 10
2.89266
 20
-8.88872
 30
0.0
 10
2.89266
 20
-8.88872
 30
0.0
  0
SPLINE
  5
54
330
1F
100
AcDbEntity
  8
Layer 1
 62
     3
370
     9
100
AcDbSpline
210
0.0
220
0.0
230
1.0
 70
    24
 71
     3
 72
     8
 73
     4
 74
     0
 42
0.0000000001
 43
0.0000000001
 12
1.0
 22
0.0
 32
0.0
 13
1.0
 23
0.0
 33
0.0
 40
0.0
 40
0.0
 40
0.0
 40
0.0
 40
1.0
 40
1.0
 40
1.0
 40
1.0
 10
-10.23213
 20
6.71061
 30
0.0
 10
-10.23213
 20
6.71061
 30
0.0
 10
9.14471
 20
6.71061
 30
0.0
 10
9.14471
 20
6.71061
 30
0.0
  0
SPLINE
  5
55
330
1F
100
AcDbEntity
  8
Layer 1
 62
     3
370
     9
100
AcDbSpline
210
0.0
220
0.0
230
1.0
 70
     8
 71
     3
 72
    12
 73
     8
 74
     0
 42
0.0000000001
 43
0.0000000001
 12
1.0
 22
0.0
 32
0.0
 13
1.0
 23
0.0
 33
0.0
 40
0.0
 40
0.0
 40
0.0
 40
0.0
 40
0.3333333333333333
 40
0.3333333333333333
 40
0.3333333333333333
 40
0.3333333333333333
 40
1.0
 40
1.0
 40
1.0
 40
1.0
 10
-10.23213
 20
6.71061
 30
0.0
 10
-10.35954
 20
6.71061
 30
0.0
 10
-10.48174
 20
6.65999
 30
0.0
 10
-10.57183
 20
6.56989
 30
0.0
 10
-10.57183
 20
6.56989
 30
0.0
 10
-10.66193
 20
6.4798
 30
0.0
 10
-10.71255
 20
6.3576
 30
0.0
 10
-10.71255
 20
6.23019
 30
0.0
  0
SPLINE
  5
56
330
1F
100
AcDbEntity
  8
Layer 1
 62
     3
370
     9
100
AcDbSpline
210
0.0
220
0.0
230
1.0
 70
     8
 71
     3
 72
    12
 73
     8
 74
     0
 42
0.0000000001
 43
0.0000000001
 12
1.0
 22
0.0
 32
0.0
 13
1.0
 23
0.0
 33
0.0
 40
0.0
 40
0.0
 40
0.0
 40
0.0
 40
0.3333333333333333
 40
0.3333333333333333
 40
0.3333333333333333
 40
0.3333333333333333
 40
1.0
 40
1.0
 40
1.0
 40
1.0
 10
9.62513
 20
6.23019
 30
0.0
 10
9.62513
 20
6.3576
 30
0.0
 10
9.57452
 20
6.4798
 30
0.0
 10
9.48442
 20
6.56989
 30
0.0
 10
9.48442
 20
6.56989
 30
0.0
 10
9.39432
 20
6.65999
 30
0.0
 10
9.27213
 20
6.71061
 30
0.0
 10
9.14471
 20
6.71061
 30
0.0
  0
SPLINE
  5
57
330
1F
100
AcDbEntity
  8
Layer 1
 62
     3
370
     9
100
AcDbSpline
210
0.0
220
0.0
230
1.0
 70
    24
 71
     3
 72
     8
 73
     4
 74
     0
 42
0.0000000001
 43
0.0000000001
 12
1.0
 22
0.0
 32
0.0
 13
1.0
 23
0.0
 33
0.0
 40
0.0
 40
0.0
 40
0.0
 40
0.0
 40
1.0
 40
1.0
 40
1.0
 40
1.0
 10
9.62513
 20
6.23019
 30
0.0
 10
9.62513
 20
6.23019
 30
0.0
 10
9.62513
 20
-5.82508
 30
0.0
 10
9.62513
 20
-5.82508
 30
0.0
  0
SPLINE
  5
58
330
1F
100
AcDbEntity
  8
Layer 1
 62
     3
370
     9
100
AcDbSpline
210
0.0
220
0.0
230
1.0
 70
    24
 71
     3
 72
     8
 73
     4
 74
     0
 42
0.0000000001
 43
0.0000000001
 12
1.0
 22
0.0
 32
0.0
 13
1.0
 23
0.0
 33
0.0
 40
0.0
 40
0.0
 40
0.0
 40
0.0
 40
1.0
 40
1.0
 40
1.0
 40
1.0
 10
9.14471
 20
-6.3055
 30
0.0
 10
9.14471
 20
-6.3055
 30
0.0
 10
-10.23213
 20
-6.3055
 30
0.0
 10
-10.23213
 20
-6.3055
 30
0.0
  0
SPLINE
  5
59
330
1F
100
AcDbEntity
  8
Layer 1
 62
     3
370
     9
100
AcDbSpline
210
0.0
220
0.0
230
1.0
 70
     8
 71
     3
 72
    12
 73
     8
 74
     0
 42
0.0000000001
 43
0.0000000001
 12
1.0
 22
0.0
 32
0.0
 13
1.0
 23
0.0
 33
0.0
 40
0.0
 40
0.0
 40
0.0
 40
0.0
 40
0.3333333333333333
 40
0.3333333333333333
 40
0.3333333333333333
 40
0.3333333333333333
 40
1.0
 40
1.0
 40
1.0
 40
1.0
 10
-10.71255
 20
-5.82508
 30
0.0
 10
-10.71255
 20
-5.9525
 30
0.0
 10
-10.66193
 20
-6.0747
 30
0.0
 10
-10.57183
 20
-6.1648
 30
0.0
 10
-10.57183
 20
-6.1648
 30
0.0
 10
-10.48174
 20
-6.25489
 30
0.0
 10
-10.35954
 20
-6.3055
 30
0.0
 10
-10.23213
 20
-6.3055
 30
0.0
  0
SPLINE
  5
5A
330
1F
100
AcDbEntity
  8
Layer 1
 62
     3
370
     9
100
AcDbSpline
210
0.0
220
0.0
230
1.0
 70
     8
 71
     3
 72
     8
 73
     4
 74
     0
 42
0.0000000001
 43
0.0000000001
 12
1.0
 22
0.0
 32
0.0
 13
1.0
 23
0.0
 33
0.0
 40
0.0
 40
0.0
 40
0.0
 40
0.0
 40
1.0
 40
1.0
 40
1.0
 40
1.0
 10
9.14471
 20
-6.3055
 30
0.0
 10
9.41004
 20
-6.3055
 30
0.0
 10
9.62513
 20
-6.09042
 30
0.0
 10
9.62513
 20
-5.82509
 30
0.0
  0
SPLINE
  5
5B
330
1F
100
AcDbEntity
  8
Layer 1
 62
     3
370
     9
100
AcDbSpline
210
0.0
220
0.0
230
1.0
 70
    24
 71
     3
 72
     8
 73
     4
 74
     0
 42
0.0000000001
 43
0.0000000001
 12
1.0
 22
0.0
 32
0.0
 13
1.0
 23
0.0
 33
0.0
 40
0.0
 40
0.0
 40
0.0
 40
0.0
 40
1.0
 40
1.0
 40
1.0
 40
1.0
 10
-10.71255
 20
-5.82508
 30
0.0
 10
-10.71255
 20
-5.82508
 30
0.0
 10
-10.71255
 20
6.23019
 30
0.0
 10
-10.71255
 20
6.23019
 30
0.0
  0
SPLINE
  5
5C
330
1F
100
AcDbEntity
  8
Layer 1
 62
     3
370
     9
100
AcDbSpline
210
0.0
220
0.0
230
1.0
 70
    24
 71
     3
 72
     8
 73
     4
 74
     0
 42
0.0000000001
 43
0.0000000001
 12
1.0
 22
0.0
 32
0.0
 13
1.0
 23
0.0
 33
0.0
 40
0.0
 40
0.0
 40
0.0
 40
0.0
 40
1.0
 40
1.0
 40
1.0
 40
1.0
 10
9.14471
 20
6.71061
 30
0.0
 10
9.14471
 20
6.71061
 30
0.0
 10
-10.23213
 20
6.71061
 30
0.0
 10
-10.23213
 20
6.71061
 30
0.0
  0
SPLINE
  5
5E
330
1F
100
AcDbEntity
  8
layer 2
 62
     1
370
     0
100
AcDbSpline
210
0.0
220
0.0
230
1.0
 70
    24
 71
     3
 72
     8
 73
     4
 74
     0
 42
0.0000000001
 43
0.0000000001
 12
1.0
 22
0.0
 32
0.0
 13
1.0
 23
0.0
 33
0.0
 40
0.0
 40
0.0
 40
0.0
 40
0.0
 40
1.0
 40
1.0
 40
1.0
 40
1.0
 10
-10.71255
 20
6.39033
 30
0.0
 10
-10.71255
 20
6.39033
 30
0.0
 10
-10.71255
 20
7.98706
 30
0.0
 10
-10.71255
 20
7.98706
 30
0.0
  0
SPLINE
  5
5F
330
1F
100
AcDbEntity
  8
layer 2
 62
     1
370
     0
100
AcDbSpline
210
0.0
220
0.0
230
1.0
 70
    24
 71
     3
 72
     8
 73
     4
 74
     0
 42
0.0000000001
 43
0.0000000001
 12
1.0
 22
0.0
 32
0.0
 13
1.0
 23
0.0
 33
0.0
 40
0.0
 40
0.0
 40
0.0
 40
0.0
 40
1.0
 40
1.0
 40
1.0
 40
1.0
 10
9.62513
 20
6.39033
 30
0.0
 10
9.62513
 20
6.39033
 30
0.0
 10
9.62513
 20
7.98706
 30
0.0
 10
9.62513
 20
7.98706
 30
0.0
  0
SPLINE
  5
60
330
1F
100
AcDbEntity
  8
layer 2
 62
     1
370
     0
100
AcDbSpline
210
0.0
220
0.0
230
1.0
 70
    24
 71
     3
 72
     8
 73
     4
 74
     0
 42
0.0000000001
 43
0.0000000001
 12
1.0
 22
0.0
 32
0.0
 13
1.0
 23
0.0
 33
0.0
 40
0.0
 40
0.0
 40
0.0
 40
0.0
 40
1.0
 40
1.0
 40
1.0
 40
1.0
 10
-10.07199
 20
7.66679
 30
0.0
 10
-10.07199
 20
7.66679
 30
0.0
 10
8.98457
 20
7.66679
 30
0.0
 10
8.98457
 20
7.66679
 30
0.0
  0
SPLINE
  5
61
330
1F
100
AcDbEntity
  8
layer 2
 62
     1
100
AcDbSpline
210
0.0
220
0.0
230
1.0
 70
    27
 71
     3
 72
    12
 73
     8
 74
     0
 42
0.0000000001
 43
0.0000000001
 12
1.0
 22
0.0
 32
0.0
 13
1.0
 23
0.0
 33
0.0
 40
0.0
 40
0.0
 40
0.0
 40
0.0
 40
0.3333333333333333
 40
0.3333333333333333
 40
0.3333333333333333
 40
0.3333333333333333
 40
1.0
 40
1.0
 40
1.0
 40
1.0
 10
-10.07199
 20
7.77354
 30
0.0
 10
-10.07199
 20
7.77354
 30
0.0
 10
-10.71255
 20
7.66679
 30
0.0
 10
-10.71255
 20
7.66679
 30
0.0
 10
-10.71255
 20
7.66679
 30
0.0
 10
-10.71255
 20
7.66679
 30
0.0
 10
-10.07199
 20
7.77354
 30
0.0
 10
-10.07199
 20
7.77354
 30
0.0
  0
SPLINE
  5
62
330
1F
100
AcDbEntity
  8
layer 2
 62
     1
100
AcDbSpline
210
0.0
220
0.0
230
1.0
 70
     8
 71
     3
 72
    12
 73
     8
 74
     0
 42
0.0000000001
 43
0.0000000001
 12
1.0
 22
0.0
 32
0.0
 13
1.0
 23
0.0
 33
0.0
 40
0.0
 40
0.0
 40
0.0
 40
0.0
 40
0.3333333333333333
 40
0.3333333333333333
 40
0.3333333333333333
 40
0.3333333333333333
 40
1.0
 40
1.0
 40
1.0
 40
1.0
 10
-10.71255
 20
7.66679
 30
0.0
 10
-10.71255
 20
7.66679
 30
0.0
 10
-10.07199
 20
7.56003
 30
0.0
 10
-10.07199
 20
7.56003
 30
0.0
 10
-10.07199
 20
7.56003
 30
0.0
 10
-10.07199
 20
7.56003
 30
0.0
 10
-10.07199
 20
7.77354
 30
0.0
 10
-10.07199
 20
7.77354
 30
0.0
  0
SPLINE
  5
63
330
1F
100
AcDbEntity
  8
layer 2
 62
     1
370
     9
100
AcDbSpline
210
0.0
220
0.0
230
1.0
 70
    24
 71
     3
 72
     8
 73
     4
 74
     0
 42
0.0000000001
 43
0.0000000001
 12
1.0
 22
0.0
 32
0.0
 13
1.0
 23
0.0
 33
0.0
 40
0.0
 40
0.0
 40
0.0
 40
0.0
 40
1.0
 40
1.0
 40
1.0
 40
1.0
 10
-10.07199
 20
7.77354
 30
0.0
 10
-10.07199
 20
7.77354
 30
0.0
 10
-10.71255
 20
7.66679
 30
0.0
 10
-10.71255
 20
7.66679
 30
0.0
  0
SPLINE
  5
64
330
1F
100
AcDbEntity
  8
layer 2
 62
     1
370
     9
100
AcDbSpline
210
0.0
220
0.0
230
1.0
 70
     8
 71
     3
 72
    12
 73
     8
 74
     0
 42
0.0000000001
 43
0.0000000001
 12
1.0
 22
0.0
 32
0.0
 13
1.0
 23
0.0
 33
0.0
 40
0.0
 40
0.0
 40
0.0
 40
0.0
 40
0.3333333333333333
 40
0.3333333333333333
 40
0.3333333333333333
 40
0.3333333333333333
 40
1.0
 40
1.0
 40
1.0
 40
1.0
 10
-10.71255
 20
7.66679
 30
0.0
 10
-10.71255
 20
7.66679
 30
0.0
 10
-10.07199
 20
7.56003
 30
0.0
 10
-10.07199
 20
7.56003
 30
0.0
 10
-10.07199
 20
7.56003
 30
0.0
 10
-10.07199
 20
7.56003
 30
0.0
 10
-10.07199
 20
7.77354
 30
0.0
 10
-10.07199
 20
7.77354
 30
0.0
  0
SPLINE
  5
65
330
1F
100
AcDbEntity
  8
layer 2
 62
     1
100
AcDbSpline
210
0.0
220
0.0
230
1.0
 70
    27
 71
     3
 72
    12
 73
     8
 74
     0
 42
0.0000000001
 43
0.0000000001
 12
1.0
 22
0.0
 32
0.0
 13
1.0
 23
0.0
 33
0.0
 40
0.0
 40
0.0
 40
0.0
 40
0.0
 40
0.3333333333333333
 40
0.3333333333333333
 40
0.3333333333333333
 40
0.3333333333333333
 40
1.0
 40
1.0
 40
1.0
 40
1.0
 10
8.98457
 20
7.77354
 30
0.0
 10
8.98457
 20
7.77354
 30
0.0
 10
9.62513
 20
7.66679
 30
0.0
 10
9.62513
 20
7.66679
 30
0.0
 10
9.62513
 20
7.66679
 30
0.0
 10
9.62513
 20
7.66679
 30
0.0
 10
8.98457
 20
7.77354
 30
0.0
 10
8.98457
 20
7.77354
 30
0.0
  0
SPLINE
  5
66
330
1F
100
AcDbEntity
  8
layer 2
 62
     1
100
AcDbSpline
210
0.0
220
0.0
230
1.0
 70
     8
 71
     3
 72
    12
 73
     8
 74
     0
 42
0.0000000001
 43
0.0000000001
 12
1.0
 22
0.0
 32
0.0
 13
1.0
 23
0.0
 33
0.0
 40
0.0
 40
0.0
 40
0.0
 40
0.0
 40
0.3333333333333333
 40
0.3333333333333333
 40
0.3333333333333333
 40
0.3333333333333333
 40
1.0
 40
1.0
 40
1.0
 40
1.0
 10
9.62513
 20
7.66679
 30
0.0
 10
9.62513
 20
7.66679
 30
0.0
 10
8.98457
 20
7.56003
 30
0.0
 10
8.98457
 20
7.56003
 30
0.0
 10
8.98457
 20
7.56003
 30
0.0
 10
8.98457
 20
7.56003
 30
0.0
 10
8.98457
 20
7.77354
 30
0.0
 10
8.98457
 20
7.77354
 30
0.0
  0
SPLINE
  5
67
330
1F
100
AcDbEntity
  8
layer 2
 62
     1
370
     9
100
AcDbSpline
210
0.0
220
0.0
230
1.0
 70
    24
 71
     3
 72
     8
 73
     4
 74
     0
 42
0.0000000001
 43
0.0000000001
 12
1.0
 22
0.0
 32
0.0
 13
1.0
 23
0.0
 33
0.0
 40
0.0
 40
0.0
 40
0.0
 40
0.0
 40
1.0
 40
1.0
 40
1.0
 40
1.0
 10
8.98457
 20
7.77354
 30
0.0
 10
8.98457
 20
7.77354
 30
0.0
 10
9.62513
 20
7.66679
 30
0.0
 10
9.62513
 20
7.66679
 30
0.0
  0
SPLINE
  5
68
330
1F
100
AcDbEntity
  8
layer 2
 62
     1
370
     9
100
AcDbSpline
210
0.0
220
0.0
230
1.0
 70
     8
 71
     3
 72
    12
 73
     8
 74
     0
 42
0.0000000001
 43
0.0000000001
 12
1.0
 22
0.0
 32
0.0
 13
1.0
 23
0.0
 33
0.0
 40
0.0
 40
0.0
 40
0.0
 40
0.0
 40
0.3333333333333333
 40
0.3333333333333333
 40
0.3333333333333333
 40
0.3333333333333333
 40
1.0
 40
1.0
 40
1.0
 40
1.0
 10
9.62513
 20
7.66679
 30
0.0
 10
9.62513
 20
7.66679
 30
0.0
 10
8.98457
 20
7.56003
 30
0.0
 10
8.98457
 20
7.56003
 30
0.0
 10
8.98457
 20
7.56003
 30
0.0
 10
8.98457
 20
7.56003
 30
0.0
 10
8.98457
 20
7.77354
 30
0.0
 10
8.98457
 20
7.77354
 30
0.0
  0
SPLINE
  5
69
330
1F
100
AcDbEntity
  8
layer 2
 62
     1
100
AcDbSpline
210
0.0
220
0.0
230
1.0
 70
    11
 71
     3
 72
    92
 73
    88
 74
     0
 42
0.0000000001
 43
0.0000000001
 12
1.0
 22
0.0
 32
0.0
 13
1.0
 23
0.0
 33
0.0
 40
0.0
 40
0.0
 40
0.0
 40
0.0
 40
0.0434782608695652
 40
0.0434782608695652
 40
0.0434782608695652
 40
0.0434782608695652
 40
0.0869565217391304
 40
0.0869565217391304
 40
0.0869565217391304
 40
0.0869565217391304
 40
0.1304347826086956
 40
0.1304347826086956
 40
0.1304347826086956
 40
0.1304347826086956
 40
0.1739130434782609
 40
0.1739130434782609
 40
0.1739130434782609
 40
0.1739130434782609
 40
0.2173913043478261
 40
0.2173913043478261
 40
0.2173913043478261
 40
0.2173913043478261
 40
0.2608695652173913
 40
0.2608695652173913
 40
0.2608695652173913
 40
0.2608695652173913
 40
0.3043478260869565
 40
0.3043478260869565
 40
0.3043478260869565
 40
0.3043478260869565
 40
0.3478260869565217
 40
0.3478260869565217
 40
0.3478260869565217
 40
0.3478260869565217
 40
0.391304347826087
 40
0.391304347826087
 40
0.391304347826087
 40
0.391304347826087
 40
0.4347826086956522
 40
0.4347826086956522
 40
0.4347826086956522
 40
0.4347826086956522
 40
0.4782608695652174
 40
0.4782608695652174
 40
0.4782608695652174
 40
0.4782608695652174
 40
0.5217391304347826
 40
0.5217391304347826
 40
0.5217391304347826
 40
0.5217391304347826
 40
0.5652173913043478
 40
0.5652173913043478
 40
0.5652173913043478
 40
0.5652173913043478
 40
0.6086956521739131
 40
0.6086956521739131
 40
0.6086956521739131
 40
0.6086956521739131
 40
0.6521739130434783
 40
0.6521739130434783
 40
0.6521739130434783
 40
0.6521739130434783
 40
0.6956521739130435
 40
0.6956521739130435
 40
0.6956521739130435
 40
0.6956521739130435
 40
0.7391304347826086
 40
0.7391304347826086
 40
0.7391304347826086
 40
0.7391304347826086
 40
0.782608695652174
 40
0.782608695652174
 40
0.782608695652174
 40
0.782608695652174
 40
0.8260869565217391
 40
0.8260869565217391
 40
0.8260869565217391
 40
0.8260869565217391
 40
0.8695652173913043
 40
0.8695652173913043
 40
0.8695652173913043
 40
0.8695652173913043
 40
0.9130434782608695
 40
0.9130434782608695
 40
0.9130434782608695
 40
0.9130434782608695
 40
1.0
 40
1.0
 40
1.0
 40
1.0
 10
-0.67965
 20
7.99012
 30
0.0
 10
-0.67965
 20
7.99012
 30
0.0
 10
-0.67965
 20
7.94062
 30
0.0
 10
-0.67965
 20
7.94062
 30
0.0
 10
-0.67965
 20
7.94062
 30
0.0
 10
-0.67965
 20
7.94062
 30
0.0
 10
-0.95898
 20
7.94062
 30
0.0
 10
-0.95898
 20
7.94062
 30
0.0
 10
-0.95898
 20
7.94062
 30
0.0
 10
-0.95937
 20
7.9531
 30
0.0
 10
-0.95731
 20
7.96509
 30
0.0
 10
-0.95289
 20
7.97667
 30
0.0
 10
-0.95289
 20
7.97667
 30
0.0
 10
-0.94572
 20
7.99563
 30
0.0
 10
-0.93423
 20
8.01438
 30
0.0
 10
-0.91841
 20
8.03275
 30
0.0
 10
-0.91841
 20
8.03275
 30
0.0
 10
-0.9026
 20
8.05112
 30
0.0
 10
-0.88001
 20
8.07233
 30
0.0
 10
-0.85065
 20
8.0964
 30
0.0
 10
-0.85065
 20
8.0964
 30
0.0
 10
-0.80497
 20
8.13402
 30
0.0
 10
-0.77394
 20
8.16377
 30
0.0
 10
-0.75773
 20
8.18578
 30
0.0
 10
-0.75773
 20
8.18578
 30
0.0
 10
-0.74143
 20
8.20778
 30
0.0
 10
-0.73327
 20
8.2286
 30
0.0
 10
-0.73327
 20
8.24825
 30
0.0
 10
-0.73327
 20
8.24825
 30
0.0
 10
-0.73327
 20
8.26878
 30
0.0
 10
-0.74064
 20
8.28606
 30
0.0
 10
-0.75538
 20
8.30021
 30
0.0
 10
-0.75538
 20
8.30021
 30
0.0
 10
-0.7701
 20
8.31425
 30
0.0
 10
-0.78936
 20
8.32132
 30
0.0
 10
-0.81302
 20
8.32132
 30
0.0
 10
-0.81302
 20
8.32132
 30
0.0
 10
-0.83807
 20
8.32132
 30
0.0
 10
-0.85811
 20
8.31386
 30
0.0
 10
-0.87314
 20
8.29893
 30
0.0
 10
-0.87314
 20
8.29893
 30
0.0
 10
-0.88816
 20
8.28409
 30
0.0
 10
-0.89573
 20
8.26347
 30
0.0
 10
-0.89592
 20
8.23705
 30
0.0
 10
-0.89592
 20
8.23705
 30
0.0
 10
-0.89592
 20
8.23705
 30
0.0
 10
-0.94896
 20
8.24236
 30
0.0
 10
-0.94896
 20
8.24236
 30
0.0
 10
-0.94896
 20
8.24236
 30
0.0
 10
-0.94533
 20
8.28203
 30
0.0
 10
-0.93157
 20
8.31229
 30
0.0
 10
-0.90781
 20
8.33311
 30
0.0
 10
-0.90781
 20
8.33311
 30
0.0
 10
-0.88394
 20
8.35393
 30
0.0
 10
-0.85202
 20
8.36434
 30
0.0
 10
-0.81185
 20
8.36434
 30
0.0
 10
-0.81185
 20
8.36434
 30
0.0
 10
-0.77138
 20
8.36434
 30
0.0
 10
-0.73927
 20
8.35314
 30
0.0
 10
-0.71569
 20
8.33065
 30
0.0
 10
-0.71569
 20
8.33065
 30
0.0
 10
-0.69202
 20
8.30816
 30
0.0
 10
-0.68023
 20
8.28026
 30
0.0
 10
-0.68023
 20
8.24707
 30
0.0
 10
-0.68023
 20
8.24707
 30
0.0
 10
-0.68023
 20
8.23017
 30
0.0
 10
-0.68367
 20
8.21358
 30
0.0
 10
-0.69064
 20
8.19727
 30
0.0
 10
-0.69064
 20
8.19727
 30
0.0
 10
-0.69752
 20
8.18087
 30
0.0
 10
-0.70901
 20
8.16368
 30
0.0
 10
-0.72502
 20
8.14561
 30
0.0
 10
-0.72502
 20
8.14561
 30
0.0
 10
-0.74113
 20
8.12764
 30
0.0
 10
-0.76775
 20
8.10278
 30
0.0
 10
-0.80488
 20
8.07135
 30
0.0
 10
-0.80488
 20
8.07135
 30
0.0
 10
-0.83601
 20
8.04522
 30
0.0
 10
-0.85604
 20
8.02754
 30
0.0
 10
-0.86489
 20
8.01822
 30
0.0
 10
-0.86489
 20
8.01822
 30
0.0
 10
-0.87372
 20
8.00888
 30
0.0
 10
-0.88099
 20
7.99955
 30
0.0
 10
-0.88678
 20
7.99012
 30
0.0
 10
-0.88678
 20
7.99012
 30
0.0
 10
-0.88678
 20
7.99012
 30
0.0
 10
-0.67965
 20
7.99012
 30
0.0
 10
-0.67965
 20
7.99012
 30
0.0
  0
SPLINE
  5
6A
330
1F
100
AcDbEntity
  8
layer 2
 62
     1
100
AcDbSpline
210
0.0
220
0.0
230
1.0
 70
    11
 71
     3
 72
    92
 73
    88
 74
     0
 42
0.0000000001
 43
0.0000000001
 12
1.0
 22
0.0
 32
0.0
 13
1.0
 23
0.0
 33
0.0
 40
0.0
 40
0.0
 40
0.0
 40
0.0
 40
0.0434782608695652
 40
0.0434782608695652
 40
0.0434782608695652
 40
0.0434782608695652
 40
0.0869565217391304
 40
0.0869565217391304
 40
0.0869565217391304
 40
0.0869565217391304
 40
0.1304347826086956
 40
0.1304347826086956
 40
0.1304347826086956
 40
0.1304347826086956
 40
0.1739130434782609
 40
0.1739130434782609
 40
0.1739130434782609
 40
0.1739130434782609
 40
0.2173913043478261
 40
0.2173913043478261
 40
0.2173913043478261
 40
0.2173913043478261
 40
0.2608695652173913
 40
0.2608695652173913
 40
0.2608695652173913
 40
0.2608695652173913
 40
0.3043478260869565
 40
0.3043478260869565
 40
0.3043478260869565
 40
0.3043478260869565
 40
0.3478260869565217
 40
0.3478260869565217
 40
0.3478260869565217
 40
0.3478260869565217
 40
0.391304347826087
 40
0.391304347826087
 40
0.391304347826087
 40
0.391304347826087
 40
0.4347826086956522
 40
0.4347826086956522
 40
0.4347826086956522
 40
0.4347826086956522
 40
0.4782608695652174
 40
0.4782608695652174
 40
0.4782608695652174
 40
0.4782608695652174
 40
0.5217391304347826
 40
0.5217391304347826
 40
0.5217391304347826
 40
0.5217391304347826
 40
0.5652173913043478
 40
0.5652173913043478
 40
0.5652173913043478
 40
0.5652173913043478
 40
0.6086956521739131
 40
0.6086956521739131
 40
0.6086956521739131
 40
0.6086956521739131
 40
0.6521739130434783
 40
0.6521739130434783
 40
0.6521739130434783
 40
0.6521739130434783
 40
0.6956521739130435
 40
0.6956521739130435
 40
0.6956521739130435
 40
0.6956521739130435
 40
0.7391304347826086
 40
0.7391304347826086
 40
0.7391304347826086
 40
0.7391304347826086
 40
0.782608695652174
 40
0.782608695652174
 40
0.782608695652174
 40
0.782608695652174
 40
0.8260869565217391
 40
0.8260869565217391
 40
0.8260869565217391
 40
0.8260869565217391
 40
0.8695652173913043
 40
0.8695652173913043
 40
0.8695652173913043
 40
0.8695652173913043
 40
0.9130434782608695
 40
0.9130434782608695
 40
0.9130434782608695
 40
0.9130434782608695
 40
1.0
 40
1.0
 40
1.0
 40
1.0
 10
-0.62356
 20
8.05142
 30
0.0
 10
-0.62356
 20
8.05142
 30
0.0
 10
-0.56934
 20
8.05554
 30
0.0
 10
-0.56934
 20
8.05554
 30
0.0
 10
-0.56934
 20
8.05554
 30
0.0
 10
-0.56532
 20
8.02912
 30
0.0
 10
-0.55599
 20
8.00928
 30
0.0
 10
-0.54146
 20
7.99592
 30
0.0
 10
-0.54146
 20
7.99592
 30
0.0
 10
-0.52692
 20
7.98266
 30
0.0
 10
-0.50914
 20
7.97598
 30
0.0
 10
-0.48821
 20
7.97598
 30
0.0
 10
-0.48821
 20
7.97598
 30
0.0
 10
-0.46297
 20
7.97598
 30
0.0
 10
-0.44186
 20
7.98541
 30
0.0
 10
-0.42467
 20
8.00417
 30
0.0
 10
-0.42467
 20
8.00417
 30
0.0
 10
-0.40758
 20
8.02303
 30
0.0
 10
-0.39903
 20
8.04798
 30
0.0
 10
-0.39903
 20
8.07901
 30
0.0
 10
-0.39903
 20
8.07901
 30
0.0
 10
-0.39903
 20
8.10858
 30
0.0
 10
-0.40718
 20
8.13186
 30
0.0
 10
-0.42359
 20
8.14894
 30
0.0
 10
-0.42359
 20
8.14894
 30
0.0
 10
-0.43999
 20
8.16604
 30
0.0
 10
-0.4617
 20
8.17458
 30
0.0
 10
-0.48871
 20
8.17458
 30
0.0
 10
-0.48871
 20
8.17458
 30
0.0
 10
-0.5055
 20
8.17458
 30
0.0
 10
-0.52053
 20
8.17075
 30
0.0
 10
-0.53389
 20
8.16309
 30
0.0
 10
-0.53389
 20
8.16309
 30
0.0
 10
-0.54714
 20
8.15543
 30
0.0
 10
-0.55756
 20
8.14551
 30
0.0
 10
-0.56522
 20
8.13333
 30
0.0
 10
-0.56522
 20
8.13333
 30
0.0
 10
-0.56522
 20
8.13333
 30
0.0
 10
-0.61413
 20
8.1404
 30
0.0
 10
-0.61413
 20
8.1404
 30
0.0
 10
-0.61413
 20
8.1404
 30
0.0
 10
-0.61413
 20
8.1404
 30
0.0
 10
-0.57347
 20
8.35727
 30
0.0
 10
-0.57347
 20
8.35727
 30
0.0
 10
-0.57347
 20
8.35727
 30
0.0
 10
-0.57347
 20
8.35727
 30
0.0
 10
-0.36427
 20
8.35727
 30
0.0
 10
-0.36427
 20
8.35727
 30
0.0
 10
-0.36427
 20
8.35727
 30
0.0
 10
-0.36427
 20
8.35727
 30
0.0
 10
-0.36427
 20
8.30777
 30
0.0
 10
-0.36427
 20
8.30777
 30
0.0
 10
-0.36427
 20
8.30777
 30
0.0
 10
-0.36427
 20
8.30777
 30
0.0
 10
-0.53212
 20
8.30777
 30
0.0
 10
-0.53212
 20
8.30777
 30
0.0
 10
-0.53212
 20
8.30777
 30
0.0
 10
-0.53212
 20
8.30777
 30
0.0
 10
-0.55461
 20
8.19393
 30
0.0
 10
-0.55461
 20
8.19393
 30
0.0
 10
-0.55461
 20
8.19393
 30
0.0
 10
-0.52937
 20
8.21171
 30
0.0
 10
-0.50285
 20
8.22055
 30
0.0
 10
-0.47515
 20
8.22055
 30
0.0
 10
-0.47515
 20
8.22055
 30
0.0
 10
-0.43842
 20
8.22055
 30
0.0
 10
-0.40738
 20
8.20778
 30
0.0
 10
-0.38214
 20
8.18224
 30
0.0
 10
-0.38214
 20
8.18224
 30
0.0
 10
-0.3569
 20
8.15671
 30
0.0
 10
-0.34423
 20
8.1239
 30
0.0
 10
-0.34423
 20
8.08383
 30
0.0
 10
-0.34423
 20
8.08383
 30
0.0
 10
-0.34423
 20
8.04562
 30
0.0
 10
-0.35533
 20
8.01262
 30
0.0
 10
-0.37753
 20
7.98483
 30
0.0
 10
-0.37753
 20
7.98483
 30
0.0
 10
-0.40454
 20
7.95064
 30
0.0
 10
-0.44146
 20
7.93356
 30
0.0
 10
-0.48821
 20
7.93356
 30
0.0
 10
-0.48821
 20
7.93356
 30
0.0
 10
-0.52652
 20
7.93356
 30
0.0
 10
-0.55776
 20
7.94435
 30
0.0
 10
-0.58202
 20
7.96586
 30
0.0
 10
-0.58202
 20
7.96586
 30
0.0
 10
-0.60628
 20
7.98737
 30
0.0
 10
-0.62013
 20
8.01586
 30
0.0
 10
-0.62356
 20
8.05142
 30
0.0
  0
SPLINE
  5
6B
330
1F
100
AcDbEntity
  8
layer 2
 62
     1
100
AcDbSpline
210
0.0
220
0.0
230
1.0
 70
    11
 71
     3
 72
    28
 73
    24
 74
     0
 42
0.0000000001
 43
0.0000000001
 12
1.0
 22
0.0
 32
0.0
 13
1.0
 23
0.0
 33
0.0
 40
0.0
 40
0.0
 40
0.0
 40
0.0
 40
0.1428571428571428
 40
0.1428571428571428
 40
0.1428571428571428
 40
0.1428571428571428
 40
0.2857142857142857
 40
0.2857142857142857
 40
0.2857142857142857
 40
0.2857142857142857
 40
0.4285714285714285
 40
0.4285714285714285
 40
0.4285714285714285
 40
0.4285714285714285
 40
0.5714285714285714
 40
0.5714285714285714
 40
0.5714285714285714
 40
0.5714285714285714
 40
0.7142857142857143
 40
0.7142857142857143
 40
0.7142857142857143
 40
0.7142857142857143
 40
1.0
 40
1.0
 40
1.0
 40
1.0
 10
-0.27911
 20
8.21348
 30
0.0
 10
-0.27911
 20
8.21348
 30
0.0
 10
-0.29345
 20
8.29362
 30
0.0
 10
-0.29345
 20
8.29362
 30
0.0
 10
-0.29345
 20
8.29362
 30
0.0
 10
-0.29345
 20
8.29362
 30
0.0
 10
-0.29345
 20
8.36257
 30
0.0
 10
-0.29345
 20
8.36257
 30
0.0
 10
-0.29345
 20
8.36257
 30
0.0
 10
-0.29345
 20
8.36257
 30
0.0
 10
-0.23451
 20
8.36257
 30
0.0
 10
-0.23451
 20
8.36257
 30
0.0
 10
-0.23451
 20
8.36257
 30
0.0
 10
-0.23451
 20
8.36257
 30
0.0
 10
-0.23451
 20
8.29362
 30
0.0
 10
-0.23451
 20
8.29362
 30
0.0
 10
-0.23451
 20
8.29362
 30
0.0
 10
-0.23451
 20
8.29362
 30
0.0
 10
-0.24748
 20
8.21348
 30
0.0
 10
-0.24748
 20
8.21348
 30
0.0
 10
-0.24748
 20
8.21348
 30
0.0
 10
-0.24748
 20
8.21348
 30
0.0
 10
-0.27911
 20
8.21348
 30
0.0
 10
-0.27911
 20
8.21348
 30
0.0
  0
SPLINE
  5
6C
330
1F
100
AcDbEntity
  8
layer 2
 62
     1
100
AcDbSpline
210
0.0
220
0.0
230
1.0
 70
    11
 71
     3
 72
    28
 73
    24
 74
     0
 42
0.0000000001
 43
0.0000000001
 12
1.0
 22
0.0
 32
0.0
 13
1.0
 23
0.0
 33
0.0
 40
0.0
 40
0.0
 40
0.0
 40
0.0
 40
0.1428571428571428
 40
0.1428571428571428
 40
0.1428571428571428
 40
0.1428571428571428
 40
0.2857142857142857
 40
0.2857142857142857
 40
0.2857142857142857
 40
0.2857142857142857
 40
0.4285714285714285
 40
0.4285714285714285
 40
0.4285714285714285
 40
0.4285714285714285
 40
0.5714285714285714
 40
0.5714285714285714
 40
0.5714285714285714
 40
0.5714285714285714
 40
0.7142857142857143
 40
0.7142857142857143
 40
0.7142857142857143
 40
0.7142857142857143
 40
1.0
 40
1.0
 40
1.0
 40
1.0
 10
-0.18393
 20
8.21348
 30
0.0
 10
-0.18393
 20
8.21348
 30
0.0
 10
-0.19798
 20
8.29362
 30
0.0
 10
-0.19798
 20
8.29362
 30
0.0
 10
-0.19798
 20
8.29362
 30
0.0
 10
-0.19798
 20
8.29362
 30
0.0
 10
-0.19798
 20
8.36257
 30
0.0
 10
-0.19798
 20
8.36257
 30
0.0
 10
-0.19798
 20
8.36257
 30
0.0
 10
-0.19798
 20
8.36257
 30
0.0
 10
-0.13905
 20
8.36257
 30
0.0
 10
-0.13905
 20
8.36257
 30
0.0
 10
-0.13905
 20
8.36257
 30
0.0
 10
-0.13905
 20
8.36257
 30
0.0
 10
-0.13905
 20
8.29362
 30
0.0
 10
-0.13905
 20
8.29362
 30
0.0
 10
-0.13905
 20
8.29362
 30
0.0
 10
-0.13905
 20
8.29362
 30
0.0
 10
-0.1529
 20
8.21348
 30
0.0
 10
-0.1529
 20
8.21348
 30
0.0
 10
-0.1529
 20
8.21348
 30
0.0
 10
-0.1529
 20
8.21348
 30
0.0
 10
-0.18393
 20
8.21348
 30
0.0
 10
-0.18393
 20
8.21348
 30
0.0
  0
SPLINE
  5
6D
330
1F
100
AcDbEntity
  8
layer 2
 62
     1
370
     0
100
AcDbSpline
210
0.0
220
0.0
230
1.0
 70
    24
 71
     3
 72
     8
 73
     4
 74
     0
 42
0.0000000001
 43
0.0000000001
 12
1.0
 22
0.0
 32
0.0
 13
1.0
 23
0.0
 33
0.0
 40
0.0
 40
0.0
 40
0.0
 40
0.0
 40
1.0
 40
1.0
 40
1.0
 40
1.0
 10
9.46124
 20
6.68444
 30
0.0
 10
9.46124
 20
6.68444
 30
0.0
 10
11.34787
 20
6.68444
 30
0.0
 10
11.34787
 20
6.68444
 30
0.0
  0
SPLINE
  5
6E
330
1F
100
AcDbEntity
  8
layer 2
 62
     1
370
     0
100
AcDbSpline
210
0.0
220
0.0
230
1.0
 70
    24
 71
     3
 72
     8
 73
     4
 74
     0
 42
0.0000000001
 43
0.0000000001
 12
1.0
 22
0.0
 32
0.0
 13
1.0
 23
0.0
 33
0.0
 40
0.0
 40
0.0
 40
0.0
 40
0.0
 40
1.0
 40
1.0
 40
1.0
 40
1.0
 10
9.46124
 20
-6.3055
 30
0.0
 10
9.46124
 20
-6.3055
 30
0.0
 10
11.34787
 20
-6.3055
 30
0.0
 10
11.34787
 20
-6.3055
 30
0.0
  0
SPLINE
  5
6F
330
1F
100
AcDbEntity
  8
layer 2
 62
     1
370
     0
100
AcDbSpline
210
0.0
220
0.0
230
1.0
 70
    24
 71
     3
 72
     8
 73
     4
 74
     0
 42
0.0000000001
 43
0.0000000001
 12
1.0
 22
0.0
 32
0.0
 13
1.0
 23
0.0
 33
0.0
 40
0.0
 40
0.0
 40
0.0
 40
0.0
 40
1.0
 40
1.0
 40
1.0
 40
1.0
 10
11.02759
 20
6.04388
 30
0.0
 10
11.02759
 20
6.04388
 30
0.0
 10
11.02759
 20
-5.66495
 30
0.0
 10
11.02759
 20
-5.66495
 30
0.0
  0
SPLINE
  5
70
330
1F
100
AcDbEntity
  8
layer 2
 62
     1
100
AcDbSpline
210
0.0
220
0.0
230
1.0
 70
    27
 71
     3
 72
    12
 73
     8
 74
     0
 42
0.0000000001
 43
0.0000000001
 12
1.0
 22
0.0
 32
0.0
 13
1.0
 23
0.0
 33
0.0
 40
0.0
 40
0.0
 40
0.0
 40
0.0
 40
0.3333333333333333
 40
0.3333333333333333
 40
0.3333333333333333
 40
0.3333333333333333
 40
1.0
 40
1.0
 40
1.0
 40
1.0
 10
10.92084
 20
6.04388
 30
0.0
 10
10.92084
 20
6.04388
 30
0.0
 10
11.02759
 20
6.68444
 30
0.0
 10
11.02759
 20
6.68444
 30
0.0
 10
11.02759
 20
6.68444
 30
0.0
 10
11.02759
 20
6.68444
 30
0.0
 10
10.92084
 20
6.04388
 30
0.0
 10
10.92084
 20
6.04388
 30
0.0
  0
SPLINE
  5
71
330
1F
100
AcDbEntity
  8
layer 2
 62
     1
100
AcDbSpline
210
0.0
220
0.0
230
1.0
 70
     8
 71
     3
 72
    12
 73
     8
 74
     0
 42
0.0000000001
 43
0.0000000001
 12
1.0
 22
0.0
 32
0.0
 13
1.0
 23
0.0
 33
0.0
 40
0.0
 40
0.0
 40
0.0
 40
0.0
 40
0.3333333333333333
 40
0.3333333333333333
 40
0.3333333333333333
 40
0.3333333333333333
 40
1.0
 40
1.0
 40
1.0
 40
1.0
 10
11.02759
 20
6.68444
 30
0.0
 10
11.02759
 20
6.68444
 30
0.0
 10
11.13436
 20
6.04388
 30
0.0
 10
11.13436
 20
6.04388
 30
0.0
 10
11.13436
 20
6.04388
 30
0.0
 10
11.13436
 20
6.04388
 30
0.0
 10
10.92084
 20
6.04388
 30
0.0
 10
10.92084
 20
6.04388
 30
0.0
  0
SPLINE
  5
72
330
1F
100
AcDbEntity
  8
layer 2
 62
     1
370
     9
100
AcDbSpline
210
0.0
220
0.0
230
1.0
 70
    24
 71
     3
 72
     8
 73
     4
 74
     0
 42
0.0000000001
 43
0.0000000001
 12
1.0
 22
0.0
 32
0.0
 13
1.0
 23
0.0
 33
0.0
 40
0.0
 40
0.0
 40
0.0
 40
0.0
 40
1.0
 40
1.0
 40
1.0
 40
1.0
 10
10.92084
 20
6.04388
 30
0.0
 10
10.92084
 20
6.04388
 30
0.0
 10
11.02759
 20
6.68444
 30
0.0
 10
11.02759
 20
6.68444
 30
0.0
  0
SPLINE
  5
73
330
1F
100
AcDbEntity
  8
layer 2
 62
     1
370
     9
100
AcDbSpline
210
0.0
220
0.0
230
1.0
 70
     8
 71
     3
 72
    12
 73
     8
 74
     0
 42
0.0000000001
 43
0.0000000001
 12
1.0
 22
0.0
 32
0.0
 13
1.0
 23
0.0
 33
0.0
 40
0.0
 40
0.0
 40
0.0
 40
0.0
 40
0.3333333333333333
 40
0.3333333333333333
 40
0.3333333333333333
 40
0.3333333333333333
 40
1.0
 40
1.0
 40
1.0
 40
1.0
 10
11.02759
 20
6.68444
 30
0.0
 10
11.02759
 20
6.68444
 30
0.0
 10
11.13436
 20
6.04388
 30
0.0
 10
11.13436
 20
6.04388
 30
0.0
 10
11.13436
 20
6.04388
 30
0.0
 10
11.13436
 20
6.04388
 30
0.0
 10
10.92084
 20
6.04388
 30
0.0
 10
10.92084
 20
6.04388
 30
0.0
  0
SPLINE
  5
74
330
1F
100
AcDbEntity
  8
layer 2
 62
     1
100
AcDbSpline
210
0.0
220
0.0
230
1.0
 70
    27
 71
     3
 72
    12
 73
     8
 74
     0
 42
0.0000000001
 43
0.0000000001
 12
1.0
 22
0.0
 32
0.0
 13
1.0
 23
0.0
 33
0.0
 40
0.0
 40
0.0
 40
0.0
 40
0.0
 40
0.3333333333333333
 40
0.3333333333333333
 40
0.3333333333333333
 40
0.3333333333333333
 40
1.0
 40
1.0
 40
1.0
 40
1.0
 10
10.92084
 20
-5.66495
 30
0.0
 10
10.92084
 20
-5.66495
 30
0.0
 10
11.02759
 20
-6.3055
 30
0.0
 10
11.02759
 20
-6.3055
 30
0.0
 10
11.02759
 20
-6.3055
 30
0.0
 10
11.02759
 20
-6.3055
 30
0.0
 10
10.92084
 20
-5.66495
 30
0.0
 10
10.92084
 20
-5.66495
 30
0.0
  0
SPLINE
  5
75
330
1F
100
AcDbEntity
  8
layer 2
 62
     1
100
AcDbSpline
210
0.0
220
0.0
230
1.0
 70
     8
 71
     3
 72
    12
 73
     8
 74
     0
 42
0.0000000001
 43
0.0000000001
 12
1.0
 22
0.0
 32
0.0
 13
1.0
 23
0.0
 33
0.0
 40
0.0
 40
0.0
 40
0.0
 40
0.0
 40
0.3333333333333333
 40
0.3333333333333333
 40
0.3333333333333333
 40
0.3333333333333333
 40
1.0
 40
1.0
 40
1.0
 40
1.0
 10
11.02759
 20
-6.3055
 30
0.0
 10
11.02759
 20
-6.3055
 30
0.0
 10
11.13436
 20
-5.66495
 30
0.0
 10
11.13436
 20
-5.66495
 30
0.0
 10
11.13436
 20
-5.66495
 30
0.0
 10
11.13436
 20
-5.66495
 30
0.0
 10
10.92084
 20
-5.66495
 30
0.0
 10
10.92084
 20
-5.66495
 30
0.0
  0
SPLINE
  5
76
330
1F
100
AcDbEntity
  8
layer 2
 62
     1
370
     9
100
AcDbSpline
210
0.0
220
0.0
230
1.0
 70
    24
 71
     3
 72
     8
 73
     4
 74
     0
 42
0.0000000001
 43
0.0000000001
 12
1.0
 22
0.0
 32
0.0
 13
1.0
 23
0.0
 33
0.0
 40
0.0
 40
0.0
 40
0.0
 40
0.0
 40
1.0
 40
1.0
 40
1.0
 40
1.0
 10
10.92084
 20
-5.66495
 30
0.0
 10
10.92084
 20
-5.66495
 30
0.0
 10
11.02759
 20
-6.3055
 30
0.0
 10
11.02759
 20
-6.3055
 30
0.0
  0
SPLINE
  5
77
330
1F
100
AcDbEntity
  8
layer 2
 62
     1
370
     9
100
AcDbSpline
210
0.0
220
0.0
230
1.0
 70
     8
 71
     3
 72
    12
 73
     8
 74
     0
 42
0.0000000001
 43
0.0000000001
 12
1.0
 22
0.0
 32
0.0
 13
1.0
 23
0.0
 33
0.0
 40
0.0
 40
0.0
 40
0.0
 40
0.0
 40
0.3333333333333333
 40
0.3333333333333333
 40
0.3333333333333333
 40
0.3333333333333333
 40
1.0
 40
1.0
 40
1.0
 40
1.0
 10
11.02759
 20
-6.3055
 30
0.0
 10
11.02759
 20
-6.3055
 30
0.0
 10
11.13436
 20
-5.66495
 30
0.0
 10
11.13436
 20
-5.66495
 30
0.0
 10
11.13436
 20
-5.66495
 30
0.0
 10
11.13436
 20
-5.66495
 30
0.0
 10
10.92084
 20
-5.66495
 30
0.0
 10
10.92084
 20
-5.66495
 30
0.0
  0
SPLINE
  5
78
330
1F
100
AcDbEntity
  8
layer 2
 62
     1
100
AcDbSpline
210
0.0
220
0.0
230
1.0
 70
    11
 71
     3
 72
    40
 73
    36
 74
     0
 42
0.0000000001
 43
0.0000000001
 12
1.0
 22
0.0
 32
0.0
 13
1.0
 23
0.0
 33
0.0
 40
0.0
 40
0.0
 40
0.0
 40
0.0
 40
0.1
 40
0.1
 40
0.1
 40
0.1
 40
0.2
 40
0.2
 40
0.2
 40
0.2
 40
0.3
 40
0.3
 40
0.3
 40
0.3
 40
0.4
 40
0.4
 40
0.4
 40
0.4
 40
0.5
 40
0.5
 40
0.5
 40
0.5
 40
0.6
 40
0.6
 40
0.6
 40
0.6
 40
0.7
 40
0.7
 40
0.7
 40
0.7
 40
0.8
 40
0.8
 40
0.8
 40
0.8
 40
1.0
 40
1.0
 40
1.0
 40
1.0
 10
10.75376
 20
1.26721
 30
0.0
 10
10.75376
 20
1.26721
 30
0.0
 10
10.75376
 20
1.21535
 30
0.0
 10
10.75376
 20
1.21535
 30
0.0
 10
10.75376
 20
1.21535
 30
0.0
 10
10.75376
 20
1.21535
 30
0.0
 10
10.42354
 20
1.21535
 30
0.0
 10
10.42354
 20
1.21535
 30
0.0
 10
10.42354
 20
1.21535
 30
0.0
 10
10.43553
 20
1.20287
 30
0.0
 10
10.44741
 20
1.18647
 30
0.0
 10
10.45929
 20
1.16624
 30
0.0
 10
10.45929
 20
1.16624
 30
0.0
 10
10.47118
 20
1.14601
 30
0.0
 10
10.48012
 20
1.12773
 30
0.0
 10
10.48601
 20
1.11163
 30
0.0
 10
10.48601
 20
1.11163
 30
0.0
 10
10.48601
 20
1.11163
 30
0.0
 10
10.43593
 20
1.11163
 30
0.0
 10
10.43593
 20
1.11163
 30
0.0
 10
10.43593
 20
1.11163
 30
0.0
 10
10.42237
 20
1.1406
 30
0.0
 10
10.40586
 20
1.16594
 30
0.0
 10
10.38642
 20
1.18764
 30
0.0
 10
10.38642
 20
1.18764
 30
0.0
 10
10.36707
 20
1.20936
 30
0.0
 10
10.34831
 20
1.22477
 30
0.0
 10
10.33004
 20
1.23381
 30
0.0
 10
10.33004
 20
1.23381
 30
0.0
 10
10.33004
 20
1.23381
 30
0.0
 10
10.33004
 20
1.26721
 30
0.0
 10
10.33004
 20
1.26721
 30
0.0
 10
10.33004
 20
1.26721
 30
0.0
 10
10.33004
 20
1.26721
 30
0.0
 10
10.75376
 20
1.26721
 30
0.0
 10
10.75376
 20
1.26721
 30
0.0
  0
SPLINE
  5
79
330
1F
100
AcDbEntity
  8
layer 2
 62
     1
100
AcDbSpline
210
0.0
220
0.0
230
1.0
 70
    11
 71
     3
 72
    80
 73
    76
 74
     0
 42
0.0000000001
 43
0.0000000001
 12
1.0
 22
0.0
 32
0.0
 13
1.0
 23
0.0
 33
0.0
 40
0.0
 40
0.0
 40
0.0
 40
0.0
 40
0.05
 40
0.05
 40
0.05
 40
0.05
 40
0.1
 40
0.1
 40
0.1
 40
0.1
 40
0.15
 40
0.15
 40
0.15
 40
0.15
 40
0.2
 40
0.2
 40
0.2
 40
0.2
 40
0.25
 40
0.25
 40
0.25
 40
0.25
 40
0.3
 40
0.3
 40
0.3
 40
0.3
 40
0.35
 40
0.35
 40
0.35
 40
0.35
 40
0.4
 40
0.4
 40
0.4
 40
0.4
 40
0.45
 40
0.45
 40
0.45
 40
0.45
 40
0.5
 40
0.5
 40
0.5
 40
0.5
 40
0.55
 40
0.55
 40
0.55
 40
0.55
 40
0.6
 40
0.6
 40
0.6
 40
0.6
 40
0.65
 40
0.65
 40
0.65
 40
0.65
 40
0.7
 40
0.7
 40
0.7
 40
0.7
 40
0.75
 40
0.75
 40
0.75
 40
0.75
 40
0.8
 40
0.8
 40
0.8
 40
0.8
 40
0.85
 40
0.85
 40
0.85
 40
0.85
 40
0.9
 40
0.9
 40
0.9
 40
0.9
 40
1.0
 40
1.0
 40
1.0
 40
1.0
 10
10.43494
 20
1.6698
 30
0.0
 10
10.43494
 20
1.6698
 30
0.0
 10
10.43907
 20
1.61853
 30
0.0
 10
10.43907
 20
1.61853
 30
0.0
 10
10.43907
 20
1.61853
 30
0.0
 10
10.41873
 20
1.61392
 30
0.0
 10
10.4039
 20
1.60734
 30
0.0
 10
10.39467
 20
1.59879
 30
0.0
 10
10.39467
 20
1.59879
 30
0.0
 10
10.37983
 20
1.58475
 30
0.0
 10
10.37248
 20
1.56736
 30
0.0
 10
10.37248
 20
1.54674
 30
0.0
 10
10.37248
 20
1.54674
 30
0.0
 10
10.37248
 20
1.53013
 30
0.0
 10
10.37708
 20
1.51541
 30
0.0
 10
10.38632
 20
1.50273
 30
0.0
 10
10.38632
 20
1.50273
 30
0.0
 10
10.3982
 20
1.48643
 30
0.0
 10
10.4155
 20
1.47366
 30
0.0
 10
10.43828
 20
1.46414
 30
0.0
 10
10.43828
 20
1.46414
 30
0.0
 10
10.46117
 20
1.45471
 30
0.0
 10
10.49367
 20
1.4498
 30
0.0
 10
10.53581
 20
1.4494
 30
0.0
 10
10.53581
 20
1.4494
 30
0.0
 10
10.51685
 20
1.46187
 30
0.0
 10
10.50271
 20
1.4772
 30
0.0
 10
10.49357
 20
1.49527
 30
0.0
 10
10.49357
 20
1.49527
 30
0.0
 10
10.48434
 20
1.51334
 30
0.0
 10
10.47972
 20
1.5322
 30
0.0
 10
10.47972
 20
1.55204
 30
0.0
 10
10.47972
 20
1.55204
 30
0.0
 10
10.47972
 20
1.58661
 30
0.0
 10
10.49249
 20
1.61608
 30
0.0
 10
10.51793
 20
1.64044
 30
0.0
 10
10.51793
 20
1.64044
 30
0.0
 10
10.54338
 20
1.66469
 30
0.0
 10
10.57618
 20
1.67688
 30
0.0
 10
10.61655
 20
1.67688
 30
0.0
 10
10.61655
 20
1.67688
 30
0.0
 10
10.64307
 20
1.67688
 30
0.0
 10
10.66762
 20
1.67118
 30
0.0
 10
10.69041
 20
1.65978
 30
0.0
 10
10.69041
 20
1.65978
 30
0.0
 10
10.7132
 20
1.6483
 30
0.0
 10
10.73058
 20
1.63268
 30
0.0
 10
10.74266
 20
1.61264
 30
0.0
 10
10.74266
 20
1.61264
 30
0.0
 10
10.75474
 20
1.59271
 30
0.0
 10
10.76083
 20
1.57001
 30
0.0
 10
10.76083
 20
1.54467
 30
0.0
 10
10.76083
 20
1.54467
 30
0.0
 10
10.76083
 20
1.50156
 30
0.0
 10
10.74491
 20
1.4663
 30
0.0
 10
10.7132
 20
1.43899
 30
0.0
 10
10.7132
 20
1.43899
 30
0.0
 10
10.68146
 20
1.41179
 30
0.0
 10
10.62911
 20
1.39813
 30
0.0
 10
10.55624
 20
1.39813
 30
0.0
 10
10.55624
 20
1.39813
 30
0.0
 10
10.47472
 20
1.39813
 30
0.0
 10
10.41539
 20
1.41326
 30
0.0
 10
10.37837
 20
1.44341
 30
0.0
 10
10.37837
 20
1.44341
 30
0.0
 10
10.34615
 20
1.46974
 30
0.0
 10
10.33004
 20
1.50519
 30
0.0
 10
10.33004
 20
1.54988
 30
0.0
 10
10.33004
 20
1.54988
 30
0.0
 10
10.33004
 20
1.58308
 30
0.0
 10
10.33937
 20
1.61039
 30
0.0
 10
10.35794
 20
1.6316
 30
0.0
 10
10.35794
 20
1.6316
 30
0.0
 10
10.3765
 20
1.65281
 30
0.0
 10
10.40213
 20
1.66558
 30
0.0
 10
10.43494
 20
1.6698
 30
0.0
  0
SPLINE
  5
7A
330
1F
100
AcDbEntity
  8
layer 2
 62
     1
100
AcDbSpline
210
0.0
220
0.0
230
1.0
 70
    11
 71
     3
 72
    40
 73
    36
 74
     0
 42
0.0000000001
 43
0.0000000001
 12
1.0
 22
0.0
 32
0.0
 13
1.0
 23
0.0
 33
0.0
 40
0.0
 40
0.0
 40
0.0
 40
0.0
 40
0.1
 40
0.1
 40
0.1
 40
0.1
 40
0.2
 40
0.2
 40
0.2
 40
0.2
 40
0.3
 40
0.3
 40
0.3
 40
0.3
 40
0.4
 40
0.4
 40
0.4
 40
0.4
 40
0.5
 40
0.5
 40
0.5
 40
0.5
 40
0.6
 40
0.6
 40
0.6
 40
0.6
 40
0.7
 40
0.7
 40
0.7
 40
0.7
 40
0.8
 40
0.8
 40
0.8
 40
0.8
 40
1.0
 40
1.0
 40
1.0
 40
1.0
 10
10.61704
 20
1.45765
 30
0.0
 10
10.63492
 20
1.45765
 30
0.0
 10
10.652
 20
1.46148
 30
0.0
 10
10.6683
 20
1.46905
 30
0.0
 10
10.6683
 20
1.46905
 30
0.0
 10
10.68461
 20
1.47661
 30
0.0
 10
10.69699
 20
1.48722
 30
0.0
 10
10.70553
 20
1.50067
 30
0.0
 10
10.70553
 20
1.50067
 30
0.0
 10
10.71408
 20
1.51422
 30
0.0
 10
10.7184
 20
1.52857
 30
0.0
 10
10.7184
 20
1.54379
 30
0.0
 10
10.7184
 20
1.54379
 30
0.0
 10
10.7184
 20
1.56589
 30
0.0
 10
10.70956
 20
1.58475
 30
0.0
 10
10.69188
 20
1.60037
 30
0.0
 10
10.69188
 20
1.60037
 30
0.0
 10
10.6742
 20
1.61599
 30
0.0
 10
10.65023
 20
1.62384
 30
0.0
 10
10.61988
 20
1.62384
 30
0.0
 10
10.61988
 20
1.62384
 30
0.0
 10
10.59071
 20
1.62384
 30
0.0
 10
10.56773
 20
1.61608
 30
0.0
 10
10.55094
 20
1.60066
 30
0.0
 10
10.55094
 20
1.60066
 30
0.0
 10
10.53414
 20
1.58523
 30
0.0
 10
10.5257
 20
1.5656
 30
0.0
 10
10.5257
 20
1.54173
 30
0.0
 10
10.5257
 20
1.54173
 30
0.0
 10
10.5257
 20
1.51835
 30
0.0
 10
10.53414
 20
1.49842
 30
0.0
 10
10.55094
 20
1.48211
 30
0.0
 10
10.55094
 20
1.48211
 30
0.0
 10
10.56773
 20
1.4658
 30
0.0
 10
10.58973
 20
1.45765
 30
0.0
 10
10.61704
 20
1.45765
 30
0.0
  0
SPLINE
  5
7B
330
1F
100
AcDbEntity
  8
layer 2
 62
     1
100
AcDbSpline
210
0.0
220
0.0
230
1.0
 70
    11
 71
     3
 72
    28
 73
    24
 74
     0
 42
0.0000000001
 43
0.0000000001
 12
1.0
 22
0.0
 32
0.0
 13
1.0
 23
0.0
 33
0.0
 40
0.0
 40
0.0
 40
0.0
 40
0.0
 40
0.1428571428571428
 40
0.1428571428571428
 40
0.1428571428571428
 40
0.1428571428571428
 40
0.2857142857142857
 40
0.2857142857142857
 40
0.2857142857142857
 40
0.2857142857142857
 40
0.4285714285714285
 40
0.4285714285714285
 40
0.4285714285714285
 40
0.4285714285714285
 40
0.5714285714285714
 40
0.5714285714285714
 40
0.5714285714285714
 40
0.5714285714285714
 40
0.7142857142857143
 40
0.7142857142857143
 40
0.7142857142857143
 40
0.7142857142857143
 40
1.0
 40
1.0
 40
1.0
 40
1.0
 10
10.48091
 20
1.74495
 30
0.0
 10
10.48091
 20
1.74495
 30
0.0
 10
10.40076
 20
1.7306
 30
0.0
 10
10.40076
 20
1.7306
 30
0.0
 10
10.40076
 20
1.7306
 30
0.0
 10
10.40076
 20
1.7306
 30
0.0
 10
10.33181
 20
1.7306
 30
0.0
 10
10.33181
 20
1.7306
 30
0.0
 10
10.33181
 20
1.7306
 30
0.0
 10
10.33181
 20
1.7306
 30
0.0
 10
10.33181
 20
1.78953
 30
0.0
 10
10.33181
 20
1.78953
 30
0.0
 10
10.33181
 20
1.78953
 30
0.0
 10
10.33181
 20
1.78953
 30
0.0
 10
10.40076
 20
1.78953
 30
0.0
 10
10.40076
 20
1.78953
 30
0.0
 10
10.40076
 20
1.78953
 30
0.0
 10
10.40076
 20
1.78953
 30
0.0
 10
10.48091
 20
1.77657
 30
0.0
 10
10.48091
 20
1.77657
 30
0.0
 10
10.48091
 20
1.77657
 30
0.0
 10
10.48091
 20
1.77657
 30
0.0
 10
10.48091
 20
1.74495
 30
0.0
 10
10.48091
 20
1.74495
 30
0.0
  0
SPLINE
  5
7C
330
1F
100
AcDbEntity
  8
layer 2
 62
     1
100
AcDbSpline
210
0.0
220
0.0
230
1.0
 70
    11
 71
     3
 72
    28
 73
    24
 74
     0
 42
0.0000000001
 43
0.0000000001
 12
1.0
 22
0.0
 32
0.0
 13
1.0
 23
0.0
 33
0.0
 40
0.0
 40
0.0
 40
0.0
 40
0.0
 40
0.1428571428571428
 40
0.1428571428571428
 40
0.1428571428571428
 40
0.1428571428571428
 40
0.2857142857142857
 40
0.2857142857142857
 40
0.2857142857142857
 40
0.2857142857142857
 40
0.4285714285714285
 40
0.4285714285714285
 40
0.4285714285714285
 40
0.4285714285714285
 40
0.5714285714285714
 40
0.5714285714285714
 40
0.5714285714285714
 40
0.5714285714285714
 40
0.7142857142857143
 40
0.7142857142857143
 40
0.7142857142857143
 40
0.7142857142857143
 40
1.0
 40
1.0
 40
1.0
 40
1.0
 10
10.48091
 20
1.84011
 30
0.0
 10
10.48091
 20
1.84011
 30
0.0
 10
10.40076
 20
1.82608
 30
0.0
 10
10.40076
 20
1.82608
 30
0.0
 10
10.40076
 20
1.82608
 30
0.0
 10
10.40076
 20
1.82608
 30
0.0
 10
10.33181
 20
1.82608
 30
0.0
 10
10.33181
 20
1.82608
 30
0.0
 10
10.33181
 20
1.82608
 30
0.0
 10
10.33181
 20
1.82608
 30
0.0
 10
10.33181
 20
1.88501
 30
0.0
 10
10.33181
 20
1.88501
 30
0.0
 10
10.33181
 20
1.88501
 30
0.0
 10
10.33181
 20
1.88501
 30
0.0
 10
10.40076
 20
1.88501
 30
0.0
 10
10.40076
 20
1.88501
 30
0.0
 10
10.40076
 20
1.88501
 30
0.0
 10
10.40076
 20
1.88501
 30
0.0
 10
10.48091
 20
1.87116
 30
0.0
 10
10.48091
 20
1.87116
 30
0.0
 10
10.48091
 20
1.87116
 30
0.0
 10
10.48091
 20
1.87116
 30
0.0
 10
10.48091
 20
1.84011
 30
0.0
 10
10.48091
 20
1.84011
 30
0.0
  0
SPLINE
  5
7D
330
1F
100
AcDbEntity
  8
layer 2
 62
     1
370
     0
100
AcDbSpline
210
0.0
220
0.0
230
1.0
 70
    24
 71
     3
 72
     8
 73
     4
 74
     0
 42
0.0000000001
 43
0.0000000001
 12
1.0
 22
0.0
 32
0.0
 13
1.0
 23
0.0
 33
0.0
 40
0.0
 40
0.0
 40
0.0
 40
0.0
 40
1.0
 40
1.0
 40
1.0
 40
1.0
 10
-12.41695
 20
-8.00274
 30
0.0
 10
-12.41695
 20
-8.00274
 30
0.0
 10
-10.8446
 20
-6.43555
 30
0.0
 10
-10.8446
 20
-6.43555
 30
0.0
  0
SPLINE
  5
7E
330
1F
100
AcDbEntity
  8
layer 2
 62
     1
100
AcDbSpline
210
0.0
220
0.0
230
1.0
 70
    11
 71
     3
 72
    80
 73
    76
 74
     0
 42
0.0000000001
 43
0.0000000001
 12
1.0
 22
0.0
 32
0.0
 13
1.0
 23
0.0
 33
0.0
 40
0.0
 40
0.0
 40
0.0
 40
0.0
 40
0.05
 40
0.05
 40
0.05
 40
0.05
 40
0.1
 40
0.1
 40
0.1
 40
0.1
 40
0.15
 40
0.15
 40
0.15
 40
0.15
 40
0.2
 40
0.2
 40
0.2
 40
0.2
 40
0.25
 40
0.25
 40
0.25
 40
0.25
 40
0.3
 40
0.3
 40
0.3
 40
0.3
 40
0.35
 40
0.35
 40
0.35
 40
0.35
 40
0.4
 40
0.4
 40
0.4
 40
0.4
 40
0.45
 40
0.45
 40
0.45
 40
0.45
 40
0.5
 40
0.5
 40
0.5
 40
0.5
 40
0.55
 40
0.55
 40
0.55
 40
0.55
 40
0.6
 40
0.6
 40
0.6
 40
0.6
 40
0.65
 40
0.65
 40
0.65
 40
0.65
 40
0.7
 40
0.7
 40
0.7
 40
0.7
 40
0.75
 40
0.75
 40
0.75
 40
0.75
 40
0.8
 40
0.8
 40
0.8
 40
0.8
 40
0.85
 40
0.85
 40
0.85
 40
0.85
 40
0.9
 40
0.9
 40
0.9
 40
0.9
 40
1.0
 40
1.0
 40
1.0
 40
1.0
 10
-12.27046
 20
-6.49796
 30
0.0
 10
-12.27046
 20
-6.49796
 30
0.0
 10
-12.56833
 20
-6.19911
 30
0.0
 10
-12.56833
 20
-6.19911
 30
0.0
 10
-12.56833
 20
-6.19911
 30
0.0
 10
-12.56833
 20
-6.19911
 30
0.0
 10
-12.43588
 20
-6.06709
 30
0.0
 10
-12.43588
 20
-6.06709
 30
0.0
 10
-12.43588
 20
-6.06709
 30
0.0
 10
-12.40924
 20
-6.04053
 30
0.0
 10
-12.38629
 20
-6.02307
 30
0.0
 10
-12.3671
 20
-6.01464
 30
0.0
 10
-12.3671
 20
-6.01464
 30
0.0
 10
-12.34792
 20
-6.00619
 30
0.0
 10
-12.32744
 20
-6.00462
 30
0.0
 10
-12.30563
 20
-6.00994
 30
0.0
 10
-12.30563
 20
-6.00994
 30
0.0
 10
-12.28383
 20
-6.01526
 30
0.0
 10
-12.26476
 20
-6.0262
 30
0.0
 10
-12.24838
 20
-6.04261
 30
0.0
 10
-12.24838
 20
-6.04261
 30
0.0
 10
-12.22724
 20
-6.06383
 30
0.0
 10
-12.21631
 20
-6.08857
 30
0.0
 10
-12.21552
 20
-6.11676
 30
0.0
 10
-12.21552
 20
-6.11676
 30
0.0
 10
-12.21474
 20
-6.14497
 30
0.0
 10
-12.22673
 20
-6.17522
 30
0.0
 10
-12.25144
 20
-6.20775
 30
0.0
 10
-12.25144
 20
-6.20775
 30
0.0
 10
-12.23594
 20
-6.2023
 30
0.0
 10
-12.22302
 20
-6.1994
 30
0.0
 10
-12.21274
 20
-6.19887
 30
0.0
 10
-12.21274
 20
-6.19887
 30
0.0
 10
-12.19066
 20
-6.19793
 30
0.0
 10
-12.16649
 20
-6.20032
 30
0.0
 10
-12.14039
 20
-6.20606
 30
0.0
 10
-12.14039
 20
-6.20606
 30
0.0
 10
-12.14039
 20
-6.20606
 30
0.0
 10
-12.00757
 20
-6.23594
 30
0.0
 10
-12.00757
 20
-6.23594
 30
0.0
 10
-12.00757
 20
-6.23594
 30
0.0
 10
-12.00757
 20
-6.23594
 30
0.0
 10
-12.05697
 20
-6.28517
 30
0.0
 10
-12.05697
 20
-6.28517
 30
0.0
 10
-12.05697
 20
-6.28517
 30
0.0
 10
-12.05697
 20
-6.28517
 30
0.0
 10
-12.15846
 20
-6.26236
 30
0.0
 10
-12.15846
 20
-6.26236
 30
0.0
 10
-12.15846
 20
-6.26236
 30
0.0
 10
-12.18791
 20
-6.25579
 30
0.0
 10
-12.21109
 20
-6.25158
 30
0.0
 10
-12.22803
 20
-6.24946
 30
0.0
 10
-12.22803
 20
-6.24946
 30
0.0
 10
-12.24504
 20
-6.24742
 30
0.0
 10
-12.25831
 20
-6.24747
 30
0.0
 10
-12.26804
 20
-6.24954
 30
0.0
 10
-12.26804
 20
-6.24954
 30
0.0
 10
-12.27762
 20
-6.2516
 30
0.0
 10
-12.28631
 20
-6.255
 30
0.0
 10
-12.29396
 20
-6.25957
 30
0.0
 10
-12.29396
 20
-6.25957
 30
0.0
 10
-12.29931
 20
-6.2631
 30
0.0
 10
-12.3071
 20
-6.26989
 30
0.0
 10
-12.31733
 20
-6.28008
 30
0.0
 10
-12.31733
 20
-6.28008
 30
0.0
 10
-12.31733
 20
-6.28008
 30
0.0
 10
-12.3631
 20
-6.32571
 30
0.0
 10
-12.3631
 20
-6.32571
 30
0.0
 10
-12.3631
 20
-6.32571
 30
0.0
 10
-12.3631
 20
-6.32571
 30
0.0
 10
-12.23081
 20
-6.45844
 30
0.0
 10
-12.23081
 20
-6.45844
 30
0.0
 10
-12.23081
 20
-6.45844
 30
0.0
 10
-12.23081
 20
-6.45844
 30
0.0
 10
-12.27046
 20
-6.49796
 30
0.0
 10
-12.27046
 20
-6.49796
 30
0.0
  0
SPLINE
  5
7F
330
1F
100
AcDbEntity
  8
layer 2
 62
     1
100
AcDbSpline
210
0.0
220
0.0
230
1.0
 70
    11
 71
     3
 72
    36
 73
    32
 74
     0
 42
0.0000000001
 43
0.0000000001
 12
1.0
 22
0.0
 32
0.0
 13
1.0
 23
0.0
 33
0.0
 40
0.0
 40
0.0
 40
0.0
 40
0.0
 40
0.1111111111111111
 40
0.1111111111111111
 40
0.1111111111111111
 40
0.1111111111111111
 40
0.2222222222222222
 40
0.2222222222222222
 40
0.2222222222222222
 40
0.2222222222222222
 40
0.3333333333333333
 40
0.3333333333333333
 40
0.3333333333333333
 40
0.3333333333333333
 40
0.4444444444444444
 40
0.4444444444444444
 40
0.4444444444444444
 40
0.4444444444444444
 40
0.5555555555555556
 40
0.5555555555555556
 40
0.5555555555555556
 40
0.5555555555555556
 40
0.6666666666666666
 40
0.6666666666666666
 40
0.6666666666666666
 40
0.6666666666666666
 40
0.7777777777777778
 40
0.7777777777777778
 40
0.7777777777777778
 40
0.7777777777777778
 40
1.0
 40
1.0
 40
1.0
 40
1.0
 10
-12.39722
 20
-6.29148
 30
0.0
 10
-12.39722
 20
-6.29148
 30
0.0
 10
-12.31235
 20
-6.2069
 30
0.0
 10
-12.31235
 20
-6.2069
 30
0.0
 10
-12.31235
 20
-6.2069
 30
0.0
 10
-12.29426
 20
-6.18887
 30
0.0
 10
-12.28208
 20
-6.17299
 30
0.0
 10
-12.27567
 20
-6.1591
 30
0.0
 10
-12.27567
 20
-6.1591
 30
0.0
 10
-12.26919
 20
-6.14529
 30
0.0
 10
-12.26743
 20
-6.13161
 30
0.0
 10
-12.27046
 20
-6.11813
 30
0.0
 10
-12.27046
 20
-6.11813
 30
0.0
 10
-12.27335
 20
-6.10465
 30
0.0
 10
-12.27959
 20
-6.09312
 30
0.0
 10
-12.28923
 20
-6.08345
 30
0.0
 10
-12.28923
 20
-6.08345
 30
0.0
 10
-12.3033
 20
-6.06933
 30
0.0
 10
-12.32002
 20
-6.06271
 30
0.0
 10
-12.33933
 20
-6.06378
 30
0.0
 10
-12.33933
 20
-6.06378
 30
0.0
 10
-12.35865
 20
-6.06486
 30
0.0
 10
-12.37929
 20
-6.07642
 30
0.0
 10
-12.40134
 20
-6.0984
 30
0.0
 10
-12.40134
 20
-6.0984
 30
0.0
 10
-12.40134
 20
-6.0984
 30
0.0
 10
-12.49581
 20
-6.19257
 30
0.0
 10
-12.49581
 20
-6.19257
 30
0.0
 10
-12.49581
 20
-6.19257
 30
0.0
 10
-12.49581
 20
-6.19257
 30
0.0
 10
-12.39722
 20
-6.29148
 30
0.0
 10
-12.39722
 20
-6.29148
 30
0.0
  0
SPLINE
  5
80
330
1F
100
AcDbEntity
  8
layer 2
 62
     1
100
AcDbSpline
210
0.0
220
0.0
230
1.0
 70
    11
 71
     3
 72
    40
 73
    36
 74
     0
 42
0.0000000001
 43
0.0000000001
 12
1.0
 22
0.0
 32
0.0
 13
1.0
 23
0.0
 33
0.0
 40
0.0
 40
0.0
 40
0.0
 40
0.0
 40
0.1
 40
0.1
 40
0.1
 40
0.1
 40
0.2
 40
0.2
 40
0.2
 40
0.2
 40
0.3
 40
0.3
 40
0.3
 40
0.3
 40
0.4
 40
0.4
 40
0.4
 40
0.4
 40
0.5
 40
0.5
 40
0.5
 40
0.5
 40
0.6
 40
0.6
 40
0.6
 40
0.6
 40
0.7
 40
0.7
 40
0.7
 40
0.7
 40
0.8
 40
0.8
 40
0.8
 40
0.8
 40
1.0
 40
1.0
 40
1.0
 40
1.0
 10
-11.84673
 20
-6.07564
 30
0.0
 10
-11.84673
 20
-6.07564
 30
0.0
 10
-11.88347
 20
-6.11224
 30
0.0
 10
-11.88347
 20
-6.11224
 30
0.0
 10
-11.88347
 20
-6.11224
 30
0.0
 10
-11.88347
 20
-6.11224
 30
0.0
 10
-12.11658
 20
-5.87836
 30
0.0
 10
-12.11658
 20
-5.87836
 30
0.0
 10
-12.11658
 20
-5.87836
 30
0.0
 10
-12.11696
 20
-5.89566
 30
0.0
 10
-12.12018
 20
-5.91565
 30
0.0
 10
-12.12612
 20
-5.93835
 30
0.0
 10
-12.12612
 20
-5.93835
 30
0.0
 10
-12.13206
 20
-5.96106
 30
0.0
 10
-12.1387
 20
-5.98029
 30
0.0
 10
-12.14594
 20
-5.99583
 30
0.0
 10
-12.14594
 20
-5.99583
 30
0.0
 10
-12.14594
 20
-5.99583
 30
0.0
 10
-12.1813
 20
-5.96035
 30
0.0
 10
-12.1813
 20
-5.96035
 30
0.0
 10
-12.1813
 20
-5.96035
 30
0.0
 10
-12.17035
 20
-5.9303
 30
0.0
 10
-12.16405
 20
-5.90072
 30
0.0
 10
-12.1624
 20
-5.87162
 30
0.0
 10
-12.1624
 20
-5.87162
 30
0.0
 10
-12.16069
 20
-5.8426
 30
0.0
 10
-12.16301
 20
-5.81842
 30
0.0
 10
-12.16951
 20
-5.79911
 30
0.0
 10
-12.16951
 20
-5.79911
 30
0.0
 10
-12.16951
 20
-5.79911
 30
0.0
 10
-12.14586
 20
-5.77553
 30
0.0
 10
-12.14586
 20
-5.77553
 30
0.0
 10
-12.14586
 20
-5.77553
 30
0.0
 10
-12.14586
 20
-5.77553
 30
0.0
 10
-11.84673
 20
-6.07564
 30
0.0
 10
-11.84673
 20
-6.07564
 30
0.0
  0
SPLINE
  5
81
330
1F
100
AcDbEntity
  8
layer 2
 62
     1
100
AcDbSpline
210
0.0
220
0.0
230
1.0
 70
    11
 71
     3
 72
    92
 73
    88
 74
     0
 42
0.0000000001
 43
0.0000000001
 12
1.0
 22
0.0
 32
0.0
 13
1.0
 23
0.0
 33
0.0
 40
0.0
 40
0.0
 40
0.0
 40
0.0
 40
0.0434782608695652
 40
0.0434782608695652
 40
0.0434782608695652
 40
0.0434782608695652
 40
0.0869565217391304
 40
0.0869565217391304
 40
0.0869565217391304
 40
0.0869565217391304
 40
0.1304347826086956
 40
0.1304347826086956
 40
0.1304347826086956
 40
0.1304347826086956
 40
0.1739130434782609
 40
0.1739130434782609
 40
0.1739130434782609
 40
0.1739130434782609
 40
0.2173913043478261
 40
0.2173913043478261
 40
0.2173913043478261
 40
0.2173913043478261
 40
0.2608695652173913
 40
0.2608695652173913
 40
0.2608695652173913
 40
0.2608695652173913
 40
0.3043478260869565
 40
0.3043478260869565
 40
0.3043478260869565
 40
0.3043478260869565
 40
0.3478260869565217
 40
0.3478260869565217
 40
0.3478260869565217
 40
0.3478260869565217
 40
0.391304347826087
 40
0.391304347826087
 40
0.391304347826087
 40
0.391304347826087
 40
0.4347826086956522
 40
0.4347826086956522
 40
0.4347826086956522
 40
0.4347826086956522
 40
0.4782608695652174
 40
0.4782608695652174
 40
0.4782608695652174
 40
0.4782608695652174
 40
0.5217391304347826
 40
0.5217391304347826
 40
0.5217391304347826
 40
0.5217391304347826
 40
0.5652173913043478
 40
0.5652173913043478
 40
0.5652173913043478
 40
0.5652173913043478
 40
0.6086956521739131
 40
0.6086956521739131
 40
0.6086956521739131
 40
0.6086956521739131
 40
0.6521739130434783
 40
0.6521739130434783
 40
0.6521739130434783
 40
0.6521739130434783
 40
0.6956521739130435
 40
0.6956521739130435
 40
0.6956521739130435
 40
0.6956521739130435
 40
0.7391304347826086
 40
0.7391304347826086
 40
0.7391304347826086
 40
0.7391304347826086
 40
0.782608695652174
 40
0.782608695652174
 40
0.782608695652174
 40
0.782608695652174
 40
0.8260869565217391
 40
0.8260869565217391
 40
0.8260869565217391
 40
0.8260869565217391
 40
0.8695652173913043
 40
0.8695652173913043
 40
0.8695652173913043
 40
0.8695652173913043
 40
0.9130434782608695
 40
0.9130434782608695
 40
0.9130434782608695
 40
0.9130434782608695
 40
1.0
 40
1.0
 40
1.0
 40
1.0
 10
-11.83055
 20
-5.90307
 30
0.0
 10
-11.83055
 20
-5.90307
 30
0.0
 10
-11.79506
 20
-5.86188
 30
0.0
 10
-11.79506
 20
-5.86188
 30
0.0
 10
-11.79506
 20
-5.86188
 30
0.0
 10
-11.77356
 20
-5.87774
 30
0.0
 10
-11.75294
 20
-5.88521
 30
0.0
 10
-11.73322
 20
-5.88441
 30
0.0
 10
-11.73322
 20
-5.88441
 30
0.0
 10
-11.71356
 20
-5.88354
 30
0.0
 10
-11.69626
 20
-5.87572
 30
0.0
 10
-11.68144
 20
-5.86095
 30
0.0
 10
-11.68144
 20
-5.86095
 30
0.0
 10
-11.66356
 20
-5.84314
 30
0.0
 10
-11.65525
 20
-5.82155
 30
0.0
 10
-11.65632
 20
-5.79613
 30
0.0
 10
-11.65632
 20
-5.79613
 30
0.0
 10
-11.65754
 20
-5.77071
 30
0.0
 10
-11.6691
 20
-5.74701
 30
0.0
 10
-11.691
 20
-5.72502
 30
0.0
 10
-11.691
 20
-5.72502
 30
0.0
 10
-11.71188
 20
-5.70408
 30
0.0
 10
-11.73408
 20
-5.69335
 30
0.0
 10
-11.75777
 20
-5.69282
 30
0.0
 10
-11.75777
 20
-5.69282
 30
0.0
 10
-11.78145
 20
-5.6923
 30
0.0
 10
-11.80285
 20
-5.70157
 30
0.0
 10
-11.82199
 20
-5.72064
 30
0.0
 10
-11.82199
 20
-5.72064
 30
0.0
 10
-11.83388
 20
-5.7325
 30
0.0
 10
-11.84182
 20
-5.74582
 30
0.0
 10
-11.84587
 20
-5.76067
 30
0.0
 10
-11.84587
 20
-5.76067
 30
0.0
 10
-11.84986
 20
-5.77546
 30
0.0
 10
-11.85023
 20
-5.78983
 30
0.0
 10
-11.84705
 20
-5.80387
 30
0.0
 10
-11.84705
 20
-5.80387
 30
0.0
 10
-11.84705
 20
-5.80387
 30
0.0
 10
-11.88668
 20
-5.83339
 30
0.0
 10
-11.88668
 20
-5.83339
 30
0.0
 10
-11.88668
 20
-5.83339
 30
0.0
 10
-11.88668
 20
-5.83339
 30
0.0
 10
-12.01098
 20
-5.65109
 30
0.0
 10
-12.01098
 20
-5.65109
 30
0.0
 10
-12.01098
 20
-5.65109
 30
0.0
 10
-12.01098
 20
-5.65109
 30
0.0
 10
-11.86281
 20
-5.5034
 30
0.0
 10
-11.86281
 20
-5.5034
 30
0.0
 10
-11.86281
 20
-5.5034
 30
0.0
 10
-11.86281
 20
-5.5034
 30
0.0
 10
-11.82787
 20
-5.53846
 30
0.0
 10
-11.82787
 20
-5.53846
 30
0.0
 10
-11.82787
 20
-5.53846
 30
0.0
 10
-11.82787
 20
-5.53846
 30
0.0
 10
-11.94676
 20
-5.65695
 30
0.0
 10
-11.94676
 20
-5.65695
 30
0.0
 10
-11.94676
 20
-5.65695
 30
0.0
 10
-11.94676
 20
-5.65695
 30
0.0
 10
-11.88232
 20
-5.75346
 30
0.0
 10
-11.88232
 20
-5.75346
 30
0.0
 10
-11.88232
 20
-5.75346
 30
0.0
 10
-11.87699
 20
-5.72305
 30
0.0
 10
-11.86445
 20
-5.69807
 30
0.0
 10
-11.84483
 20
-5.67851
 30
0.0
 10
-11.84483
 20
-5.67851
 30
0.0
 10
-11.81881
 20
-5.65258
 30
0.0
 10
-11.78782
 20
-5.63971
 30
0.0
 10
-11.75191
 20
-5.63998
 30
0.0
 10
-11.75191
 20
-5.63998
 30
0.0
 10
-11.71601
 20
-5.64025
 30
0.0
 10
-11.68387
 20
-5.65454
 30
0.0
 10
-11.65558
 20
-5.68292
 30
0.0
 10
-11.65558
 20
-5.68292
 30
0.0
 10
-11.62861
 20
-5.70998
 30
0.0
 10
-11.61318
 20
-5.74119
 30
0.0
 10
-11.60927
 20
-5.77655
 30
0.0
 10
-11.60927
 20
-5.77655
 30
0.0
 10
-11.60427
 20
-5.81982
 30
0.0
 10
-11.61837
 20
-5.858
 30
0.0
 10
-11.65149
 20
-5.891
 30
0.0
 10
-11.65149
 20
-5.891
 30
0.0
 10
-11.67861
 20
-5.91805
 30
0.0
 10
-11.70836
 20
-5.93245
 30
0.0
 10
-11.74073
 20
-5.93434
 30
0.0
 10
-11.74073
 20
-5.93434
 30
0.0
 10
-11.7731
 20
-5.93622
 30
0.0
 10
-11.80302
 20
-5.92583
 30
0.0
 10
-11.83055
 20
-5.90307
 30
0.0
  0
SPLINE
  5
82
330
1F
100
AcDbEntity
  8
layer 2
 62
     1
370
     0
100
AcDbSpline
210
0.0
220
0.0
230
1.0
 70
    24
 71
     3
 72
     8
 73
     4
 74
     0
 42
0.0000000001
 43
0.0000000001
 12
1.0
 22
0.0
 32
0.0
 13
1.0
 23
0.0
 33
0.0
 40
0.0
 40
0.0
 40
0.0
 40
0.0
 40
1.0
 40
1.0
 40
1.0
 40
1.0
 10
-10.23213
 20
-5.82508
 30
0.0
 10
-10.23213
 20
-5.82508
 30
0.0
 10
-10.57239
 20
-6.16424
 30
0.0
 10
-10.57239
 20
-6.16424
 30
0.0
  0
SPLINE
  5
83
330
1F
100
AcDbEntity
  8
layer 2
 62
     1
100
AcDbSpline
210
0.0
220
0.0
230
1.0
 70
    27
 71
     3
 72
    12
 73
     8
 74
     0
 42
0.0000000001
 43
0.0000000001
 12
1.0
 22
0.0
 32
0.0
 13
1.0
 23
0.0
 33
0.0
 40
0.0
 40
0.0
 40
0.0
 40
0.0
 40
0.3333333333333333
 40
0.3333333333333333
 40
0.3333333333333333
 40
0.3333333333333333
 40
1.0
 40
1.0
 40
1.0
 40
1.0
 10
-10.88983
 20
-6.39019
 30
0.0
 10
-10.88983
 20
-6.39019
 30
0.0
 10
-10.57239
 20
-6.16424
 30
0.0
 10
-10.57239
 20
-6.16424
 30
0.0
 10
-10.57239
 20
-6.16424
 30
0.0
 10
-10.57239
 20
-6.16424
 30
0.0
 10
-10.88983
 20
-6.39019
 30
0.0
 10
-10.88983
 20
-6.39019
 30
0.0
  0
SPLINE
  5
84
330
1F
100
AcDbEntity
  8
layer 2
 62
     1
100
AcDbSpline
210
0.0
220
0.0
230
1.0
 70
     8
 71
     3
 72
    12
 73
     8
 74
     0
 42
0.0000000001
 43
0.0000000001
 12
1.0
 22
0.0
 32
0.0
 13
1.0
 23
0.0
 33
0.0
 40
0.0
 40
0.0
 40
0.0
 40
0.0
 40
0.3333333333333333
 40
0.3333333333333333
 40
0.3333333333333333
 40
0.3333333333333333
 40
1.0
 40
1.0
 40
1.0
 40
1.0
 10
-10.57239
 20
-6.16424
 30
0.0
 10
-10.57239
 20
-6.16424
 30
0.0
 10
-10.79938
 20
-6.48092
 30
0.0
 10
-10.79938
 20
-6.48092
 30
0.0
 10
-10.79938
 20
-6.48092
 30
0.0
 10
-10.79938
 20
-6.48092
 30
0.0
 10
-10.88983
 20
-6.39019
 30
0.0
 10
-10.88983
 20
-6.39019
 30
0.0
  0
SPLINE
  5
85
330
1F
100
AcDbEntity
  8
layer 2
 62
     1
370
     9
100
AcDbSpline
210
0.0
220
0.0
230
1.0
 70
    24
 71
     3
 72
     8
 73
     4
 74
     0
 42
0.0000000001
 43
0.0000000001
 12
1.0
 22
0.0
 32
0.0
 13
1.0
 23
0.0
 33
0.0
 40
0.0
 40
0.0
 40
0.0
 40
0.0
 40
1.0
 40
1.0
 40
1.0
 40
1.0
 10
-10.88983
 20
-6.39019
 30
0.0
 10
-10.88983
 20
-6.39019
 30
0.0
 10
-10.57239
 20
-6.16424
 30
0.0
 10
-10.57239
 20
-6.16424
 30
0.0
  0
SPLINE
  5
86
330
1F
100
AcDbEntity
  8
layer 2
 62
     1
370
     9
100
AcDbSpline
210
0.0
220
0.0
230
1.0
 70
     8
 71
     3
 72
    12
 73
     8
 74
     0
 42
0.0000000001
 43
0.0000000001
 12
1.0
 22
0.0
 32
0.0
 13
1.0
 23
0.0
 33
0.0
 40
0.0
 40
0.0
 40
0.0
 40
0.0
 40
0.3333333333333333
 40
0.3333333333333333
 40
0.3333333333333333
 40
0.3333333333333333
 40
1.0
 40
1.0
 40
1.0
 40
1.0
 10
-10.57239
 20
-6.16424
 30
0.0
 10
-10.57239
 20
-6.16424
 30
0.0
 10
-10.79938
 20
-6.48092
 30
0.0
 10
-10.79938
 20
-6.48092
 30
0.0
 10
-10.79938
 20
-6.48092
 30
0.0
 10
-10.79938
 20
-6.48092
 30
0.0
 10
-10.88983
 20
-6.39019
 30
0.0
 10
-10.88983
 20
-6.39019
 30
0.0
  0
ENDSEC
  0
SECTION
  2
OBJECTS
  0
DICTIONARY
  5
C
330
0
100
AcDbDictionary
281
     1
  3
ACAD_GROUP
350
D
  3
ACAD_LAYOUT
350
1A
  3
ACAD_MATERIAL
350
3B
  3
ACAD_MLEADERSTYLE
350
A8
  3
ACAD_MLINESTYLE
350
17
  3
ACAD_PLOTSETTINGS
350
19
  3
ACAD_PLOTSTYLENAME
350
E
  3
ACAD_TABLESTYLE
350
A7
  3
ACAD_VISUALSTYLE
350
2A
  0
DICTIONARY
  5
D
102
{ACAD_REACTORS
330
C
102
}
330
C
100
AcDbDictionary
281
     1
  0
DICTIONARY
  5
1A
102
{ACAD_REACTORS
330
C
102
}
330
C
100
AcDbDictionary
281
     1
  3
Layout1
350
1E
  3
Layout2
350
26
  3
Model
350
22
  0
DICTIONARY
  5
3B
102
{ACAD_REACTORS
330
C
102
}
330
C
100
AcDbDictionary
281
     1
  3
ByBlock
350
3D
  3
ByLayer
350
3C
  3
Global
350
3E
  0
DICTIONARY
  5
A8
102
{ACAD_REACTORS
330
C
102
}
330
C
100
AcDbDictionary
281
     1
  0
DICTIONARY
  5
17
102
{ACAD_REACTORS
330
C
102
}
330
C
100
AcDbDictionary
281
     1
  3
Standard
350
18
  0
DICTIONARY
  5
19
102
{ACAD_REACTORS
330
C
102
}
330
C
100
AcDbDictionary
281
     1
  0
ACDBDICTIONARYWDFLT
  5
E
102
{ACAD_REACTORS
330
C
102
}
330
C
100
AcDbDictionary
281
     1
  3
Normal
350
F
100
AcDbDictionaryWithDefault
340
F
  0
DICTIONARY
  5
A7
102
{ACAD_REACTORS
330
C
102
}
330
C
100
AcDbDictionary
281
     1
  0
DICTIONARY
  5
2A
102
{ACAD_REACTORS
330
C
102
}
330
C
100
AcDbDictionary
281
     1
  3
2dWireframe
350
2F
  3
3D Hidden
350
31
  3
3dWireframe
350
30
  3
Basic
350
32
  3
Brighten
350
36
  3
ColorChange
350
3A
  3
Conceptual
350
34
  3
Dim
350
35
  3
Facepattern
350
39
  3
Flat
350
2B
  3
FlatWithEdges
350
2C
  3
Gouraud
350
2D
  3
GouraudWithEdges
350
2E
  3
Linepattern
350
38
  3
Realistic
350
33
  3
Thicken
350
37
  0
LAYOUT
  5
1E
102
{ACAD_REACTORS
330
1A
102
}
330
1A
100
AcDbPlotSettings
  1

  2
none_device
  4

  6

 40
0.0
 41
0.0
 42
0.0
 43
0.0
 44
0.0
 45
0.0
 46
0.0
 47
0.0
 48
0.0
 49
0.0
140
0.0
141
0.0
142
1.0
143
1.0
 70
   688
 72
     0
 73
     0
 74
     5
  7

 75
    16
 76
     0
 77
     2
 78
   300
147
1.0
148
0.0
149
0.0
100
AcDbLayout
  1
Layout1
 70
     1
 71
     1
 10
0.0
 20
0.0
 11
12.0
 21
9.0
 12
0.0
 22
0.0
 32
0.0
 14
1.000000000000000E+20
 24
1.000000000000000E+20
 34
1.000000000000000E+20
 15
-1.000000000000000E+20
 25
-1.000000000000000E+20
 35
-1.000000000000000E+20
146
0.0
 13
0.0
 23
0.0
 33
0.0
 16
1.0
 26
0.0
 36
0.0
 17
0.0
 27
1.0
 37
0.0
 76
     0
330
1B
  0
LAYOUT
  5
26
102
{ACAD_REACTORS
330
1A
102
}
330
1A
100
AcDbPlotSettings
  1

  2
none_device
  4

  6

 40
0.0
 41
0.0
 42
0.0
 43
0.0
 44
0.0
 45
0.0
 46
0.0
 47
0.0
 48
0.0
 49
0.0
140
0.0
141
0.0
142
1.0
143
1.0
 70
   688
 72
     0
 73
     0
 74
     5
  7

 75
    16
 76
     0
 77
     2
 78
   300
147
1.0
148
0.0
149
0.0
100
AcDbLayout
  1
Layout2
 70
     1
 71
     2
 10
0.0
 20
0.0
 11
0.0
 21
0.0
 12
0.0
 22
0.0
 32
0.0
 14
0.0
 24
0.0
 34
0.0
 15
0.0
 25
0.0
 35
0.0
146
0.0
 13
0.0
 23
0.0
 33
0.0
 16
1.0
 26
0.0
 36
0.0
 17
0.0
 27
1.0
 37
0.0
 76
     0
330
23
  0
LAYOUT
  5
22
102
{ACAD_REACTORS
330
1A
102
}
330
1A
100
AcDbPlotSettings
  1

  2
none_device
  4

  6

 40
0.0
 41
0.0
 42
0.0
 43
0.0
 44
0.0
 45
0.0
 46
0.0
 47
0.0
 48
0.0
 49
0.0
140
0.0
141
0.0
142
1.0
143
1.0
 70
  1712
 72
     0
 73
     0
 74
     0
  7

 75
     0
 76
     0
 77
     2
 78
   300
147
1.0
148
0.0
149
0.0
100
AcDbLayout
  1
Model
 70
     1
 71
     0
 10
0.0
 20
0.0
 11
12.0
 21
9.0
 12
0.0
 22
0.0
 32
0.0
 14
-12.56833
 24
-8.89888
 34
0.0
 15
11.34787
 25
8.36434
 35
0.0
146
0.0
 13
0.0
 23
0.0
 33
0.0
 16
1.0
 26
0.0
 36
0.0
 17
0.0
 27
1.0
 37
0.0
 76
     0
330
1F
331
29
  0
MATERIAL
  5
3D
102
{ACAD_REACTORS
330
3B
102
}
330
3B
100
AcDbMaterial
  1
ByBlock
 72
     1
 94
      127
  0
MATERIAL
  5
3C
102
{ACAD_REACTORS
330
3B
102
}
330
3B
100
AcDbMaterial
  1
ByLayer
 72
     1
 94
      127
  0
MATERIAL
  5
3E
102
{ACAD_REACTORS
330
3B
102
}
330
3B
100
AcDbMaterial
  1
Global
 72
     1
 94
      127
  0
MLINESTYLE
  5
18
102
{ACAD_REACTORS
330
17
102
}
330
17
100
AcDbMlineStyle
  2
Standard
 70
     0
  3

 62
   256
 51
90.0
 52
90.0
 71
     2
 49
0.5
 62
   256
  6
BYLAYER
 49
-0.5
 62
   256
  6
BYLAYER
  0
ACDBPLACEHOLDER
  5
F
102
{ACAD_REACTORS
330
E
102
}
330
E
  0
VISUALSTYLE
  5
2F
102
{ACAD_REACTORS
330
2A
102
}
102
{ACAD_XDICTIONARY
360
8F
102
}
330
2A
100
AcDbVisualStyle
  2
2dWireframe
 70
     4
 71
     0
 72
     2
 73
     0
 90
        0
 40
-0.6
 41
-30.0
 62
     5
 63
     7
421
 16777215
 74
     1
 91
        4
 64
     7
 65
   257
 75
     1
175
     1
 42
1.0
 92
        0
 66
   257
 43
1.0
 76
     1
 77
     6
 78
     2
 67
     7
 79
     5
170
     0
171
     0
290
     0
174
     0
 93
        1
 44
0.0
173
     0
291
     0
 45
0.0
  0
VISUALSTYLE
  5
31
102
{ACAD_REACTORS
330
2A
102
}
102
{ACAD_XDICTIONARY
360
93
102
}
330
2A
100
AcDbVisualStyle
  2
3D Hidden
 70
     6
 71
     1
 72
     2
 73
     2
 90
        0
 40
-0.6
 41
-30.0
 62
     5
 63
     7
421
 16777215
 74
     2
 91
        2
 64
     7
 65
   257
 75
     2
175
     1
 42
40.0
 92
        0
 66
   257
 43
1.0
 76
     1
 77
     6
 78
     2
 67
     7
 79
     3
170
     0
171
     0
290
     0
174
     0
 93
        1
 44
0.0
173
     0
291
     0
 45
0.0
  0
VISUALSTYLE
  5
30
102
{ACAD_REACTORS
330
2A
102
}
102
{ACAD_XDICTIONARY
360
91
102
}
330
2A
100
AcDbVisualStyle
  2
3dWireframe
 70
     5
 71
     0
 72
     2
 73
     0
 90
        0
 40
-0.6
 41
-30.0
 62
     5
 63
     7
421
 16777215
 74
     1
 91
        4
 64
     7
 65
   257
 75
     1
175
     1
 42
1.0
 92
        0
 66
   257
 43
1.0
 76
     1
 77
     6
 78
     2
 67
     7
 79
     5
170
     0
171
     0
290
     0
174
     0
 93
        1
 44
0.0
173
     0
291
     0
 45
0.0
  0
VISUALSTYLE
  5
32
102
{ACAD_REACTORS
330
2A
102
}
102
{ACAD_XDICTIONARY
360
95
102
}
330
2A
100
AcDbVisualStyle
  2
Basic
 70
     7
 71
     1
 72
     0
 73
     1
 90
        0
 40
-0.6
 41
-30.0
 62
     5
 63
     7
421
 16777215
 74
     0
 91
        4
 64
     7
 65
   257
 75
     1
175
     1
 42
1.0
 92
        8
 66
     7
 43
1.0
 76
     1
 77
     6
 78
     2
 67
     7
 79
     5
170
     0
171
     0
290
     0
174
     0
 93
        1
 44
0.0
173
     0
291
     1
 45
0.0
  0
VISUALSTYLE
  5
36
102
{ACAD_REACTORS
330
2A
102
}
102
{ACAD_XDICTIONARY
360
9D
102
}
330
2A
100
AcDbVisualStyle
  2
Brighten
 70
    12
 71
     2
 72
     2
 73
     0
 90
        0
 40
-0.6
 41
-30.0
 62
     5
 63
     7
421
 16777215
 74
     1
 91
        4
 64
     7
 65
   257
 75
     1
175
     1
 42
1.0
 92
        8
 66
     7
 43
1.0
 76
     1
 77
     6
 78
     2
 67
     7
 79
     5
170
     0
171
     0
290
     0
174
     0
 93
        1
 44
50.0
173
     0
291
     1
 45
0.0
  0
VISUALSTYLE
  5
3A
102
{ACAD_REACTORS
330
2A
102
}
102
{ACAD_XDICTIONARY
360
A5
102
}
330
2A
100
AcDbVisualStyle
  2
ColorChange
 70
    16
 71
     2
 72
     2
 73
     3
 90
        0
 40
-0.6
 41
-30.0
 62
     5
 63
     8
421
  8421504
 74
     1
 91
        4
 64
     7
 65
   257
 75
     1
175
     1
 42
1.0
 92
        8
 66
     8
424
  8421504
 43
1.0
 76
     1
 77
     6
 78
     2
 67
     7
 79
     5
170
     0
171
     0
290
     0
174
     0
 93
        1
 44
0.0
173
     0
291
     1
 45
0.0
  0
VISUALSTYLE
  5
34
102
{ACAD_REACTORS
330
2A
102
}
102
{ACAD_XDICTIONARY
360
99
102
}
330
2A
100
AcDbVisualStyle
  2
Conceptual
 70
     9
 71
     3
 72
     2
 73
     0
 90
        0
 40
-0.6
 41
-30.0
 62
     5
 63
     7
421
 16777215
 74
     2
 91
        2
 64
     7
 65
   257
 75
     1
175
     1
 42
40.0
 92
        8
 66
     7
 43
1.0
 76
     1
 77
     6
 78
     2
 67
     7
 79
     3
170
     0
171
     0
290
     0
174
     0
 93
        1
 44
0.0
173
     0
291
     0
 45
0.0
  0
VISUALSTYLE
  5
35
102
{ACAD_REACTORS
330
2A
102
}
102
{ACAD_XDICTIONARY
360
9B
102
}
330
2A
100
AcDbVisualStyle
  2
Dim
 70
    11
 71
     2
 72
     2
 73
     0
 90
        0
 40
-0.6
 41
-30.0
 62
     5
 63
     7
421
 16777215
 74
     1
 91
        4
 64
     7
 65
   257
 75
     1
175
     1
 42
1.0
 92
        8
 66
     7
 43
1.0
 76
     1
 77
     6
 78
     2
 67
     7
 79
     5
170
     0
171
     0
290
     0
174
     0
 93
        1
 44
-50.0
173
     0
291
     1
 45
0.0
  0
VISUALSTYLE
  5
39
102
{ACAD_REACTORS
330
2A
102
}
102
{ACAD_XDICTIONARY
360
A3
102
}
330
2A
100
AcDbVisualStyle
  2
Facepattern
 70
    15
 71
     2
 72
     2
 73
     0
 90
        0
 40
-0.6
 41
-30.0
 62
     5
 63
     7
421
 16777215
 74
     1
 91
        4
 64
     7
 65
   257
 75
     1
175
     1
 42
1.0
 92
        8
 66
     7
 43
1.0
 76
     1
 77
     6
 78
     2
 67
     7
 79
     5
170
     0
171
     0
290
     0
174
     0
 93
        1
 44
0.0
173
     0
291
     1
 45
0.0
  0
VISUALSTYLE
  5
2B
102
{ACAD_REACTORS
330
2A
102
}
102
{ACAD_XDICTIONARY
360
87
102
}
330
2A
100
AcDbVisualStyle
  2
Flat
 70
     0
 71
     2
 72
     1
 73
     1
 90
        2
 40
-0.6
 41
30.0
 62
     5
 63
     7
421
 16777215
 74
     0
 91
        4
 64
     7
 65
   257
 75
     1
175
     1
 42
1.0
 92
        8
 66
     7
 43
1.0
 76
     1
 77
     6
 78
     2
 67
     7
 79
     5
170
     0
171
     0
290
     0
174
     0
 93
       13
 44
0.0
173
     0
291
     1
 45
0.0
  0
VISUALSTYLE
  5
2C
102
{ACAD_REACTORS
330
2A
102
}
102
{ACAD_XDICTIONARY
360
89
102
}
330
2A
100
AcDbVisualStyle
  2
FlatWithEdges
 70
     1
 71
     2
 72
     1
 73
     1
 90
        2
 40
-0.6
 41
30.0
 62
     5
 63
     7
421
 16777215
 74
     1
 91
        4
 64
     7
 65
   257
 75
     1
175
     1
 42
1.0
 92
        0
 66
   257
 43
1.0
 76
     1
 77
     6
 78
     2
 67
     7
 79
     5
170
     0
171
     0
290
     0
174
     0
 93
       13
 44
0.0
173
     0
291
     1
 45
0.0
  0
VISUALSTYLE
  5
2D
102
{ACAD_REACTORS
330
2A
102
}
102
{ACAD_XDICTIONARY
360
8B
102
}
330
2A
100
AcDbVisualStyle
  2
Gouraud
 70
     2
 71
     2
 72
     2
 73
     1
 90
        2
 40
-0.6
 41
30.0
 62
     5
 63
     7
421
 16777215
 74
     0
 91
        4
 64
     7
 65
   257
 75
     1
175
     1
 42
1.0
 92
        0
 66
     7
 43
1.0
 76
     1
 77
     6
 78
     2
 67
     7
 79
     5
170
     0
171
     0
290
     0
174
     0
 93
       13
 44
0.0
173
     0
291
     1
 45
0.0
  0
VISUALSTYLE
  5
2E
102
{ACAD_REACTORS
330
2A
102
}
102
{ACAD_XDICTIONARY
360
8D
102
}
330
2A
100
AcDbVisualStyle
  2
GouraudWithEdges
 70
     3
 71
     2
 72
     2
 73
     1
 90
        2
 40
-0.6
 41
30.0
 62
     5
 63
     7
421
 16777215
 74
     1
 91
        4
 64
     7
 65
   257
 75
     1
175
     1
 42
1.0
 92
        0
 66
   257
 43
1.0
 76
     1
 77
     6
 78
     2
 67
     7
 79
     5
170
     0
171
     0
290
     0
174
     0
 93
       13
 44
0.0
173
     0
291
     1
 45
0.0
  0
VISUALSTYLE
  5
38
102
{ACAD_REACTORS
330
2A
102
}
102
{ACAD_XDICTIONARY
360
A1
102
}
330
2A
100
AcDbVisualStyle
  2
Linepattern
 70
    14
 71
     2
 72
     2
 73
     0
 90
        0
 40
-0.6
 41
-30.0
 62
     5
 63
     7
421
 16777215
 74
     1
 91
        4
 64
     7
 65
   257
 75
     7
175
     7
 42
1.0
 92
        8
 66
     7
 43
1.0
 76
     1
 77
     6
 78
     2
 67
     7
 79
     5
170
     0
171
     0
290
     0
174
     0
 93
        1
 44
0.0
173
     0
291
     1
 45
0.0
  0
VISUALSTYLE
  5
33
102
{ACAD_REACTORS
330
2A
102
}
102
{ACAD_XDICTIONARY
360
97
102
}
330
2A
100
AcDbVisualStyle
  2
Realistic
 70
     8
 71
     2
 72
     2
 73
     0
 90
        0
 40
-0.6
 41
-30.0
 62
     5
 63
     7
421
 16777215
 74
     1
 91
        0
 64
     7
 65
   257
 75
     1
175
     1
 42
1.0
 92
        8
 66
     8
424
  7895160
 43
1.0
 76
     1
 77
     6
 78
     2
 67
     7
 79
     5
170
     0
171
     0
290
     0
174
     0
 93
       13
 44
0.0
173
     0
291
     0
 45
0.0
  0
VISUALSTYLE
  5
37
102
{ACAD_REACTORS
330
2A
102
}
102
{ACAD_XDICTIONARY
360
9F
102
}
330
2A
100
AcDbVisualStyle
  2
Thicken
 70
    13
 71
     2
 72
     2
 73
     0
 90
        0
 40
-0.6
 41
-30.0
 62
     5
 63
     7
421
 16777215
 74
     1
 91
        4
 64
     7
 65
   257
 75
     1
175
     1
 42
1.0
 92
       12
 66
     7
 43
1.0
 76
     1
 77
     6
 78
     2
 67
     7
 79
     5
170
     0
171
     0
290
     0
174
     0
 93
        1
 44
0.0
173
     0
291
     1
 45
0.0
  0
DICTIONARY
  5
8F
330
2F
100
AcDbDictionary
280
     1
281
     1
  3
ACAD_XREC_ROUNDTRIP
360
90
  0
DICTIONARY
  5
93
330
31
100
AcDbDictionary
280
     1
281
     1
  3
ACAD_XREC_ROUNDTRIP
360
94
  0
DICTIONARY
  5
91
330
30
100
AcDbDictionary
280
     1
281
     1
  3
ACAD_XREC_ROUNDTRIP
360
92
  0
DICTIONARY
  5
95
330
32
100
AcDbDictionary
280
     1
281
     1
  3
ACAD_XREC_ROUNDTRIP
360
96
  0
DICTIONARY
  5
9D
330
36
100
AcDbDictionary
280
     1
281
     1
  3
ACAD_XREC_ROUNDTRIP
360
9E
  0
DICTIONARY
  5
A5
330
3A
100
AcDbDictionary
280
     1
281
     1
  3
ACAD_XREC_ROUNDTRIP
360
A6
  0
DICTIONARY
  5
99
330
34
100
AcDbDictionary
280
     1
281
     1
  3
ACAD_XREC_ROUNDTRIP
360
9A
  0
DICTIONARY
  5
9B
330
35
100
AcDbDictionary
280
     1
281
     1
  3
ACAD_XREC_ROUNDTRIP
360
9C
  0
DICTIONARY
  5
A3
330
39
100
AcDbDictionary
280
     1
281
     1
  3
ACAD_XREC_ROUNDTRIP
360
A4
  0
DICTIONARY
  5
87
330
2B
100
AcDbDictionary
280
     1
281
     1
  3
ACAD_XREC_ROUNDTRIP
360
88
  0
DICTIONARY
  5
89
330
2C
100
AcDbDictionary
280
     1
281
     1
  3
ACAD_XREC_ROUNDTRIP
360
8A
  0
DICTIONARY
  5
8B
330
2D
100
AcDbDictionary
280
     1
281
     1
  3
ACAD_XREC_ROUNDTRIP
360
8C
  0
DICTIONARY
  5
8D
330
2E
100
AcDbDictionary
280
     1
281
     1
  3
ACAD_XREC_ROUNDTRIP
360
8E
  0
DICTIONARY
  5
A1
330
38
100
AcDbDictionary
280
     1
281
     1
  3
ACAD_XREC_ROUNDTRIP
360
A2
  0
DICTIONARY
  5
97
330
33
100
AcDbDictionary
280
     1
281
     1
  3
ACAD_XREC_ROUNDTRIP
360
98
  0
DICTIONARY
  5
9F
330
37
100
AcDbDictionary
280
     1
281
     1
  3
ACAD_XREC_ROUNDTRIP
360
A0
  0
XRECORD
  5
90
102
{ACAD_REACTORS
330
8F
102
}
330
8F
100
AcDbXrecord
280
     1
102
RTVSPropertyOp0
 70
     1
102
RTVSPropertyOp1
 70
     1
102
RTVSPropertyOp2
 70
     1
102
RTVSPropertyOp3
 70
     1
102
RTVSPropertyOp4
 70
     1
102
RTVSPropertyOp5
 70
     1
102
RTVSPropertyOp6
 70
     1
102
RTVSPropertyOp7
 70
     1
102
RTVSPropertyOp8
 70
     1
102
RTVSPropertyOp9
 70
     1
102
RTVSPropertyOp10
 70
     1
102
RTVSPropertyOp11
 70
     1
102
RTVSPropertyOp12
 70
     1
102
RTVSPropertyOp13
 70
     1
102
RTVSPropertyOp14
 70
     1
102
RTVSPropertyOp15
 70
     1
102
RTVSPropertyOp16
 70
     1
102
RTVSPropertyOp17
 70
     1
102
RTVSPropertyOp18
 70
     1
102
RTVSPropertyOp19
 70
     1
102
RTVSPropertyOp20
 70
     1
102
RTVSPropertyOp21
 70
     1
102
RTVSPropertyOp22
 70
     1
102
RTVSPropertyOp23
 70
     1
102
RTVSPropertyOp24
 70
     1
102
RTVSPropertyOp25
 70
     1
102
RTVSPropertyOp26
 70
     1
102
RTVSPropertyOp27
 70
     1
102
RTVSPropertyOp28
 70
     1
102
RTVSPropertyOp29
 70
     1
102
RTVSPropertyOp30
 70
     1
102
RTVSPropertyOp31
 70
     1
102
RTVSPropertyOp32
 70
     1
  0
XRECORD
  5
94
102
{ACAD_REACTORS
330
93
102
}
330
93
100
AcDbXrecord
280
     1
102
RTVSPropertyOp0
 70
     1
102
RTVSPropertyOp1
 70
     1
102
RTVSPropertyOp2
 70
     1
102
RTVSPropertyOp3
 70
     1
102
RTVSPropertyOp4
 70
     1
102
RTVSPropertyOp5
 70
     1
102
RTVSPropertyOp6
 70
     1
102
RTVSPropertyOp7
 70
     1
102
RTVSPropertyOp8
 70
     1
102
RTVSPropertyOp9
 70
     1
102
RTVSPropertyOp10
 70
     1
102
RTVSPropertyOp11
 70
     1
102
RTVSPropertyOp12
 70
     1
102
RTVSPropertyOp13
 70
     1
102
RTVSPropertyOp14
 70
     1
102
RTVSPropertyOp15
 70
     1
102
RTVSPropertyOp16
 70
     1
102
RTVSPropertyOp17
 70
     1
102
RTVSPropertyOp18
 70
     1
102
RTVSPropertyOp19
 70
     1
102
RTVSPropertyOp20
 70
     1
102
RTVSPropertyOp21
 70
     1
102
RTVSPropertyOp22
 70
     1
102
RTVSPropertyOp23
 70
     1
102
RTVSPropertyOp24
 70
     1
102
RTVSPropertyOp25
 70
     1
102
RTVSPropertyOp26
 70
     1
102
RTVSPropertyOp27
 70
     1
102
RTVSPropertyOp28
 70
     1
102
RTVSPropertyOp29
 70
     1
102
RTVSPropertyOp30
 70
     1
102
RTVSPropertyOp31
 70
     1
102
RTVSPropertyOp32
 70
     1
  0
XRECORD
  5
92
102
{ACAD_REACTORS
330
91
102
}
330
91
100
AcDbXrecord
280
     1
102
RTVSPropertyOp0
 70
     1
102
RTVSPropertyOp1
 70
     1
102
RTVSPropertyOp2
 70
     1
102
RTVSPropertyOp3
 70
     1
102
RTVSPropertyOp4
 70
     1
102
RTVSPropertyOp5
 70
     1
102
RTVSPropertyOp6
 70
     1
102
RTVSPropertyOp7
 70
     1
102
RTVSPropertyOp8
 70
     1
102
RTVSPropertyOp9
 70
     1
102
RTVSPropertyOp10
 70
     1
102
RTVSPropertyOp11
 70
     1
102
RTVSPropertyOp12
 70
     1
102
RTVSPropertyOp13
 70
     1
102
RTVSPropertyOp14
 70
     1
102
RTVSPropertyOp15
 70
     1
102
RTVSPropertyOp16
 70
     1
102
RTVSPropertyOp17
 70
     1
102
RTVSPropertyOp18
 70
     1
102
RTVSPropertyOp19
 70
     1
102
RTVSPropertyOp20
 70
     1
102
RTVSPropertyOp21
 70
     1
102
RTVSPropertyOp22
 70
     1
102
RTVSPropertyOp23
 70
     1
102
RTVSPropertyOp24
 70
     1
102
RTVSPropertyOp25
 70
     1
102
RTVSPropertyOp26
 70
     1
102
RTVSPropertyOp27
 70
     1
102
RTVSPropertyOp28
 70
     1
102
RTVSPropertyOp29
 70
     1
102
RTVSPropertyOp30
 70
     1
102
RTVSPropertyOp31
 70
     1
102
RTVSPropertyOp32
 70
     1
  0
XRECORD
  5
96
102
{ACAD_REACTORS
330
95
102
}
330
95
100
AcDbXrecord
280
     1
102
RTVSPropertyOp0
 70
     1
102
RTVSPropertyOp1
 70
     1
102
RTVSPropertyOp2
 70
     1
102
RTVSPropertyOp3
 70
     1
102
RTVSPropertyOp4
 70
     1
102
RTVSPropertyOp5
 70
     1
102
RTVSPropertyOp6
 70
     1
102
RTVSPropertyOp7
 70
     1
102
RTVSPropertyOp8
 70
     1
102
RTVSPropertyOp9
 70
     1
102
RTVSPropertyOp10
 70
     1
102
RTVSPropertyOp11
 70
     1
102
RTVSPropertyOp12
 70
     1
102
RTVSPropertyOp13
 70
     1
102
RTVSPropertyOp14
 70
     1
102
RTVSPropertyOp15
 70
     1
102
RTVSPropertyOp16
 70
     1
102
RTVSPropertyOp17
 70
     1
102
RTVSPropertyOp18
 70
     1
102
RTVSPropertyOp19
 70
     1
102
RTVSPropertyOp20
 70
     1
102
RTVSPropertyOp21
 70
     1
102
RTVSPropertyOp22
 70
     1
102
RTVSPropertyOp23
 70
     1
102
RTVSPropertyOp24
 70
     1
102
RTVSPropertyOp25
 70
     1
102
RTVSPropertyOp26
 70
     1
102
RTVSPropertyOp27
 70
     1
102
RTVSPropertyOp28
 70
     1
102
RTVSPropertyOp29
 70
     1
102
RTVSPropertyOp30
 70
     1
102
RTVSPropertyOp31
 70
     1
102
RTVSPropertyOp32
 70
     1
  0
XRECORD
  5
9E
102
{ACAD_REACTORS
330
9D
102
}
330
9D
100
AcDbXrecord
280
     1
102
RTVSPropertyOp0
 70
     1
102
RTVSPropertyOp1
 70
     1
102
RTVSPropertyOp2
 70
     1
102
RTVSPropertyOp3
 70
     1
102
RTVSPropertyOp4
 70
     1
102
RTVSPropertyOp5
 70
     1
102
RTVSPropertyOp6
 70
     1
102
RTVSPropertyOp7
 70
     1
102
RTVSPropertyOp8
 70
     1
102
RTVSPropertyOp9
 70
     1
102
RTVSPropertyOp10
 70
     1
102
RTVSPropertyOp11
 70
     1
102
RTVSPropertyOp12
 70
     1
102
RTVSPropertyOp13
 70
     1
102
RTVSPropertyOp14
 70
     1
102
RTVSPropertyOp15
 70
     1
102
RTVSPropertyOp16
 70
     1
102
RTVSPropertyOp17
 70
     1
102
RTVSPropertyOp18
 70
     1
102
RTVSPropertyOp19
 70
     1
102
RTVSPropertyOp20
 70
     1
102
RTVSPropertyOp21
 70
     1
102
RTVSPropertyOp22
 70
     1
102
RTVSPropertyOp23
 70
     1
102
RTVSPropertyOp24
 70
     1
102
RTVSPropertyOp25
 70
     1
102
RTVSPropertyOp26
 70
     1
102
RTVSPropertyOp27
 70
     1
102
RTVSPropertyOp28
 70
     1
102
RTVSPropertyOp29
 70
     1
102
RTVSPropertyOp30
 70
     1
102
RTVSPropertyOp31
 70
     1
102
RTVSPropertyOp32
 70
     1
  0
XRECORD
  5
A6
102
{ACAD_REACTORS
330
A5
102
}
330
A5
100
AcDbXrecord
280
     1
102
RTVSPropertyOp0
 70
     1
102
RTVSPropertyOp1
 70
     1
102
RTVSPropertyOp2
 70
     1
102
RTVSPropertyOp3
 70
     1
102
RTVSPropertyOp4
 70
     1
102
RTVSPropertyOp5
 70
     1
102
RTVSPropertyOp6
 70
     1
102
RTVSPropertyOp7
 70
     1
102
RTVSPropertyOp8
 70
     1
102
RTVSPropertyOp9
 70
     1
102
RTVSPropertyOp10
 70
     1
102
RTVSPropertyOp11
 70
     1
102
RTVSPropertyOp12
 70
     1
102
RTVSPropertyOp13
 70
     1
102
RTVSPropertyOp14
 70
     1
102
RTVSPropertyOp15
 70
     1
102
RTVSPropertyOp16
 70
     1
102
RTVSPropertyOp17
 70
     1
102
RTVSPropertyOp18
 70
     1
102
RTVSPropertyOp19
 70
     1
102
RTVSPropertyOp20
 70
     1
102
RTVSPropertyOp21
 70
     1
102
RTVSPropertyOp22
 70
     1
102
RTVSPropertyOp23
 70
     1
102
RTVSPropertyOp24
 70
     1
102
RTVSPropertyOp25
 70
     1
102
RTVSPropertyOp26
 70
     1
102
RTVSPropertyOp27
 70
     1
102
RTVSPropertyOp28
 70
     1
102
RTVSPropertyOp29
 70
     1
102
RTVSPropertyOp30
 70
     1
102
RTVSPropertyOp31
 70
     1
102
RTVSPropertyOp32
 70
     1
  0
XRECORD
  5
9A
102
{ACAD_REACTORS
330
99
102
}
330
99
100
AcDbXrecord
280
     1
102
RTVSPropertyOp0
 70
     1
102
RTVSPropertyOp1
 70
     1
102
RTVSPropertyOp2
 70
     1
102
RTVSPropertyOp3
 70
     1
102
RTVSPropertyOp4
 70
     1
102
RTVSPropertyOp5
 70
     1
102
RTVSPropertyOp6
 70
     1
102
RTVSPropertyOp7
 70
     1
102
RTVSPropertyOp8
 70
     1
102
RTVSPropertyOp9
 70
     1
102
RTVSPropertyOp10
 70
     1
102
RTVSPropertyOp11
 70
     1
102
RTVSPropertyOp12
 70
     1
102
RTVSPropertyOp13
 70
     1
102
RTVSPropertyOp14
 70
     1
102
RTVSPropertyOp15
 70
     1
102
RTVSPropertyOp16
 70
     1
102
RTVSPropertyOp17
 70
     1
102
RTVSPropertyOp18
 70
     1
102
RTVSPropertyOp19
 70
     1
102
RTVSPropertyOp20
 70
     1
102
RTVSPropertyOp21
 70
     1
102
RTVSPropertyOp22
 70
     1
102
RTVSPropertyOp23
 70
     1
102
RTVSPropertyOp24
 70
     1
102
RTVSPropertyOp25
 70
     1
102
RTVSPropertyOp26
 70
     1
102
RTVSPropertyOp27
 70
     1
102
RTVSPropertyOp28
 70
     1
102
RTVSPropertyOp29
 70
     1
102
RTVSPropertyOp30
 70
     1
102
RTVSPropertyOp31
 70
     1
102
RTVSPropertyOp32
 70
     1
  0
XRECORD
  5
9C
102
{ACAD_REACTORS
330
9B
102
}
330
9B
100
AcDbXrecord
280
     1
102
RTVSPropertyOp0
 70
     1
102
RTVSPropertyOp1
 70
     1
102
RTVSPropertyOp2
 70
     1
102
RTVSPropertyOp3
 70
     1
102
RTVSPropertyOp4
 70
     1
102
RTVSPropertyOp5
 70
     1
102
RTVSPropertyOp6
 70
     1
102
RTVSPropertyOp7
 70
     1
102
RTVSPropertyOp8
 70
     1
102
RTVSPropertyOp9
 70
     1
102
RTVSPropertyOp10
 70
     1
102
RTVSPropertyOp11
 70
     1
102
RTVSPropertyOp12
 70
     1
102
RTVSPropertyOp13
 70
     1
102
RTVSPropertyOp14
 70
     1
102
RTVSPropertyOp15
 70
     1
102
RTVSPropertyOp16
 70
     1
102
RTVSPropertyOp17
 70
     1
102
RTVSPropertyOp18
 70
     1
102
RTVSPropertyOp19
 70
     1
102
RTVSPropertyOp20
 70
     1
102
RTVSPropertyOp21
 70
     1
102
RTVSPropertyOp22
 70
     1
102
RTVSPropertyOp23
 70
     1
102
RTVSPropertyOp24
 70
     1
102
RTVSPropertyOp25
 70
     1
102
RTVSPropertyOp26
 70
     1
102
RTVSPropertyOp27
 70
     1
102
RTVSPropertyOp28
 70
     1
102
RTVSPropertyOp29
 70
     1
102
RTVSPropertyOp30
 70
     1
102
RTVSPropertyOp31
 70
     1
102
RTVSPropertyOp32
 70
     1
  0
XRECORD
  5
A4
102
{ACAD_REACTORS
330
A3
102
}
330
A3
100
AcDbXrecord
280
     1
102
RTVSPropertyOp0
 70
     1
102
RTVSPropertyOp1
 70
     1
102
RTVSPropertyOp2
 70
     1
102
RTVSPropertyOp3
 70
     1
102
RTVSPropertyOp4
 70
     1
102
RTVSPropertyOp5
 70
     1
102
RTVSPropertyOp6
 70
     1
102
RTVSPropertyOp7
 70
     1
102
RTVSPropertyOp8
 70
     1
102
RTVSPropertyOp9
 70
     1
102
RTVSPropertyOp10
 70
     1
102
RTVSPropertyOp11
 70
     1
102
RTVSPropertyOp12
 70
     1
102
RTVSPropertyOp13
 70
     1
102
RTVSPropertyOp14
 70
     1
102
RTVSPropertyOp15
 70
     1
102
RTVSPropertyOp16
 70
     1
102
RTVSPropertyOp17
 70
     1
102
RTVSPropertyOp18
 70
     1
102
RTVSPropertyOp19
 70
     1
102
RTVSPropertyOp20
 70
     1
102
RTVSPropertyOp21
 70
     1
102
RTVSPropertyOp22
 70
     1
102
RTVSPropertyOp23
 70
     1
102
RTVSPropertyOp24
 70
     1
102
RTVSPropertyOp25
 70
     1
102
RTVSPropertyOp26
 70
     1
102
RTVSPropertyOp27
 70
     1
102
RTVSPropertyOp28
 70
     1
102
RTVSPropertyOp29
 70
     1
102
RTVSPropertyOp30
 70
     1
102
RTVSPropertyOp31
 70
     1
102
RTVSPropertyOp32
 70
     1
  0
XRECORD
  5
88
102
{ACAD_REACTORS
330
87
102
}
330
87
100
AcDbXrecord
280
     1
102
RTVSPropertyOp0
 70
     1
102
RTVSPropertyOp1
 70
     1
102
RTVSPropertyOp2
 70
     1
102
RTVSPropertyOp3
 70
     1
102
RTVSPropertyOp4
 70
     1
102
RTVSPropertyOp5
 70
     1
102
RTVSPropertyOp6
 70
     1
102
RTVSPropertyOp7
 70
     1
102
RTVSPropertyOp8
 70
     1
102
RTVSPropertyOp9
 70
     1
102
RTVSPropertyOp10
 70
     1
102
RTVSPropertyOp11
 70
     1
102
RTVSPropertyOp12
 70
     1
102
RTVSPropertyOp13
 70
     1
102
RTVSPropertyOp14
 70
     1
102
RTVSPropertyOp15
 70
     1
102
RTVSPropertyOp16
 70
     1
102
RTVSPropertyOp17
 70
     1
102
RTVSPropertyOp18
 70
     1
102
RTVSPropertyOp19
 70
     1
102
RTVSPropertyOp20
 70
     1
102
RTVSPropertyOp21
 70
     1
102
RTVSPropertyOp22
 70
     1
102
RTVSPropertyOp23
 70
     1
102
RTVSPropertyOp24
 70
     1
102
RTVSPropertyOp25
 70
     1
102
RTVSPropertyOp26
 70
     1
102
RTVSPropertyOp27
 70
     1
102
RTVSPropertyOp28
 70
     1
102
RTVSPropertyOp29
 70
     1
102
RTVSPropertyOp30
 70
     1
102
RTVSPropertyOp31
 70
     1
102
RTVSPropertyOp32
 70
     1
  0
XRECORD
  5
8A
102
{ACAD_REACTORS
330
89
102
}
330
89
100
AcDbXrecord
280
     1
102
RTVSPropertyOp0
 70
     1
102
RTVSPropertyOp1
 70
     1
102
RTVSPropertyOp2
 70
     1
102
RTVSPropertyOp3
 70
     1
102
RTVSPropertyOp4
 70
     1
102
RTVSPropertyOp5
 70
     1
102
RTVSPropertyOp6
 70
     1
102
RTVSPropertyOp7
 70
     1
102
RTVSPropertyOp8
 70
     1
102
RTVSPropertyOp9
 70
     1
102
RTVSPropertyOp10
 70
     1
102
RTVSPropertyOp11
 70
     1
102
RTVSPropertyOp12
 70
     1
102
RTVSPropertyOp13
 70
     1
102
RTVSPropertyOp14
 70
     1
102
RTVSPropertyOp15
 70
     1
102
RTVSPropertyOp16
 70
     1
102
RTVSPropertyOp17
 70
     1
102
RTVSPropertyOp18
 70
     1
102
RTVSPropertyOp19
 70
     1
102
RTVSPropertyOp20
 70
     1
102
RTVSPropertyOp21
 70
     1
102
RTVSPropertyOp22
 70
     1
102
RTVSPropertyOp23
 70
     1
102
RTVSPropertyOp24
 70
     1
102
RTVSPropertyOp25
 70
     1
102
RTVSPropertyOp26
 70
     1
102
RTVSPropertyOp27
 70
     1
102
RTVSPropertyOp28
 70
     1
102
RTVSPropertyOp29
 70
     1
102
RTVSPropertyOp30
 70
     1
102
RTVSPropertyOp31
 70
     1
102
RTVSPropertyOp32
 70
     1
  0
XRECORD
  5
8C
102
{ACAD_REACTORS
330
8B
102
}
330
8B
100
AcDbXrecord
280
     1
102
RTVSPropertyOp0
 70
     1
102
RTVSPropertyOp1
 70
     1
102
RTVSPropertyOp2
 70
     1
102
RTVSPropertyOp3
 70
     1
102
RTVSPropertyOp4
 70
     1
102
RTVSPropertyOp5
 70
     1
102
RTVSPropertyOp6
 70
     1
102
RTVSPropertyOp7
 70
     1
102
RTVSPropertyOp8
 70
     1
102
RTVSPropertyOp9
 70
     1
102
RTVSPropertyOp10
 70
     1
102
RTVSPropertyOp11
 70
     1
102
RTVSPropertyOp12
 70
     1
102
RTVSPropertyOp13
 70
     1
102
RTVSPropertyOp14
 70
     1
102
RTVSPropertyOp15
 70
     1
102
RTVSPropertyOp16
 70
     1
102
RTVSPropertyOp17
 70
     1
102
RTVSPropertyOp18
 70
     1
102
RTVSPropertyOp19
 70
     1
102
RTVSPropertyOp20
 70
     1
102
RTVSPropertyOp21
 70
     1
102
RTVSPropertyOp22
 70
     1
102
RTVSPropertyOp23
 70
     1
102
RTVSPropertyOp24
 70
     1
102
RTVSPropertyOp25
 70
     1
102
RTVSPropertyOp26
 70
     1
102
RTVSPropertyOp27
 70
     1
102
RTVSPropertyOp28
 70
     1
102
RTVSPropertyOp29
 70
     1
102
RTVSPropertyOp30
 70
     1
102
RTVSPropertyOp31
 70
     1
102
RTVSPropertyOp32
 70
     1
  0
XRECORD
  5
8E
102
{ACAD_REACTORS
330
8D
102
}
330
8D
100
AcDbXrecord
280
     1
102
RTVSPropertyOp0
 70
     1
102
RTVSPropertyOp1
 70
     1
102
RTVSPropertyOp2
 70
     1
102
RTVSPropertyOp3
 70
     1
102
RTVSPropertyOp4
 70
     1
102
RTVSPropertyOp5
 70
     1
102
RTVSPropertyOp6
 70
     1
102
RTVSPropertyOp7
 70
     1
102
RTVSPropertyOp8
 70
     1
102
RTVSPropertyOp9
 70
     1
102
RTVSPropertyOp10
 70
     1
102
RTVSPropertyOp11
 70
     1
102
RTVSPropertyOp12
 70
     1
102
RTVSPropertyOp13
 70
     1
102
RTVSPropertyOp14
 70
     1
102
RTVSPropertyOp15
 70
     1
102
RTVSPropertyOp16
 70
     1
102
RTVSPropertyOp17
 70
     1
102
RTVSPropertyOp18
 70
     1
102
RTVSPropertyOp19
 70
     1
102
RTVSPropertyOp20
 70
     1
102
RTVSPropertyOp21
 70
     1
102
RTVSPropertyOp22
 70
     1
102
RTVSPropertyOp23
 70
     1
102
RTVSPropertyOp24
 70
     1
102
RTVSPropertyOp25
 70
     1
102
RTVSPropertyOp26
 70
     1
102
RTVSPropertyOp27
 70
     1
102
RTVSPropertyOp28
 70
     1
102
RTVSPropertyOp29
 70
     1
102
RTVSPropertyOp30
 70
     1
102
RTVSPropertyOp31
 70
     1
102
RTVSPropertyOp32
 70
     1
  0
XRECORD
  5
A2
102
{ACAD_REACTORS
330
A1
102
}
330
A1
100
AcDbXrecord
280
     1
102
RTVSPropertyOp0
 70
     1
102
RTVSPropertyOp1
 70
     1
102
RTVSPropertyOp2
 70
     1
102
RTVSPropertyOp3
 70
     1
102
RTVSPropertyOp4
 70
     1
102
RTVSPropertyOp5
 70
     1
102
RTVSPropertyOp6
 70
     1
102
RTVSPropertyOp7
 70
     1
102
RTVSPropertyOp8
 70
     1
102
RTVSPropertyOp9
 70
     1
102
RTVSPropertyOp10
 70
     1
102
RTVSPropertyOp11
 70
     1
102
RTVSPropertyOp12
 70
     1
102
RTVSPropertyOp13
 70
     1
102
RTVSPropertyOp14
 70
     1
102
RTVSPropertyOp15
 70
     1
102
RTVSPropertyOp16
 70
     1
102
RTVSPropertyOp17
 70
     1
102
RTVSPropertyOp18
 70
     1
102
RTVSPropertyOp19
 70
     1
102
RTVSPropertyOp20
 70
     1
102
RTVSPropertyOp21
 70
     1
102
RTVSPropertyOp22
 70
     1
102
RTVSPropertyOp23
 70
     1
102
RTVSPropertyOp24
 70
     1
102
RTVSPropertyOp25
 70
     1
102
RTVSPropertyOp26
 70
     1
102
RTVSPropertyOp27
 70
     1
102
RTVSPropertyOp28
 70
     1
102
RTVSPropertyOp29
 70
     1
102
RTVSPropertyOp30
 70
     1
102
RTVSPropertyOp31
 70
     1
102
RTVSPropertyOp32
 70
     1
  0
XRECORD
  5
98
102
{ACAD_REACTORS
330
97
102
}
330
97
100
AcDbXrecord
280
     1
102
RTVSPropertyOp0
 70
     1
102
RTVSPropertyOp1
 70
     1
102
RTVSPropertyOp2
 70
     1
102
RTVSPropertyOp3
 70
     1
102
RTVSPropertyOp4
 70
     1
102
RTVSPropertyOp5
 70
     1
102
RTVSPropertyOp6
 70
     1
102
RTVSPropertyOp7
 70
     1
102
RTVSPropertyOp8
 70
     1
102
RTVSPropertyOp9
 70
     1
102
RTVSPropertyOp10
 70
     1
102
RTVSPropertyOp11
 70
     1
102
RTVSPropertyOp12
 70
     1
102
RTVSPropertyOp13
 70
     1
102
RTVSPropertyOp14
 70
     1
102
RTVSPropertyOp15
 70
     1
102
RTVSPropertyOp16
 70
     1
102
RTVSPropertyOp17
 70
     1
102
RTVSPropertyOp18
 70
     1
102
RTVSPropertyOp19
 70
     1
102
RTVSPropertyOp20
 70
     1
102
RTVSPropertyOp21
 70
     1
102
RTVSPropertyOp22
 70
     1
102
RTVSPropertyOp23
 70
     1
102
RTVSPropertyOp24
 70
     1
102
RTVSPropertyOp25
 70
     1
102
RTVSPropertyOp26
 70
     1
102
RTVSPropertyOp27
 70
     1
102
RTVSPropertyOp28
 70
     1
102
RTVSPropertyOp29
 70
     1
102
RTVSPropertyOp30
 70
     1
102
RTVSPropertyOp31
 70
     1
102
RTVSPropertyOp32
 70
     1
  0
XRECORD
  5
A0
102
{ACAD_REACTORS
330
9F
102
}
330
9F
100
AcDbXrecord
280
     1
102
RTVSPropertyOp0
 70
     1
102
RTVSPropertyOp1
 70
     1
102
RTVSPropertyOp2
 70
     1
102
RTVSPropertyOp3
 70
     1
102
RTVSPropertyOp4
 70
     1
102
RTVSPropertyOp5
 70
     1
102
RTVSPropertyOp6
 70
     1
102
RTVSPropertyOp7
 70
     1
102
RTVSPropertyOp8
 70
     1
102
RTVSPropertyOp9
 70
     1
102
RTVSPropertyOp10
 70
     1
102
RTVSPropertyOp11
 70
     1
102
RTVSPropertyOp12
 70
     1
102
RTVSPropertyOp13
 70
     1
102
RTVSPropertyOp14
 70
     1
102
RTVSPropertyOp15
 70
     1
102
RTVSPropertyOp16
 70
     1
102
RTVSPropertyOp17
 70
     1
102
RTVSPropertyOp18
 70
     1
102
RTVSPropertyOp19
 70
     1
102
RTVSPropertyOp20
 70
     1
102
RTVSPropertyOp21
 70
     1
102
RTVSPropertyOp22
 70
     1
102
RTVSPropertyOp23
 70
     1
102
RTVSPropertyOp24
 70
     1
102
RTVSPropertyOp25
 70
     1
102
RTVSPropertyOp26
 70
     1
102
RTVSPropertyOp27
 70
     1
102
RTVSPropertyOp28
 70
     1
102
RTVSPropertyOp29
 70
     1
102
RTVSPropertyOp30
 70
     1
102
RTVSPropertyOp31
 70
     1
102
RTVSPropertyOp32
 70
     1
  0
ENDSEC
  0
EOF
